  0
SECTION
  2
HEADER
  9
$ACADVER
  1
AC1014
  9
$HANDSEED
  5
FFFF
  9
$MEASUREMENT
 70
     1
  0
ENDSEC
  0
SECTION
  2
TABLES
  0
TABLE
  2
VPORT
  5
8
330
0
100
AcDbSymbolTable
 70
     4
  0
VPORT
  5
2E
330
8
100
AcDbSymbolTableRecord
100
AcDbViewportTableRecord
  2
*ACTIVE
 70
     0
 10
0.0
 20
0.0
 11
1.0
 21
1.0
 12
210.0
 22
148.5
 13
0.0
 23
0.0
 14
10.0
 24
10.0
 15
10.0
 25
10.0
 16
0.0
 26
0.0
 36
1.0
 17
0.0
 27
0.0
 37
0.0
 40
341.0
 41
1.24
 42
50.0
 43
0.0
 44
0.0
 50
0.0
 51
0.0
 71
     0
 72
   100
 73
     1
 74
     3
 75
     0
 76
     0
 77
     0
 78
     0
  0
ENDTAB
  0
TABLE
  2
LTYPE
  5
5
330
0
100
AcDbSymbolTable
 70
     1
  0
LTYPE
  5
14
330
5
100
AcDbSymbolTableRecord
100
AcDbLinetypeTableRecord
  2
BYBLOCK
 70
     0
  3

 72
    65
 73
     0
 40
0.0
  0
LTYPE
  5
15
330
5
100
AcDbSymbolTableRecord
100
AcDbLinetypeTableRecord
  2
BYLAYER
 70
     0
  3

 72
    65
 73
     0
 40
0.0
  0
LTYPE
  5
16
330
5
100
AcDbSymbolTableRecord
100
AcDbLinetypeTableRecord
  2
CONTINUOUS
 70
     0
  3
Solid line
 72
    65
 73
     0
 40
0.0
  0
ENDTAB
  0
TABLE
  2
LAYER
  5
2
100
AcDbSymbolTable
 70
2
  0
LAYER
  5
50
100
AcDbSymbolTableRecord
100
AcDbLayerTableRecord
  2
0
 70
0
  6
CONTINUOUS
  0
LAYER
  5
51
100
AcDbSymbolTableRecord
100
AcDbLayerTableRecord
  2
Layer_1
 70
0
  6
CONTINUOUS
  0
ENDTAB
  0
TABLE
  2
STYLE
  5
3
330
0
100
AcDbSymbolTable
 70
     1
  0
STYLE
  5
11
330
3
100
AcDbSymbolTableRecord
100
AcDbTextStyleTableRecord
  2
STANDARD
 70
     0
 40
0.0
 41
1.0
 50
0.0
 71
     0
 42
2.5
  3
txt
  4

  0
ENDTAB
  0
TABLE
  2
VIEW
  5
6
330
0
100
AcDbSymbolTable
 70
     0
  0
ENDTAB
  0
TABLE
  2
UCS
  5
7
330
0
100
AcDbSymbolTable
 70
     0
  0
ENDTAB
  0
TABLE
  2
APPID
  5
9
330
0
100
AcDbSymbolTable
 70
     2
  0
APPID
  5
12
330
9
100
AcDbSymbolTableRecord
100
AcDbRegAppTableRecord
  2
ACAD
 70
     0
  0
ENDTAB
  0
TABLE
  2
DIMSTYLE
  5
A
330
0
100
AcDbSymbolTable
 70
     1
  0
DIMSTYLE
105
27
330
A
100
AcDbSymbolTableRecord
100
AcDbDimStyleTableRecord
  2
ISO-25
 70
     0
  3

  4

  5

  6

  7

 40
1.0
 41
2.5
 42
0.625
 43
3.75
 44
1.25
 45
0.0
 46
0.0
 47
0.0
 48
0.0
140
2.5
141
2.5
142
0.0
143
0.03937007874016
144
1.0
145
0.0
146
1.0
147
0.625
 71
     0
 72
     0
 73
     0
 74
     0
 75
     0
 76
     0
 77
     1
 78
     8
170
     0
171
     3
172
     1
173
     0
174
     0
175
     0
176
     0
177
     0
178
     0
270
     2
271
     2
272
     2
273
     2
274
     3
340
11
275
     0
280
     0
281
     0
282
     0
283
     0
284
     8
285
     0
286
     0
287
     3
288
     0
  0
ENDTAB
  0
TABLE
  2
BLOCK_RECORD
  5
1
330
0
100
AcDbSymbolTable
 70
     1
  0
BLOCK_RECORD
  5
1F
330
1
100
AcDbSymbolTableRecord
100
AcDbBlockTableRecord
  2
*MODEL_SPACE
  0
BLOCK_RECORD
  5
1B
330
1
100
AcDbSymbolTableRecord
100
AcDbBlockTableRecord
  2
*PAPER_SPACE
  0
ENDTAB
  0
ENDSEC
  0
SECTION
  2
BLOCKS
  0
BLOCK
  5
20
330
1F
100
AcDbEntity
  8
0
100
AcDbBlockBegin
  2
*MODEL_SPACE
 70
     0
 10
0.0
 20
0.0
 30
0.0
  3
*MODEL_SPACE
  1

  0
ENDBLK
  5
21
330
1F
100
AcDbEntity
  8
0
100
AcDbBlockEnd
  0
BLOCK
  5
1C
330
1B
100
AcDbEntity
 67
     1
  8
0
100
AcDbBlockBegin
  2
*PAPER_SPACE
  1

  0
ENDBLK
  5
1D
330
1B
100
AcDbEntity
 67
     1
  8
0
100
AcDbBlockEnd
  0
ENDSEC
  0
SECTION
  2
ENTITIES
  0
SPLINE
  5
100
100
AcDbEntity
  8
Layer_1
 62
1
100
AcDbSpline
 70
8
 71
3
 72
8
 73
4
 74
0
 40
0
 40
0
 40
0
 40
0
 40
1
 40
1
 40
1
 40
1
 10
8.809563
 20
14.204804
 30
0.0
 10
5.169403
 20
14.204804
 30
0.0
 10
1.887676
 20
12.012024
 30
0.0
 10
0.494647
 20
8.648954
 30
0.0
  0
SPLINE
  5
101
100
AcDbEntity
  8
Layer_1
 62
1
100
AcDbSpline
 70
8
 71
3
 72
8
 73
4
 74
0
 40
0
 40
0
 40
0
 40
0
 40
1
 40
1
 40
1
 40
1
 10
0.494647
 20
8.648954
 30
0.0
 10
-0.898382
 20
5.285885
 30
0.0
 10
-0.128380
 20
1.414824
 30
0.0
 10
2.445602
 20
-1.159158
 30
0.0
  0
SPLINE
  5
102
100
AcDbEntity
  8
Layer_1
 62
1
100
AcDbSpline
 70
8
 71
3
 72
8
 73
4
 74
0
 40
0
 40
0
 40
0
 40
0
 40
1
 40
1
 40
1
 40
1
 10
2.445602
 20
-1.159158
 30
0.0
 10
5.019584
 20
-3.733140
 30
0.0
 10
8.890644
 20
-4.503142
 30
0.0
 10
12.253714
 20
-3.110113
 30
0.0
  0
SPLINE
  5
103
100
AcDbEntity
  8
Layer_1
 62
1
100
AcDbSpline
 70
8
 71
3
 72
8
 73
4
 74
0
 40
0
 40
0
 40
0
 40
0
 40
1
 40
1
 40
1
 40
1
 10
12.253714
 20
-3.110113
 30
0.0
 10
15.616784
 20
-1.717084
 30
0.0
 10
17.809563
 20
1.564643
 30
0.0
 10
17.809563
 20
5.204803
 30
0.0
  0
SPLINE
  5
104
100
AcDbEntity
  8
Layer_1
 62
1
100
AcDbSpline
 70
8
 71
3
 72
8
 73
4
 74
0
 40
0
 40
0
 40
0
 40
0
 40
1
 40
1
 40
1
 40
1
 10
17.809563
 20
5.204803
 30
0.0
 10
17.809563
 20
7.591752
 30
0.0
 10
16.861352
 20
9.880937
 30
0.0
 10
15.173524
 20
11.568764
 30
0.0
  0
SPLINE
  5
105
100
AcDbEntity
  8
Layer_1
 62
1
100
AcDbSpline
 70
8
 71
3
 72
8
 73
4
 74
0
 40
0
 40
0
 40
0
 40
0
 40
1
 40
1
 40
1
 40
1
 10
15.173524
 20
11.568764
 30
0.0
 10
13.485697
 20
13.256592
 30
0.0
 10
11.196512
 20
14.204804
 30
0.0
 10
8.809563
 20
14.204804
 30
0.0
  0
LWPOLYLINE
  5
106
100
AcDbEntity
  8
Layer_1
 62
1
100
AcDbPolyline
 90
1
 70
1
 10
8.809563
 20
14.204804
 30
0.0
  0
SPLINE
  5
107
100
AcDbEntity
  8
Layer_1
 62
1
100
AcDbSpline
 70
8
 71
3
 72
8
 73
4
 74
0
 40
0
 40
0
 40
0
 40
0
 40
1
 40
1
 40
1
 40
1
 10
8.832786
 20
13.986582
 30
0.0
 10
8.732620
 20
13.986478
 30
0.0
 10
8.632645
 20
13.984538
 30
0.0
 10
8.532860
 20
13.981049
 30
0.0
  0
LWPOLYLINE
  5
108
100
AcDbEntity
  8
Layer_1
 62
1
100
AcDbPolyline
 90
1
 70
1
 10
8.832786
 20
13.986582
 30
0.0
  0
SPLINE
  5
109
100
AcDbEntity
  8
Layer_1
 62
1
100
AcDbSpline
 70
8
 71
3
 72
8
 73
4
 74
0
 40
0
 40
0
 40
0
 40
0
 40
1
 40
1
 40
1
 40
1
 10
8.630841
 20
12.983795
 30
0.0
 10
8.720966
 20
12.986210
 30
0.0
 10
8.810999
 20
12.986941
 30
0.0
 10
8.900922
 20
12.986216
 30
0.0
  0
LWPOLYLINE
  5
10a
100
AcDbEntity
  8
Layer_1
 62
1
100
AcDbPolyline
 90
2
 70
0
 10
8.532860
 20
13.981049
 30
0.0
 10
8.630841
 20
12.983795
 30
0.0
  0
SPLINE
  5
10b
100
AcDbEntity
  8
Layer_1
 62
1
100
AcDbSpline
 70
8
 71
3
 72
8
 73
4
 74
0
 40
0
 40
0
 40
0
 40
0
 40
1
 40
1
 40
1
 40
1
 10
8.954430
 20
13.985749
 30
0.0
 10
8.913887
 20
13.986290
 30
0.0
 10
8.873337
 20
13.986624
 30
0.0
 10
8.832766
 20
13.986603
 30
0.0
  0
LWPOLYLINE
  5
10c
100
AcDbEntity
  8
Layer_1
 62
1
100
AcDbPolyline
 90
2
 70
0
 10
8.900922
 20
12.986216
 30
0.0
 10
8.954430
 20
13.985749
 30
0.0
  0
SPLINE
  5
10d
100
AcDbEntity
  8
Layer_1
 62
1
100
AcDbSpline
 70
8
 71
3
 72
8
 73
4
 74
0
 40
0
 40
0
 40
0
 40
0
 40
1
 40
1
 40
1
 40
1
 10
8.204307
 20
13.963164
 30
0.0
 10
8.056615
 20
13.952419
 30
0.0
 10
7.909506
 20
13.937824
 30
0.0
 10
7.763063
 20
13.919668
 30
0.0
  0
LWPOLYLINE
  5
10e
100
AcDbEntity
  8
Layer_1
 62
1
100
AcDbPolyline
 90
1
 70
1
 10
8.832766
 20
13.986603
 30
0.0
  0
LWPOLYLINE
  5
10f
100
AcDbEntity
  8
Layer_1
 62
1
100
AcDbPolyline
 90
3
 70
0
 10
7.763063
 20
13.919668
 30
0.0
 10
8.032411
 20
13.448720
 30
0.0
 10
8.204307
 20
13.963164
 30
0.0
  0
SPLINE
  5
110
100
AcDbEntity
  8
Layer_1
 62
1
100
AcDbSpline
 70
8
 71
3
 72
8
 73
4
 74
0
 40
0
 40
0
 40
0
 40
0
 40
1
 40
1
 40
1
 40
1
 10
9.659873
 20
12.942636
 30
0.0
 10
9.974858
 20
12.909065
 30
0.0
 10
10.286952
 20
12.856246
 30
0.0
 10
10.594443
 20
12.784719
 30
0.0
  0
LWPOLYLINE
  5
111
100
AcDbEntity
  8
Layer_1
 62
1
100
AcDbPolyline
 90
10
 70
0
 10
9.713401
 20
13.942474
 30
0.0
 10
9.704633
 20
13.778697
 30
0.0
 10
9.214947
 20
13.804921
 30
0.0
 10
9.205242
 20
13.623830
 30
0.0
 10
9.659690
 20
13.599497
 30
0.0
 10
9.648846
 20
13.396596
 30
0.0
 10
9.194379
 20
13.420908
 30
0.0
 10
9.180503
 20
13.161631
 30
0.0
 10
9.670188
 20
13.135406
 30
0.0
 10
9.659873
 20
12.942636
 30
0.0
  0
SPLINE
  5
112
100
AcDbEntity
  8
Layer_1
 62
1
100
AcDbSpline
 70
8
 71
3
 72
8
 73
4
 74
0
 40
0
 40
0
 40
0
 40
0
 40
1
 40
1
 40
1
 40
1
 10
10.516074
 20
13.823944
 30
0.0
 10
10.250587
 20
13.875801
 30
0.0
 10
9.982751
 20
13.915408
 30
0.0
 10
9.713401
 20
13.942474
 30
0.0
  0
LWPOLYLINE
  5
113
100
AcDbEntity
  8
Layer_1
 62
1
100
AcDbPolyline
 90
4
 70
0
 10
10.594443
 20
12.784719
 30
0.0
 10
10.795615
 20
13.589304
 30
0.0
 10
10.477317
 20
13.668894
 30
0.0
 10
10.516074
 20
13.823944
 30
0.0
  0
SPLINE
  5
114
100
AcDbEntity
  8
Layer_1
 62
1
100
AcDbSpline
 70
8
 71
3
 72
8
 73
4
 74
0
 40
0
 40
0
 40
0
 40
0
 40
1
 40
1
 40
1
 40
1
 10
7.436972
 20
13.873138
 30
0.0
 10
7.223420
 20
13.838454
 30
0.0
 10
7.011563
 20
13.795975
 30
0.0
 10
6.801820
 20
13.745757
 30
0.0
  0
SPLINE
  5
115
100
AcDbEntity
  8
Layer_1
 62
1
100
AcDbSpline
 70
8
 71
3
 72
8
 73
4
 74
0
 40
0
 40
0
 40
0
 40
0
 40
1
 40
1
 40
1
 40
1
 10
6.801820
 20
13.745757
 30
0.0
 10
6.854087
 20
13.735791
 30
0.0
 10
6.903144
 20
13.717472
 30
0.0
 10
6.948915
 20
13.690623
 30
0.0
  0
SPLINE
  5
116
100
AcDbEntity
  8
Layer_1
 62
1
100
AcDbSpline
 70
8
 71
3
 72
8
 73
4
 74
0
 40
0
 40
0
 40
0
 40
0
 40
1
 40
1
 40
1
 40
1
 10
6.948915
 20
13.690623
 30
0.0
 10
7.067571
 20
13.621399
 30
0.0
 10
7.148963
 20
13.505290
 30
0.0
 10
7.193117
 20
13.342295
 30
0.0
  0
SPLINE
  5
117
100
AcDbEntity
  8
Layer_1
 62
1
100
AcDbSpline
 70
8
 71
3
 72
8
 73
4
 74
0
 40
0
 40
0
 40
0
 40
0
 40
1
 40
1
 40
1
 40
1
 10
7.193117
 20
13.342295
 30
0.0
 10
7.236903
 20
13.180660
 30
0.0
 10
7.225405
 20
13.039615
 30
0.0
 10
7.158612
 20
12.919179
 30
0.0
  0
SPLINE
  5
118
100
AcDbEntity
  8
Layer_1
 62
1
100
AcDbSpline
 70
8
 71
3
 72
8
 73
4
 74
0
 40
0
 40
0
 40
0
 40
0
 40
1
 40
1
 40
1
 40
1
 10
7.158612
 20
12.919179
 30
0.0
 10
7.127436
 20
12.863279
 30
0.0
 10
7.085640
 20
12.815723
 30
0.0
 10
7.033510
 20
12.776255
 30
0.0
  0
SPLINE
  5
119
100
AcDbEntity
  8
Layer_1
 62
1
100
AcDbSpline
 70
8
 71
3
 72
8
 73
4
 74
0
 40
0
 40
0
 40
0
 40
0
 40
1
 40
1
 40
1
 40
1
 10
7.033510
 20
12.776255
 30
0.0
 10
7.198985
 20
12.815200
 30
0.0
 10
7.366194
 20
12.848754
 30
0.0
 10
7.534873
 20
12.877024
 30
0.0
  0
LWPOLYLINE
  5
11a
100
AcDbEntity
  8
Layer_1
 62
1
100
AcDbPolyline
 90
1
 70
1
 10
9.713401
 20
13.942474
 30
0.0
  0
LWPOLYLINE
  5
11b
100
AcDbEntity
  8
Layer_1
 62
1
100
AcDbPolyline
 90
2
 70
0
 10
7.534873
 20
12.877024
 30
0.0
 10
7.436972
 20
13.873138
 30
0.0
  0
SPLINE
  5
11c
100
AcDbEntity
  8
Layer_1
 62
1
100
AcDbSpline
 70
8
 71
3
 72
8
 73
4
 74
0
 40
0
 40
0
 40
0
 40
0
 40
1
 40
1
 40
1
 40
1
 10
7.787783
 20
12.915232
 30
0.0
 10
7.954113
 20
12.937622
 30
0.0
 10
8.121763
 20
12.954922
 30
0.0
 10
8.290570
 20
12.966888
 30
0.0
  0
SPLINE
  5
11d
100
AcDbEntity
  8
Layer_1
 62
1
100
AcDbSpline
 70
8
 71
3
 72
8
 73
4
 74
0
 40
0
 40
0
 40
0
 40
0
 40
1
 40
1
 40
1
 40
1
 10
8.290570
 20
12.966888
 30
0.0
 10
8.314215
 20
12.968564
 30
0.0
 10
8.337853
 20
12.970069
 30
0.0
 10
8.361492
 20
12.971527
 30
0.0
  0
LWPOLYLINE
  5
11e
100
AcDbEntity
  8
Layer_1
 62
1
100
AcDbPolyline
 90
5
 70
0
 10
8.294293
 20
13.655243
 30
0.0
 10
8.145123
 20
13.181874
 30
0.0
 10
7.959047
 20
13.163584
 30
0.0
 10
7.720604
 20
13.598866
 30
0.0
 10
7.787783
 20
12.915232
 30
0.0
  0
SPLINE
  5
11f
100
AcDbEntity
  8
Layer_1
 62
1
100
AcDbSpline
 70
8
 71
3
 72
8
 73
4
 74
0
 40
0
 40
0
 40
0
 40
0
 40
1
 40
1
 40
1
 40
1
 10
6.279644
 20
13.603546
 30
0.0
 10
6.082929
 20
13.543371
 30
0.0
 10
5.888433
 20
13.476383
 30
0.0
 10
5.696576
 20
13.402557
 30
0.0
  0
SPLINE
  5
120
100
AcDbEntity
  8
Layer_1
 62
1
100
AcDbSpline
 70
8
 71
3
 72
8
 73
4
 74
0
 40
0
 40
0
 40
0
 40
0
 40
1
 40
1
 40
1
 40
1
 10
5.696576
 20
13.402557
 30
0.0
 10
5.720553
 20
13.402786
 30
0.0
 10
5.742427
 20
13.402551
 30
0.0
 10
5.761293
 20
13.401786
 30
0.0
  0
LWPOLYLINE
  5
121
100
AcDbEntity
  8
Layer_1
 62
1
100
AcDbPolyline
 90
2
 70
0
 10
8.361492
 20
12.971527
 30
0.0
 10
8.294293
 20
13.655243
 30
0.0
  0
SPLINE
  5
122
100
AcDbEntity
  8
Layer_1
 62
1
100
AcDbSpline
 70
8
 71
3
 72
8
 73
4
 74
0
 40
0
 40
0
 40
0
 40
0
 40
1
 40
1
 40
1
 40
1
 10
5.834596
 20
13.155875
 30
0.0
 10
5.818011
 20
13.160961
 30
0.0
 10
5.797351
 20
13.166572
 30
0.0
 10
5.772605
 20
13.172721
 30
0.0
  0
SPLINE
  5
123
100
AcDbEntity
  8
Layer_1
 62
1
100
AcDbSpline
 70
8
 71
3
 72
8
 73
4
 74
0
 40
0
 40
0
 40
0
 40
0
 40
1
 40
1
 40
1
 40
1
 10
5.772605
 20
13.172721
 30
0.0
 10
5.748292
 20
13.179057
 30
0.0
 10
5.721480
 20
13.184065
 30
0.0
 10
5.692181
 20
13.187715
 30
0.0
  0
SPLINE
  5
124
100
AcDbEntity
  8
Layer_1
 62
1
100
AcDbSpline
 70
8
 71
3
 72
8
 73
4
 74
0
 40
0
 40
0
 40
0
 40
0
 40
1
 40
1
 40
1
 40
1
 10
5.692181
 20
13.187715
 30
0.0
 10
5.662448
 20
13.191178
 30
0.0
 10
5.631730
 20
13.191619
 30
0.0
 10
5.599997
 20
13.189078
 30
0.0
  0
SPLINE
  5
125
100
AcDbEntity
  8
Layer_1
 62
1
100
AcDbSpline
 70
8
 71
3
 72
8
 73
4
 74
0
 40
0
 40
0
 40
0
 40
0
 40
1
 40
1
 40
1
 40
1
 10
5.599997
 20
13.189078
 30
0.0
 10
5.568265
 20
13.186537
 30
0.0
 10
5.536646
 20
13.178426
 30
0.0
 10
5.505169
 20
13.164705
 30
0.0
  0
SPLINE
  5
126
100
AcDbEntity
  8
Layer_1
 62
1
100
AcDbSpline
 70
8
 71
3
 72
8
 73
4
 74
0
 40
0
 40
0
 40
0
 40
0
 40
1
 40
1
 40
1
 40
1
 10
5.505169
 20
13.164705
 30
0.0
 10
5.470240
 20
13.149482
 30
0.0
 10
5.439477
 20
13.129395
 30
0.0
 10
5.412884
 20
13.104463
 30
0.0
  0
SPLINE
  5
127
100
AcDbEntity
  8
Layer_1
 62
1
100
AcDbSpline
 70
8
 71
3
 72
8
 73
4
 74
0
 40
0
 40
0
 40
0
 40
0
 40
1
 40
1
 40
1
 40
1
 10
5.412884
 20
13.104463
 30
0.0
 10
5.386105
 20
13.079963
 30
0.0
 10
5.364891
 20
13.049170
 30
0.0
 10
5.349245
 20
13.012076
 30
0.0
  0
SPLINE
  5
128
100
AcDbEntity
  8
Layer_1
 62
1
100
AcDbSpline
 70
8
 71
3
 72
8
 73
4
 74
0
 40
0
 40
0
 40
0
 40
0
 40
1
 40
1
 40
1
 40
1
 10
5.349245
 20
13.012076
 30
0.0
 10
5.334516
 20
12.976408
 30
0.0
 10
5.328022
 20
12.934829
 30
0.0
 10
5.329734
 20
12.887340
 30
0.0
  0
SPLINE
  5
129
100
AcDbEntity
  8
Layer_1
 62
1
100
AcDbSpline
 70
8
 71
3
 72
8
 73
4
 74
0
 40
0
 40
0
 40
0
 40
0
 40
1
 40
1
 40
1
 40
1
 10
5.329734
 20
12.887340
 30
0.0
 10
5.331886
 20
12.840040
 30
0.0
 10
5.345535
 20
12.787489
 30
0.0
 10
5.370709
 20
12.729707
 30
0.0
  0
SPLINE
  5
12a
100
AcDbEntity
  8
Layer_1
 62
1
100
AcDbSpline
 70
8
 71
3
 72
8
 73
4
 74
0
 40
0
 40
0
 40
0
 40
0
 40
1
 40
1
 40
1
 40
1
 10
5.370709
 20
12.729707
 30
0.0
 10
5.397020
 20
12.669336
 30
0.0
 10
5.427434
 20
12.622551
 30
0.0
 10
5.461916
 20
12.589347
 30
0.0
  0
SPLINE
  5
12b
100
AcDbEntity
  8
Layer_1
 62
1
100
AcDbSpline
 70
8
 71
3
 72
8
 73
4
 74
0
 40
0
 40
0
 40
0
 40
0
 40
1
 40
1
 40
1
 40
1
 10
5.461916
 20
12.589347
 30
0.0
 10
5.496833
 20
12.556329
 30
0.0
 10
5.532300
 20
12.533831
 30
0.0
 10
5.568320
 20
12.521822
 30
0.0
  0
SPLINE
  5
12c
100
AcDbEntity
  8
Layer_1
 62
1
100
AcDbSpline
 70
8
 71
3
 72
8
 73
4
 74
0
 40
0
 40
0
 40
0
 40
0
 40
1
 40
1
 40
1
 40
1
 10
5.568320
 20
12.521822
 30
0.0
 10
5.604960
 20
12.509570
 30
0.0
 10
5.641696
 20
12.505298
 30
0.0
 10
5.678550
 20
12.509045
 30
0.0
  0
SPLINE
  5
12d
100
AcDbEntity
  8
Layer_1
 62
1
100
AcDbSpline
 70
8
 71
3
 72
8
 73
4
 74
0
 40
0
 40
0
 40
0
 40
0
 40
1
 40
1
 40
1
 40
1
 10
5.678550
 20
12.509045
 30
0.0
 10
5.715213
 20
12.513222
 30
0.0
 10
5.749285
 20
12.522181
 30
0.0
 10
5.780763
 20
12.535901
 30
0.0
  0
SPLINE
  5
12e
100
AcDbEntity
  8
Layer_1
 62
1
100
AcDbSpline
 70
8
 71
3
 72
8
 73
4
 74
0
 40
0
 40
0
 40
0
 40
0
 40
1
 40
1
 40
1
 40
1
 10
5.780763
 20
12.535901
 30
0.0
 10
5.810950
 20
12.549056
 30
0.0
 10
5.838741
 20
12.566555
 30
0.0
 10
5.864117
 20
12.588390
 30
0.0
  0
SPLINE
  5
12f
100
AcDbEntity
  8
Layer_1
 62
1
100
AcDbSpline
 70
8
 71
3
 72
8
 73
4
 74
0
 40
0
 40
0
 40
0
 40
0
 40
1
 40
1
 40
1
 40
1
 10
5.864117
 20
12.588390
 30
0.0
 10
5.889922
 20
12.610413
 30
0.0
 10
5.911931
 20
12.634639
 30
0.0
 10
5.930178
 20
12.661063
 30
0.0
  0
SPLINE
  5
130
100
AcDbEntity
  8
Layer_1
 62
1
100
AcDbSpline
 70
8
 71
3
 72
8
 73
4
 74
0
 40
0
 40
0
 40
0
 40
0
 40
1
 40
1
 40
1
 40
1
 10
5.930178
 20
12.661063
 30
0.0
 10
5.945855
 20
12.682778
 30
0.0
 10
5.959650
 20
12.704696
 30
0.0
 10
5.971560
 20
12.726819
 30
0.0
  0
SPLINE
  5
131
100
AcDbEntity
  8
Layer_1
 62
1
100
AcDbSpline
 70
8
 71
3
 72
8
 73
4
 74
0
 40
0
 40
0
 40
0
 40
0
 40
1
 40
1
 40
1
 40
1
 10
5.971560
 20
12.726819
 30
0.0
 10
5.983468
 20
12.748943
 30
0.0
 10
5.992992
 20
12.767709
 30
0.0
 10
6.000123
 20
12.783133
 30
0.0
  0
LWPOLYLINE
  5
132
100
AcDbEntity
  8
Layer_1
 62
1
100
AcDbPolyline
 90
3
 70
0
 10
5.761293
 20
13.401786
 30
0.0
 10
5.863059
 20
13.168285
 30
0.0
 10
5.834596
 20
13.155875
 30
0.0
  0
SPLINE
  5
133
100
AcDbEntity
  8
Layer_1
 62
1
100
AcDbSpline
 70
8
 71
3
 72
8
 73
4
 74
0
 40
0
 40
0
 40
0
 40
0
 40
1
 40
1
 40
1
 40
1
 10
6.126365
 20
12.564139
 30
0.0
 10
6.106914
 20
12.542835
 30
0.0
 10
6.088251
 20
12.522644
 30
0.0
 10
6.070395
 20
12.503572
 30
0.0
  0
SPLINE
  5
134
100
AcDbEntity
  8
Layer_1
 62
1
100
AcDbSpline
 70
8
 71
3
 72
8
 73
4
 74
0
 40
0
 40
0
 40
0
 40
0
 40
1
 40
1
 40
1
 40
1
 10
6.070395
 20
12.503572
 30
0.0
 10
6.059208
 20
12.491625
 30
0.0
 10
6.047309
 20
12.480043
 30
0.0
 10
6.034833
 20
12.468741
 30
0.0
  0
SPLINE
  5
135
100
AcDbEntity
  8
Layer_1
 62
1
100
AcDbSpline
 70
8
 71
3
 72
8
 73
4
 74
0
 40
0
 40
0
 40
0
 40
0
 40
1
 40
1
 40
1
 40
1
 10
6.034833
 20
12.468741
 30
0.0
 10
6.209984
 20
12.536043
 30
0.0
 10
6.387793
 20
12.596918
 30
0.0
 10
6.567955
 20
12.651338
 30
0.0
  0
SPLINE
  5
136
100
AcDbEntity
  8
Layer_1
 62
1
100
AcDbSpline
 70
8
 71
3
 72
8
 73
4
 74
0
 40
0
 40
0
 40
0
 40
0
 40
1
 40
1
 40
1
 40
1
 10
6.567955
 20
12.651338
 30
0.0
 10
6.504331
 20
12.659390
 30
0.0
 10
6.445333
 20
12.679259
 30
0.0
 10
6.391094
 20
12.711254
 30
0.0
  0
SPLINE
  5
137
100
AcDbEntity
  8
Layer_1
 62
1
100
AcDbSpline
 70
8
 71
3
 72
8
 73
4
 74
0
 40
0
 40
0
 40
0
 40
0
 40
1
 40
1
 40
1
 40
1
 10
6.391094
 20
12.711254
 30
0.0
 10
6.272643
 20
12.781510
 30
0.0
 10
6.191533
 20
12.897460
 30
0.0
 10
6.147747
 20
13.059094
 30
0.0
  0
SPLINE
  5
138
100
AcDbEntity
  8
Layer_1
 62
1
100
AcDbSpline
 70
8
 71
3
 72
8
 73
4
 74
0
 40
0
 40
0
 40
0
 40
0
 40
1
 40
1
 40
1
 40
1
 10
6.147747
 20
13.059094
 30
0.0
 10
6.103592
 20
13.222089
 30
0.0
 10
6.115031
 20
13.363333
 30
0.0
 10
6.182069
 20
13.482861
 30
0.0
  0
SPLINE
  5
139
100
AcDbEntity
  8
Layer_1
 62
1
100
AcDbSpline
 70
8
 71
3
 72
8
 73
4
 74
0
 40
0
 40
0
 40
0
 40
0
 40
1
 40
1
 40
1
 40
1
 10
6.182069
 20
13.482861
 30
0.0
 10
6.207587
 20
13.528613
 30
0.0
 10
6.240157
 20
13.568822
 30
0.0
 10
6.279644
 20
13.603548
 30
0.0
  0
LWPOLYLINE
  5
13a
100
AcDbEntity
  8
Layer_1
 62
1
100
AcDbPolyline
 90
3
 70
0
 10
6.000123
 20
12.783133
 30
0.0
 10
6.026003
 20
12.794405
 30
0.0
 10
6.126365
 20
12.564139
 30
0.0
  0
LWPOLYLINE
  5
13b
100
AcDbEntity
  8
Layer_1
 62
1
100
AcDbPolyline
 90
1
 70
1
 10
6.279644
 20
13.603548
 30
0.0
  0
SPLINE
  5
13c
100
AcDbEntity
  8
Layer_1
 62
1
100
AcDbSpline
 70
8
 71
3
 72
8
 73
4
 74
0
 40
0
 40
0
 40
0
 40
0
 40
1
 40
1
 40
1
 40
1
 10
10.857220
 20
12.718719
 30
0.0
 10
11.097763
 20
12.653827
 30
0.0
 10
11.335083
 20
12.577240
 30
0.0
 10
11.568422
 20
12.489430
 30
0.0
  0
SPLINE
  5
13d
100
AcDbEntity
  8
Layer_1
 62
1
100
AcDbSpline
 70
8
 71
3
 72
8
 73
4
 74
0
 40
0
 40
0
 40
0
 40
0
 40
1
 40
1
 40
1
 40
1
 10
11.568422
 20
12.489430
 30
0.0
 10
11.516484
 20
12.537268
 30
0.0
 10
11.477627
 20
12.593021
 30
0.0
 10
11.451865
 20
12.656687
 30
0.0
  0
SPLINE
  5
13e
100
AcDbEntity
  8
Layer_1
 62
1
100
AcDbSpline
 70
8
 71
3
 72
8
 73
4
 74
0
 40
0
 40
0
 40
0
 40
0
 40
1
 40
1
 40
1
 40
1
 10
11.451865
 20
12.656687
 30
0.0
 10
11.400511
 20
12.784473
 30
0.0
 10
11.406573
 20
12.925838
 30
0.0
 10
11.470054
 20
13.080800
 30
0.0
  0
SPLINE
  5
13f
100
AcDbEntity
  8
Layer_1
 62
1
100
AcDbSpline
 70
8
 71
3
 72
8
 73
4
 74
0
 40
0
 40
0
 40
0
 40
0
 40
1
 40
1
 40
1
 40
1
 10
11.470054
 20
13.080800
 30
0.0
 10
11.534069
 20
13.237068
 30
0.0
 10
11.629038
 20
13.342290
 30
0.0
 10
11.754925
 20
13.396453
 30
0.0
  0
SPLINE
  5
140
100
AcDbEntity
  8
Layer_1
 62
1
100
AcDbSpline
 70
8
 71
3
 72
8
 73
4
 74
0
 40
0
 40
0
 40
0
 40
0
 40
1
 40
1
 40
1
 40
1
 10
11.754925
 20
13.396453
 30
0.0
 10
11.801667
 20
13.416697
 30
0.0
 10
11.850495
 20
13.428730
 30
0.0
 10
11.901389
 20
13.432668
 30
0.0
  0
SPLINE
  5
141
100
AcDbEntity
  8
Layer_1
 62
1
100
AcDbSpline
 70
8
 71
3
 72
8
 73
4
 74
0
 40
0
 40
0
 40
0
 40
0
 40
1
 40
1
 40
1
 40
1
 10
11.901389
 20
13.432668
 30
0.0
 10
11.740847
 20
13.492657
 30
0.0
 10
11.578771
 20
13.547897
 30
0.0
 10
11.415346
 20
13.598256
 30
0.0
  0
LWPOLYLINE
  5
142
100
AcDbEntity
  8
Layer_1
 62
1
100
AcDbPolyline
 90
4
 70
0
 10
11.415346
 20
13.598256
 30
0.0
 10
11.376771
 20
13.444000
 30
0.0
 10
11.058473
 20
13.523589
 30
0.0
 10
10.857220
 20
12.718719
 30
0.0
  0
SPLINE
  5
143
100
AcDbEntity
  8
Layer_1
 62
1
100
AcDbSpline
 70
8
 71
3
 72
8
 73
4
 74
0
 40
0
 40
0
 40
0
 40
0
 40
1
 40
1
 40
1
 40
1
 10
6.641115
 20
13.546864
 30
0.0
 10
6.620451
 20
13.546406
 30
0.0
 10
6.599901
 20
13.543427
 30
0.0
 10
6.579469
 20
13.537893
 30
0.0
  0
SPLINE
  5
144
100
AcDbEntity
  8
Layer_1
 62
1
100
AcDbSpline
 70
8
 71
3
 72
8
 73
4
 74
0
 40
0
 40
0
 40
0
 40
0
 40
1
 40
1
 40
1
 40
1
 10
6.579469
 20
13.537893
 30
0.0
 10
6.546326
 20
13.528913
 30
0.0
 10
6.516589
 20
13.514520
 30
0.0
 10
6.490277
 20
13.494720
 30
0.0
  0
SPLINE
  5
145
100
AcDbEntity
  8
Layer_1
 62
1
100
AcDbSpline
 70
8
 71
3
 72
8
 73
4
 74
0
 40
0
 40
0
 40
0
 40
0
 40
1
 40
1
 40
1
 40
1
 10
6.490277
 20
13.494720
 30
0.0
 10
6.464416
 20
13.475044
 30
0.0
 10
6.442919
 20
13.448260
 30
0.0
 10
6.425783
 20
13.414377
 30
0.0
  0
SPLINE
  5
146
100
AcDbEntity
  8
Layer_1
 62
1
100
AcDbSpline
 70
8
 71
3
 72
8
 73
4
 74
0
 40
0
 40
0
 40
0
 40
0
 40
1
 40
1
 40
1
 40
1
 10
6.425783
 20
13.414377
 30
0.0
 10
6.409969
 20
13.382802
 30
0.0
 10
6.400876
 20
13.342575
 30
0.0
 10
6.398520
 20
13.293690
 30
0.0
  0
SPLINE
  5
147
100
AcDbEntity
  8
Layer_1
 62
1
100
AcDbSpline
 70
8
 71
3
 72
8
 73
4
 74
0
 40
0
 40
0
 40
0
 40
0
 40
1
 40
1
 40
1
 40
1
 10
6.398520
 20
13.293690
 30
0.0
 10
6.396500
 20
13.245383
 30
0.0
 10
6.403487
 20
13.191724
 30
0.0
 10
6.419477
 20
13.132700
 30
0.0
  0
SPLINE
  5
148
100
AcDbEntity
  8
Layer_1
 62
1
100
AcDbSpline
 70
8
 71
3
 72
8
 73
4
 74
0
 40
0
 40
0
 40
0
 40
0
 40
1
 40
1
 40
1
 40
1
 10
6.419477
 20
13.132700
 30
0.0
 10
6.435833
 20
13.072314
 30
0.0
 10
6.456609
 20
13.022621
 30
0.0
 10
6.481793
 20
12.983632
 30
0.0
  0
SPLINE
  5
149
100
AcDbEntity
  8
Layer_1
 62
1
100
AcDbSpline
 70
8
 71
3
 72
8
 73
4
 74
0
 40
0
 40
0
 40
0
 40
0
 40
1
 40
1
 40
1
 40
1
 10
6.481793
 20
12.983632
 30
0.0
 10
6.507305
 20
12.945220
 30
0.0
 10
6.535046
 20
12.915687
 30
0.0
 10
6.565005
 20
12.895050
 30
0.0
  0
SPLINE
  5
14a
100
AcDbEntity
  8
Layer_1
 62
1
100
AcDbSpline
 70
8
 71
3
 72
8
 73
4
 74
0
 40
0
 40
0
 40
0
 40
0
 40
1
 40
1
 40
1
 40
1
 10
6.565005
 20
12.895050
 30
0.0
 10
6.594962
 20
12.874411
 30
0.0
 10
6.626864
 20
12.861863
 30
0.0
 10
6.660728
 20
12.857390
 30
0.0
  0
SPLINE
  5
14b
100
AcDbEntity
  8
Layer_1
 62
1
100
AcDbSpline
 70
8
 71
3
 72
8
 73
4
 74
0
 40
0
 40
0
 40
0
 40
0
 40
1
 40
1
 40
1
 40
1
 10
6.660728
 20
12.857390
 30
0.0
 10
6.694591
 20
12.852919
 30
0.0
 10
6.728326
 20
12.855227
 30
0.0
 10
6.761925
 20
12.864329
 30
0.0
  0
SPLINE
  5
14c
100
AcDbEntity
  8
Layer_1
 62
1
100
AcDbSpline
 70
8
 71
3
 72
8
 73
4
 74
0
 40
0
 40
0
 40
0
 40
0
 40
1
 40
1
 40
1
 40
1
 10
6.761925
 20
12.864329
 30
0.0
 10
6.795522
 20
12.873430
 30
0.0
 10
6.825809
 20
12.888460
 30
0.0
 10
6.852785
 20
12.909413
 30
0.0
  0
SPLINE
  5
14d
100
AcDbEntity
  8
Layer_1
 62
1
100
AcDbSpline
 70
8
 71
3
 72
8
 73
4
 74
0
 40
0
 40
0
 40
0
 40
0
 40
1
 40
1
 40
1
 40
1
 10
6.852785
 20
12.909413
 30
0.0
 10
6.879638
 20
12.930821
 30
0.0
 10
6.900717
 20
12.958216
 30
0.0
 10
6.916038
 20
12.991607
 30
0.0
  0
SPLINE
  5
14e
100
AcDbEntity
  8
Layer_1
 62
1
100
AcDbSpline
 70
8
 71
3
 72
8
 73
4
 74
0
 40
0
 40
0
 40
0
 40
0
 40
1
 40
1
 40
1
 40
1
 10
6.916038
 20
12.991607
 30
0.0
 10
6.933101
 20
13.029369
 30
0.0
 10
6.942114
 20
13.070804
 30
0.0
 10
6.943056
 20
13.115895
 30
0.0
  0
SPLINE
  5
14f
100
AcDbEntity
  8
Layer_1
 62
1
100
AcDbSpline
 70
8
 71
3
 72
8
 73
4
 74
0
 40
0
 40
0
 40
0
 40
0
 40
1
 40
1
 40
1
 40
1
 10
6.943056
 20
13.115895
 30
0.0
 10
6.943868
 20
13.161440
 30
0.0
 10
6.936590
 20
13.212584
 30
0.0
 10
6.921226
 20
13.269337
 30
0.0
  0
SPLINE
  5
150
100
AcDbEntity
  8
Layer_1
 62
1
100
AcDbSpline
 70
8
 71
3
 72
8
 73
4
 74
0
 40
0
 40
0
 40
0
 40
0
 40
1
 40
1
 40
1
 40
1
 10
6.921226
 20
13.269337
 30
0.0
 10
6.904743
 20
13.330177
 30
0.0
 10
6.883689
 20
13.380028
 30
0.0
 10
6.858055
 20
13.418894
 30
0.0
  0
SPLINE
  5
151
100
AcDbEntity
  8
Layer_1
 62
1
100
AcDbSpline
 70
8
 71
3
 72
8
 73
4
 74
0
 40
0
 40
0
 40
0
 40
0
 40
1
 40
1
 40
1
 40
1
 10
6.858055
 20
13.418894
 30
0.0
 10
6.832416
 20
13.457760
 30
0.0
 10
6.804678
 20
13.487293
 30
0.0
 10
6.774843
 20
13.507476
 30
0.0
  0
SPLINE
  5
152
100
AcDbEntity
  8
Layer_1
 62
1
100
AcDbSpline
 70
8
 71
3
 72
8
 73
4
 74
0
 40
0
 40
0
 40
0
 40
0
 40
1
 40
1
 40
1
 40
1
 10
6.774843
 20
13.507476
 30
0.0
 10
6.744310
 20
13.528446
 30
0.0
 10
6.712170
 20
13.540934
 30
0.0
 10
6.678428
 20
13.544952
 30
0.0
  0
SPLINE
  5
153
100
AcDbEntity
  8
Layer_1
 62
1
100
AcDbSpline
 70
8
 71
3
 72
8
 73
4
 74
0
 40
0
 40
0
 40
0
 40
0
 40
1
 40
1
 40
1
 40
1
 10
6.678428
 20
13.544952
 30
0.0
 10
6.665945
 20
13.546505
 30
0.0
 10
6.653514
 20
13.547139
 30
0.0
 10
6.641115
 20
13.546864
 30
0.0
  0
LWPOLYLINE
  5
154
100
AcDbEntity
  8
Layer_1
 62
1
100
AcDbPolyline
 90
1
 70
1
 10
11.415346
 20
13.598256
 30
0.0
  0
SPLINE
  5
155
100
AcDbEntity
  8
Layer_1
 62
1
100
AcDbSpline
 70
8
 71
3
 72
8
 73
4
 74
0
 40
0
 40
0
 40
0
 40
0
 40
1
 40
1
 40
1
 40
1
 10
12.411013
 20
13.223785
 30
0.0
 10
12.444484
 20
13.185303
 30
0.0
 10
12.470877
 20
13.142476
 30
0.0
 10
12.490114
 20
13.095265
 30
0.0
  0
SPLINE
  5
156
100
AcDbEntity
  8
Layer_1
 62
1
100
AcDbSpline
 70
8
 71
3
 72
8
 73
4
 74
0
 40
0
 40
0
 40
0
 40
0
 40
1
 40
1
 40
1
 40
1
 10
12.490114
 20
13.095265
 30
0.0
 10
12.542256
 20
12.968172
 30
0.0
 10
12.536325
 20
12.826504
 30
0.0
 10
12.472312
 20
12.670236
 30
0.0
  0
SPLINE
  5
157
100
AcDbEntity
  8
Layer_1
 62
1
100
AcDbSpline
 70
8
 71
3
 72
8
 73
4
 74
0
 40
0
 40
0
 40
0
 40
0
 40
1
 40
1
 40
1
 40
1
 10
12.472312
 20
12.670236
 30
0.0
 10
12.408832
 20
12.515275
 30
0.0
 10
12.313969
 20
12.410269
 30
0.0
 10
12.187725
 20
12.355234
 30
0.0
  0
SPLINE
  5
158
100
AcDbEntity
  8
Layer_1
 62
1
100
AcDbSpline
 70
8
 71
3
 72
8
 73
4
 74
0
 40
0
 40
0
 40
0
 40
0
 40
1
 40
1
 40
1
 40
1
 10
12.187725
 20
12.355234
 30
0.0
 10
12.124579
 20
12.327885
 30
0.0
 10
12.057570
 20
12.315445
 30
0.0
 10
11.986737
 20
12.317901
 30
0.0
  0
SPLINE
  5
159
100
AcDbEntity
  8
Layer_1
 62
1
100
AcDbSpline
 70
8
 71
3
 72
8
 73
4
 74
0
 40
0
 40
0
 40
0
 40
0
 40
1
 40
1
 40
1
 40
1
 10
11.986737
 20
12.317901
 30
0.0
 10
12.363748
 20
12.150321
 30
0.0
 10
12.728381
 20
11.952208
 30
0.0
 10
13.076805
 20
11.724659
 30
0.0
  0
LWPOLYLINE
  5
15a
100
AcDbEntity
  8
Layer_1
 62
1
100
AcDbPolyline
 90
1
 70
1
 10
6.641115
 20
13.546864
 30
0.0
  0
SPLINE
  5
15b
100
AcDbEntity
  8
Layer_1
 62
1
100
AcDbSpline
 70
8
 71
3
 72
8
 73
4
 74
0
 40
0
 40
0
 40
0
 40
0
 40
1
 40
1
 40
1
 40
1
 10
13.359581
 20
12.727569
 30
0.0
 10
13.055029
 20
12.911430
 30
0.0
 10
12.738395
 20
13.077347
 30
0.0
 10
12.411013
 20
13.223785
 30
0.0
  0
LWPOLYLINE
  5
15c
100
AcDbEntity
  8
Layer_1
 62
1
100
AcDbPolyline
 90
4
 70
0
 10
13.076805
 20
11.724659
 30
0.0
 10
13.542421
 20
12.412404
 30
0.0
 10
13.270713
 20
12.596323
 30
0.0
 10
13.359581
 20
12.727569
 30
0.0
  0
SPLINE
  5
15d
100
AcDbEntity
  8
Layer_1
 62
1
100
AcDbSpline
 70
8
 71
3
 72
8
 73
4
 74
0
 40
0
 40
0
 40
0
 40
0
 40
1
 40
1
 40
1
 40
1
 10
12.006858
 20
13.218515
 30
0.0
 10
11.974365
 20
13.218620
 30
0.0
 10
11.941006
 20
13.210418
 30
0.0
 10
11.906802
 20
13.193919
 30
0.0
  0
SPLINE
  5
15e
100
AcDbEntity
  8
Layer_1
 62
1
100
AcDbSpline
 70
8
 71
3
 72
8
 73
4
 74
0
 40
0
 40
0
 40
0
 40
0
 40
1
 40
1
 40
1
 40
1
 10
11.906802
 20
13.193919
 30
0.0
 10
11.875050
 20
13.178458
 30
0.0
 10
11.843390
 20
13.152041
 30
0.0
 10
11.811810
 20
13.114654
 30
0.0
  0
SPLINE
  5
15f
100
AcDbEntity
  8
Layer_1
 62
1
100
AcDbSpline
 70
8
 71
3
 72
8
 73
4
 74
0
 40
0
 40
0
 40
0
 40
0
 40
1
 40
1
 40
1
 40
1
 10
11.811810
 20
13.114654
 30
0.0
 10
11.780841
 20
13.077524
 30
0.0
 10
11.753754
 20
13.030657
 30
0.0
 10
11.730572
 20
12.974070
 30
0.0
  0
SPLINE
  5
160
100
AcDbEntity
  8
Layer_1
 62
1
100
AcDbSpline
 70
8
 71
3
 72
8
 73
4
 74
0
 40
0
 40
0
 40
0
 40
0
 40
1
 40
1
 40
1
 40
1
 10
11.730572
 20
12.974070
 30
0.0
 10
11.706856
 20
12.916177
 30
0.0
 10
11.693158
 20
12.864106
 30
0.0
 10
11.689455
 20
12.817840
 30
0.0
  0
SPLINE
  5
161
100
AcDbEntity
  8
Layer_1
 62
1
100
AcDbSpline
 70
8
 71
3
 72
8
 73
4
 74
0
 40
0
 40
0
 40
0
 40
0
 40
1
 40
1
 40
1
 40
1
 10
11.689455
 20
12.817840
 30
0.0
 10
11.686366
 20
12.771831
 30
0.0
 10
11.690434
 20
12.731527
 30
0.0
 10
11.701682
 20
12.696929
 30
0.0
  0
SPLINE
  5
162
100
AcDbEntity
  8
Layer_1
 62
1
100
AcDbSpline
 70
8
 71
3
 72
8
 73
4
 74
0
 40
0
 40
0
 40
0
 40
0
 40
1
 40
1
 40
1
 40
1
 10
11.701682
 20
12.696929
 30
0.0
 10
11.712927
 20
12.662332
 30
0.0
 10
11.730633
 20
12.632971
 30
0.0
 10
11.754804
 20
12.608835
 30
0.0
  0
SPLINE
  5
163
100
AcDbEntity
  8
Layer_1
 62
1
100
AcDbSpline
 70
8
 71
3
 72
8
 73
4
 74
0
 40
0
 40
0
 40
0
 40
0
 40
1
 40
1
 40
1
 40
1
 10
11.754804
 20
12.608835
 30
0.0
 10
11.778977
 20
12.584700
 30
0.0
 10
11.807167
 20
12.566021
 30
0.0
 10
11.839378
 20
12.552826
 30
0.0
  0
SPLINE
  5
164
100
AcDbEntity
  8
Layer_1
 62
1
100
AcDbSpline
 70
8
 71
3
 72
8
 73
4
 74
0
 40
0
 40
0
 40
0
 40
0
 40
1
 40
1
 40
1
 40
1
 10
11.839378
 20
12.552826
 30
0.0
 10
11.871588
 20
12.539630
 30
0.0
 10
11.904768
 20
12.533155
 30
0.0
 10
11.938925
 20
12.533396
 30
0.0
  0
SPLINE
  5
165
100
AcDbEntity
  8
Layer_1
 62
1
100
AcDbSpline
 70
8
 71
3
 72
8
 73
4
 74
0
 40
0
 40
0
 40
0
 40
0
 40
1
 40
1
 40
1
 40
1
 10
11.938925
 20
12.533396
 30
0.0
 10
11.973262
 20
12.534073
 30
0.0
 10
12.006663
 20
12.543010
 30
0.0
 10
12.039125
 20
12.560210
 30
0.0
  0
SPLINE
  5
166
100
AcDbEntity
  8
Layer_1
 62
1
100
AcDbSpline
 70
8
 71
3
 72
8
 73
4
 74
0
 40
0
 40
0
 40
0
 40
0
 40
1
 40
1
 40
1
 40
1
 10
12.039125
 20
12.560210
 30
0.0
 10
12.075627
 20
12.579825
 30
0.0
 10
12.107953
 20
12.607254
 30
0.0
 10
12.136110
 20
12.642486
 30
0.0
  0
SPLINE
  5
167
100
AcDbEntity
  8
Layer_1
 62
1
100
AcDbSpline
 70
8
 71
3
 72
8
 73
4
 74
0
 40
0
 40
0
 40
0
 40
0
 40
1
 40
1
 40
1
 40
1
 10
12.136110
 20
12.642486
 30
0.0
 10
12.164446
 20
12.678153
 30
0.0
 10
12.189769
 20
12.723187
 30
0.0
 10
12.212058
 20
12.777598
 30
0.0
  0
SPLINE
  5
168
100
AcDbEntity
  8
Layer_1
 62
1
100
AcDbSpline
 70
8
 71
3
 72
8
 73
4
 74
0
 40
0
 40
0
 40
0
 40
0
 40
1
 40
1
 40
1
 40
1
 10
12.212058
 20
12.777598
 30
0.0
 10
12.235954
 20
12.835926
 30
0.0
 10
12.249521
 20
12.888319
 30
0.0
 10
12.252789
 20
12.934763
 30
0.0
  0
SPLINE
  5
169
100
AcDbEntity
  8
Layer_1
 62
1
100
AcDbSpline
 70
8
 71
3
 72
8
 73
4
 74
0
 40
0
 40
0
 40
0
 40
0
 40
1
 40
1
 40
1
 40
1
 10
12.252789
 20
12.934763
 30
0.0
 10
12.256057
 20
12.981207
 30
0.0
 10
12.251987
 20
13.021511
 30
0.0
 10
12.240562
 20
13.055674
 30
0.0
  0
SPLINE
  5
16a
100
AcDbEntity
  8
Layer_1
 62
1
100
AcDbSpline
 70
8
 71
3
 72
8
 73
4
 74
0
 40
0
 40
0
 40
0
 40
0
 40
1
 40
1
 40
1
 40
1
 10
12.240562
 20
13.055674
 30
0.0
 10
12.229060
 20
13.090885
 30
0.0
 10
12.211139
 20
13.120332
 30
0.0
 10
12.186790
 20
13.144032
 30
0.0
  0
SPLINE
  5
16b
100
AcDbEntity
  8
Layer_1
 62
1
100
AcDbSpline
 70
8
 71
3
 72
8
 73
4
 74
0
 40
0
 40
0
 40
0
 40
0
 40
1
 40
1
 40
1
 40
1
 10
12.186790
 20
13.144032
 30
0.0
 10
12.162877
 20
13.167554
 30
0.0
 10
12.135245
 20
13.185738
 30
0.0
 10
12.103904
 20
13.198577
 30
0.0
  0
SPLINE
  5
16c
100
AcDbEntity
  8
Layer_1
 62
1
100
AcDbSpline
 70
8
 71
3
 72
8
 73
4
 74
0
 40
0
 40
0
 40
0
 40
0
 40
1
 40
1
 40
1
 40
1
 10
12.103904
 20
13.198577
 30
0.0
 10
12.072127
 20
13.211595
 30
0.0
 10
12.039787
 20
13.218243
 30
0.0
 10
12.006858
 20
13.218515
 30
0.0
  0
LWPOLYLINE
  5
16d
100
AcDbEntity
  8
Layer_1
 62
1
100
AcDbPolyline
 90
1
 70
1
 10
12.411013
 20
13.223785
 30
0.0
  0
SPLINE
  5
16e
100
AcDbEntity
  8
Layer_1
 62
1
100
AcDbSpline
 70
8
 71
3
 72
8
 73
4
 74
0
 40
0
 40
0
 40
0
 40
0
 40
1
 40
1
 40
1
 40
1
 10
5.169272
 20
13.179514
 30
0.0
 10
4.868901
 20
13.040755
 30
0.0
 10
4.576128
 20
12.884921
 30
0.0
 10
4.292524
 20
12.712473
 30
0.0
  0
LWPOLYLINE
  5
16f
100
AcDbEntity
  8
Layer_1
 62
1
100
AcDbPolyline
 90
1
 70
1
 10
12.006858
 20
13.218515
 30
0.0
  0
SPLINE
  5
170
100
AcDbEntity
  8
Layer_1
 62
1
100
AcDbSpline
 70
8
 71
3
 72
8
 73
4
 74
0
 40
0
 40
0
 40
0
 40
0
 40
1
 40
1
 40
1
 40
1
 10
5.224448
 20
12.101593
 30
0.0
 10
5.341308
 20
12.163047
 30
0.0
 10
5.459714
 20
12.221394
 30
0.0
 10
5.579551
 20
12.276621
 30
0.0
  0
SPLINE
  5
171
100
AcDbEntity
  8
Layer_1
 62
1
100
AcDbSpline
 70
8
 71
3
 72
8
 73
4
 74
0
 40
0
 40
0
 40
0
 40
0
 40
1
 40
1
 40
1
 40
1
 10
5.579551
 20
12.276621
 30
0.0
 10
5.520900
 20
12.275621
 30
0.0
 10
5.465080
 20
12.284840
 30
0.0
 10
5.412152
 20
12.304412
 30
0.0
  0
SPLINE
  5
172
100
AcDbEntity
  8
Layer_1
 62
1
100
AcDbSpline
 70
8
 71
3
 72
8
 73
4
 74
0
 40
0
 40
0
 40
0
 40
0
 40
1
 40
1
 40
1
 40
1
 10
5.412152
 20
12.304412
 30
0.0
 10
5.350369
 20
12.327258
 30
0.0
 10
5.293794
 20
12.364675
 30
0.0
 10
5.242393
 20
12.416676
 30
0.0
  0
SPLINE
  5
173
100
AcDbEntity
  8
Layer_1
 62
1
100
AcDbSpline
 70
8
 71
3
 72
8
 73
4
 74
0
 40
0
 40
0
 40
0
 40
0
 40
1
 40
1
 40
1
 40
1
 10
5.242393
 20
12.416676
 30
0.0
 10
5.191427
 20
12.468866
 30
0.0
 10
5.148077
 20
12.535937
 30
0.0
 10
5.112367
 20
12.617869
 30
0.0
  0
SPLINE
  5
174
100
AcDbEntity
  8
Layer_1
 62
1
100
AcDbSpline
 70
8
 71
3
 72
8
 73
4
 74
0
 40
0
 40
0
 40
0
 40
0
 40
1
 40
1
 40
1
 40
1
 10
5.112367
 20
12.617869
 30
0.0
 10
5.079103
 20
12.694194
 30
0.0
 10
5.060364
 20
12.768368
 30
0.0
 10
5.056154
 20
12.840423
 30
0.0
  0
SPLINE
  5
175
100
AcDbEntity
  8
Layer_1
 62
1
100
AcDbSpline
 70
8
 71
3
 72
8
 73
4
 74
0
 40
0
 40
0
 40
0
 40
0
 40
1
 40
1
 40
1
 40
1
 10
5.056154
 20
12.840423
 30
0.0
 10
5.051944
 20
12.912479
 30
0.0
 10
5.061946
 20
12.980212
 30
0.0
 10
5.086143
 20
13.043609
 30
0.0
  0
SPLINE
  5
176
100
AcDbEntity
  8
Layer_1
 62
1
100
AcDbSpline
 70
8
 71
3
 72
8
 73
4
 74
0
 40
0
 40
0
 40
0
 40
0
 40
1
 40
1
 40
1
 40
1
 10
5.086143
 20
13.043609
 30
0.0
 10
5.104733
 20
13.092381
 30
0.0
 10
5.132548
 20
13.137638
 30
0.0
 10
5.169272
 20
13.179514
 30
0.0
  0
LWPOLYLINE
  5
177
100
AcDbEntity
  8
Layer_1
 62
1
100
AcDbPolyline
 90
4
 70
0
 10
4.292524
 20
12.712473
 30
0.0
 10
4.709413
 20
12.014475
 30
0.0
 10
5.127382
 20
12.264109
 30
0.0
 10
5.224448
 20
12.101593
 30
0.0
  0
SPLINE
  5
178
100
AcDbEntity
  8
Layer_1
 62
1
100
AcDbSpline
 70
8
 71
3
 72
8
 73
4
 74
0
 40
0
 40
0
 40
0
 40
0
 40
1
 40
1
 40
1
 40
1
 10
4.063174
 20
12.568105
 30
0.0
 10
3.964497
 20
12.503834
 30
0.0
 10
3.866986
 20
12.437570
 30
0.0
 10
3.770775
 20
12.369211
 30
0.0
  0
LWPOLYLINE
  5
179
100
AcDbEntity
  8
Layer_1
 62
1
100
AcDbPolyline
 90
1
 70
1
 10
5.169272
 20
13.179514
 30
0.0
  0
SPLINE
  5
17a
100
AcDbEntity
  8
Layer_1
 62
1
100
AcDbSpline
 70
8
 71
3
 72
8
 73
4
 74
0
 40
0
 40
0
 40
0
 40
0
 40
1
 40
1
 40
1
 40
1
 10
4.381960
 20
11.585601
 30
0.0
 10
4.444804
 20
11.629985
 30
0.0
 10
4.508284
 20
11.673293
 30
0.0
 10
4.572308
 20
11.715647
 30
0.0
  0
LWPOLYLINE
  5
17b
100
AcDbEntity
  8
Layer_1
 62
1
100
AcDbPolyline
 90
10
 70
0
 10
3.770775
 20
12.369211
 30
0.0
 10
3.868532
 20
12.243886
 30
0.0
 10
3.481854
 20
11.942311
 30
0.0
 10
3.593365
 20
11.799326
 30
0.0
 10
3.952232
 20
12.079213
 30
0.0
 10
4.077211
 20
11.918975
 30
0.0
 10
3.718345
 20
11.639088
 30
0.0
 10
3.878033
 20
11.434336
 30
0.0
 10
4.264711
 20
11.735931
 30
0.0
 10
4.381960
 20
11.585601
 30
0.0
  0
LWPOLYLINE
  5
17c
100
AcDbEntity
  8
Layer_1
 62
1
100
AcDbPolyline
 90
2
 70
0
 10
4.572308
 20
11.715647
 30
0.0
 10
4.063174
 20
12.568105
 30
0.0
  0
SPLINE
  5
17d
100
AcDbEntity
  8
Layer_1
 62
1
100
AcDbSpline
 70
8
 71
3
 72
8
 73
4
 74
0
 40
0
 40
0
 40
0
 40
0
 40
1
 40
1
 40
1
 40
1
 10
13.300966
 20
11.572458
 30
0.0
 10
13.343937
 20
11.542198
 30
0.0
 10
13.386718
 20
11.511626
 30
0.0
 10
13.429140
 20
11.480437
 30
0.0
  0
SPLINE
  5
17e
100
AcDbEntity
  8
Layer_1
 62
1
100
AcDbSpline
 70
8
 71
3
 72
8
 73
4
 74
0
 40
0
 40
0
 40
0
 40
0
 40
1
 40
1
 40
1
 40
1
 10
13.429140
 20
11.480437
 30
0.0
 10
13.519414
 20
11.414070
 30
0.0
 10
13.607946
 20
11.345774
 30
0.0
 10
13.694908
 20
11.275848
 30
0.0
  0
LWPOLYLINE
  5
17f
100
AcDbEntity
  8
Layer_1
 62
1
100
AcDbPolyline
 90
2
 70
0
 10
13.766766
 20
12.260508
 30
0.0
 10
13.300966
 20
11.572458
 30
0.0
  0
SPLINE
  5
180
100
AcDbEntity
  8
Layer_1
 62
1
100
AcDbSpline
 70
8
 71
3
 72
8
 73
4
 74
0
 40
0
 40
0
 40
0
 40
0
 40
1
 40
1
 40
1
 40
1
 10
14.366314
 20
12.018361
 30
0.0
 10
14.287558
 20
12.082569
 30
0.0
 10
14.207791
 20
12.145573
 30
0.0
 10
14.126792
 20
12.207040
 30
0.0
  0
LWPOLYLINE
  5
181
100
AcDbEntity
  8
Layer_1
 62
1
100
AcDbPolyline
 90
2
 70
0
 10
13.694908
 20
11.275848
 30
0.0
 10
14.366314
 20
12.018361
 30
0.0
  0
SPLINE
  5
182
100
AcDbEntity
  8
Layer_1
 62
1
100
AcDbSpline
 70
8
 71
3
 72
8
 73
4
 74
0
 40
0
 40
0
 40
0
 40
0
 40
1
 40
1
 40
1
 40
1
 10
3.171125
 20
11.902455
 30
0.0
 10
3.077278
 20
11.822663
 30
0.0
 10
2.984865
 20
11.740880
 30
0.0
 10
2.894127
 20
11.656870
 30
0.0
  0
LWPOLYLINE
  5
183
100
AcDbEntity
  8
Layer_1
 62
1
100
AcDbPolyline
 90
3
 70
0
 10
14.126792
 20
12.207040
 30
0.0
 10
14.038474
 20
12.076569
 30
0.0
 10
13.766766
 20
12.260508
 30
0.0
  0
SPLINE
  5
184
100
AcDbEntity
  8
Layer_1
 62
1
100
AcDbSpline
 70
8
 71
3
 72
8
 73
4
 74
0
 40
0
 40
0
 40
0
 40
0
 40
1
 40
1
 40
1
 40
1
 10
3.441268
 20
10.800608
 30
0.0
 10
3.552747
 20
10.909899
 30
0.0
 10
3.667081
 20
11.015197
 30
0.0
 10
3.783981
 20
11.116669
 30
0.0
  0
LWPOLYLINE
  5
185
100
AcDbEntity
  8
Layer_1
 62
1
100
AcDbPolyline
 90
3
 70
0
 10
2.894127
 20
11.656870
 30
0.0
 10
3.441164
 20
10.801035
 30
0.0
 10
3.441268
 20
10.800608
 30
0.0
  0
LWPOLYLINE
  5
186
100
AcDbEntity
  8
Layer_1
 62
1
100
AcDbPolyline
 90
2
 70
0
 10
3.783981
 20
11.116669
 30
0.0
 10
3.171125
 20
11.902455
 30
0.0
  0
SPLINE
  5
187
100
AcDbEntity
  8
Layer_1
 62
1
100
AcDbSpline
 70
8
 71
3
 72
8
 73
4
 74
0
 40
0
 40
0
 40
0
 40
0
 40
1
 40
1
 40
1
 40
1
 10
14.869814
 20
11.574737
 30
0.0
 10
14.773206
 20
11.666670
 30
0.0
 10
14.674472
 20
11.756361
 30
0.0
 10
14.573753
 20
11.843801
 30
0.0
  0
LWPOLYLINE
  5
188
100
AcDbEntity
  8
Layer_1
 62
1
100
AcDbPolyline
 90
4
 70
0
 10
14.573753
 20
11.843801
 30
0.0
 10
14.340923
 20
11.586313
 30
0.0
 10
14.637676
 20
11.317982
 30
0.0
 10
14.869814
 20
11.574737
 30
0.0
  0
SPLINE
  5
189
100
AcDbEntity
  8
Layer_1
 62
1
100
AcDbSpline
 70
8
 71
3
 72
8
 73
4
 74
0
 40
0
 40
0
 40
0
 40
0
 40
1
 40
1
 40
1
 40
1
 10
2.699750
 20
11.468963
 30
0.0
 10
2.620961
 20
11.391388
 30
0.0
 10
2.543650
 20
11.312308
 30
0.0
 10
2.467857
 20
11.231822
 30
0.0
  0
LWPOLYLINE
  5
18a
100
AcDbEntity
  8
Layer_1
 62
1
100
AcDbPolyline
 90
1
 70
1
 10
14.573753
 20
11.843801
 30
0.0
  0
LWPOLYLINE
  5
18b
100
AcDbEntity
  8
Layer_1
 62
1
100
AcDbPolyline
 90
3
 70
0
 10
2.467857
 20
11.231822
 30
0.0
 10
3.090517
 20
10.899953
 30
0.0
 10
2.699750
 20
11.468963
 30
0.0
  0
SPLINE
  5
18c
100
AcDbEntity
  8
Layer_1
 62
1
100
AcDbSpline
 70
8
 71
3
 72
8
 73
4
 74
0
 40
0
 40
0
 40
0
 40
0
 40
1
 40
1
 40
1
 40
1
 10
13.903241
 20
11.102263
 30
0.0
 10
14.004382
 20
11.014942
 30
0.0
 10
14.103036
 20
10.925138
 30
0.0
 10
14.199180
 20
10.833037
 30
0.0
  0
LWPOLYLINE
  5
18d
100
AcDbEntity
  8
Layer_1
 62
1
100
AcDbPolyline
 90
2
 70
0
 10
14.204633
 20
11.435577
 30
0.0
 10
13.903241
 20
11.102263
 30
0.0
  0
LWPOLYLINE
  5
18e
100
AcDbEntity
  8
Layer_1
 62
1
100
AcDbPolyline
 90
3
 70
0
 10
14.199180
 20
10.833037
 30
0.0
 10
14.501385
 20
11.167267
 30
0.0
 10
14.204633
 20
11.435577
 30
0.0
  0
SPLINE
  5
18f
100
AcDbEntity
  8
Layer_1
 62
1
100
AcDbSpline
 70
8
 71
3
 72
8
 73
4
 74
0
 40
0
 40
0
 40
0
 40
0
 40
1
 40
1
 40
1
 40
1
 10
14.389121
 20
10.644745
 30
0.0
 10
14.452941
 20
10.579236
 30
0.0
 10
14.515470
 20
10.512601
 30
0.0
 10
14.576824
 20
10.444997
 30
0.0
  0
LWPOLYLINE
  5
190
100
AcDbEntity
  8
Layer_1
 62
1
100
AcDbPolyline
 90
3
 70
0
 10
15.063336
 20
11.384755
 30
0.0
 10
14.391909
 20
10.642222
 30
0.0
 10
14.389121
 20
10.644745
 30
0.0
  0
SPLINE
  5
191
100
AcDbEntity
  8
Layer_1
 62
1
100
AcDbSpline
 70
8
 71
3
 72
8
 73
4
 74
0
 40
0
 40
0
 40
0
 40
0
 40
1
 40
1
 40
1
 40
1
 10
15.346112
 20
11.084503
 30
0.0
 10
15.254159
 20
11.186802
 30
0.0
 10
15.159932
 20
11.286961
 30
0.0
 10
15.063336
 20
11.384755
 30
0.0
  0
LWPOLYLINE
  5
192
100
AcDbEntity
  8
Layer_1
 62
1
100
AcDbPolyline
 90
2
 70
0
 10
14.576824
 20
10.444997
 30
0.0
 10
15.346112
 20
11.084503
 30
0.0
  0
SPLINE
  5
193
100
AcDbEntity
  8
Layer_1
 62
1
100
AcDbSpline
 70
8
 71
3
 72
8
 73
4
 74
0
 40
0
 40
0
 40
0
 40
0
 40
1
 40
1
 40
1
 40
1
 10
2.272036
 20
11.016713
 30
0.0
 10
2.198681
 20
10.933397
 30
0.0
 10
2.126917
 20
10.848692
 30
0.0
 10
2.056785
 20
10.762644
 30
0.0
  0
LWPOLYLINE
  5
194
100
AcDbEntity
  8
Layer_1
 62
1
100
AcDbPolyline
 90
1
 70
1
 10
15.063336
 20
11.384755
 30
0.0
  0
LWPOLYLINE
  5
195
100
AcDbEntity
  8
Layer_1
 62
1
100
AcDbPolyline
 90
3
 70
0
 10
2.056785
 20
10.762644
 30
0.0
 10
2.654238
 20
10.421193
 30
0.0
 10
2.272036
 20
11.016713
 30
0.0
  0
SPLINE
  5
196
100
AcDbEntity
  8
Layer_1
 62
1
100
AcDbSpline
 70
8
 71
3
 72
8
 73
4
 74
0
 40
0
 40
0
 40
0
 40
0
 40
1
 40
1
 40
1
 40
1
 10
2.983847
 20
10.311533
 30
0.0
 10
3.063854
 20
10.403808
 30
0.0
 10
3.146031
 20
10.494179
 30
0.0
 10
3.230308
 20
10.582570
 30
0.0
  0
LWPOLYLINE
  5
197
100
AcDbEntity
  8
Layer_1
 62
1
100
AcDbPolyline
 90
2
 70
0
 10
2.607058
 20
10.899485
 30
0.0
 10
2.983847
 20
10.311533
 30
0.0
  0
LWPOLYLINE
  5
198
100
AcDbEntity
  8
Layer_1
 62
1
100
AcDbPolyline
 90
2
 70
0
 10
3.230308
 20
10.582570
 30
0.0
 10
2.607058
 20
10.899485
 30
0.0
  0
SPLINE
  5
199
100
AcDbEntity
  8
Layer_1
 62
1
100
AcDbSpline
 70
8
 71
3
 72
8
 73
4
 74
0
 40
0
 40
0
 40
0
 40
0
 40
1
 40
1
 40
1
 40
1
 10
15.059348
 20
9.857920
 30
0.0
 10
15.807762
 20
8.850465
 30
0.0
 10
16.307772
 20
7.666781
 30
0.0
 10
16.500511
 20
6.403900
 30
0.0
  0
SPLINE
  5
19a
100
AcDbEntity
  8
Layer_1
 62
1
100
AcDbSpline
 70
8
 71
3
 72
8
 73
4
 74
0
 40
0
 40
0
 40
0
 40
0
 40
1
 40
1
 40
1
 40
1
 10
16.500511
 20
6.403900
 30
0.0
 10
16.810600
 20
4.372000
 30
0.0
 10
16.300849
 20
2.300139
 30
0.0
 10
15.083356
 20
0.644094
 30
0.0
  0
SPLINE
  5
19b
100
AcDbEntity
  8
Layer_1
 62
1
100
AcDbSpline
 70
8
 71
3
 72
8
 73
4
 74
0
 40
0
 40
0
 40
0
 40
0
 40
1
 40
1
 40
1
 40
1
 10
15.083356
 20
0.644094
 30
0.0
 10
14.280531
 20
-0.447916
 30
0.0
 10
13.213265
 20
-1.299950
 30
0.0
 10
11.996828
 20
-1.842642
 30
0.0
  0
SPLINE
  5
19c
100
AcDbEntity
  8
Layer_1
 62
1
100
AcDbSpline
 70
8
 71
3
 72
8
 73
4
 74
0
 40
0
 40
0
 40
0
 40
0
 40
1
 40
1
 40
1
 40
1
 10
11.996828
 20
-1.842642
 30
0.0
 10
12.018820
 20
-1.838916
 30
0.0
 10
12.039970
 20
-1.837092
 30
0.0
 10
12.060203
 20
-1.837311
 30
0.0
  0
SPLINE
  5
19d
100
AcDbEntity
  8
Layer_1
 62
1
100
AcDbSpline
 70
8
 71
3
 72
8
 73
4
 74
0
 40
0
 40
0
 40
0
 40
0
 40
1
 40
1
 40
1
 40
1
 10
12.060203
 20
-1.837311
 30
0.0
 10
12.116116
 20
-1.837522
 30
0.0
 10
12.167810
 20
-1.851558
 30
0.0
 10
12.215313
 20
-1.879405
 30
0.0
  0
SPLINE
  5
19e
100
AcDbEntity
  8
Layer_1
 62
1
100
AcDbSpline
 70
8
 71
3
 72
8
 73
4
 74
0
 40
0
 40
0
 40
0
 40
0
 40
1
 40
1
 40
1
 40
1
 10
12.215313
 20
-1.879405
 30
0.0
 10
12.262059
 20
-1.906620
 30
0.0
 10
12.304664
 20
-1.946671
 30
0.0
 10
12.343121
 20
-1.999563
 30
0.0
  0
SPLINE
  5
19f
100
AcDbEntity
  8
Layer_1
 62
1
100
AcDbSpline
 70
8
 71
3
 72
8
 73
4
 74
0
 40
0
 40
0
 40
0
 40
0
 40
1
 40
1
 40
1
 40
1
 10
12.343121
 20
-1.999563
 30
0.0
 10
12.381402
 20
-2.052048
 30
0.0
 10
12.416882
 20
-2.116566
 30
0.0
 10
12.449546
 20
-2.193105
 30
0.0
  0
LWPOLYLINE
  5
1a0
100
AcDbEntity
  8
Layer_1
 62
1
100
AcDbPolyline
 90
8
 70
0
 10
15.397259
 20
10.776520
 30
0.0
 10
15.257814
 20
10.660594
 30
0.0
 10
15.548748
 20
10.310618
 30
0.0
 10
15.392479
 20
10.180714
 30
0.0
 10
15.101544
 20
10.530690
 30
0.0
 10
14.901878
 20
10.364715
 30
0.0
 10
15.215355
 20
9.987599
 30
0.0
 10
15.059348
 20
9.857920
 30
0.0
  0
SPLINE
  5
1a1
100
AcDbEntity
  8
Layer_1
 62
1
100
AcDbSpline
 70
8
 71
3
 72
8
 73
4
 74
0
 40
0
 40
0
 40
0
 40
0
 40
1
 40
1
 40
1
 40
1
 10
12.449546
 20
-2.193105
 30
0.0
 10
12.482211
 20
-2.269645
 30
0.0
 10
12.504577
 20
-2.341197
 30
0.0
 10
12.516624
 20
-2.407766
 30
0.0
  0
SPLINE
  5
1a2
100
AcDbEntity
  8
Layer_1
 62
1
100
AcDbSpline
 70
8
 71
3
 72
8
 73
4
 74
0
 40
0
 40
0
 40
0
 40
0
 40
1
 40
1
 40
1
 40
1
 10
12.516624
 20
-2.407766
 30
0.0
 10
12.528495
 20
-2.473928
 30
0.0
 10
12.528016
 20
-2.532604
 30
0.0
 10
12.515200
 20
-2.583791
 30
0.0
  0
SPLINE
  5
1a3
100
AcDbEntity
  8
Layer_1
 62
1
100
AcDbSpline
 70
8
 71
3
 72
8
 73
4
 74
0
 40
0
 40
0
 40
0
 40
0
 40
1
 40
1
 40
1
 40
1
 10
12.515200
 20
-2.583791
 30
0.0
 10
12.501924
 20
-2.636140
 30
0.0
 10
12.476020
 20
-2.682562
 30
0.0
 10
12.437482
 20
-2.723074
 30
0.0
  0
SPLINE
  5
1a4
100
AcDbEntity
  8
Layer_1
 62
1
100
AcDbSpline
 70
8
 71
3
 72
8
 73
4
 74
0
 40
0
 40
0
 40
0
 40
0
 40
1
 40
1
 40
1
 40
1
 10
12.437482
 20
-2.723074
 30
0.0
 10
12.425092
 20
-2.735908
 30
0.0
 10
12.410963
 20
-2.748146
 30
0.0
 10
12.395449
 20
-2.759898
 30
0.0
  0
SPLINE
  5
1a5
100
AcDbEntity
  8
Layer_1
 62
1
100
AcDbSpline
 70
8
 71
3
 72
8
 73
4
 74
0
 40
0
 40
0
 40
0
 40
0
 40
1
 40
1
 40
1
 40
1
 10
12.395449
 20
-2.759898
 30
0.0
 10
12.415987
 20
-2.750764
 30
0.0
 10
12.436531
 20
-2.741652
 30
0.0
 10
12.457013
 20
-2.732351
 30
0.0
  0
SPLINE
  5
1a6
100
AcDbEntity
  8
Layer_1
 62
1
100
AcDbSpline
 70
8
 71
3
 72
8
 73
4
 74
0
 40
0
 40
0
 40
0
 40
0
 40
1
 40
1
 40
1
 40
1
 10
12.457013
 20
-2.732351
 30
0.0
 10
14.570003
 20
-1.772841
 30
0.0
 10
16.215292
 20
-0.013232
 30
0.0
 10
17.030926
 20
2.159352
 30
0.0
  0
SPLINE
  5
1a7
100
AcDbEntity
  8
Layer_1
 62
1
100
AcDbSpline
 70
8
 71
3
 72
8
 73
4
 74
0
 40
0
 40
0
 40
0
 40
0
 40
1
 40
1
 40
1
 40
1
 10
17.030926
 20
2.159352
 30
0.0
 10
17.846564
 20
4.331940
 30
0.0
 10
17.765745
 20
6.739556
 30
0.0
 10
16.806236
 20
8.852549
 30
0.0
  0
SPLINE
  5
1a8
100
AcDbEntity
  8
Layer_1
 62
1
100
AcDbSpline
 70
8
 71
3
 72
8
 73
4
 74
0
 40
0
 40
0
 40
0
 40
0
 40
1
 40
1
 40
1
 40
1
 10
16.806236
 20
8.852549
 30
0.0
 10
16.539640
 20
9.439635
 30
0.0
 10
16.211095
 20
9.990620
 30
0.0
 10
15.829144
 20
10.497853
 30
0.0
  0
LWPOLYLINE
  5
1a9
100
AcDbEntity
  8
Layer_1
 62
1
100
AcDbPolyline
 90
1
 70
1
 10
12.449546
 20
-2.193105
 30
0.0
  0
SPLINE
  5
1aa
100
AcDbEntity
  8
Layer_1
 62
1
100
AcDbSpline
 70
8
 71
3
 72
8
 73
4
 74
0
 40
0
 40
0
 40
0
 40
0
 40
1
 40
1
 40
1
 40
1
 10
1.885704
 20
10.546111
 30
0.0
 10
1.365730
 20
9.865384
 30
0.0
 10
0.948533
 20
9.111994
 30
0.0
 10
0.647463
 20
8.310048
 30
0.0
  0
SPLINE
  5
1ab
100
AcDbEntity
  8
Layer_1
 62
1
100
AcDbSpline
 70
8
 71
3
 72
8
 73
4
 74
0
 40
0
 40
0
 40
0
 40
0
 40
1
 40
1
 40
1
 40
1
 10
0.647463
 20
8.310048
 30
0.0
 10
-0.168168
 20
6.137464
 30
0.0
 10
-0.087335
 20
3.729840
 30
0.0
 10
0.872174
 20
1.616851
 30
0.0
  0
SPLINE
  5
1ac
100
AcDbEntity
  8
Layer_1
 62
1
100
AcDbSpline
 70
8
 71
3
 72
8
 73
4
 74
0
 40
0
 40
0
 40
0
 40
0
 40
1
 40
1
 40
1
 40
1
 10
0.872174
 20
1.616851
 30
0.0
 10
1.831684
 20
-0.496137
 30
0.0
 10
3.591272
 20
-2.141408
 30
0.0
 10
5.763857
 20
-2.957042
 30
0.0
  0
SPLINE
  5
1ad
100
AcDbEntity
  8
Layer_1
 62
1
100
AcDbSpline
 70
8
 71
3
 72
8
 73
4
 74
0
 40
0
 40
0
 40
0
 40
0
 40
1
 40
1
 40
1
 40
1
 10
5.763857
 20
-2.957042
 30
0.0
 10
5.793639
 20
-2.968222
 30
0.0
 10
5.823486
 20
-2.979157
 30
0.0
 10
5.853355
 20
-2.990001
 30
0.0
  0
LWPOLYLINE
  5
1ae
100
AcDbEntity
  8
Layer_1
 62
1
100
AcDbPolyline
 90
3
 70
0
 10
15.829144
 20
10.497853
 30
0.0
 10
15.710716
 20
10.399403
 30
0.0
 10
15.397259
 20
10.776520
 30
0.0
  0
SPLINE
  5
1af
100
AcDbEntity
  8
Layer_1
 62
1
100
AcDbSpline
 70
8
 71
3
 72
8
 73
4
 74
0
 40
0
 40
0
 40
0
 40
0
 40
1
 40
1
 40
1
 40
1
 10
6.150308
 20
-2.040130
 30
0.0
 10
5.454493
 20
-1.789593
 30
0.0
 10
4.855282
 20
-1.455450
 30
0.0
 10
4.248656
 20
-1.009470
 30
0.0
  0
SPLINE
  5
1b0
100
AcDbEntity
  8
Layer_1
 62
1
100
AcDbSpline
 70
8
 71
3
 72
8
 73
4
 74
0
 40
0
 40
0
 40
0
 40
0
 40
1
 40
1
 40
1
 40
1
 10
4.248656
 20
-1.009470
 30
0.0
 10
2.592605
 20
0.208024
 30
0.0
 10
1.488041
 20
2.033515
 30
0.0
 10
1.177937
 20
4.065420
 30
0.0
  0
SPLINE
  5
1b1
100
AcDbEntity
  8
Layer_1
 62
1
100
AcDbSpline
 70
8
 71
3
 72
8
 73
4
 74
0
 40
0
 40
0
 40
0
 40
0
 40
1
 40
1
 40
1
 40
1
 10
1.177937
 20
4.065420
 30
0.0
 10
0.867834
 20
6.097324
 30
0.0
 10
1.377592
 20
8.169199
 30
0.0
 10
2.595091
 20
9.825247
 30
0.0
  0
SPLINE
  5
1b2
100
AcDbEntity
  8
Layer_1
 62
1
100
AcDbSpline
 70
8
 71
3
 72
8
 73
4
 74
0
 40
0
 40
0
 40
0
 40
0
 40
1
 40
1
 40
1
 40
1
 10
2.595091
 20
9.825247
 30
0.0
 10
2.669615
 20
9.926613
 30
0.0
 10
2.706599
 20
9.984301
 30
0.0
 10
2.785968
 20
10.081920
 30
0.0
  0
LWPOLYLINE
  5
1b3
100
AcDbEntity
  8
Layer_1
 62
1
100
AcDbPolyline
 90
3
 70
0
 10
5.853355
 20
-2.990001
 30
0.0
 10
6.150454
 20
-2.040151
 30
0.0
 10
6.150308
 20
-2.040130
 30
0.0
  0
SPLINE
  5
1b4
100
AcDbEntity
  8
Layer_1
 62
1
100
AcDbSpline
 70
8
 71
3
 72
8
 73
4
 74
0
 40
0
 40
0
 40
0
 40
0
 40
1
 40
1
 40
1
 40
1
 10
11.759015
 20
-1.943980
 30
0.0
 10
11.558635
 20
-2.025477
 30
0.0
 10
11.354567
 20
-2.098803
 30
0.0
 10
11.147218
 20
-2.163483
 30
0.0
  0
SPLINE
  5
1b5
100
AcDbEntity
  8
Layer_1
 62
1
100
AcDbSpline
 70
8
 71
3
 72
8
 73
4
 74
0
 40
0
 40
0
 40
0
 40
0
 40
1
 40
1
 40
1
 40
1
 10
11.147218
 20
-2.163483
 30
0.0
 10
11.216789
 20
-2.154515
 30
0.0
 10
11.277330
 20
-2.160426
 30
0.0
 10
11.328717
 20
-2.181407
 30
0.0
  0
SPLINE
  5
1b6
100
AcDbEntity
  8
Layer_1
 62
1
100
AcDbSpline
 70
8
 71
3
 72
8
 73
4
 74
0
 40
0
 40
0
 40
0
 40
0
 40
1
 40
1
 40
1
 40
1
 10
11.328717
 20
-2.181407
 30
0.0
 10
11.405985
 20
-2.212579
 30
0.0
 10
11.458372
 20
-2.274329
 30
0.0
 10
11.485903
 20
-2.366669
 30
0.0
  0
SPLINE
  5
1b7
100
AcDbEntity
  8
Layer_1
 62
1
100
AcDbSpline
 70
8
 71
3
 72
8
 73
4
 74
0
 40
0
 40
0
 40
0
 40
0
 40
1
 40
1
 40
1
 40
1
 10
11.485903
 20
-2.366669
 30
0.0
 10
11.503958
 20
-2.427227
 30
0.0
 10
11.506074
 20
-2.489392
 30
0.0
 10
11.492250
 20
-2.553152
 30
0.0
  0
SPLINE
  5
1b8
100
AcDbEntity
  8
Layer_1
 62
1
100
AcDbSpline
 70
8
 71
3
 72
8
 73
4
 74
0
 40
0
 40
0
 40
0
 40
0
 40
1
 40
1
 40
1
 40
1
 10
11.492250
 20
-2.553152
 30
0.0
 10
11.478852
 20
-2.616782
 30
0.0
 10
11.450081
 20
-2.686984
 30
0.0
 10
11.405927
 20
-2.763784
 30
0.0
  0
SPLINE
  5
1b9
100
AcDbEntity
  8
Layer_1
 62
1
100
AcDbSpline
 70
8
 71
3
 72
8
 73
4
 74
0
 40
0
 40
0
 40
0
 40
0
 40
1
 40
1
 40
1
 40
1
 10
11.405927
 20
-2.763784
 30
0.0
 10
11.378123
 20
-2.811672
 30
0.0
 10
11.349270
 20
-2.856848
 30
0.0
 10
11.319379
 20
-2.899282
 30
0.0
  0
SPLINE
  5
1ba
100
AcDbEntity
  8
Layer_1
 62
1
100
AcDbSpline
 70
8
 71
3
 72
8
 73
4
 74
0
 40
0
 40
0
 40
0
 40
0
 40
1
 40
1
 40
1
 40
1
 10
11.319379
 20
-2.899282
 30
0.0
 10
11.289360
 20
-2.941286
 30
0.0
 10
11.267885
 20
-2.970818
 30
0.0
 10
11.254945
 20
-2.987905
 30
0.0
  0
LWPOLYLINE
  5
1bb
100
AcDbEntity
  8
Layer_1
 62
1
100
AcDbPolyline
 90
3
 70
0
 10
2.785968
 20
10.081920
 30
0.0
 10
2.785864
 20
10.082024
 30
0.0
 10
1.885704
 20
10.546111
 30
0.0
  0
SPLINE
  5
1bc
100
AcDbEntity
  8
Layer_1
 62
1
100
AcDbSpline
 70
8
 71
3
 72
8
 73
4
 74
0
 40
0
 40
0
 40
0
 40
0
 40
1
 40
1
 40
1
 40
1
 10
11.729738
 20
-3.023936
 30
0.0
 10
11.869313
 20
-2.975096
 30
0.0
 10
12.007900
 20
-2.922527
 30
0.0
 10
12.145408
 20
-2.866445
 30
0.0
  0
SPLINE
  5
1bd
100
AcDbEntity
  8
Layer_1
 62
1
100
AcDbSpline
 70
8
 71
3
 72
8
 73
4
 74
0
 40
0
 40
0
 40
0
 40
0
 40
1
 40
1
 40
1
 40
1
 10
12.145408
 20
-2.866445
 30
0.0
 10
12.125883
 20
-2.869512
 30
0.0
 10
12.106890
 20
-2.871240
 30
0.0
 10
12.088543
 20
-2.871287
 30
0.0
  0
SPLINE
  5
1be
100
AcDbEntity
  8
Layer_1
 62
1
100
AcDbSpline
 70
8
 71
3
 72
8
 73
4
 74
0
 40
0
 40
0
 40
0
 40
0
 40
1
 40
1
 40
1
 40
1
 10
12.088543
 20
-2.871287
 30
0.0
 10
12.031814
 20
-2.871445
 30
0.0
 10
11.980059
 20
-2.857905
 30
0.0
 10
11.933311
 20
-2.830679
 30
0.0
  0
SPLINE
  5
1bf
100
AcDbEntity
  8
Layer_1
 62
1
100
AcDbSpline
 70
8
 71
3
 72
8
 73
4
 74
0
 40
0
 40
0
 40
0
 40
0
 40
1
 40
1
 40
1
 40
1
 10
11.933311
 20
-2.830679
 30
0.0
 10
11.886156
 20
-2.803638
 30
0.0
 10
11.843275
 20
-2.763475
 30
0.0
 10
11.804648
 20
-2.710175
 30
0.0
  0
SPLINE
  5
1c0
100
AcDbEntity
  8
Layer_1
 62
1
100
AcDbSpline
 70
8
 71
3
 72
8
 73
4
 74
0
 40
0
 40
0
 40
0
 40
0
 40
1
 40
1
 40
1
 40
1
 10
11.804648
 20
-2.710175
 30
0.0
 10
11.765845
 20
-2.656468
 30
0.0
 10
11.730114
 20
-2.591341
 30
0.0
 10
11.697450
 20
-2.514801
 30
0.0
  0
SPLINE
  5
1c1
100
AcDbEntity
  8
Layer_1
 62
1
100
AcDbSpline
 70
8
 71
3
 72
8
 73
4
 74
0
 40
0
 40
0
 40
0
 40
0
 40
1
 40
1
 40
1
 40
1
 10
11.697450
 20
-2.514801
 30
0.0
 10
11.663742
 20
-2.435819
 30
0.0
 10
11.641375
 20
-2.364267
 30
0.0
 10
11.630372
 20
-2.300141
 30
0.0
  0
SPLINE
  5
1c2
100
AcDbEntity
  8
Layer_1
 62
1
100
AcDbSpline
 70
8
 71
3
 72
8
 73
4
 74
0
 40
0
 40
0
 40
0
 40
0
 40
1
 40
1
 40
1
 40
1
 10
11.630372
 20
-2.300141
 30
0.0
 10
11.619370
 20
-2.236014
 30
0.0
 10
11.620322
 20
-2.177360
 30
0.0
 10
11.633241
 20
-2.124197
 30
0.0
  0
SPLINE
  5
1c3
100
AcDbEntity
  8
Layer_1
 62
1
100
AcDbSpline
 70
8
 71
3
 72
8
 73
4
 74
0
 40
0
 40
0
 40
0
 40
0
 40
1
 40
1
 40
1
 40
1
 10
11.633241
 20
-2.124197
 30
0.0
 10
11.646341
 20
-2.071441
 30
0.0
 10
11.672673
 20
-2.024837
 30
0.0
 10
11.712200
 20
-1.984386
 30
0.0
  0
SPLINE
  5
1c4
100
AcDbEntity
  8
Layer_1
 62
1
100
AcDbSpline
 70
8
 71
3
 72
8
 73
4
 74
0
 40
0
 40
0
 40
0
 40
0
 40
1
 40
1
 40
1
 40
1
 10
11.712200
 20
-1.984386
 30
0.0
 10
11.726094
 20
-1.970168
 30
0.0
 10
11.741756
 20
-1.956721
 30
0.0
 10
11.759015
 20
-1.943980
 30
0.0
  0
LWPOLYLINE
  5
1c5
100
AcDbEntity
  8
Layer_1
 62
1
100
AcDbPolyline
 90
3
 70
0
 10
11.254945
 20
-2.987905
 30
0.0
 10
11.680157
 20
-2.857677
 30
0.0
 10
11.729738
 20
-3.023936
 30
0.0
  0
SPLINE
  5
1c6
100
AcDbEntity
  8
Layer_1
 62
1
100
AcDbSpline
 70
8
 71
3
 72
8
 73
4
 74
0
 40
0
 40
0
 40
0
 40
0
 40
1
 40
1
 40
1
 40
1
 10
11.997865
 20
-2.037303
 30
0.0
 10
11.980285
 20
-2.037023
 30
0.0
 10
11.962119
 20
-2.040886
 30
0.0
 10
11.943341
 20
-2.048900
 30
0.0
  0
SPLINE
  5
1c7
100
AcDbEntity
  8
Layer_1
 62
1
100
AcDbSpline
 70
8
 71
3
 72
8
 73
4
 74
0
 40
0
 40
0
 40
0
 40
0
 40
1
 40
1
 40
1
 40
1
 10
11.943341
 20
-2.048900
 30
0.0
 10
11.893265
 20
-2.070271
 30
0.0
 10
11.867424
 20
-2.108981
 30
0.0
 10
11.865827
 20
-2.165009
 30
0.0
  0
SPLINE
  5
1c8
100
AcDbEntity
  8
Layer_1
 62
1
100
AcDbSpline
 70
8
 71
3
 72
8
 73
4
 74
0
 40
0
 40
0
 40
0
 40
0
 40
1
 40
1
 40
1
 40
1
 10
11.865827
 20
-2.165009
 30
0.0
 10
11.864041
 20
-2.220630
 30
0.0
 10
11.886788
 20
-2.303802
 30
0.0
 10
11.934063
 20
-2.414541
 30
0.0
  0
SPLINE
  5
1c9
100
AcDbEntity
  8
Layer_1
 62
1
100
AcDbSpline
 70
8
 71
3
 72
8
 73
4
 74
0
 40
0
 40
0
 40
0
 40
0
 40
1
 40
1
 40
1
 40
1
 10
11.934063
 20
-2.414541
 30
0.0
 10
11.980106
 20
-2.522429
 30
0.0
 10
12.024277
 20
-2.595507
 30
0.0
 10
12.066591
 20
-2.633759
 30
0.0
  0
SPLINE
  5
1ca
100
AcDbEntity
  8
Layer_1
 62
1
100
AcDbSpline
 70
8
 71
3
 72
8
 73
4
 74
0
 40
0
 40
0
 40
0
 40
0
 40
1
 40
1
 40
1
 40
1
 10
12.066591
 20
-2.633759
 30
0.0
 10
12.108904
 20
-2.672010
 30
0.0
 10
12.154698
 20
-2.680621
 30
0.0
 10
12.203961
 20
-2.659597
 30
0.0
  0
SPLINE
  5
1cb
100
AcDbEntity
  8
Layer_1
 62
1
100
AcDbSpline
 70
8
 71
3
 72
8
 73
4
 74
0
 40
0
 40
0
 40
0
 40
0
 40
1
 40
1
 40
1
 40
1
 10
12.203961
 20
-2.659597
 30
0.0
 10
12.253223
 20
-2.638573
 30
0.0
 10
12.278680
 20
-2.599548
 30
0.0
 10
12.280336
 20
-2.542532
 30
0.0
  0
SPLINE
  5
1cc
100
AcDbEntity
  8
Layer_1
 62
1
100
AcDbSpline
 70
8
 71
3
 72
8
 73
4
 74
0
 40
0
 40
0
 40
0
 40
0
 40
1
 40
1
 40
1
 40
1
 10
12.280336
 20
-2.542532
 30
0.0
 10
12.281990
 20
-2.485515
 30
0.0
 10
12.259627
 20
-2.402659
 30
0.0
 10
12.213238
 20
-2.293956
 30
0.0
  0
SPLINE
  5
1cd
100
AcDbEntity
  8
Layer_1
 62
1
100
AcDbSpline
 70
8
 71
3
 72
8
 73
4
 74
0
 40
0
 40
0
 40
0
 40
0
 40
1
 40
1
 40
1
 40
1
 10
12.213238
 20
-2.293956
 30
0.0
 10
12.166328
 20
-2.184032
 30
0.0
 10
12.122178
 20
-2.110477
 30
0.0
 10
12.080792
 20
-2.073273
 30
0.0
  0
SPLINE
  5
1ce
100
AcDbEntity
  8
Layer_1
 62
1
100
AcDbSpline
 70
8
 71
3
 72
8
 73
4
 74
0
 40
0
 40
0
 40
0
 40
0
 40
1
 40
1
 40
1
 40
1
 10
12.080792
 20
-2.073273
 30
0.0
 10
12.054817
 20
-2.049766
 30
0.0
 10
12.027167
 20
-2.037770
 30
0.0
 10
11.997865
 20
-2.037303
 30
0.0
  0
LWPOLYLINE
  5
1cf
100
AcDbEntity
  8
Layer_1
 62
1
100
AcDbPolyline
 90
1
 70
1
 10
11.759015
 20
-1.943980
 30
0.0
  0
SPLINE
  5
1d0
100
AcDbEntity
  8
Layer_1
 62
1
100
AcDbSpline
 70
8
 71
3
 72
8
 73
4
 74
0
 40
0
 40
0
 40
0
 40
0
 40
1
 40
1
 40
1
 40
1
 10
10.934796
 20
-2.226410
 30
0.0
 10
10.738642
 20
-2.281495
 30
0.0
 10
10.539822
 20
-2.329086
 30
0.0
 10
10.338686
 20
-2.368744
 30
0.0
  0
SPLINE
  5
1d1
100
AcDbEntity
  8
Layer_1
 62
1
100
AcDbSpline
 70
8
 71
3
 72
8
 73
4
 74
0
 40
0
 40
0
 40
0
 40
0
 40
1
 40
1
 40
1
 40
1
 10
10.338686
 20
-2.368744
 30
0.0
 10
10.360494
 20
-2.369954
 30
0.0
 10
10.381129
 20
-2.372743
 30
0.0
 10
10.400454
 20
-2.377289
 30
0.0
  0
SPLINE
  5
1d2
100
AcDbEntity
  8
Layer_1
 62
1
100
AcDbSpline
 70
8
 71
3
 72
8
 73
4
 74
0
 40
0
 40
0
 40
0
 40
0
 40
1
 40
1
 40
1
 40
1
 10
10.400454
 20
-2.377289
 30
0.0
 10
10.454973
 20
-2.389697
 30
0.0
 10
10.502372
 20
-2.414683
 30
0.0
 10
10.542645
 20
-2.452240
 30
0.0
  0
SPLINE
  5
1d3
100
AcDbEntity
  8
Layer_1
 62
1
100
AcDbSpline
 70
8
 71
3
 72
8
 73
4
 74
0
 40
0
 40
0
 40
0
 40
0
 40
1
 40
1
 40
1
 40
1
 10
10.542645
 20
-2.452240
 30
0.0
 10
10.582319
 20
-2.489007
 30
0.0
 10
10.615141
 20
-2.537388
 30
0.0
 10
10.641115
 20
-2.597402
 30
0.0
  0
SPLINE
  5
1d4
100
AcDbEntity
  8
Layer_1
 62
1
100
AcDbSpline
 70
8
 71
3
 72
8
 73
4
 74
0
 40
0
 40
0
 40
0
 40
0
 40
1
 40
1
 40
1
 40
1
 10
10.641115
 20
-2.597402
 30
0.0
 10
10.667010
 20
-2.656981
 30
0.0
 10
10.687539
 20
-2.727694
 30
0.0
 10
10.702699
 20
-2.809520
 30
0.0
  0
SPLINE
  5
1d5
100
AcDbEntity
  8
Layer_1
 62
1
100
AcDbSpline
 70
8
 71
3
 72
8
 73
4
 74
0
 40
0
 40
0
 40
0
 40
0
 40
1
 40
1
 40
1
 40
1
 10
10.702699
 20
-2.809520
 30
0.0
 10
10.717860
 20
-2.891346
 30
0.0
 10
10.724057
 20
-2.966048
 30
0.0
 10
10.721274
 20
-3.033641
 30
0.0
  0
SPLINE
  5
1d6
100
AcDbEntity
  8
Layer_1
 62
1
100
AcDbSpline
 70
8
 71
3
 72
8
 73
4
 74
0
 40
0
 40
0
 40
0
 40
0
 40
1
 40
1
 40
1
 40
1
 10
10.721274
 20
-3.033641
 30
0.0
 10
10.718411
 20
-3.100799
 30
0.0
 10
10.705137
 20
-3.157955
 30
0.0
 10
10.681459
 20
-3.205109
 30
0.0
  0
SPLINE
  5
1d7
100
AcDbEntity
  8
Layer_1
 62
1
100
AcDbSpline
 70
8
 71
3
 72
8
 73
4
 74
0
 40
0
 40
0
 40
0
 40
0
 40
1
 40
1
 40
1
 40
1
 10
10.681459
 20
-3.205109
 30
0.0
 10
10.657073
 20
-3.253295
 30
0.0
 10
10.621654
 20
-3.292950
 30
0.0
 10
10.575197
 20
-3.324066
 30
0.0
  0
SPLINE
  5
1d8
100
AcDbEntity
  8
Layer_1
 62
1
100
AcDbSpline
 70
8
 71
3
 72
8
 73
4
 74
0
 40
0
 40
0
 40
0
 40
0
 40
1
 40
1
 40
1
 40
1
 10
10.575197
 20
-3.324066
 30
0.0
 10
10.560152
 20
-3.333986
 30
0.0
 10
10.543511
 20
-3.342919
 30
0.0
 10
10.525596
 20
-3.351064
 30
0.0
  0
SPLINE
  5
1d9
100
AcDbEntity
  8
Layer_1
 62
1
100
AcDbSpline
 70
8
 71
3
 72
8
 73
4
 74
0
 40
0
 40
0
 40
0
 40
0
 40
1
 40
1
 40
1
 40
1
 10
10.525596
 20
-3.351064
 30
0.0
 10
10.679646
 20
-3.320831
 30
0.0
 10
10.833007
 20
-3.286252
 30
0.0
 10
10.985578
 20
-3.247671
 30
0.0
  0
LWPOLYLINE
  5
1da
100
AcDbEntity
  8
Layer_1
 62
1
100
AcDbPolyline
 90
1
 70
1
 10
11.997865
 20
-2.037303
 30
0.0
  0
SPLINE
  5
1db
100
AcDbEntity
  8
Layer_1
 62
1
100
AcDbSpline
 70
8
 71
3
 72
8
 73
4
 74
0
 40
0
 40
0
 40
0
 40
0
 40
1
 40
1
 40
1
 40
1
 10
10.944643
 20
-3.110382
 30
0.0
 10
10.988999
 20
-3.051331
 30
0.0
 10
11.032596
 20
-2.989692
 30
0.0
 10
11.075421
 20
-2.925487
 30
0.0
  0
SPLINE
  5
1dc
100
AcDbEntity
  8
Layer_1
 62
1
100
AcDbSpline
 70
8
 71
3
 72
8
 73
4
 74
0
 40
0
 40
0
 40
0
 40
0
 40
1
 40
1
 40
1
 40
1
 10
11.075421
 20
-2.925487
 30
0.0
 10
11.118667
 20
-2.861152
 30
0.0
 10
11.152392
 20
-2.806762
 30
0.0
 10
11.176596
 20
-2.762319
 30
0.0
  0
SPLINE
  5
1dd
100
AcDbEntity
  8
Layer_1
 62
1
100
AcDbSpline
 70
8
 71
3
 72
8
 73
4
 74
0
 40
0
 40
0
 40
0
 40
0
 40
1
 40
1
 40
1
 40
1
 10
11.176596
 20
-2.762319
 30
0.0
 10
11.212888
 20
-2.696365
 30
0.0
 10
11.236277
 20
-2.641407
 30
0.0
 10
11.246746
 20
-2.597423
 30
0.0
  0
SPLINE
  5
1de
100
AcDbEntity
  8
Layer_1
 62
1
100
AcDbSpline
 70
8
 71
3
 72
8
 73
4
 74
0
 40
0
 40
0
 40
0
 40
0
 40
1
 40
1
 40
1
 40
1
 10
11.246746
 20
-2.597423
 30
0.0
 10
11.257216
 20
-2.553438
 30
0.0
 10
11.257000
 20
-2.513181
 30
0.0
 10
11.246121
 20
-2.476675
 30
0.0
  0
SPLINE
  5
1df
100
AcDbEntity
  8
Layer_1
 62
1
100
AcDbSpline
 70
8
 71
3
 72
8
 73
4
 74
0
 40
0
 40
0
 40
0
 40
0
 40
1
 40
1
 40
1
 40
1
 10
11.246121
 20
-2.476675
 30
0.0
 10
11.233061
 20
-2.432867
 30
0.0
 10
11.209027
 20
-2.403433
 30
0.0
 10
11.174018
 20
-2.388377
 30
0.0
  0
SPLINE
  5
1e0
100
AcDbEntity
  8
Layer_1
 62
1
100
AcDbSpline
 70
8
 71
3
 72
8
 73
4
 74
0
 40
0
 40
0
 40
0
 40
0
 40
1
 40
1
 40
1
 40
1
 10
11.174018
 20
-2.388377
 30
0.0
 10
11.139305
 20
-2.372762
 30
0.0
 10
11.095887
 20
-2.372942
 30
0.0
 10
11.043769
 20
-2.388906
 30
0.0
  0
SPLINE
  5
1e1
100
AcDbEntity
  8
Layer_1
 62
1
100
AcDbSpline
 70
8
 71
3
 72
8
 73
4
 74
0
 40
0
 40
0
 40
0
 40
0
 40
1
 40
1
 40
1
 40
1
 10
11.043769
 20
-2.388906
 30
0.0
 10
11.004785
 20
-2.400847
 30
0.0
 10
10.966116
 20
-2.421604
 30
0.0
 10
10.927762
 20
-2.451162
 30
0.0
  0
SPLINE
  5
1e2
100
AcDbEntity
  8
Layer_1
 62
1
100
AcDbSpline
 70
8
 71
3
 72
8
 73
4
 74
0
 40
0
 40
0
 40
0
 40
0
 40
1
 40
1
 40
1
 40
1
 10
10.927762
 20
-2.451162
 30
0.0
 10
10.889833
 20
-2.480591
 30
0.0
 10
10.856221
 20
-2.513611
 30
0.0
 10
10.826911
 20
-2.550243
 30
0.0
  0
LWPOLYLINE
  5
1e3
100
AcDbEntity
  8
Layer_1
 62
1
100
AcDbPolyline
 90
2
 70
0
 10
10.985578
 20
-3.247671
 30
0.0
 10
10.944643
 20
-3.110382
 30
0.0
  0
SPLINE
  5
1e4
100
AcDbEntity
  8
Layer_1
 62
1
100
AcDbSpline
 70
8
 71
3
 72
8
 73
4
 74
0
 40
0
 40
0
 40
0
 40
0
 40
1
 40
1
 40
1
 40
1
 10
10.742988
 20
-2.343232
 30
0.0
 10
10.769104
 20
-2.320703
 30
0.0
 10
10.809415
 20
-2.293829
 30
0.0
 10
10.863919
 20
-2.262604
 30
0.0
  0
SPLINE
  5
1e5
100
AcDbEntity
  8
Layer_1
 62
1
100
AcDbSpline
 70
8
 71
3
 72
8
 73
4
 74
0
 40
0
 40
0
 40
0
 40
0
 40
1
 40
1
 40
1
 40
1
 10
10.863919
 20
-2.262604
 30
0.0
 10
10.887186
 20
-2.249323
 30
0.0
 10
10.910822
 20
-2.237303
 30
0.0
 10
10.934802
 20
-2.226410
 30
0.0
  0
LWPOLYLINE
  5
1e6
100
AcDbEntity
  8
Layer_1
 62
1
100
AcDbPolyline
 90
3
 70
0
 10
10.826911
 20
-2.550243
 30
0.0
 10
10.806566
 20
-2.556468
 30
0.0
 10
10.742988
 20
-2.343232
 30
0.0
  0
LWPOLYLINE
  5
1e7
100
AcDbEntity
  8
Layer_1
 62
1
100
AcDbPolyline
 90
1
 70
1
 10
10.934802
 20
-2.226410
 30
0.0
  0
SPLINE
  5
1e8
100
AcDbEntity
  8
Layer_1
 62
1
100
AcDbSpline
 70
8
 71
3
 72
8
 73
4
 74
0
 40
0
 40
0
 40
0
 40
0
 40
1
 40
1
 40
1
 40
1
 10
6.535748
 20
-3.206513
 30
0.0
 10
6.661078
 20
-3.240718
 30
0.0
 10
6.786976
 20
-3.272017
 30
0.0
 10
6.913312
 20
-3.300527
 30
0.0
  0
SPLINE
  5
1e9
100
AcDbEntity
  8
Layer_1
 62
1
100
AcDbSpline
 70
8
 71
3
 72
8
 73
4
 74
0
 40
0
 40
0
 40
0
 40
0
 40
1
 40
1
 40
1
 40
1
 10
6.913312
 20
-3.300527
 30
0.0
 10
6.886950
 20
-3.291754
 30
0.0
 10
6.862338
 20
-3.282241
 30
0.0
 10
6.839642
 20
-3.271922
 30
0.0
  0
SPLINE
  5
1ea
100
AcDbEntity
  8
Layer_1
 62
1
100
AcDbSpline
 70
8
 71
3
 72
8
 73
4
 74
0
 40
0
 40
0
 40
0
 40
0
 40
1
 40
1
 40
1
 40
1
 10
6.839642
 20
-3.271922
 30
0.0
 10
6.783078
 20
-3.245623
 30
0.0
 10
6.730947
 20
-3.216383
 30
0.0
 10
6.683250
 20
-3.184194
 30
0.0
  0
LWPOLYLINE
  5
1eb
100
AcDbEntity
  8
Layer_1
 62
1
100
AcDbPolyline
 90
10
 70
0
 10
6.831890
 20
-2.255158
 30
0.0
 10
6.774517
 20
-2.440033
 30
0.0
 10
6.335492
 20
-2.299164
 30
0.0
 10
6.283958
 20
-2.463939
 30
0.0
 10
6.692221
 20
-2.594920
 30
0.0
 10
6.634462
 20
-2.779572
 30
0.0
 10
6.226198
 20
-2.648570
 30
0.0
 10
6.152407
 20
-2.884491
 30
0.0
 10
6.592328
 20
-3.025645
 30
0.0
 10
6.535748
 20
-3.206513
 30
0.0
  0
SPLINE
  5
1ec
100
AcDbEntity
  8
Layer_1
 62
1
100
AcDbSpline
 70
8
 71
3
 72
8
 73
4
 74
0
 40
0
 40
0
 40
0
 40
0
 40
1
 40
1
 40
1
 40
1
 10
6.757408
 20
-2.957327
 30
0.0
 10
6.800738
 20
-3.008955
 30
0.0
 10
6.852071
 20
-3.052266
 30
0.0
 10
6.911400
 20
-3.087250
 30
0.0
  0
SPLINE
  5
1ed
100
AcDbEntity
  8
Layer_1
 62
1
100
AcDbSpline
 70
8
 71
3
 72
8
 73
4
 74
0
 40
0
 40
0
 40
0
 40
0
 40
1
 40
1
 40
1
 40
1
 10
6.911400
 20
-3.087250
 30
0.0
 10
6.971160
 20
-3.122322
 30
0.0
 10
7.030545
 20
-3.145793
 30
0.0
 10
7.089561
 20
-3.157685
 30
0.0
  0
SPLINE
  5
1ee
100
AcDbEntity
  8
Layer_1
 62
1
100
AcDbSpline
 70
8
 71
3
 72
8
 73
4
 74
0
 40
0
 40
0
 40
0
 40
0
 40
1
 40
1
 40
1
 40
1
 10
7.089561
 20
-3.157685
 30
0.0
 10
7.104747
 20
-3.160745
 30
0.0
 10
7.124970
 20
-3.163462
 30
0.0
 10
7.150230
 20
-3.165843
 30
0.0
  0
SPLINE
  5
1ef
100
AcDbEntity
  8
Layer_1
 62
1
100
AcDbSpline
 70
8
 71
3
 72
8
 73
4
 74
0
 40
0
 40
0
 40
0
 40
0
 40
1
 40
1
 40
1
 40
1
 10
7.150230
 20
-3.165843
 30
0.0
 10
7.175487
 20
-3.168224
 30
0.0
 10
7.196536
 20
-3.167956
 30
0.0
 10
7.213381
 20
-3.165029
 30
0.0
  0
SPLINE
  5
1f0
100
AcDbEntity
  8
Layer_1
 62
1
100
AcDbSpline
 70
8
 71
3
 72
8
 73
4
 74
0
 40
0
 40
0
 40
0
 40
0
 40
1
 40
1
 40
1
 40
1
 10
7.213381
 20
-3.165029
 30
0.0
 10
7.234047
 20
-3.161066
 30
0.0
 10
7.251644
 20
-3.154460
 30
0.0
 10
7.266156
 20
-3.145193
 30
0.0
  0
SPLINE
  5
1f1
100
AcDbEntity
  8
Layer_1
 62
1
100
AcDbSpline
 70
8
 71
3
 72
8
 73
4
 74
0
 40
0
 40
0
 40
0
 40
0
 40
1
 40
1
 40
1
 40
1
 10
7.266156
 20
-3.145193
 30
0.0
 10
7.281101
 20
-3.136012
 30
0.0
 10
7.290879
 20
-3.119912
 30
0.0
 10
7.295514
 20
-3.096914
 30
0.0
  0
SPLINE
  5
1f2
100
AcDbEntity
  8
Layer_1
 62
1
100
AcDbSpline
 70
8
 71
3
 72
8
 73
4
 74
0
 40
0
 40
0
 40
0
 40
0
 40
1
 40
1
 40
1
 40
1
 10
7.295514
 20
-3.096914
 30
0.0
 10
7.299797
 20
-3.075651
 30
0.0
 10
7.294362
 20
-3.055593
 30
0.0
 10
7.279197
 20
-3.036733
 30
0.0
  0
SPLINE
  5
1f3
100
AcDbEntity
  8
Layer_1
 62
1
100
AcDbSpline
 70
8
 71
3
 72
8
 73
4
 74
0
 40
0
 40
0
 40
0
 40
0
 40
1
 40
1
 40
1
 40
1
 10
7.279197
 20
-3.036733
 30
0.0
 10
7.264554
 20
-3.017527
 30
0.0
 10
7.240716
 20
-3.000297
 30
0.0
 10
7.207664
 20
-2.985057
 30
0.0
  0
SPLINE
  5
1f4
100
AcDbEntity
  8
Layer_1
 62
1
100
AcDbSpline
 70
8
 71
3
 72
8
 73
4
 74
0
 40
0
 40
0
 40
0
 40
0
 40
1
 40
1
 40
1
 40
1
 10
7.207664
 20
-2.985057
 30
0.0
 10
7.172963
 20
-2.969033
 30
0.0
 10
7.135945
 20
-2.953229
 30
0.0
 10
7.096641
 20
-2.937633
 30
0.0
  0
SPLINE
  5
1f5
100
AcDbEntity
  8
Layer_1
 62
1
100
AcDbSpline
 70
8
 71
3
 72
8
 73
4
 74
0
 40
0
 40
0
 40
0
 40
0
 40
1
 40
1
 40
1
 40
1
 10
7.096641
 20
-2.937633
 30
0.0
 10
7.057861
 20
-2.921690
 30
0.0
 10
7.021872
 20
-2.904273
 30
0.0
 10
6.988650
 20
-2.885386
 30
0.0
  0
SPLINE
  5
1f6
100
AcDbEntity
  8
Layer_1
 62
1
100
AcDbSpline
 70
8
 71
3
 72
8
 73
4
 74
0
 40
0
 40
0
 40
0
 40
0
 40
1
 40
1
 40
1
 40
1
 10
6.988650
 20
-2.885386
 30
0.0
 10
6.912405
 20
-2.842478
 30
0.0
 10
6.860827
 20
-2.794828
 30
0.0
 10
6.833905
 20
-2.742442
 30
0.0
  0
SPLINE
  5
1f7
100
AcDbEntity
  8
Layer_1
 62
1
100
AcDbSpline
 70
8
 71
3
 72
8
 73
4
 74
0
 40
0
 40
0
 40
0
 40
0
 40
1
 40
1
 40
1
 40
1
 10
6.833905
 20
-2.742442
 30
0.0
 10
6.807504
 20
-2.689710
 30
0.0
 10
6.801064
 20
-2.629729
 30
0.0
 10
6.814617
 20
-2.562470
 30
0.0
  0
SPLINE
  5
1f8
100
AcDbEntity
  8
Layer_1
 62
1
100
AcDbSpline
 70
8
 71
3
 72
8
 73
4
 74
0
 40
0
 40
0
 40
0
 40
0
 40
1
 40
1
 40
1
 40
1
 10
6.814617
 20
-2.562470
 30
0.0
 10
6.832804
 20
-2.472212
 30
0.0
 10
6.887980
 20
-2.406782
 30
0.0
 10
6.980145
 20
-2.366201
 30
0.0
  0
SPLINE
  5
1f9
100
AcDbEntity
  8
Layer_1
 62
1
100
AcDbSpline
 70
8
 71
3
 72
8
 73
4
 74
0
 40
0
 40
0
 40
0
 40
0
 40
1
 40
1
 40
1
 40
1
 10
6.980145
 20
-2.366201
 30
0.0
 10
7.023485
 20
-2.347064
 30
0.0
 10
7.070650
 20
-2.335306
 30
0.0
 10
7.121522
 20
-2.330719
 30
0.0
  0
SPLINE
  5
1fa
100
AcDbEntity
  8
Layer_1
 62
1
100
AcDbSpline
 70
8
 71
3
 72
8
 73
4
 74
0
 40
0
 40
0
 40
0
 40
0
 40
1
 40
1
 40
1
 40
1
 10
7.121522
 20
-2.330719
 30
0.0
 10
7.025229
 20
-2.307650
 30
0.0
 10
6.928721
 20
-2.282502
 30
0.0
 10
6.831890
 20
-2.255158
 30
0.0
  0
LWPOLYLINE
  5
1fb
100
AcDbEntity
  8
Layer_1
 62
1
100
AcDbPolyline
 90
3
 70
0
 10
6.683250
 20
-3.184194
 30
0.0
 10
6.730064
 20
-2.951813
 30
0.0
 10
6.757408
 20
-2.957327
 30
0.0
  0
SPLINE
  5
1fc
100
AcDbEntity
  8
Layer_1
 62
1
100
AcDbSpline
 70
8
 71
3
 72
8
 73
4
 74
0
 40
0
 40
0
 40
0
 40
0
 40
1
 40
1
 40
1
 40
1
 10
10.086143
 20
-2.414276
 30
0.0
 10
10.060277
 20
-2.418493
 30
0.0
 10
10.034399
 20
-2.422668
 30
0.0
 10
10.008465
 20
-2.426626
 30
0.0
  0
SPLINE
  5
1fd
100
AcDbEntity
  8
Layer_1
 62
1
100
AcDbSpline
 70
8
 71
3
 72
8
 73
4
 74
0
 40
0
 40
0
 40
0
 40
0
 40
1
 40
1
 40
1
 40
1
 10
10.008465
 20
-2.426626
 30
0.0
 10
9.831449
 20
-2.453642
 30
0.0
 10
9.656696
 20
-2.475137
 30
0.0
 10
9.483644
 20
-2.491120
 30
0.0
  0
SPLINE
  5
1fe
100
AcDbEntity
  8
Layer_1
 62
1
100
AcDbSpline
 70
8
 71
3
 72
8
 73
4
 74
0
 40
0
 40
0
 40
0
 40
0
 40
1
 40
1
 40
1
 40
1
 10
9.483644
 20
-2.491120
 30
0.0
 10
9.547744
 20
-2.498909
 30
0.0
 10
9.601202
 20
-2.517831
 30
0.0
 10
9.643984
 20
-2.547882
 30
0.0
  0
SPLINE
  5
1ff
100
AcDbEntity
  8
Layer_1
 62
1
100
AcDbSpline
 70
8
 71
3
 72
8
 73
4
 74
0
 40
0
 40
0
 40
0
 40
0
 40
1
 40
1
 40
1
 40
1
 10
9.643984
 20
-2.547882
 30
0.0
 10
9.712630
 20
-2.595675
 30
0.0
 10
9.750401
 20
-2.667886
 30
0.0
 10
9.757285
 20
-2.764517
 30
0.0
  0
SPLINE
  5
200
100
AcDbEntity
  8
Layer_1
 62
1
100
AcDbSpline
 70
8
 71
3
 72
8
 73
4
 74
0
 40
0
 40
0
 40
0
 40
0
 40
1
 40
1
 40
1
 40
1
 10
9.757285
 20
-2.764517
 30
0.0
 10
9.761803
 20
-2.827888
 30
0.0
 10
9.750424
 20
-2.889266
 30
0.0
 10
9.723146
 20
-2.948660
 30
0.0
  0
SPLINE
  5
201
100
AcDbEntity
  8
Layer_1
 62
1
100
AcDbSpline
 70
8
 71
3
 72
8
 73
4
 74
0
 40
0
 40
0
 40
0
 40
0
 40
1
 40
1
 40
1
 40
1
 10
9.723146
 20
-2.948660
 30
0.0
 10
9.696309
 20
-3.008021
 30
0.0
 10
9.653038
 20
-3.070411
 30
0.0
 10
9.593345
 20
-3.135814
 30
0.0
  0
SPLINE
  5
202
100
AcDbEntity
  8
Layer_1
 62
1
100
AcDbSpline
 70
8
 71
3
 72
8
 73
4
 74
0
 40
0
 40
0
 40
0
 40
0
 40
1
 40
1
 40
1
 40
1
 10
9.593345
 20
-3.135814
 30
0.0
 10
9.555859
 20
-3.176534
 30
0.0
 10
9.517939
 20
-3.214348
 30
0.0
 10
9.479595
 20
-3.249258
 30
0.0
  0
SPLINE
  5
203
100
AcDbEntity
  8
Layer_1
 62
1
100
AcDbSpline
 70
8
 71
3
 72
8
 73
4
 74
0
 40
0
 40
0
 40
0
 40
0
 40
1
 40
1
 40
1
 40
1
 10
9.479595
 20
-3.249258
 30
0.0
 10
9.441220
 20
-3.283718
 30
0.0
 10
9.413867
 20
-3.307871
 30
0.0
 10
9.397544
 20
-3.321727
 30
0.0
  0
LWPOLYLINE
  5
204
100
AcDbEntity
  8
Layer_1
 62
1
100
AcDbPolyline
 90
1
 70
1
 10
6.831890
 20
-2.255158
 30
0.0
  0
SPLINE
  5
205
100
AcDbEntity
  8
Layer_1
 62
1
100
AcDbSpline
 70
8
 71
3
 72
8
 73
4
 74
0
 40
0
 40
0
 40
0
 40
0
 40
1
 40
1
 40
1
 40
1
 10
9.852501
 20
-3.456187
 30
0.0
 10
9.986766
 20
-3.440551
 30
0.0
 10
10.120721
 20
-3.421738
 30
0.0
 10
10.254274
 20
-3.399872
 30
0.0
  0
SPLINE
  5
206
100
AcDbEntity
  8
Layer_1
 62
1
100
AcDbSpline
 70
8
 71
3
 72
8
 73
4
 74
0
 40
0
 40
0
 40
0
 40
0
 40
1
 40
1
 40
1
 40
1
 10
10.254274
 20
-3.399872
 30
0.0
 10
10.236206
 20
-3.398507
 30
0.0
 10
10.218821
 20
-3.396141
 30
0.0
 10
10.202292
 20
-3.392487
 30
0.0
  0
SPLINE
  5
207
100
AcDbEntity
  8
Layer_1
 62
1
100
AcDbSpline
 70
8
 71
3
 72
8
 73
4
 74
0
 40
0
 40
0
 40
0
 40
0
 40
1
 40
1
 40
1
 40
1
 10
10.202292
 20
-3.392487
 30
0.0
 10
10.146902
 20
-3.380240
 30
0.0
 10
10.099368
 20
-3.355727
 30
0.0
 10
10.059694
 20
-3.318960
 30
0.0
  0
SPLINE
  5
208
100
AcDbEntity
  8
Layer_1
 62
1
100
AcDbSpline
 70
8
 71
3
 72
8
 73
4
 74
0
 40
0
 40
0
 40
0
 40
0
 40
1
 40
1
 40
1
 40
1
 10
10.059694
 20
-3.318960
 30
0.0
 10
10.019584
 20
-3.282273
 30
0.0
 10
9.986488
 20
-3.233698
 30
0.0
 10
9.960431
 20
-3.173249
 30
0.0
  0
SPLINE
  5
209
100
AcDbEntity
  8
Layer_1
 62
1
100
AcDbSpline
 70
8
 71
3
 72
8
 73
4
 74
0
 40
0
 40
0
 40
0
 40
0
 40
1
 40
1
 40
1
 40
1
 10
9.960431
 20
-3.173249
 30
0.0
 10
9.934294
 20
-3.112364
 30
0.0
 10
9.913640
 20
-3.041024
 30
0.0
 10
9.898480
 20
-2.959198
 30
0.0
  0
SPLINE
  5
20a
100
AcDbEntity
  8
Layer_1
 62
1
100
AcDbSpline
 70
8
 71
3
 72
8
 73
4
 74
0
 40
0
 40
0
 40
0
 40
0
 40
1
 40
1
 40
1
 40
1
 10
9.898480
 20
-2.959198
 30
0.0
 10
9.882837
 20
-2.874761
 30
0.0
 10
9.876658
 20
-2.800039
 30
0.0
 10
9.879926
 20
-2.735057
 30
0.0
  0
SPLINE
  5
20b
100
AcDbEntity
  8
Layer_1
 62
1
100
AcDbSpline
 70
8
 71
3
 72
8
 73
4
 74
0
 40
0
 40
0
 40
0
 40
0
 40
1
 40
1
 40
1
 40
1
 10
9.879926
 20
-2.735057
 30
0.0
 10
9.883193
 20
-2.670075
 30
0.0
 10
9.896941
 20
-2.613052
 30
0.0
 10
9.921165
 20
-2.563996
 30
0.0
  0
SPLINE
  5
20c
100
AcDbEntity
  8
Layer_1
 62
1
100
AcDbSpline
 70
8
 71
3
 72
8
 73
4
 74
0
 40
0
 40
0
 40
0
 40
0
 40
1
 40
1
 40
1
 40
1
 10
9.921165
 20
-2.563996
 30
0.0
 10
9.945471
 20
-2.515374
 30
0.0
 10
9.981322
 20
-2.475657
 30
0.0
 10
10.028729
 20
-2.444814
 30
0.0
  0
SPLINE
  5
20d
100
AcDbEntity
  8
Layer_1
 62
1
100
AcDbSpline
 70
8
 71
3
 72
8
 73
4
 74
0
 40
0
 40
0
 40
0
 40
0
 40
1
 40
1
 40
1
 40
1
 10
10.028729
 20
-2.444814
 30
0.0
 10
10.046226
 20
-2.433431
 30
0.0
 10
10.065381
 20
-2.423260
 30
0.0
 10
10.086143
 20
-2.414276
 30
0.0
  0
LWPOLYLINE
  5
20e
100
AcDbEntity
  8
Layer_1
 62
1
100
AcDbPolyline
 90
3
 70
0
 10
9.397544
 20
-3.321727
 30
0.0
 10
9.840598
 20
-3.289012
 30
0.0
 10
9.852501
 20
-3.456187
 30
0.0
  0
SPLINE
  5
20f
100
AcDbEntity
  8
Layer_1
 62
1
100
AcDbSpline
 70
8
 71
3
 72
8
 73
4
 74
0
 40
0
 40
0
 40
0
 40
0
 40
1
 40
1
 40
1
 40
1
 10
7.532554
 20
-2.416555
 30
0.0
 10
7.576425
 20
-2.436441
 30
0.0
 10
7.614898
 20
-2.457252
 30
0.0
 10
7.647605
 20
-2.479035
 30
0.0
  0
LWPOLYLINE
  5
210
100
AcDbEntity
  8
Layer_1
 62
1
100
AcDbPolyline
 90
1
 70
1
 10
10.086143
 20
-2.414276
 30
0.0
  0
SPLINE
  5
211
100
AcDbEntity
  8
Layer_1
 62
1
100
AcDbSpline
 70
8
 71
3
 72
8
 73
4
 74
0
 40
0
 40
0
 40
0
 40
0
 40
1
 40
1
 40
1
 40
1
 10
7.575930
 20
-2.696910
 30
0.0
 10
7.543171
 20
-2.657797
 30
0.0
 10
7.500483
 20
-2.622097
 30
0.0
 10
7.447837
 20
-2.589814
 30
0.0
  0
SPLINE
  5
212
100
AcDbEntity
  8
Layer_1
 62
1
100
AcDbSpline
 70
8
 71
3
 72
8
 73
4
 74
0
 40
0
 40
0
 40
0
 40
0
 40
1
 40
1
 40
1
 40
1
 10
7.447837
 20
-2.589814
 30
0.0
 10
7.395711
 20
-2.557184
 30
0.0
 10
7.340126
 20
-2.534913
 30
0.0
 10
7.281109
 20
-2.523021
 30
0.0
  0
SPLINE
  5
213
100
AcDbEntity
  8
Layer_1
 62
1
100
AcDbSpline
 70
8
 71
3
 72
8
 73
4
 74
0
 40
0
 40
0
 40
0
 40
0
 40
1
 40
1
 40
1
 40
1
 10
7.281109
 20
-2.523021
 30
0.0
 10
7.260285
 20
-2.518824
 30
0.0
 10
7.239155
 20
-2.516164
 30
0.0
 10
7.217714
 20
-2.515005
 30
0.0
  0
SPLINE
  5
214
100
AcDbEntity
  8
Layer_1
 62
1
100
AcDbSpline
 70
8
 71
3
 72
8
 73
4
 74
0
 40
0
 40
0
 40
0
 40
0
 40
1
 40
1
 40
1
 40
1
 10
7.217714
 20
-2.515005
 30
0.0
 10
7.196795
 20
-2.513498
 30
0.0
 10
7.176003
 20
-2.514724
 30
0.0
 10
7.155336
 20
-2.518687
 30
0.0
  0
SPLINE
  5
215
100
AcDbEntity
  8
Layer_1
 62
1
100
AcDbSpline
 70
8
 71
3
 72
8
 73
4
 74
0
 40
0
 40
0
 40
0
 40
0
 40
1
 40
1
 40
1
 40
1
 10
7.155336
 20
-2.518687
 30
0.0
 10
7.137103
 20
-2.521786
 30
0.0
 10
7.120556
 20
-2.528822
 30
0.0
 10
7.105694
 20
-2.539826
 30
0.0
  0
SPLINE
  5
216
100
AcDbEntity
  8
Layer_1
 62
1
100
AcDbSpline
 70
8
 71
3
 72
8
 73
4
 74
0
 40
0
 40
0
 40
0
 40
0
 40
1
 40
1
 40
1
 40
1
 10
7.105694
 20
-2.539826
 30
0.0
 10
7.090920
 20
-2.550395
 30
0.0
 10
7.081821
 20
-2.564142
 30
0.0
 10
7.078412
 20
-2.581065
 30
0.0
  0
SPLINE
  5
217
100
AcDbEntity
  8
Layer_1
 62
1
100
AcDbSpline
 70
8
 71
3
 72
8
 73
4
 74
0
 40
0
 40
0
 40
0
 40
0
 40
1
 40
1
 40
1
 40
1
 10
7.078412
 20
-2.581065
 30
0.0
 10
7.073252
 20
-2.606667
 30
0.0
 10
7.079037
 20
-2.628389
 30
0.0
 10
7.095766
 20
-2.646210
 30
0.0
  0
SPLINE
  5
218
100
AcDbEntity
  8
Layer_1
 62
1
100
AcDbSpline
 70
8
 71
3
 72
8
 73
4
 74
0
 40
0
 40
0
 40
0
 40
0
 40
1
 40
1
 40
1
 40
1
 10
7.095766
 20
-2.646210
 30
0.0
 10
7.112582
 20
-2.663597
 30
0.0
 10
7.146988
 20
-2.683385
 30
0.0
 10
7.198956
 20
-2.705597
 30
0.0
  0
SPLINE
  5
219
100
AcDbEntity
  8
Layer_1
 62
1
100
AcDbSpline
 70
8
 71
3
 72
8
 73
4
 74
0
 40
0
 40
0
 40
0
 40
0
 40
1
 40
1
 40
1
 40
1
 10
7.198956
 20
-2.705597
 30
0.0
 10
7.233051
 20
-2.720144
 30
0.0
 10
7.265669
 20
-2.734170
 30
0.0
 10
7.296816
 20
-2.747671
 30
0.0
  0
SPLINE
  5
21a
100
AcDbEntity
  8
Layer_1
 62
1
100
AcDbSpline
 70
8
 71
3
 72
8
 73
4
 74
0
 40
0
 40
0
 40
0
 40
0
 40
1
 40
1
 40
1
 40
1
 10
7.296816
 20
-2.747671
 30
0.0
 10
7.328393
 20
-2.761259
 30
0.0
 10
7.361833
 20
-2.777942
 30
0.0
 10
7.397137
 20
-2.797699
 30
0.0
  0
SPLINE
  5
21b
100
AcDbEntity
  8
Layer_1
 62
1
100
AcDbSpline
 70
8
 71
3
 72
8
 73
4
 74
0
 40
0
 40
0
 40
0
 40
0
 40
1
 40
1
 40
1
 40
1
 10
7.397137
 20
-2.797699
 30
0.0
 10
7.466442
 20
-2.836952
 30
0.0
 10
7.514432
 20
-2.881155
 30
0.0
 10
7.541098
 20
-2.930329
 30
0.0
  0
SPLINE
  5
21c
100
AcDbEntity
  8
Layer_1
 62
1
100
AcDbSpline
 70
8
 71
3
 72
8
 73
4
 74
0
 40
0
 40
0
 40
0
 40
0
 40
1
 40
1
 40
1
 40
1
 10
7.541098
 20
-2.930329
 30
0.0
 10
7.568288
 20
-2.979156
 30
0.0
 10
7.575132
 20
-3.036986
 30
0.0
 10
7.561667
 20
-3.103811
 30
0.0
  0
SPLINE
  5
21d
100
AcDbEntity
  8
Layer_1
 62
1
100
AcDbSpline
 70
8
 71
3
 72
8
 73
4
 74
0
 40
0
 40
0
 40
0
 40
0
 40
1
 40
1
 40
1
 40
1
 10
7.561667
 20
-3.103811
 30
0.0
 10
7.542429
 20
-3.199276
 30
0.0
 10
7.486217
 20
-3.268776
 30
0.0
 10
7.393007
 20
-3.312307
 30
0.0
  0
SPLINE
  5
21e
100
AcDbEntity
  8
Layer_1
 62
1
100
AcDbSpline
 70
8
 71
3
 72
8
 73
4
 74
0
 40
0
 40
0
 40
0
 40
0
 40
1
 40
1
 40
1
 40
1
 10
7.393007
 20
-3.312307
 30
0.0
 10
7.323177
 20
-3.344841
 30
0.0
 10
7.240221
 20
-3.357152
 30
0.0
 10
7.144187
 20
-3.349294
 30
0.0
  0
SPLINE
  5
21f
100
AcDbEntity
  8
Layer_1
 62
1
100
AcDbSpline
 70
8
 71
3
 72
8
 73
4
 74
0
 40
0
 40
0
 40
0
 40
0
 40
1
 40
1
 40
1
 40
1
 10
7.144187
 20
-3.349294
 30
0.0
 10
7.403362
 20
-3.400476
 30
0.0
 10
7.664201
 20
-3.439702
 30
0.0
 10
7.925885
 20
-3.467174
 30
0.0
  0
LWPOLYLINE
  5
220
100
AcDbEntity
  8
Layer_1
 62
1
100
AcDbPolyline
 90
3
 70
0
 10
7.647605
 20
-2.479035
 30
0.0
 10
7.602622
 20
-2.702281
 30
0.0
 10
7.575930
 20
-2.696910
 30
0.0
  0
SPLINE
  5
221
100
AcDbEntity
  8
Layer_1
 62
1
100
AcDbSpline
 70
8
 71
3
 72
8
 73
4
 74
0
 40
0
 40
0
 40
0
 40
0
 40
1
 40
1
 40
1
 40
1
 10
7.705263
 20
-2.445038
 30
0.0
 10
7.647710
 20
-2.436256
 30
0.0
 10
7.590145
 20
-2.426823
 30
0.0
 10
7.532554
 20
-2.416555
 30
0.0
  0
LWPOLYLINE
  5
222
100
AcDbEntity
  8
Layer_1
 62
1
100
AcDbPolyline
 90
4
 70
0
 10
7.925885
 20
-3.467174
 30
0.0
 10
7.996767
 20
-2.656606
 30
0.0
 10
7.689271
 20
-2.627940
 30
0.0
 10
7.705263
 20
-2.445038
 30
0.0
  0
SPLINE
  5
223
100
AcDbEntity
  8
Layer_1
 62
1
100
AcDbSpline
 70
8
 71
3
 72
8
 73
4
 74
0
 40
0
 40
0
 40
0
 40
0
 40
1
 40
1
 40
1
 40
1
 10
9.217694
 20
-2.511322
 30
0.0
 10
9.001332
 20
-2.524156
 30
0.0
 10
8.787267
 20
-2.528011
 30
0.0
 10
8.574526
 20
-2.522349
 30
0.0
  0
LWPOLYLINE
  5
224
100
AcDbEntity
  8
Layer_1
 62
1
100
AcDbPolyline
 90
1
 70
1
 10
7.532554
 20
-2.416555
 30
0.0
  0
SPLINE
  5
225
100
AcDbEntity
  8
Layer_1
 62
1
100
AcDbSpline
 70
8
 71
3
 72
8
 73
4
 74
0
 40
0
 40
0
 40
0
 40
0
 40
1
 40
1
 40
1
 40
1
 10
8.179872
 20
-3.490102
 30
0.0
 10
8.478961
 20
-3.512714
 30
0.0
 10
8.778819
 20
-3.519883
 30
0.0
 10
9.078229
 20
-3.511729
 30
0.0
  0
LWPOLYLINE
  5
226
100
AcDbEntity
  8
Layer_1
 62
1
100
AcDbPolyline
 90
4
 70
0
 10
8.574526
 20
-2.522349
 30
0.0
 10
8.558209
 20
-2.708934
 30
0.0
 10
8.250714
 20
-2.680268
 30
0.0
 10
8.179872
 20
-3.490102
 30
0.0
  0
SPLINE
  5
227
100
AcDbEntity
  8
Layer_1
 62
1
100
AcDbSpline
 70
8
 71
3
 72
8
 73
4
 74
0
 40
0
 40
0
 40
0
 40
0
 40
1
 40
1
 40
1
 40
1
 10
9.068301
 20
-3.372467
 30
0.0
 10
9.124353
 20
-3.324503
 30
0.0
 10
9.180213
 20
-3.273848
 30
0.0
 10
9.235883
 20
-3.220490
 30
0.0
  0
SPLINE
  5
228
100
AcDbEntity
  8
Layer_1
 62
1
100
AcDbSpline
 70
8
 71
3
 72
8
 73
4
 74
0
 40
0
 40
0
 40
0
 40
0
 40
1
 40
1
 40
1
 40
1
 10
9.235883
 20
-3.220490
 30
0.0
 10
9.291992
 20
-3.167099
 30
0.0
 10
9.336664
 20
-3.121328
 30
0.0
 10
9.369895
 20
-3.083181
 30
0.0
  0
SPLINE
  5
229
100
AcDbEntity
  8
Layer_1
 62
1
100
AcDbSpline
 70
8
 71
3
 72
8
 73
4
 74
0
 40
0
 40
0
 40
0
 40
0
 40
1
 40
1
 40
1
 40
1
 10
9.369895
 20
-3.083181
 30
0.0
 10
9.419569
 20
-3.026651
 30
0.0
 10
9.454271
 20
-2.978011
 30
0.0
 10
9.474001
 20
-2.937246
 30
0.0
  0
SPLINE
  5
22a
100
AcDbEntity
  8
Layer_1
 62
1
100
AcDbSpline
 70
8
 71
3
 72
8
 73
4
 74
0
 40
0
 40
0
 40
0
 40
0
 40
1
 40
1
 40
1
 40
1
 10
9.474001
 20
-2.937246
 30
0.0
 10
9.493731
 20
-2.896482
 30
0.0
 10
9.502235
 20
-2.857000
 30
0.0
 10
9.499513
 20
-2.818797
 30
0.0
  0
SPLINE
  5
22b
100
AcDbEntity
  8
Layer_1
 62
1
100
AcDbSpline
 70
8
 71
3
 72
8
 73
4
 74
0
 40
0
 40
0
 40
0
 40
0
 40
1
 40
1
 40
1
 40
1
 10
9.499513
 20
-2.818797
 30
0.0
 10
9.496245
 20
-2.772954
 30
0.0
 10
9.479162
 20
-2.738744
 30
0.0
 10
9.448264
 20
-2.716177
 30
0.0
  0
SPLINE
  5
22c
100
AcDbEntity
  8
Layer_1
 62
1
100
AcDbSpline
 70
8
 71
3
 72
8
 73
4
 74
0
 40
0
 40
0
 40
0
 40
0
 40
1
 40
1
 40
1
 40
1
 10
9.448264
 20
-2.716177
 30
0.0
 10
9.417773
 20
-2.693127
 30
0.0
 10
9.375392
 20
-2.683602
 30
0.0
 10
9.321087
 20
-2.687612
 30
0.0
  0
SPLINE
  5
22d
100
AcDbEntity
  8
Layer_1
 62
1
100
AcDbSpline
 70
8
 71
3
 72
8
 73
4
 74
0
 40
0
 40
0
 40
0
 40
0
 40
1
 40
1
 40
1
 40
1
 10
9.321087
 20
-2.687612
 30
0.0
 10
9.280470
 20
-2.690612
 30
0.0
 10
9.238235
 20
-2.702324
 30
0.0
 10
9.194419
 20
-2.722728
 30
0.0
  0
SPLINE
  5
22e
100
AcDbEntity
  8
Layer_1
 62
1
100
AcDbSpline
 70
8
 71
3
 72
8
 73
4
 74
0
 40
0
 40
0
 40
0
 40
0
 40
1
 40
1
 40
1
 40
1
 10
9.194419
 20
-2.722728
 30
0.0
 10
9.151046
 20
-2.743100
 30
0.0
 10
9.111107
 20
-2.767959
 30
0.0
 10
9.074587
 20
-2.797313
 30
0.0
  0
LWPOLYLINE
  5
22f
100
AcDbEntity
  8
Layer_1
 62
1
100
AcDbPolyline
 90
2
 70
0
 10
9.078229
 20
-3.511729
 30
0.0
 10
9.068301
 20
-3.372467
 30
0.0
  0
SPLINE
  5
230
100
AcDbEntity
  8
Layer_1
 62
1
100
AcDbSpline
 70
8
 71
3
 72
8
 73
4
 74
0
 40
0
 40
0
 40
0
 40
0
 40
1
 40
1
 40
1
 40
1
 10
9.037497
 20
-2.575714
 30
0.0
 10
9.067852
 20
-2.559467
 30
0.0
 10
9.112983
 20
-2.542124
 30
0.0
 10
9.172914
 20
-2.523692
 30
0.0
  0
SPLINE
  5
231
100
AcDbEntity
  8
Layer_1
 62
1
100
AcDbSpline
 70
8
 71
3
 72
8
 73
4
 74
0
 40
0
 40
0
 40
0
 40
0
 40
1
 40
1
 40
1
 40
1
 10
9.172914
 20
-2.523692
 30
0.0
 10
9.187806
 20
-2.519138
 30
0.0
 10
9.202742
 20
-2.515029
 30
0.0
 10
9.217694
 20
-2.511322
 30
0.0
  0
LWPOLYLINE
  5
232
100
AcDbEntity
  8
Layer_1
 62
1
100
AcDbPolyline
 90
3
 70
0
 10
9.074587
 20
-2.797313
 30
0.0
 10
9.053387
 20
-2.798879
 30
0.0
 10
9.037497
 20
-2.575714
 30
0.0
  0
SPLINE
  5
233
100
AcDbEntity
  8
Layer_1
 62
1
100
AcDbSpline
 70
8
 71
3
 72
8
 73
4
 74
0
 40
0
 40
0
 40
0
 40
0
 40
1
 40
1
 40
1
 40
1
 10
10.269167
 20
-2.555614
 30
0.0
 10
10.259874
 20
-2.555516
 30
0.0
 10
10.250213
 20
-2.556378
 30
0.0
 10
10.240176
 20
-2.558238
 30
0.0
  0
SPLINE
  5
234
100
AcDbEntity
  8
Layer_1
 62
1
100
AcDbSpline
 70
8
 71
3
 72
8
 73
4
 74
0
 40
0
 40
0
 40
0
 40
0
 40
1
 40
1
 40
1
 40
1
 10
10.240176
 20
-2.558238
 30
0.0
 10
10.186640
 20
-2.568156
 30
0.0
 10
10.152978
 20
-2.600286
 30
0.0
 10
10.139182
 20
-2.654613
 30
0.0
  0
SPLINE
  5
235
100
AcDbEntity
  8
Layer_1
 62
1
100
AcDbSpline
 70
8
 71
3
 72
8
 73
4
 74
0
 40
0
 40
0
 40
0
 40
0
 40
1
 40
1
 40
1
 40
1
 10
10.139182
 20
-2.654613
 30
0.0
 10
10.125310
 20
-2.708504
 30
0.0
 10
10.129333
 20
-2.794649
 30
0.0
 10
10.151267
 20
-2.913035
 30
0.0
  0
SPLINE
  5
236
100
AcDbEntity
  8
Layer_1
 62
1
100
AcDbSpline
 70
8
 71
3
 72
8
 73
4
 74
0
 40
0
 40
0
 40
0
 40
0
 40
1
 40
1
 40
1
 40
1
 10
10.151267
 20
-2.913035
 30
0.0
 10
10.172635
 20
-3.028375
 30
0.0
 10
10.199789
 20
-3.109325
 30
0.0
 10
10.232729
 20
-3.155894
 30
0.0
  0
SPLINE
  5
237
100
AcDbEntity
  8
Layer_1
 62
1
100
AcDbSpline
 70
8
 71
3
 72
8
 73
4
 74
0
 40
0
 40
0
 40
0
 40
0
 40
1
 40
1
 40
1
 40
1
 10
10.232729
 20
-3.155894
 30
0.0
 10
10.265666
 20
-3.202464
 30
0.0
 10
10.308462
 20
-3.220868
 30
0.0
 10
10.361127
 20
-3.211111
 30
0.0
  0
SPLINE
  5
238
100
AcDbEntity
  8
Layer_1
 62
1
100
AcDbSpline
 70
8
 71
3
 72
8
 73
4
 74
0
 40
0
 40
0
 40
0
 40
0
 40
1
 40
1
 40
1
 40
1
 10
10.361127
 20
-3.211111
 30
0.0
 10
10.413793
 20
-3.201354
 30
0.0
 10
10.447177
 20
-3.168834
 30
0.0
 10
10.461244
 20
-3.113556
 30
0.0
  0
SPLINE
  5
239
100
AcDbEntity
  8
Layer_1
 62
1
100
AcDbSpline
 70
8
 71
3
 72
8
 73
4
 74
0
 40
0
 40
0
 40
0
 40
0
 40
1
 40
1
 40
1
 40
1
 10
10.461244
 20
-3.113556
 30
0.0
 10
10.475313
 20
-3.058278
 30
0.0
 10
10.471564
 20
-2.972544
 30
0.0
 10
10.450034
 20
-2.856334
 30
0.0
  0
SPLINE
  5
23a
100
AcDbEntity
  8
Layer_1
 62
1
100
AcDbSpline
 70
8
 71
3
 72
8
 73
4
 74
0
 40
0
 40
0
 40
0
 40
0
 40
1
 40
1
 40
1
 40
1
 10
10.450034
 20
-2.856334
 30
0.0
 10
10.428260
 20
-2.738817
 30
0.0
 10
10.401258
 20
-2.657374
 30
0.0
 10
10.369001
 20
-2.612030
 30
0.0
  0
SPLINE
  5
23b
100
AcDbEntity
  8
Layer_1
 62
1
100
AcDbSpline
 70
8
 71
3
 72
8
 73
4
 74
0
 40
0
 40
0
 40
0
 40
0
 40
1
 40
1
 40
1
 40
1
 10
10.369001
 20
-2.612030
 30
0.0
 10
10.342722
 20
-2.574835
 30
0.0
 10
10.309436
 20
-2.556040
 30
0.0
 10
10.269167
 20
-2.555614
 30
0.0
  0
LWPOLYLINE
  5
23c
100
AcDbEntity
  8
Layer_1
 62
1
100
AcDbPolyline
 90
1
 70
1
 10
9.217694
 20
-2.511322
 30
0.0
  0
SPLINE
  5
23d
100
AcDbEntity
  8
Layer_1
 62
1
100
AcDbSpline
 70
8
 71
3
 72
8
 73
4
 74
0
 40
0
 40
0
 40
0
 40
0
 40
1
 40
1
 40
1
 40
1
 10
8.839327
 20
12.859565
 30
0.0
 10
5.755302
 20
12.859565
 30
0.0
 10
2.974950
 20
11.001793
 30
0.0
 10
1.794745
 20
8.152526
 30
0.0
  0
SPLINE
  5
23e
100
AcDbEntity
  8
Layer_1
 62
1
100
AcDbSpline
 70
8
 71
3
 72
8
 73
4
 74
0
 40
0
 40
0
 40
0
 40
0
 40
1
 40
1
 40
1
 40
1
 10
1.794745
 20
8.152526
 30
0.0
 10
0.614540
 20
5.303259
 30
0.0
 10
1.266903
 20
2.023610
 30
0.0
 10
3.447638
 20
-0.157124
 30
0.0
  0
SPLINE
  5
23f
100
AcDbEntity
  8
Layer_1
 62
1
100
AcDbSpline
 70
8
 71
3
 72
8
 73
4
 74
0
 40
0
 40
0
 40
0
 40
0
 40
1
 40
1
 40
1
 40
1
 10
3.447638
 20
-0.157124
 30
0.0
 10
5.628372
 20
-2.337859
 30
0.0
 10
8.908021
 20
-2.990222
 30
0.0
 10
11.757288
 20
-1.810016
 30
0.0
  0
SPLINE
  5
240
100
AcDbEntity
  8
Layer_1
 62
1
100
AcDbSpline
 70
8
 71
3
 72
8
 73
4
 74
0
 40
0
 40
0
 40
0
 40
0
 40
1
 40
1
 40
1
 40
1
 10
11.757288
 20
-1.810016
 30
0.0
 10
14.606555
 20
-0.629811
 30
0.0
 10
16.464327
 20
2.150540
 30
0.0
 10
16.464327
 20
5.234565
 30
0.0
  0
SPLINE
  5
241
100
AcDbEntity
  8
Layer_1
 62
1
100
AcDbSpline
 70
8
 71
3
 72
8
 73
4
 74
0
 40
0
 40
0
 40
0
 40
0
 40
1
 40
1
 40
1
 40
1
 10
16.464327
 20
5.234565
 30
0.0
 10
16.464327
 20
9.445736
 30
0.0
 10
13.050498
 20
12.859565
 30
0.0
 10
8.839327
 20
12.859565
 30
0.0
  0
LWPOLYLINE
  5
242
100
AcDbEntity
  8
Layer_1
 62
1
100
AcDbPolyline
 90
1
 70
1
 10
10.269167
 20
-2.555614
 30
0.0
  0
LWPOLYLINE
  5
243
100
AcDbEntity
  8
Layer_1
 62
1
100
AcDbPolyline
 90
1
 70
1
 10
8.839327
 20
12.859565
 30
0.0
  0
ENDSEC
  0
SECTION
  2
OBJECTS
  0
DICTIONARY
  5
C
330
0
100
AcDbDictionary
  3
ACAD_GROUP
350
D
  3
ACAD_MLINESTYLE
350
17
  0
DICTIONARY
  5
D
330
C
100
AcDbDictionary
  0
DICTIONARY
  5
1A
330
C
100
AcDbDictionary
  0
DICTIONARY
  5
17
330
C
100
AcDbDictionary
  3
STANDARD
350
18
  0
DICTIONARY
  5
19
330
C
100
AcDbDictionary
  0
ENDSEC
  0
EOF
