0
SECTION
2
HEADER
9
$INSUNITS
70
1
9
$ACADVER
1
AC1014
9
$HANDSEED
5
FFFF
0
ENDSEC
0
SECTION
2
TABLES
0
TABLE
2
VPORT
5
8
100
AcDbSymbolTable
0
ENDTAB
0
TABLE
2
LTYPE
5
5
100
AcDbSymbolTable
0
LTYPE
5
14
100
AcDbSymbolTableRecord
100
AcDbLinetypeTableRecord
2
BYBLOCK
70
0
0
LTYPE
5
15
100
AcDbSymbolTableRecord
100
AcDbLinetypeTableRecord
2
BYLAYER
70
0
0
ENDTAB
0
TABLE
2
LAYER
5
2
100
AcDbSymbolTable
70
2
0
LAYER
5
50
100
AcDbSymbolTableRecord
100
AcDbLayerTableRecord
2
0
70
0
6
CONTINUOUS
0
ENDTAB
0
TABLE
2
STYLE
5
3
100
AcDbSymbolTable
70
1
0
STYLE
5
11
100
AcDbSymbolTableRecord
100
AcDbTextStyleTableRecord
2
STANDARD
70
0
0
ENDTAB
0
TABLE
2
VIEW
5
6
100
AcDbSymbolTable
70
0
0
ENDTAB
0
TABLE
2
UCS
5
7
100
AcDbSymbolTable
70
0
0
ENDTAB
0
TABLE
2
APPID
5
9
100
AcDbSymbolTable
70
2
0
APPID
5
12
100
AcDbSymbolTableRecord
100
AcDbRegAppTableRecord
2
ACAD
70
0
0
ENDTAB
0
TABLE
2
DIMSTYLE
5
A
100
AcDbSymbolTable
70
1
0
ENDTAB
0
TABLE
2
BLOCK_RECORD
5
1
100
AcDbSymbolTable
70
1
0
BLOCK_RECORD
5
1F
100
AcDbSymbolTableRecord
100
AcDbBlockTableRecord
2
*MODEL_SPACE
0
BLOCK_RECORD
5
1B
100
AcDbSymbolTableRecord
100
AcDbBlockTableRecord
2
*PAPER_SPACE
0
ENDTAB
0
ENDSEC
0
SECTION
2
BLOCKS
0
BLOCK
5
20
100
AcDbEntity
100
AcDbBlockBegin
2
*MODEL_SPACE
0
ENDBLK
5
21
100
AcDbEntity
100
AcDbBlockEnd
0
BLOCK
5
1C
100
AcDbEntity
100
AcDbBlockBegin
2
*PAPER_SPACE
0
ENDBLK
5
1D
100
AcDbEntity
100
AcDbBlockEnd
0
ENDSEC
0
SECTION
2
ENTITIES
0
LINE
5
100
100
AcDbEntity
8
0
100
AcDbLine
10
-1.759246047592907
20
9.1923922264852713
30
0
11
-6.1640090338919009
21
8.6296405291292757
31
0
0
LINE
5
101
100
AcDbEntity
8
0
100
AcDbLine
10
-12.762339589669798
20
2.0813714427966614
30
0
11
-12.805659053079721
21
2.0350151884472556
31
0
0
LINE
5
102
100
AcDbEntity
8
0
100
AcDbLine
10
-20.950043501838678
20
4.9046690324359643
30
0
11
-20.039730908722063
21
5.7806020742027453
31
0
0
LINE
5
103
100
AcDbEntity
8
0
100
AcDbLine
10
-23.834007408820849
20
-0.056661408664356525
30
0
11
-21.002346742961606
21
4.8479187343981796
31
0
0
LINE
5
104
100
AcDbEntity
8
0
100
AcDbLine
10
-4.6548142081106407
20
-0.50147838961082392
30
0
11
-4.6505597982564595
21
-0.5734854760948761
31
0
0
ARC
5
105
100
AcDbEntity
8
0
100
AcDbCircle
10
-7.5214838225600529
20
6.0804196663522783
30
0
40
0.062500000000000527
210
0
220
0
230
1
100
AcDbArc
50
-52.719343940499584
51
298.69709578529267
0
SPLINE
5
106
100
AcDbEntity
8
0
100
AcDbSpline
70
0
71
3
72
8
73
4
74
0
42
0.000000001
43
0.0000000001
44
0.0000000001
40
0.60082426253360155
40
0.60082426253360155
40
0.60082426253360155
40
0.60082426253360155
40
1.1923946389755995
40
1.1923946389755995
40
1.1923946389755995
40
1.1923946389755995
10
-20.039730908722063
20
5.7806020742027453
30
0
10
-19.980751636306127
20
5.7280943139963565
30
0
10
-19.906381919464085
20
5.6842154414956552
30
0
10
-19.813121143415543
20
5.6429767731254037
30
0
0
LINE
5
107
100
AcDbEntity
8
0
100
AcDbLine
10
-9.1157008825958865
20
-8.4957180525742473
30
0
11
-11.927771694998587
21
-3.6250685310113004
31
0
0
LINE
5
108
100
AcDbEntity
8
0
100
AcDbLine
10
-9.0953625687117317
20
-8.543983400065132
30
0
11
-9.1157008825958865
21
-8.4957180525742473
31
0
0
LINE
5
109
100
AcDbEntity
8
0
100
AcDbLine
10
-14.689471823905713
20
0.15537962830385926
30
0
11
-14.74970458512631
21
0.11569165805003712
31
0
0
LINE
5
110
100
AcDbEntity
8
0
100
AcDbLine
10
-7.491472632813422
20
6.025596509839799
30
0
11
-5.3592059298243333
21
2.130462988935744
31
0
0
LINE
5
111
100
AcDbEntity
8
0
100
AcDbLine
10
-5.3592059298243333
20
2.130462988935744
30
0
11
-5.3407199676383685
21
2.0697691059695167
31
0
0
LINE
5
112
100
AcDbEntity
8
0
100
AcDbLine
10
-8.9816838109699209
20
-11.630981586685724
30
0
11
-9.9274488119129956
21
-10.174011989171255
31
0
0
LINE
5
113
100
AcDbEntity
8
0
100
AcDbLine
10
-17.270072019254563
20
-0.90172393221622382
30
0
11
-22.90259852680353
21
-1.4915151224315262
31
0
0
LINE
5
114
100
AcDbEntity
8
0
100
AcDbLine
10
-7.3343764076357978
20
-8.4520368601796338
30
0
11
-7.2721186437401348
21
-8.4817881719132568
31
0
0
LINE
5
115
100
AcDbEntity
8
0
100
AcDbLine
10
-12.805659053079721
20
2.0350151884472556
30
0
11
-14.689471823905713
21
0.15537962830385926
31
0
0
LINE
5
116
100
AcDbEntity
8
0
100
AcDbLine
10
-4.6505597982564595
20
-0.5734854760948761
30
0
11
-5.0144375039226059
21
-3.1892301927103994
31
0
0
LINE
5
117
100
AcDbEntity
8
0
100
AcDbLine
10
-12.173943173271944
20
1.7129853651824654
30
0
11
-12.161878529478265
21
1.7752743898783383
31
0
0
LINE
5
118
100
AcDbEntity
8
0
100
AcDbLine
10
-17.196944812363299
20
-0.87705336328002803
30
0
11
-17.270072019254563
21
-0.90172393221622382
31
0
0
LINE
5
119
100
AcDbEntity
8
0
100
AcDbLine
10
-8.9329351165408415
20
-11.654839945705328
30
0
11
-8.9816838109699209
21
-11.630981586685724
31
0
0
LINE
5
120
100
AcDbEntity
8
0
100
AcDbLine
10
-9.9310987567818838
20
-10.104107211777571
30
0
11
-9.1541834309537364
21
-8.5800566017565174
31
0
0
LINE
5
121
100
AcDbEntity
8
0
100
AcDbLine
10
-14.74970458512631
20
0.11569165805003712
30
0
11
-17.196944812363299
21
-0.87705336328002803
31
0
0
LINE
5
122
100
AcDbEntity
8
0
100
AcDbLine
10
-22.90259852680353
20
-1.4915151224315262
30
0
11
-23.834007408820849
21
-0.056661408664356525
31
0
0
LINE
5
123
100
AcDbEntity
8
0
100
AcDbLine
10
-21.002346742961606
20
4.8479187343981796
30
0
11
-20.950043501838678
21
4.9046690324359643
31
0
0
LINE
5
124
100
AcDbEntity
8
0
100
AcDbLine
10
-4.7459760200110299
20
2.4558361942249225
30
0
11
-4.7938875758777488
21
2.4974289945857802
31
0
0
LINE
5
125
100
AcDbEntity
8
0
100
AcDbLine
10
-6.3407097617227715
20
-9.9166418856804821
30
0
11
-6.3370598168538645
21
-9.9865466630741562
31
0
0
LINE
5
126
100
AcDbEntity
8
0
100
AcDbLine
10
-9.1541834309537364
20
-8.5800566017565174
30
0
11
-9.0953625687117317
21
-8.543983400065132
31
0
0
LINE
5
127
100
AcDbEntity
8
0
100
AcDbLine
10
-7.1719489554649067
20
-11.56289340581983
30
0
11
-8.9329351165408415
21
-11.654839945705328
31
0
0
LINE
5
128
100
AcDbEntity
8
0
100
AcDbLine
10
-5.0296357679435904
20
-3.2648954960540006
30
0
11
-7.3191751484654244
21
-8.4019158815409298
31
0
0
LINE
5
129
100
AcDbEntity
8
0
100
AcDbLine
10
-12.585075977879036
20
-0.98777113290893637
30
0
11
-12.588343683855724
21
-0.91571252756034993
31
0
0
LINE
5
130
100
AcDbEntity
8
0
100
AcDbLine
10
-7.1259500003714376
20
-11.53408797865829
30
0
11
-7.1719489554649067
21
-11.56289340581983
31
0
0
LINE
5
131
100
AcDbEntity
8
0
100
AcDbLine
10
-7.3191751484654244
20
-8.4019158815409298
30
0
11
-7.3343764076357978
21
-8.4520368601796338
31
0
0
LINE
5
132
100
AcDbEntity
8
0
100
AcDbLine
10
-7.2721186437401348
20
-8.4817881719132568
30
0
11
-6.3407097617227715
21
-9.9166418856804821
31
0
0
LINE
5
133
100
AcDbEntity
8
0
100
AcDbLine
10
-11.950767274210158
20
-3.5513974464796716
30
0
11
-12.585075977879036
21
-0.98777113290893637
31
0
0
LINE
5
134
100
AcDbEntity
8
0
100
AcDbLine
10
-5.0144375039226059
20
-3.1892301927103994
30
0
11
-5.0296357679435904
21
-3.2648954960540006
31
0
0
LINE
5
135
100
AcDbEntity
8
0
100
AcDbLine
10
-9.9274488119129956
20
-10.174011989171255
30
0
11
-9.9310987567818838
21
-10.104107211777571
31
0
0
LINE
5
136
100
AcDbEntity
8
0
100
AcDbLine
10
-6.3370598168538645
20
-9.9865466630741562
30
0
11
-7.1259500003714376
21
-11.53408797865829
31
0
0
LINE
5
137
100
AcDbEntity
8
0
100
AcDbLine
10
-10.4551883609291
20
5.8755353356809339
30
0
11
-12.762339589669798
21
2.0813714427966614
31
0
0
LINE
5
138
100
AcDbEntity
8
0
100
AcDbLine
10
-4.7938875758777488
20
2.4974289945857802
30
0
11
-7.4836263349603369
21
6.030689789692091
31
0
0
LINE
5
139
100
AcDbEntity
8
0
100
AcDbLine
10
-12.161878529478265
20
1.7752743898783383
30
0
11
-10.446854302261887
21
5.8712868823406472
31
0
0
LINE
5
140
100
AcDbEntity
8
0
100
AcDbLine
10
-5.3407199676383685
20
2.0697691059695167
30
0
11
-4.6548142081106407
21
-0.50147838961082392
31
0
0
ARC
5
141
100
AcDbEntity
8
0
100
AcDbCircle
10
-10.422715709546956
20
5.9289373666555507
30
0
40
0.062500000000000444
210
0
220
0
230
1
100
AcDbArc
50
-112.71934394049845
51
238.69709578529157
0
LINE
5
142
100
AcDbEntity
8
0
100
AcDbLine
10
-11.927771694998587
20
-3.6250685310113004
30
0
11
-11.950767274210158
21
-3.5513974464796716
31
0
0
LINE
5
143
100
AcDbEntity
8
0
100
AcDbLine
10
-12.588343683855724
20
-0.91571252756034993
30
0
11
-12.173943173271944
21
1.7129853651824654
31
0
0
SPLINE
5
144
100
AcDbEntity
8
0
100
AcDbSpline
70
0
71
3
72
10
73
6
74
0
42
0.000000001
43
0.0000000001
44
0.0000000001
40
0
40
0
40
0
40
0
40
0.52644556578290214
40
0.52644556578290214
40
1.0433726847692839
40
1.0433726847692839
40
1.0433726847692839
40
1.0433726847692839
10
-19.813121143415543
20
5.6429767731254037
30
0
10
-19.749937106343559
20
5.6150332829727319
30
0
10
-19.684699344544317
20
5.5900071831668958
30
0
10
-19.553650568753657
20
5.5503136709404997
30
0
10
-19.486726349620834
20
5.5351202393067327
30
0
10
-19.41936236574151
20
5.5270444249819795
30
0
0
SPLINE
5
145
100
AcDbEntity
8
0
100
AcDbSpline
70
0
71
3
72
12
73
8
74
0
42
0.000000001
43
0.0000000001
44
0.0000000001
40
0
40
0
40
0
40
0
40
0.88938037230541223
40
0.88938037230541223
40
1.4849928875822458
40
1.4849928875822458
40
2.1332449235828217
40
2.1332449235828217
40
2.1332449235828217
40
2.1332449235828217
10
-19.41936236574151
20
5.5270444249819795
30
0
10
-19.303478374624916
20
5.5131281880017298
30
0
10
-19.189541588982173
20
5.520841675827743
30
0
10
-19.002018612830685
20
5.5740521557468838
30
0
10
-18.930757213314394
20
5.6053124044411806
30
0
10
-18.789438199594361
20
5.6870308228721562
30
0
10
-18.720929499799247
20
5.7384356895043798
30
0
10
-18.657385580701682
20
5.7949515721006009
30
0
0
SPLINE
5
146
100
AcDbEntity
8
0
100
AcDbSpline
70
0
71
3
72
10
73
6
74
0
42
0.000000001
43
0.0000000001
44
0.0000000001
40
0
40
0
40
0
40
0
40
1.3729886974181482
40
1.3729886974181482
40
2.4330230486090128
40
2.4330230486090128
40
2.4330230486090128
40
2.4330230486090128
10
-18.657385580701682
20
5.7949515721006009
30
0
10
-18.805803586801755
20
5.8971168129122598
30
0
10
-18.939858116551317
20
6.0148691004047912
30
0
10
-19.155527457688244
20
6.2503976866614845
30
0
10
-19.24036751158928
20
6.360129520125505
30
0
10
-19.317599298337566
20
6.4754611180334249
30
0
0
LINE
5
147
100
AcDbEntity
8
0
100
AcDbLine
10
-19.317599298337566
20
6.4754611180334249
30
0
11
-19.047032340310565
21
6.735809640440185
31
0
0
SPLINE
5
148
100
AcDbEntity
8
0
100
AcDbSpline
70
0
71
3
72
10
73
6
74
0
42
0.000000001
43
0.0000000001
44
0.0000000001
40
2.2321799411636887
40
2.2321799411636887
40
2.2321799411636887
40
2.2321799411636887
40
2.9162258175778848
40
2.9162258175778848
40
5.7250775359367356
40
5.7250775359367356
40
5.7250775359367356
40
5.7250775359367356
10
-17.077570944341723
20
3.7018155990623498
30
0
10
-17.100821156816238
20
3.6157237989484794
30
0
10
-17.126628709207878
20
3.5300884736276794
30
0
10
-17.271311284710034
20
3.0949137180247481
30
0
10
-17.42678641173676
20
2.7623127662160334
30
0
10
-17.611587394889561
20
2.443071998855745
30
0
0
ARC
5
149
100
AcDbEntity
8
0
100
AcDbCircle
10
-7.7934524585352927
20
11.036403404278996
30
0
40
0.062500000000000985
210
0
220
-0
230
1
100
AcDbArc
50
-292.71934394049907
51
58.697095785293669
0
LINE
5
150
100
AcDbEntity
8
0
100
AcDbLine
10
-18.986261610505782
20
6.7746688595023912
30
0
11
-17.662185658370458
21
7.2840306001417119
31
0
0
LINE
5
151
100
AcDbEntity
8
0
100
AcDbLine
10
-19.047032340310565
20
6.735809640440185
30
0
11
-18.986261610505782
21
6.7746688595023912
31
0
0
SPLINE
5
152
100
AcDbEntity
8
0
100
AcDbSpline
70
0
71
3
72
10
73
6
74
0
42
0.000000001
43
0.0000000001
44
0.0000000001
40
0
40
0
40
0
40
0
40
0.7555704817614074
40
0.7555704817614074
40
1.5127030151878491
40
1.5127030151878491
40
1.5127030151878491
40
1.5127030151878491
10
-16.760908943646104
20
4.9209951494787898
30
0
10
-16.773363428541913
20
4.8226241985216047
30
0
10
-16.780684377421274
20
4.7253409868817249
30
0
10
-16.800095267986162
20
4.5397705244805033
30
0
10
-16.812349413622329
20
4.449974704459037
30
0
10
-16.835074330716761
20
4.3635631113282018
30
0
0
SPLINE
5
153
100
AcDbEntity
8
0
100
AcDbSpline
70
0
71
3
72
10
73
6
74
0
42
0.000000001
43
0.0000000001
44
0.0000000001
40
0
40
0
40
0
40
0
40
0.87182339003130849
40
0.87182339003130849
40
1.7377647272171184
40
1.7377647272171184
40
1.7377647272171184
40
1.7377647272171184
10
-17.581701124928234
20
6.2194687886736233
30
0
10
-17.467714499223156
20
6.2293315226605088
30
0
10
-17.355385655749885
20
6.2444528686678886
30
0
10
-17.129295780788674
20
6.2780661395966302
30
0
10
-17.016527020324531
20
6.29638930913032
30
0
10
-16.902649743645014
20
6.3124440986285553
30
0
0
SPLINE
5
154
100
AcDbEntity
8
0
100
AcDbSpline
70
0
71
3
72
10
73
6
74
0
42
0.000000001
43
0.0000000001
44
0.0000000001
40
0
40
0
40
0
40
0
40
1.0040916307427998
40
1.0040916307427998
40
2.9887238274288723
40
2.9887238274288723
40
2.9887238274288723
40
2.9887238274288723
10
-16.902649743645014
20
6.3124440986285553
30
0
10
-16.906146919982135
20
6.1807199589293642
30
0
10
-16.935543122410685
20
6.0481183818540307
30
0
10
-17.105241865618783
20
5.632302724654747
30
0
10
-17.327874308933605
20
5.3246783678771035
30
0
10
-17.685068559783197
20
4.9447246544590824
30
0
0
SPLINE
5
155
100
AcDbEntity
8
0
100
AcDbSpline
70
0
71
3
72
10
73
6
74
0
42
0.000000001
43
0.0000000001
44
0.0000000001
40
0
40
0
40
0
40
0
40
1.1794454452540073
40
1.1794454452540073
40
2.2143031442942425
40
2.2143031442942425
40
2.2143031442942425
40
2.2143031442942425
10
-17.685068559783197
20
4.9447246544590824
30
0
10
-17.530336439647051
20
4.940761466011641
30
0
10
-17.388087776602404
20
4.9371069897574751
30
0
10
-17.085214841759218
20
4.9293228313143711
30
0
10
-16.919492134163018
20
4.9250624514025994
30
0
10
-16.760908943646104
20
4.9209951494787898
30
0
0
SPLINE
5
156
100
AcDbEntity
8
0
100
AcDbSpline
70
0
71
3
72
8
73
4
74
0
42
0.000000001
43
0.0000000001
44
0.0000000001
40
0
40
0
40
0
40
0
40
1.5534158722737503
40
1.5534158722737503
40
1.5534158722737503
40
1.5534158722737503
10
-16.835074330716761
20
4.3635631113282018
30
0
10
-16.886929272823075
20
4.1664080769936609
30
0
10
-16.961894421495224
20
3.9803658114113003
30
0
10
-17.058027236931988
20
3.804185857511428
30
0
0
SPLINE
5
157
100
AcDbEntity
8
0
100
AcDbSpline
70
0
71
3
72
10
73
6
74
0
42
0.000000001
43
0.0000000001
44
0.0000000001
40
0.97078364227851555
40
0.97078364227851555
40
0.97078364227851555
40
0.97078364227851555
40
2.0740340333725147
40
2.0740340333725147
40
4.1774367301758888
40
4.1774367301758888
40
4.1774367301758888
40
4.1774367301758888
10
-17.662185658370458
20
7.2840306001417119
30
0
10
-17.710877314095789
20
7.1480781746646898
30
0
10
-17.766655387482306
20
7.0147457965626945
30
0
10
-17.954842914779263
20
6.637696923621232
30
0
10
-18.105842153999888
20
6.413509587807452
30
0
10
-18.292036989214111
20
6.2096175101942199
30
0
0
SPLINE
5
158
100
AcDbEntity
8
0
100
AcDbSpline
70
0
71
3
72
10
73
6
74
0
42
0.000000001
43
0.0000000001
44
0.0000000001
40
0
40
0
40
0
40
0
40
0.91069211615480317
40
0.91069211615480317
40
1.7987948214110254
40
1.7987948214110254
40
1.7987948214110254
40
1.7987948214110254
10
-18.292036989214111
20
6.2096175101942199
30
0
10
-18.172602428438392
20
6.2052771498779471
30
0
10
-18.051904300926129
20
6.2026634042737996
30
0
10
-17.815305665194963
20
6.2048101061332073
30
0
10
-17.698168676074836
20
6.209389869348386
30
0
10
-17.581701124928234
20
6.2194687886736233
30
0
0
SPLINE
5
159
100
AcDbEntity
8
0
100
AcDbSpline
70
0
71
3
72
8
73
4
74
0
42
0.000000001
43
0.0000000001
44
0.0000000001
40
1.4322862886912824
40
1.4322862886912824
40
1.4322862886912824
40
1.4322862886912824
40
1.7597879308187843
40
1.7597879308187843
40
1.7597879308187843
40
1.7597879308187843
10
-17.058027236931988
20
3.8041858575114316
30
0
10
-17.06917444642599
20
3.7737492071810816
30
0
10
-17.073784288245697
20
3.7393662306232494
30
0
10
-17.077570944341723
20
3.7018155990623507
30
0
0
LINE
5
160
100
AcDbEntity
8
0
100
AcDbLine
10
-18.942787173571052
20
6.575217909433178
30
0
11
-17.181910788473701
21
3.8625531824557942
31
0
0
LWPOLYLINE
5
161
100
AcDbEntity
8
0
100
AcDbPolyline
90
5
70
1
43
0.0
10
-6.4591882319838723
20
20.506619980481542
10
-6.4616407931582405
20
20.514477266437844
10
-6.4991276318543303
20
20.579406375674623
10
-9.7223440336768903
20
20.411112267520647
10
-9.7184164062806762
20
20.33644558618602
0
LWPOLYLINE
5
162
100
AcDbEntity
8
0
100
AcDbPolyline
90
4
70
1
43
0.0
10
-4.6577299206521801
20
2.6289458203174871
10
-1.7505440151108365
20
8.3318819132076509
10
-1.8188661962670547
20
8.3334358253021943
10
-4.6991247209586522
20
2.6833223372004875
0
LINE
5
163
100
AcDbEntity
8
0
100
AcDbLine
10
-18.930082366025093
20
6.5874428976437551
30
0
11
-18.942787173571052
21
6.575217909433178
31
0
0
LWPOLYLINE
5
164
100
AcDbEntity
8
0
100
AcDbPolyline
90
5
70
1
43
0.0
10
-12.97999139994873
20
20.174133998953678
10
-12.981612349432652
20
20.166064022393453
10
-9.7204002907082536
20
20.336342001437497
10
-9.7242989483035362
20
20.411010195375127
10
-12.949470264752742
20
20.242614015075635
0
LWPOLYLINE
5
165
100
AcDbEntity
8
0
100
AcDbPolyline
90
4
70
1
43
0.0
10
-7.366379723235486
20
11.376891506367741
10
-7.4003648203943975
20
11.321002223112178
10
-6.6061615778038707
20
10.097516497220481
10
-6.5567147747023444
20
10.129586718170254
0
LWPOLYLINE
5
166
100
AcDbEntity
8
0
100
AcDbPolyline
90
5
70
1
43
0.0
10
-0.91356703643778514
20
17.679628494944325
10
0.86342239924416164
20
14.942141296421141
10
0.92615341810433272
20
14.982827397626092
10
-0.8312017557754654
20
17.690067629422021
10
-0.90576775698673884
20
17.682259699793104
0
LINE
5
167
100
AcDbEntity
8
0
100
AcDbLine
10
-1.6622979157520357
20
8.5049915393002813
30
0
11
0.90742061460166112
21
7.8133796038631482
31
0
0
LINE
5
168
100
AcDbEntity
8
0
100
AcDbLine
10
-21.219174533555428
20
11.024158829247188
30
0
11
-21.175129667540215
21
10.963486742754119
31
0
0
LINE
5
169
100
AcDbEntity
8
0
100
AcDbLine
10
3.0552703072473206
20
6.1580607923475759
30
0
11
3.1131992501174666
21
6.1070660579401164
31
0
0
LINE
5
170
100
AcDbEntity
8
0
100
AcDbLine
10
2.8005346938051003
20
12.095306152789107
30
0
11
2.7482314526821985
21
12.038555854751339
31
0
0
LINE
5
171
100
AcDbEntity
8
0
100
AcDbLine
10
-2.6126186855314737
20
0.74940649206036292
30
0
11
-2.676657121313005
21
0.78260587834669892
31
0
0
LINE
5
172
100
AcDbEntity
8
0
100
AcDbLine
10
-3.5266963441765355
20
16.809961142630719
30
0
11
-3.4664635829559205
21
16.849649112884535
31
0
0
SPLINE
5
173
100
AcDbEntity
8
0
100
AcDbSpline
70
0
71
3
72
10
73
6
74
0
42
0.000000001
43
0.0000000001
44
0.0000000001
40
0
40
0
40
0
40
0
40
0.039181003844933483
40
0.039181003844933483
40
0.078427823152758619
40
0.078427823152758619
40
0.078427823152758619
40
0.078427823152758619
10
-18.125059473188514
20
11.060467194862714
30
0
10
-18.129078679325076
20
11.063674179061133
30
0
10
-18.133110287309265
20
11.066865799342235
30
0
10
-18.141204061987064
20
11.073223754279303
30
0
10
-18.145266447028369
20
11.07639017758801
30
0
10
-18.149340420109773
20
11.079541432066092
30
0
0
LINE
5
174
100
AcDbEntity
8
0
100
AcDbLine
10
-19.02195937989385
20
9.3010465675439988
30
0
11
-18.125059473188514
21
11.060467194862714
31
0
0
LINE
5
175
100
AcDbEntity
8
0
100
AcDbLine
10
-15.500950759142462
20
10.339971381596404
30
0
11
-15.340036228778956
21
10.65563240668989
31
0
0
SPLINE
5
176
100
AcDbEntity
8
0
100
AcDbSpline
70
0
71
3
72
8
73
4
74
0
42
0.000000001
43
0.0000000001
44
0.0000000001
40
1.0605956363135247
40
1.0605956363135247
40
1.0605956363135247
40
1.0605956363135247
40
1.3237992268459708
40
1.3237992268459708
40
1.3237992268459708
40
1.3237992268459708
10
-16.375574391850694
20
2.6203760939849667
30
0
10
-16.363323587180258
20
2.6437466670932803
30
0
10
-16.347409871448118
20
2.6642245251244558
30
0
10
-16.327007510820422
20
2.6780355822677304
30
0
0
LINE
5
177
100
AcDbEntity
8
0
100
AcDbLine
10
5.663321331718512
20
0
30
0
11
0
21
0
31
0
0
SPLINE
5
178
100
AcDbEntity
8
0
100
AcDbSpline
70
0
71
3
72
14
73
10
74
0
42
0.000000001
43
0.0000000001
44
0.0000000001
40
0
40
0
40
0
40
0
40
0.54487503725062325
40
0.54487503725062325
40
0.94541640721650544
40
0.94541640721650544
40
1.1716870648325337
40
1.1716870648325337
40
1.4102143111302103
40
1.4102143111302103
40
1.4102143111302103
40
1.4102143111302103
10
-20.017426436316335
20
11.386865906149614
30
0
10
-20.024045075202782
20
11.315666967664042
30
0
10
-20.04117046543892
20
11.244879039079695
30
0
10
-20.097727698267395
20
11.13482569888841
30
0
10
-20.129368642754201
20
11.093569234395039
30
0
10
-20.192000911690769
20
11.040652487091959
30
0
10
-20.216642918978856
20
11.024470233976539
30
0
10
-20.270925893898745
20
10.99706647515349
30
0
10
-20.300241218205574
20
10.986424504908333
30
0
10
-20.330499827250826
20
10.978765394048091
30
0
0
LINE
5
179
100
AcDbEntity
8
0
100
AcDbLine
10
5.6321953596643537
20
16.999886295851635
30
0
11
2.8005346938051003
21
12.095306152789107
31
0
0
SPLINE
5
180
100
AcDbEntity
8
0
100
AcDbSpline
70
0
71
3
72
16
73
12
74
0
42
0.000000001
43
0.0000000001
44
0.0000000001
40
0
40
0
40
0
40
0
40
0.72810099738916434
40
0.72810099738916434
40
1.4005668643866462
40
1.4005668643866462
40
1.9425724638769519
40
1.9425724638769519
40
2.3085563180675761
40
2.3085563180675761
40
2.6874570587794047
40
2.6874570587794047
40
2.6874570587794047
40
2.6874570587794047
10
-18.646111524432694
20
1.6694089056584502
30
0
10
-18.654434244302884
20
1.5742207469536571
30
0
10
-18.643771617062182
20
1.4832114523939011
30
0
10
-18.594325981901079
20
1.3260036865193587
30
0
10
-18.55786045279012
20
1.2588131811403998
30
0
10
-18.474670650553694
20
1.1598315022132399
30
0
10
-18.430092919362881
20
1.1222900695377571
30
0
10
-18.3445077314299
20
1.0777948706543024
30
0
10
-18.307761073587105
20
1.0652584655703528
30
0
10
-18.229684021584735
20
1.0523609461118908
30
0
10
-18.189621424320727
20
1.0526660246387614
30
0
10
-18.149891427263622
20
1.0593412071499038
30
0
0
SPLINE
5
181
100
AcDbEntity
8
0
100
AcDbSpline
70
0
71
3
72
10
73
6
74
0
42
0.000000001
43
0.0000000001
44
0.0000000001
40
0
40
0
40
0
40
0
40
1.7002487586392141
40
1.7002487586392141
40
3.4487707678716428
40
3.4487707678716428
40
3.4487707678716428
40
3.4487707678716428
10
-17.764888300312144
20
1.1952638784159786
30
0
10
-17.568889969996565
20
1.3019013182556047
30
0
10
-17.393272787888513
20
1.4400693841392469
30
0
10
-17.065606269268638
20
1.7515531174712291
30
0
10
-16.911351060908231
20
1.9288740347492164
30
0
10
-16.766949245505845
20
2.104817960916693
30
0
0
SPLINE
5
182
100
AcDbEntity
8
0
100
AcDbSpline
70
0
71
3
72
8
73
4
74
0
42
0.000000001
43
0.0000000001
44
0.0000000001
40
0.16303734789162755
40
0.16303734789162755
40
0.16303734789162755
40
0.16303734789162755
40
0.43471407751643037
40
0.43471407751643037
40
0.43471407751643037
40
0.43471407751643037
10
-14.544463455730085
20
4.7136775920671763
30
0
10
-14.538070434775605
20
4.7394879929902842
30
0
10
-14.528134670995893
20
4.7613237501447854
30
0
10
-14.510903808278615
20
4.7750690349832077
30
0
0
LINE
5
183
100
AcDbEntity
8
0
100
AcDbLine
10
-5.4105091150024034
20
14.930325582487409
30
0
11
-3.5266963441765355
21
16.809961142630719
31
0
0
LINE
5
184
100
AcDbEntity
8
0
100
AcDbLine
10
4.6864303587212879
20
18.456855893366082
30
0
11
5.6321953596643537
21
16.999886295851635
31
0
0
SPLINE
5
185
100
AcDbEntity
8
0
100
AcDbSpline
70
0
71
3
72
10
73
6
74
0
42
0.000000001
43
0.0000000001
44
0.0000000001
40
0
40
0
40
0
40
0
40
0.055456844792942578
40
0.055456844792942578
40
0.1083546328190927
40
0.1083546328190927
40
0.1083546328190927
40
0.1083546328190927
10
-18.149340420109613
20
11.079541432066328
30
0
10
-18.155282855818108
20
11.083743080253241
30
0
10
-18.161111544237688
20
11.0880910009567
30
0
10
-18.172294607988476
20
11.096875229615602
30
0
10
-18.177645231178847
20
11.101287787112652
30
0
10
-18.182899075110438
20
11.105826640567376
30
0
0
SPLINE
5
186
100
AcDbEntity
8
0
100
AcDbSpline
70
0
71
3
72
18
73
14
74
0
42
0.000000001
43
0.0000000001
44
0.0000000001
40
0
40
0
40
0
40
0
40
0.23067655493854089
40
0.23067655493854089
40
0.36098741139396506
40
0.36098741139396506
40
0.45637593194864901
40
0.45637593194864901
40
0.55021800657715836
40
0.55021800657715836
40
0.68031466137867391
40
0.68031466137867391
40
1.0760967749474366
40
1.0760967749474366
40
1.0760967749474366
40
1.0760967749474366
10
-18.091398661962433
20
1.9054265759737656
30
0
10
-18.113499689819495
20
1.8847391484462868
30
0
10
-18.139430902040086
20
1.8643329955609305
30
0
10
-18.182281142750508
20
1.8440277964797294
30
0
10
-18.198946119570312
20
1.8387188560428176
30
0
10
-18.22853085495472
20
1.8368034872683907
30
0
10
-18.240770467369405
20
1.8382776871686444
30
0
10
-18.264274130039663
20
1.8463565270021225
30
0
10
-18.27479543050362
20
1.8526179357429684
30
0
10
-18.297433240393225
20
1.8714013470720448
30
0
10
-18.308350169285205
20
1.8852041864473519
30
0
10
-18.344853795128451
20
1.9438431677978387
30
0
10
-18.360672861823065
20
2.0038045836783276
30
0
10
-18.370065510950649
20
2.0549470235028746
30
0
0
LINE
5
187
100
AcDbEntity
8
0
100
AcDbLine
10
-19.042004835811287
20
9.306441585091644
30
0
11
-19.02195937989385
21
9.3010465675439988
31
0
0
SPLINE
5
188
100
AcDbEntity
8
0
100
AcDbSpline
70
0
71
3
72
10
73
6
74
0
42
0.000000001
43
0.0000000001
44
0.0000000001
40
0
40
0
40
0
40
0
40
0.93706438964869521
40
0.93706438964869521
40
1.8642395875451321
40
1.8642395875451321
40
1.8642395875451321
40
1.8642395875451321
10
-18.405611592840998
20
2.3509036785104978
30
0
10
-18.47054531312585
20
2.2464704575072898
30
0
10
-18.526605667617357
20
2.1375994405776204
30
0
10
-18.609937363756295
20
1.9068368753453491
30
0
10
-18.635496353853636
20
1.7908271300091436
30
0
10
-18.646111524432694
20
1.6694089056584502
30
0
0
LINE
5
189
100
AcDbEntity
8
0
100
AcDbLine
10
3.1131992501174666
20
6.1070660579401164
30
0
11
6.4402366575466843
21
1.524050610021114
31
0
0
SPLINE
5
190
100
AcDbEntity
8
0
100
AcDbSpline
70
0
71
3
72
16
73
12
74
0
42
0.000000001
43
0.0000000001
44
0.0000000001
40
0
40
0
40
0
40
0
40
0.70061429908290185
40
0.70061429908290185
40
1.1684574700632968
40
1.1684574700632968
40
1.5945843288688379
40
1.5945843288688379
40
1.9701460189757207
40
1.9701460189757207
40
2.397869100023565
40
2.397869100023565
40
2.397869100023565
40
2.397869100023565
10
-20.668700729418987
20
10.937303397099347
30
0
10
-20.609754371396416
20
10.866741009067974
30
0
10
-20.540090198861805
20
10.801437908562095
30
0
10
-20.406196677522839
20
10.726855906888037
30
0
10
-20.348831866259527
20
10.706725170595504
30
0
10
-20.232379723825158
20
10.693314974043098
30
0
10
-20.177436732014641
20
10.698210527634423
30
0
10
-20.075920778044267
20
10.725576903993556
30
0
10
-20.030558495473542
20
10.745506263281493
30
0
10
-19.939146621294817
20
10.797904690978159
30
0
10
-19.893465013637591
20
10.831965965674446
30
0
10
-19.851252983243139
20
10.868929500765518
30
0
0
LINE
5
191
100
AcDbEntity
8
0
100
AcDbLine
10
-3.4664635829559205
20
16.849649112884535
30
0
11
-1.0192233557189483
21
17.842394134214615
31
0
0
SPLINE
5
192
100
AcDbEntity
8
0
100
AcDbSpline
70
0
71
3
72
10
73
6
74
0
42
0.000000001
43
0.0000000001
44
0.0000000001
40
0
40
0
40
0
40
0
40
0.51532353383467433
40
0.51532353383467433
40
1.0389371563983831
40
1.0389371563983831
40
1.0389371563983831
40
1.0389371563983831
10
-18.149891427263622
20
1.0593412071499038
30
0
10
-18.083201005852239
20
1.0705617981038249
30
0
10
-18.017163809714646
20
1.0882687442448942
30
0
10
-17.888633505245505
20
1.1339446086435128
30
0
10
-17.825278721359084
20
1.162406149110002
30
0
10
-17.764888300312144
20
1.1952638784159786
30
0
0
LINE
5
193
100
AcDbEntity
8
0
100
AcDbLine
10
-1.6992698479324613
20
9.2130884508202762
30
0
11
-1.759246047592907
21
9.1923922264852713
31
0
0
LINE
5
194
100
AcDbEntity
8
0
100
AcDbLine
10
6.4402366575466843
20
1.524050610021114
30
0
11
5.663321331718512
21
0
31
0
0
LINE
5
195
100
AcDbEntity
8
0
100
AcDbLine
10
-21.175129667540215
20
10.963486742754119
30
0
11
-21.168951337573091
21
10.95804797104269
31
0
0
LINE
5
196
100
AcDbEntity
8
0
100
AcDbLine
10
-21.168951337573091
20
10.95804797104269
30
0
11
-20.737768186376165
21
11.803886536412733
31
0
0
SPLINE
5
197
100
AcDbEntity
8
0
100
AcDbSpline
70
0
71
3
72
10
73
6
74
0
42
0.000000001
43
0.0000000001
44
0.0000000001
40
0
40
0
40
0
40
0
40
0.35090651481767521
40
0.35090651481767521
40
0.73288428624135249
40
0.73288428624135249
40
0.73288428624135249
40
0.73288428624135249
10
-18.370065510950649
20
2.0549470235028746
30
0
10
-18.37837542242216
20
2.1002417751561611
30
0
10
-18.383988409291675
20
2.1473983863882906
30
0
10
-18.393794096300969
20
2.239192766092569
30
0
10
-18.398852547503992
20
2.2929316249217009
30
0
10
-18.405611592840998
20
2.3509036785104978
30
0
0
LINE
5
198
100
AcDbEntity
8
0
100
AcDbLine
10
0.8452202911540726
20
10.207415246747123
30
0
11
0.78444956134931165
21
10.168556027684863
31
0
0
LINE
5
199
100
AcDbEntity
8
0
100
AcDbLine
10
-19.07285703737891
20
9.3219038215613743
30
0
11
-19.042004835811287
21
9.306441585091644
31
0
0
LINE
5
200
100
AcDbEntity
8
0
100
AcDbLine
10
0
20
0
30
0
11
-0.075298820334483388
21
0.016920786493780308
31
0
0
LINE
5
201
100
AcDbEntity
8
0
100
AcDbLine
10
-7.7609798071531522
20
11.089805435253613
30
0
11
-5.4538285784124323
21
14.8839693281379
31
0
0
SPLINE
5
202
100
AcDbEntity
8
0
100
AcDbSpline
70
0
71
3
72
10
73
6
74
0
42
0.000000001
43
0.0000000001
44
0.0000000001
40
1.8367357962165984
40
1.8367357962165984
40
1.8367357962165984
40
1.8367357962165984
40
3.9205104094489394
40
3.9205104094489394
40
7.7430263205198191
40
7.7430263205198191
40
7.7430263205198191
40
7.7430263205198191
10
-16.327007510820415
20
2.6780355822677251
30
0
10
-16.099783626203813
20
2.830066222351979
30
0
10
-15.88240735440265
20
2.9964842007841113
30
0
10
-15.305215343872387
20
3.5144984011218385
30
0
10
-14.988162786279508
20
3.8954852136384521
30
0
10
-14.737596559884427
20
4.3303941059620055
30
0
0
SPLINE
5
203
100
AcDbEntity
8
0
100
AcDbSpline
70
0
71
3
72
10
73
6
74
0
42
0.000000001
43
0.0000000001
44
0.0000000001
40
0
40
0
40
0
40
0
40
0.10493097844711501
40
0.10493097844711501
40
0.20969197667108513
40
0.20969197667108513
40
0.20969197667108513
40
0.20969197667108513
10
-17.181910788473701
20
3.8625531824557942
30
0
10
-17.175256102291115
20
3.8746089273585196
30
0
10
-17.168704819649523
20
3.886720350769397
30
0
10
-17.155821765893215
20
3.911037056643127
30
0
10
-17.149490837079547
20
3.9232399266780393
30
0
10
-17.143266267207355
20
3.9354982612364466
30
0
0
LINE
5
204
100
AcDbEntity
8
0
100
AcDbLine
10
-18.881633591142982
20
6.6134873364942885
30
0
11
-18.901008198650398
21
6.6060340753816877
31
0
0
SPLINE
5
205
100
AcDbEntity
8
0
100
AcDbSpline
70
0
71
3
72
8
73
4
74
0
42
0.000000001
43
0.0000000001
44
0.0000000001
40
0
40
0
40
0
40
0
40
1.0918654398630947
40
1.0918654398630947
40
1.0918654398630947
40
1.0918654398630947
10
-14.737596559884427
20
4.3303941059620055
30
0
10
-14.666062070092332
20
4.4545499632159231
30
0
10
-14.600418071964052
20
4.5821184886564357
30
0
10
-14.544463455730089
20
4.7136775920671798
30
0
0
LINE
5
206
100
AcDbEntity
8
0
100
AcDbLine
10
-5.4538285784124323
20
14.8839693281379
30
0
11
-5.4105091150024034
21
14.930325582487409
31
0
0
SPLINE
5
207
100
AcDbEntity
8
0
100
AcDbSpline
70
0
71
3
72
12
73
8
74
0
42
0.000000001
43
0.0000000001
44
0.0000000001
40
1.9569210035156344
40
1.9569210035156344
40
1.9569210035156344
40
1.9569210035156344
40
2.9495591449534788
40
2.9495591449534788
40
4.3195294394762431
40
4.3195294394762431
40
5.5766663672098069
40
5.5766663672098069
40
5.5766663672098069
40
5.5766663672098069
10
-14.510903808278613
20
4.775069034983205
30
0
10
-14.415009120088218
20
4.8473847159069452
30
0
10
-14.324939756926586
20
4.9217820092980302
30
0
10
-14.128160527726054
20
5.104467440806058
30
0
10
-14.020617780579563
20
5.2218770399021084
30
0
10
-13.851663397586639
20
5.4684756881346051
30
0
10
-13.787093999757975
20
5.5959765252580622
30
0
10
-13.74800472371091
20
5.7336389625466007
30
0
0
LINE
5
208
100
AcDbEntity
8
0
100
AcDbLine
10
-17.143266267207355
20
3.9354982612364466
30
0
11
-18.881633591142982
21
6.6134873364942885
31
0
0
LINE
5
209
100
AcDbEntity
8
0
100
AcDbLine
10
-20.807915601926162
20
11.830912673313867
30
0
11
-21.219174533555428
21
11.024158829247188
31
0
0
LINE
5
210
100
AcDbEntity
8
0
100
AcDbLine
10
0.97190778567641445
20
7.7810604876329954
30
0
11
3.0552703072473206
21
6.1580607923475759
31
0
0
LINE
5
211
100
AcDbEntity
8
0
100
AcDbLine
10
-2.676657121313005
20
0.78260587834669892
30
0
11
-4.7459760200110299
21
2.4558361942249225
31
0
0
LINE
5
212
100
AcDbEntity
8
0
100
AcDbLine
10
2.7482314526821985
20
12.038555854751339
30
0
11
0.8452202911540726
21
10.207415246747123
31
0
0
ARC
5
213
100
AcDbEntity
8
0
100
AcDbCircle
10
-6.2260051142065471
20
8.6217199214745612
30
0
40
0.062499999999999382
210
0
220
-0
230
1
100
AcDbArc
50
7.2806560595002114
51
358.69709578529154
0
SPLINE
5
214
100
AcDbEntity
8
0
100
AcDbSpline
70
0
71
3
72
8
73
4
74
0
42
0.000000001
43
0.0000000001
44
0.0000000001
40
0
40
0
40
0
40
0
40
0.085875021909185653
40
0.085875021909185653
40
0.085875021909185653
40
0.085875021909185653
10
-20.701767161380051
20
11.919945411603463
30
0
10
-20.692991674781702
20
11.921311579867654
30
0
10
-20.684098029274477
20
11.923642871937149
30
0
10
-20.675214919389774
20
11.92659533303458
30
0
0
LINE
5
215
100
AcDbEntity
8
0
100
AcDbLine
10
-6.1635212730777758
20
8.6202987959366979
30
0
11
-1.7241033413479516
21
8.5193291679169008
31
0
0
LINE
5
216
100
AcDbEntity
8
0
100
AcDbLine
10
-19.086765899512862
20
9.3327392276759848
30
0
11
-19.07285703737891
21
9.3219038215613743
31
0
0
LINE
5
217
100
AcDbEntity
8
0
100
AcDbLine
10
-1.0192233557189483
20
17.842394134214615
30
0
11
-0.94609614882770665
21
17.86706470315076
31
0
0
LINE
5
218
100
AcDbEntity
8
0
100
AcDbLine
10
-1.7241033413479516
20
8.5193291679169008
30
0
11
-1.6622979157520357
21
8.5049915393002813
31
0
0
LINE
5
219
100
AcDbEntity
8
0
100
AcDbLine
10
0.90742061460166112
20
7.8133796038631482
30
0
11
0.97190778567641445
21
7.7810604876329954
31
0
0
SPLINE
5
220
100
AcDbEntity
8
0
100
AcDbSpline
70
0
71
3
72
10
73
6
74
0
42
0.000000001
43
0.0000000001
44
0.0000000001
40
0
40
0
40
0
40
0
40
0.093076214484830749
40
0.093076214484830749
40
0.19122069651652274
40
0.19122069651652274
40
0.19122069651652274
40
0.19122069651652274
10
-20.737768186376165
20
11.803886536412733
30
0
10
-20.749602808067895
20
11.806909989446956
30
0
10
-20.761240128921585
20
11.810584849811089
30
0
10
-20.78469016866644
20
11.819519832879239
30
0
10
-20.7964093203388
20
11.824816860480292
30
0
10
-20.807915601926162
20
11.830912673313867
30
0
0
SPLINE
5
221
100
AcDbEntity
8
0
100
AcDbSpline
70
0
71
3
72
8
73
4
74
0
42
0.000000001
43
0.0000000001
44
0.0000000001
40
0
40
0
40
0
40
0
40
1.6534466263512655
40
1.6534466263512655
40
1.6534466263512655
40
1.6534466263512655
10
-16.766949245505845
20
2.104817960916693
30
0
10
-16.629297486067863
20
2.2725548833341613
30
0
10
-16.498740647016128
20
2.4442892428657976
30
0
10
-16.375574391850694
20
2.6203760939849667
30
0
0
LINE
5
222
100
AcDbEntity
8
0
100
AcDbLine
10
-18.182899075110438
20
11.105826640567376
30
0
11
-19.086765899512862
21
9.3327392276759848
31
0
0
SPLINE
5
223
100
AcDbEntity
8
0
100
AcDbSpline
70
0
71
3
72
16
73
12
74
0
42
0.000000001
43
0.0000000001
44
0.0000000001
40
0
40
0
40
0
40
0
40
0.47419264559618463
40
0.47419264559618463
40
0.82533825318604914
40
0.82533825318604914
40
1.1653974931525697
40
1.1653974931525697
40
1.6067826953994784
40
1.6067826953994784
40
2.1440598384747798
40
2.1440598384747798
40
2.1440598384747798
40
2.1440598384747798
10
-20.454589078994545
20
11.957870693163686
30
0
10
-20.392462769621307
20
11.961461699763309
30
0
10
-20.329383009180283
20
11.956144755583759
30
0
10
-20.226910897130026
20
11.921612343556459
30
0
10
-20.187217657856007
20
11.899477051740176
30
0
10
-20.119203045390975
20
11.839747542060662
30
0
10
-20.092572115864961
20
11.804429441845867
30
0
10
-20.045168085294716
20
11.713674193454585
30
0
10
-20.029274531996546
20
11.656896361413619
30
0
10
-20.010519434071046
20
11.529868066332233
30
0
10
-20.010892974720832
20
11.457154977634486
30
0
10
-20.017426436316335
20
11.386865906149614
30
0
0
SPLINE
5
224
100
AcDbEntity
8
0
100
AcDbSpline
70
0
71
3
72
10
73
6
74
0
42
0.000000001
43
0.0000000001
44
0.0000000001
40
0
40
0
40
0
40
0
40
0.9285593082607726
40
0.9285593082607726
40
1.8417477675385652
40
1.8417477675385652
40
1.8417477675385652
40
1.8417477675385652
10
-17.611587394889561
20
2.443071998855745
30
0
10
-17.672642323000538
20
2.3376124756262167
30
0
10
-17.749061771662483
20
2.2437478076050228
30
0
10
-17.915511711205703
20
2.0679694683692045
30
0
10
-18.006542138748795
20
1.9848853066180445
30
0
10
-18.091398661962433
20
1.9054265759737656
30
0
0
SPLINE
5
225
100
AcDbEntity
8
0
100
AcDbSpline
70
0
71
3
72
10
73
6
74
0
42
0.000000001
43
0.0000000001
44
0.0000000001
40
0
40
0
40
0
40
0
40
0.42788162960292953
40
0.42788162960292953
40
0.8614409555180309
40
0.8614409555180309
40
0.8614409555180309
40
0.8614409555180309
10
-20.330499827250826
20
10.978765394048091
30
0
10
-20.384936621199124
20
10.964991051051353
30
0
10
-20.440788988990292
20
10.957979086710127
30
0
10
-20.55275971018234
20
10.947522396039252
30
0
10
-20.61058059950161
20
10.943966654407713
30
0
10
-20.668700729418987
20
10.937303397099347
30
0
0
SPLINE
5
226
100
AcDbEntity
8
0
100
AcDbSpline
70
0
71
3
72
14
73
10
74
0
42
0.000000001
43
0.0000000001
44
0.0000000001
40
0
40
0
40
0
40
0
40
1.1845891292022606
40
1.1845891292022606
40
2.9315121818518048
40
2.9315121818518048
40
4.2744889310864691
40
4.2744889310864691
40
5.5918948320784683
40
5.5918948320784683
40
5.5918948320784683
40
5.5918948320784683
10
-19.851252983243139
20
10.868929500765518
30
0
10
-19.734310067037985
20
10.971357574137603
30
0
10
-19.637573739446246
20
11.097813527485332
30
0
10
-19.446204917492636
20
11.432607508339515
30
0
10
-19.369611287701964
20
11.659120484101688
30
0
10
-19.298887274097854
20
12.061270766351928
30
0
10
-19.2888665258922
20
12.241777938462285
30
0
10
-19.315444506152886
20
12.59227669889472
30
0
10
-19.351389960800109
20
12.765383074702207
30
0
10
-19.414833588257558
20
12.927301367673438
30
0
0
SPLINE
5
227
100
AcDbEntity
8
0
100
AcDbSpline
70
0
71
3
72
8
73
4
74
0
42
0.000000001
43
0.0000000001
44
0.0000000001
40
0
40
0
40
0
40
0
40
2.0076093594514535
40
2.0076093594514535
40
2.0076093594514535
40
2.0076093594514535
10
-19.414833588257558
20
12.927301367673438
30
0
10
-19.510949627918691
20
13.172609199105954
30
0
10
-19.641135373192682
20
13.4109505556449
30
0
10
-19.819717800884238
20
13.604797399572284
30
0
0
SPLINE
5
228
100
AcDbEntity
8
0
100
AcDbSpline
70
0
71
3
72
10
73
6
74
0
42
0.000000001
43
0.0000000001
44
0.0000000001
40
0.086875188021299607
40
0.086875188021299607
40
0.086875188021299607
40
0.086875188021299607
40
0.36166368946253658
40
0.36166368946253658
40
0.70578581683401442
40
0.70578581683401442
40
0.70578581683401442
40
0.70578581683401442
10
-20.675214919389774
20
11.92659533303458
30
0
10
-20.64044149940916
20
11.932177213444859
30
0
10
-20.607156187138518
20
11.938097589985514
30
0
10
-20.536381424262188
20
11.94961628286346
30
0
10
-20.495319598722656
20
11.955523635858135
30
0
10
-20.454589078994545
20
11.957870693163686
30
0
0
LINE
5
229
100
AcDbEntity
8
0
100
AcDbLine
10
-0.075298820334483388
20
0.016920786493780308
30
0
11
-2.6126186855314737
21
0.74940649206036292
31
0
0
LINE
5
230
100
AcDbEntity
8
0
100
AcDbLine
10
-0.94609614882770665
20
17.86706470315076
30
0
11
4.6864303587212879
21
18.456855893366082
31
0
0
LINE
5
231
100
AcDbEntity
8
0
100
AcDbLine
10
0.78444956134931165
20
10.168556027684863
30
0
11
-1.6992698479324613
21
9.2130884508202762
31
0
0
LWPOLYLINE
5
232
100
AcDbEntity
8
0
100
AcDbPolyline
90
6
70
1
43
0.0
10
-11.71704053622787
20
-3.6140656047400439
10
-5.2403669267143096
20
-3.2758984223252594
10
-5.2098457915183278
20
-3.2074184062033178
10
-5.2082248420344142
20
-3.1993484296431203
10
-11.756979936098345
20
-3.5412792095469769
10
-11.754527374923988
20
-3.5491364955032281
0
LINE
5
233
100
AcDbEntity
8
0
100
AcDbLine
10
-12.911453337236193
20
2.1979933653231667
30
0
11
-12.875946519308993
21
2.2563851537990955
31
0
0
LINE
5
234
100
AcDbEntity
8
0
100
AcDbLine
10
-15.541476755607825
20
10.396052203929408
30
0
11
-15.500950759142462
21
10.339971381596404
31
0
0
LWPOLYLINE
5
235
100
AcDbEntity
8
0
100
AcDbPolyline
90
8
70
1
43
0.0
10
-12.39811162239784
20
-0.9606728556040004
10
-12.393876875819497
20
-0.97778803579424922
10
-4.8417589003160106
20
-0.58346857320953249
10
-4.8393295944274195
20
-0.56600544220651361
10
-4.8413650056291351
20
-0.5315555336513984
10
-4.84671551133773
20
-0.51149815082261441
10
-12.396442380628644
20
-0.90569276634856077
10
-12.399674970917802
20
-0.92619829919466368
0
LWPOLYLINE
5
236
100
AcDbEntity
8
0
100
AcDbPolyline
90
4
70
1
43
0.0
10
-12.395778500234483
20
8.0783213657457544
10
-12.460662109157274
20
8.070031847974775
10
-10.84978844484675
20
5.588449264566818
10
-10.815803347687842
20
5.644338547822378
0
LWPOLYLINE
5
237
100
AcDbEntity
8
0
100
AcDbPolyline
90
6
70
1
43
0.0
10
-13.343121680129332
20
17.478213743572983
10
-9.5814237337914374
20
17.674623640428052
10
-9.5851847917068849
20
17.746656486344353
10
-13.348078291151056
20
17.550184165959895
10
-13.350507597039652
20
17.532721034956875
10
-13.348472185837934
20
17.498271126401775
0
LWPOLYLINE
5
238
100
AcDbEntity
8
0
100
AcDbPolyline
90
6
70
1
43
0.0
10
2.9733176183837871
20
5.9797381444331732
10
2.9671392884166501
20
5.9851769161446136
10
0.012832198496152301
20
0.18980466269677415
10
0.020863088326170141
20
0.18799999999999925
10
0.095836765718480349
20
0.18799999999999925
10
3.0173624843989897
20
5.9190660579401122
0
LINE
5
239
100
AcDbEntity
8
0
100
AcDbLine
10
-14.389779215022259
20
4.4753834749226655
30
0
11
-12.911453337236193
21
2.1979933653231667
31
0
0
LWPOLYLINE
5
240
100
AcDbEntity
8
0
100
AcDbPolyline
90
4
70
1
43
0.0
10
-6.5567127936662919
20
10.129583666345233
10
-6.6061595884069764
20
10.097513432515408
10
-5.8060335489220067
20
8.8649035214415033
10
-5.7411499399992092
20
8.8731930392124845
0
LWPOLYLINE
5
241
100
AcDbEntity
8
0
100
AcDbPolyline
90
4
70
1
43
0.0
10
-9.442460450123324
20
15.013159492435426
10
-9.4456711093194432
20
15.074650946266445
10
-12.655076840313432
20
14.907077935997453
10
-12.622261477084427
20
14.847132235426896
0
LWPOLYLINE
5
242
100
AcDbEntity
8
0
100
AcDbPolyline
90
5
70
1
43
0.0
10
-20.88745234990937
20
4.6709216606694461
10
-20.419860221406925
20
3.9505867840501994
10
-20.344244455564358
20
3.9714236789445518
10
-20.844387182557519
20
4.741903393165722
10
-20.849965511213234
20
4.7358507699062846
0
LWPOLYLINE
5
243
100
AcDbEntity
8
0
100
AcDbPolyline
90
6
70
1
43
0.0
10
-3.3622184162164079
20
16.689057381877525
10
-3.3785565842389778
20
16.682429656989083
10
-3.4073733746049082
20
16.663441984903702
10
-3.4220683248137278
20
16.648779619622619
10
-1.3727680842746925
20
13.491792266879425
10
-1.3122511013743259
20
13.531042388041834
0
LWPOLYLINE
5
244
100
AcDbEntity
8
0
100
AcDbPolyline
90
5
70
1
43
0.0
10
2.648153462056738
20
12.207374117281008
10
2.6856403007528717
20
12.272303226517849
10
0.92615413387948431
20
14.982826294960384
10
0.86342312562635803
20
14.942140177415073
10
2.6425751334010177
20
12.201321494021569
0
LWPOLYLINE
5
245
100
AcDbEntity
8
0
100
AcDbPolyline
90
6
70
1
43
0.0
10
0.72827031686854105
20
10.355781989543503
10
0.74097512441454483
20
10.368006977754124
10
-1.3122500071125227
20
13.531040702309991
10
-1.3727669797802147
20
13.491790565383942
10
0.67982154198650824
20
10.32973755069297
10
0.69919614949385289
20
10.337190811805542
0
LWPOLYLINE
5
246
100
AcDbEntity
8
0
100
AcDbPolyline
90
4
70
1
43
0.0
10
-9.4416457915266463
20
15.074861120571704
10
-9.4384112748474127
20
15.01337091241375
10
-6.2626594231622601
20
15.179186749443954
10
-6.2362653783255073
20
15.242223956535433
0
LWPOLYLINE
5
247
100
AcDbEntity
8
0
100
AcDbPolyline
90
6
70
1
43
0.0
10
-5.8197257874535735
20
17.871033537283118
10
-5.8164931971644167
20
17.891539070129191
10
-5.8180565456843931
20
17.926013626538534
10
-5.8222912922627401
20
17.943128806728811
10
-9.5821961598776646
20
17.746812532065647
10
-9.5784071546248466
20
17.674781145366357
0
LWPOLYLINE
5
248
100
AcDbEntity
8
0
100
AcDbPolyline
90
4
70
1
43
0.0
10
-7.0612741271264827
20
5.7862593272013809
10
-5.7175974004614387
20
8.4221081344855939
10
-5.7829914881395137
20
8.423595450347511
10
-7.1008948645626715
20
5.8383054219322421
0
LWPOLYLINE
5
249
100
AcDbEntity
8
0
100
AcDbPolyline
90
4
70
1
43
0.0
10
-17.542438669429135
20
12.362197881451918
10
-17.957297313380508
20
11.54838259377865
10
-17.874043118719406
20
11.552878163517779
0
LINE
5
250
100
AcDbEntity
8
0
100
AcDbLine
10
-15.414656216568694
20
10.644832107556287
30
0
11
-15.541476755607825
21
10.396052203929408
31
0
0
LINE
5
251
100
AcDbEntity
8
0
100
AcDbLine
10
-12.875946519308993
20
2.2563851537990955
30
0
11
-14.358955471764748
21
4.5409896320946972
31
0
0
LWPOLYLINE
5
252
100
AcDbEntity
8
0
100
AcDbPolyline
90
4
70
1
43
0.0
10
-12.418820561016972
20
8.5196294368397378
10
-11.088942326904387
20
11.128410170818118
10
-11.128563064340574
20
11.18045626554898
10
-12.484214648695051
20
8.5211167527016567
0
SPLINE
5
253
100
AcDbEntity
8
0
100
AcDbSpline
70
0
71
3
72
10
73
6
74
0
42
0.000000001
43
0.0000000001
44
0.0000000001
40
0
40
0
40
0
40
0
40
0.09212558325706556
40
0.09212558325706556
40
0.18412016407064488
40
0.18412016407064488
40
0.18412016407064488
40
0.18412016407064488
10
-14.358955471764748
20
4.5409896320946972
30
0
10
-14.363979364839681
20
4.5299929093739202
30
0
10
-14.369063044212952
20
4.5190238321607969
30
0
10
-14.379339191095481
20
4.4971551420944964
30
0
10
-14.384531253005562
20
4.4862559646679685
30
0
10
-14.389779215022259
20
4.4753834749226655
30
0
0
SPLINE
5
254
100
AcDbEntity
8
0
100
AcDbSpline
70
0
71
3
72
10
73
6
74
0
42
0.000000001
43
0.0000000001
44
0.0000000001
40
0
40
0
40
0
40
0
40
0.095711298011761703
40
0.095711298011761703
40
0.19152413678236749
40
0.19152413678236749
40
0.19152413678236749
40
0.19152413678236749
10
-15.340036228778951
20
10.655632406689888
30
0
10
-15.352488294771231
20
10.653985238735745
30
0
10
-15.36492886493463
20
10.652264575265846
30
0
10
-15.389804404362508
20
10.648666645846559
30
0
10
-15.402235695434586
20
10.646789744765405
30
0
10
-15.414656216568694
20
10.644832107556287
30
0
0
LWPOLYLINE
5
255
100
AcDbEntity
8
0
100
AcDbPolyline
90
6
70
1
43
0.0
10
-8.9093345312942436
20
-8.5013111239214751
10
-8.9076183094259669
20
-8.5341806909886699
10
-7.5221206669215732
20
-8.4618395692560888
10
-7.5238368887898455
20
-8.4289700021888816
10
-7.5187927078937156
20
-8.4123385323802768
10
-8.9160833231676122
20
-8.4852954017348967
0
LINE
5
256
100
AcDbEntity
8
0
100
AcDbLine
10
-15.64723288713121
20
16.041844080588604
30
0
11
-15.66417244125558
21
16.046734272568322
31
0
0
LINE
5
257
100
AcDbEntity
8
0
100
AcDbLine
10
-15.600453354018304
20
16.012908430183785
30
0
11
-15.616595371236514
21
16.025960701917214
31
0
0
LWPOLYLINE
5
258
100
AcDbEntity
8
0
100
AcDbPolyline
90
4
70
1
43
0.0
10
-11.953508744919978
20
1.7861540214906073
10
-11.979902789756734
20
1.7231168143991218
10
-5.5347603511535679
20
2.0596376567528121
10
-5.5675757143826283
20
2.1195833573234646
0
LINE
5
259
100
AcDbEntity
8
0
100
AcDbLine
10
-14.837611583843257
20
0.2829111139454959
30
0
11
-14.808794793477347
21
0.30189878603085968
31
0
0
LWPOLYLINE
5
260
100
AcDbEntity
8
0
100
AcDbPolyline
90
4
70
1
43
0.0
10
-7.4401488441147636
20
5.5403197772745862
10
-7.4715578346339262
20
5.5976963763920669
10
-10.422098316834095
20
5.4436395222685672
10
-10.447361188320702
20
5.3833039097667212
0
LINE
5
261
100
AcDbEntity
8
0
100
AcDbLine
10
-14.808794793477347
20
0.30189878603085968
30
0
11
-14.794099843268516
21
0.31656115131196289
31
0
0
LWPOLYLINE
5
262
100
AcDbEntity
8
0
100
AcDbPolyline
90
5
70
1
43
0.0
10
-18.91906162048646
20
15.371586592064109
10
-18.202669389963173
20
16.776910930053582
10
-18.21070027979324
20
16.778715592750373
10
-18.285673957185523
20
16.778715592750373
0
SPLINE
5
263
100
AcDbEntity
8
0
100
AcDbSpline
70
0
71
3
72
10
73
6
74
0
42
0.000000001
43
0.0000000001
44
0.0000000001
40
0
40
0
40
0
40
0
40
0.013526943998721336
40
0.013526943998721336
40
0.031998546660555821
40
0.031998546660555821
40
0.031998546660555821
40
0.031998546660555821
10
-16.200803402174149
20
2.4836156690803244
30
0
10
-16.202249758704696
20
2.4825864215146134
30
0
10
-16.203751397323803
20
2.4813855328209762
30
0
10
-16.20702386927363
20
2.4785935815149589
30
0
10
-16.208877620557185
20
2.4768634869139676
30
0
10
-16.210638928568653
20
2.4750928285734601
30
0
0
LWPOLYLINE
5
264
100
AcDbEntity
8
0
100
AcDbPolyline
90
4
70
1
43
0.0
10
-15.66081883839424
20
6.4334450300051618
10
-15.579946426111809
20
6.4219502275385487
10
-15.699676953691304
20
6.606397461686301
10
-15.730951214884135
20
6.5414853362602354
0
LINE
5
265
100
AcDbEntity
8
0
100
AcDbLine
10
-19.56901356483845
20
14.26122823359351
30
0
11
-19.760248412821323
21
13.886088785269566
31
0
0
LINE
5
266
100
AcDbEntity
8
0
100
AcDbLine
10
-16.247349151864785
20
2.4228425881919886
30
0
11
-14.853949751865827
21
0.2762833890570533
31
0
0
LINE
5
267
100
AcDbEntity
8
0
100
AcDbLine
10
-13.532107270814855
20
14.337769772432845
30
0
11
-14.64351013567445
21
12.157565369381775
31
0
0
LINE
5
268
100
AcDbEntity
8
0
100
AcDbLine
10
-13.490712470508411
20
14.283393255549884
30
0
11
-13.532107270814855
21
14.337769772432845
31
0
0
LINE
5
269
100
AcDbEntity
8
0
100
AcDbLine
10
-17.310400411095557
20
-0.71691892885856134
30
0
11
-17.30260113164449
21
-0.71428772400977703
31
0
0
LINE
5
270
100
AcDbEntity
8
0
100
AcDbLine
10
-17.30260113164449
20
-0.71428772400977703
30
0
11
-18.301597624559562
21
0.82468603453432787
31
0
0
LINE
5
271
100
AcDbEntity
8
0
100
AcDbLine
10
-15.616595371236514
20
16.025960701917214
30
0
11
-15.64723288713121
21
16.041844080588604
31
0
0
LINE
5
272
100
AcDbEntity
8
0
100
AcDbLine
10
-14.794099843268516
20
0.31656115131196289
30
0
11
-16.200803402174149
21
2.4836156690803244
31
0
0
LINE
5
273
100
AcDbEntity
8
0
100
AcDbLine
10
-17.384966412306785
20
-0.72472685848748053
30
0
11
-17.310400411095557
21
-0.71691892885856134
31
0
0
SPLINE
5
274
100
AcDbEntity
8
0
100
AcDbSpline
70
0
71
3
72
10
73
6
74
0
42
0.000000001
43
0.0000000001
44
0.0000000001
40
0
40
0
40
0
40
0
40
0.14557953984610225
40
0.14557953984610225
40
0.28969372196999293
40
0.28969372196999293
40
0.28969372196999293
40
0.28969372196999293
10
-18.301597624559562
20
0.82468603453432854
30
0
10
-18.320425076460523
20
0.82793030195034301
30
0
10
-18.338987589614266
20
0.83216300469758331
30
0
10
-18.375410036453449
20
0.84249041540485925
30
0
10
-18.393246322862961
20
0.84855781800380825
30
0
10
-18.410748610235466
20
0.85551080579845784
30
0
0
SPLINE
5
275
100
AcDbEntity
8
0
100
AcDbSpline
70
0
71
3
72
10
73
6
74
0
42
0.000000001
43
0.0000000001
44
0.0000000001
40
0
40
0
40
0
40
0
40
0.06552621736722504
40
0.06552621736722504
40
0.13108662704635651
40
0.13108662704635651
40
0.13108662704635651
40
0.13108662704635651
10
-16.784047479882403
20
13.849910269968973
30
0
10
-16.777981303253473
20
13.84381531721931
30
0
10
-16.771922926681839
20
13.837712680926735
30
0
10
-16.759818636033884
20
13.825488594124455
30
0
10
-16.753772810152732
20
13.819367216293372
30
0
10
-16.747734891202388
20
13.813237969029501
30
0
0
SPLINE
5
276
100
AcDbEntity
8
0
100
AcDbSpline
70
0
71
3
72
10
73
6
74
0
42
0.000000001
43
0.0000000001
44
0.0000000001
40
0
40
0
40
0
40
0
40
0.01903749219001229
40
0.01903749219001229
40
0.03408632060485612
40
0.03408632060485612
40
0.03408632060485612
40
0.03408632060485612
10
-16.74773489120237
20
13.813237969029515
30
0
10
-16.745723868441697
20
13.811755544351497
30
0
10
-16.743616517975386
20
13.81033365864646
30
0
10
-16.739817241458187
20
13.808016712263887
30
0
10
-16.738004192321622
20
13.806997067936376
30
0
10
-16.736267250987979
20
13.806156323041273
30
0
0
LINE
5
277
100
AcDbEntity
8
0
100
AcDbLine
10
-18.410748610235466
20
0.85551080579845784
30
0
11
-17.384966412306785
21
-0.72472685848748053
31
0
0
SPLINE
5
278
100
AcDbEntity
8
0
100
AcDbSpline
70
0
71
3
72
10
73
6
74
0
42
0.000000001
43
0.0000000001
44
0.0000000001
40
0
40
0
40
0
40
0
40
0.012333710164432963
40
0.012333710164432963
40
0.024667256852717485
40
0.024667256852717485
40
0.024667256852717485
40
0.024667256852717485
10
-16.73626725098816
20
13.806156323040854
30
0
10
-16.734780377858293
20
13.805516741162361
30
0
10
-16.733293686833452
20
13.804876735492211
30
0
10
-16.730320690664882
20
13.803595883597499
30
0
10
-16.728834385192808
20
13.802955037244821
30
0
10
-16.727348263468098
20
13.802313765513162
30
0
0
SPLINE
5
279
100
AcDbEntity
8
0
100
AcDbSpline
70
0
71
3
72
10
73
6
74
0
42
0.000000001
43
0.0000000001
44
0.0000000001
40
0
40
0
40
0
40
0
40
0.081088932177257697
40
0.081088932177257697
40
0.16219761821133402
40
0.16219761821133402
40
0.16219761821133402
40
0.16219761821133402
10
-16.210638928568674
20
2.4750928285735254
30
0
10
-16.216723011003715
20
2.4663619967463384
30
0
10
-16.222823911277953
20
2.4576429344109982
30
0
10
-16.235060727923642
20
2.4402261434821728
30
0
10
-16.24119660573766
20
2.431528487108169
30
0
10
-16.247349151864785
20
2.4228425881919886
30
0
0
SPLINE
5
280
100
AcDbEntity
8
0
100
AcDbSpline
70
0
71
3
72
10
73
6
74
0
42
0.000000001
43
0.0000000001
44
0.0000000001
40
0
40
0
40
0
40
0
40
0.094293604244042845
40
0.094293604244042845
40
0.18854079680072761
40
0.18854079680072761
40
0.18854079680072761
40
0.18854079680072761
10
-14.64351013567445
20
12.157565369381775
30
0
10
-14.637369662581847
20
12.146821880101173
30
0
10
-14.631295794802812
20
12.136040769518299
30
0
10
-14.619284173028843
20
12.114409047925651
30
0
10
-14.613346727709731
20
12.103559147632
30
0
10
-14.607476119119525
20
12.092672769889631
30
0
0
LINE
5
281
100
AcDbEntity
8
0
100
AcDbLine
10
-14.853949751865827
20
0.2762833890570533
30
0
11
-14.837611583843257
21
0.2829111139454959
31
0
0
LINE
5
282
100
AcDbEntity
8
0
100
AcDbLine
10
-15.66417244125558
20
16.046734272568322
30
0
11
-16.784047479882403
21
13.849910269968973
31
0
0
LINE
5
283
100
AcDbEntity
8
0
100
AcDbLine
10
-16.727348263468098
20
13.802313765513162
30
0
11
-15.600453354018304
21
16.012908430183785
31
0
0
SPLINE
5
284
100
AcDbEntity
8
0
100
AcDbSpline
70
0
71
3
72
8
73
4
74
0
42
0.000000001
43
0.0000000001
44
0.0000000001
40
0.85403396587388325
40
0.85403396587388325
40
0.85403396587388325
40
0.85403396587388325
40
1.1459812190665879
40
1.1459812190665879
40
1.1459812190665879
40
1.1459812190665879
10
-15.442010719161154
20
6.2094575562741579
30
0
10
-15.473201589729204
20
6.2192905127362463
30
0
10
-15.504476540128648
20
6.2307452744307525
30
0
10
-15.535590550035989
20
6.2405283871765436
30
0
0
LWPOLYLINE
5
285
100
AcDbEntity
8
0
100
AcDbPolyline
90
4
70
1
43
0.0
10
-9.253837086869094
20
11.504498841283059
10
-9.2507411923332619
20
11.445643927760472
10
-7.794069851248147
20
11.521701248665991
10
-7.7688069797615444
20
11.582036861167834
0
SPLINE
5
286
100
AcDbEntity
8
0
100
AcDbSpline
70
0
71
3
72
8
73
4
74
0
42
0.000000001
43
0.0000000001
44
0.0000000001
40
0
40
0
40
0
40
0
40
1.2960405864840907
40
1.2960405864840907
40
1.2960405864840907
40
1.2960405864840907
10
-16.102888614639777
20
6.3211651608356121
30
0
10
-16.029057989401586
20
6.4743892726559658
30
0
10
-15.955996219956839
20
6.6260322870240804
30
0
10
-15.883505385612084
20
6.7764980386789251
30
0
0
LINE
5
287
100
AcDbEntity
8
0
100
AcDbLine
10
-14.607476119119525
20
12.092672769889631
30
0
11
-13.490712470508411
21
14.283393255549884
31
0
0
LINE
5
288
100
AcDbEntity
8
0
100
AcDbLine
10
-18.830559001757905
20
1.6395614465752171
30
0
11
-19.097634430600532
21
2.0509964010077111
31
0
0
LWPOLYLINE
5
289
100
AcDbEntity
8
0
100
AcDbPolyline
90
8
70
1
43
0.0
10
0.84019278665486852
20
7.6367833020955906
10
0.82014733073737789
20
7.6421783196432544
10
-2.5893838374487244
20
0.95380716256658837
10
-2.5732418202305003
20
0.9407548908331429
10
-2.5426043043358191
20
0.92487151216175356
10
-2.5256647502114791
20
0.91998132018204104
10
0.88495385035637786
20
7.6104856595113253
10
0.87104498822246967
20
7.6213210656258967
0
SPLINE
5
290
100
AcDbEntity
8
0
100
AcDbSpline
70
0
71
3
72
10
73
6
74
0
42
0.000000001
43
0.0000000001
44
0.0000000001
40
0
40
0
40
0
40
0
40
0.16608016983901289
40
0.16608016983901289
40
0.33170024334163428
40
0.33170024334163428
40
0.33170024334163428
40
0.33170024334163428
10
-18.832919363792517
20
1.5058731603781537
30
0
10
-18.834146811332182
20
1.5276338676777248
30
0
10
-18.834576137863085
20
1.5494337962412379
30
0
10
-18.83386964108907
20
1.5929580730604642
30
0
10
-18.832738285471933
20
1.6146739001393933
30
0
10
-18.830845144730965
20
1.6363260263808406
30
0
0
LWPOLYLINE
5
291
100
AcDbEntity
8
0
100
AcDbPolyline
90
4
70
1
43
0.0
10
-1.8050641320888794
20
9.3760666276961917
10
-3.5570826828159676
20
12.075085686495562
10
-3.608743513142076
20
12.041579472046473
10
-1.8728529772320988
20
9.3674059374877032
0
SPLINE
5
292
100
AcDbEntity
8
0
100
AcDbSpline
70
0
71
3
72
10
73
6
74
0
42
0.000000001
43
0.0000000001
44
0.0000000001
40
0
40
0
40
0
40
0
40
0.0041253402529633429
40
0.0041253402529633429
40
0.0082500462962433446
40
0.0082500462962433446
40
0.0082500462962433446
40
0.0082500462962433446
10
-18.830845144736067
20
1.6363260263812889
30
0
10
-18.830797992856922
20
1.6368653523567007
30
0
10
-18.830750569900189
20
1.6374046544766938
30
0
10
-18.830655188889434
20
1.6384831281441776
30
0
10
-18.830607230943926
20
1.6390222994147978
30
0
10
-18.830559001757905
20
1.6395614465752171
30
0
0
SPLINE
5
293
100
AcDbEntity
8
0
100
AcDbSpline
70
0
71
3
72
8
73
4
74
0
42
0.000000001
43
0.0000000001
44
0.0000000001
40
0.7824616879117875
40
0.7824616879117875
40
0.7824616879117875
40
0.7824616879117875
40
1.0756660634670181
40
1.0756660634670181
40
1.0756660634670181
40
1.0756660634670181
10
-19.260293802571905
20
2.1642518944563736
30
0
10
-19.250481399953085
20
2.1934673675591818
30
0
10
-19.239643452799626
20
2.2220341300557722
30
0
10
-19.225163340096611
20
2.2474571959775687
30
0
0
SPLINE
5
294
100
AcDbEntity
8
0
100
AcDbSpline
70
0
71
3
72
10
73
6
74
0
42
0.000000001
43
0.0000000001
44
0.0000000001
40
0
40
0
40
0
40
0
40
0.42582679507014704
40
0.42582679507014704
40
0.8654884135482408
40
0.8654884135482408
40
0.8654884135482408
40
0.8654884135482408
10
-19.615937520496953
20
4.3024865246795398
30
0
10
-19.616249258314301
20
4.2466046126838073
30
0
10
-19.623246950794879
20
4.1861841081137632
30
0
10
-19.649919119695824
20
4.0748871589708324
30
0
10
-19.67032730182186
20
4.0226328334273775
30
0
10
-19.698178454448286
20
3.9845407201261294
30
0
0
LWPOLYLINE
5
295
100
AcDbEntity
8
0
100
AcDbPolyline
90
4
70
1
43
0.0
10
-10.718279356833133
20
11.369019216358295
10
-9.2561746040406234
20
11.445360232512144
10
-9.2592476635569056
20
11.504216338321807
10
-10.749688347352297
20
11.426395815475775
0
SPLINE
5
296
100
AcDbEntity
8
0
100
AcDbSpline
70
0
71
3
72
8
73
4
74
0
42
0.000000001
43
0.0000000001
44
0.0000000001
40
0
40
0
40
0
40
0
40
0.02900977671991492
40
0.02900977671991492
40
0.02900977671991492
40
0.02900977671991492
10
-20.261239660348306
20
3.8543932361820259
30
0
10
-20.261116538713409
20
3.8505881702900404
30
0
10
-20.260991968868797
20
3.846782896463703
30
0
10
-20.260865932067389
20
3.8429774225282083
30
0
0
LWPOLYLINE
5
297
100
AcDbEntity
8
0
100
AcDbPolyline
90
4
70
1
43
0.0
10
-3.6087449957127267
20
12.041581755975738
10
-3.5570841566514053
20
12.075087956968058
10
-5.3047148308459873
20
14.767347405611487
10
-5.3402216487732401
20
14.708955617135473
0
SPLINE
5
298
100
AcDbEntity
8
0
100
AcDbSpline
70
0
71
3
72
8
73
4
74
0
42
0.000000001
43
0.0000000001
44
0.0000000001
40
0.11589261943935004
40
0.11589261943935004
40
0.11589261943935004
40
0.11589261943935004
40
0.40874863321761012
40
0.40874863321761012
40
0.40874863321761012
40
0.40874863321761012
10
-19.819717800884238
20
13.604797399572284
30
0
10
-19.836753510421683
20
13.628460179438454
30
0
10
-19.850650024342947
20
13.655560878642618
30
0
10
-19.86352714315046
20
13.683490114954331
30
0
0
SPLINE
5
299
100
AcDbEntity
8
0
100
AcDbSpline
70
0
71
3
72
10
73
6
74
0
42
0.000000001
43
0.0000000001
44
0.0000000001
40
0
40
0
40
0
40
0
40
0.34204706829316067
40
0.34204706829316067
40
0.68686631237202389
40
0.68686631237202389
40
0.68686631237202389
40
0.68686631237202389
10
-13.74800472371091
20
5.7336389625466007
30
0
10
-13.735721016566552
20
5.7768135971289167
30
0
10
-13.729815243644151
20
5.8203663003848964
30
0
10
-13.722291850724233
20
5.8994397517261774
30
0
10
-13.720692357375679
20
5.9352674121107514
30
0
10
-13.717157333688267
20
5.9629889255198947
30
0
0
SPLINE
5
300
100
AcDbEntity
8
0
100
AcDbSpline
70
0
71
3
72
8
73
4
74
0
42
0.000000001
43
0.0000000001
44
0.0000000001
40
0.028784517777108248
40
0.028784517777108248
40
0.028784517777108248
40
0.028784517777108248
40
0.54528179088473827
40
0.54528179088473827
40
0.54528179088473827
40
0.54528179088473827
10
-20.2608659320674
20
3.8429774225282105
30
0
10
-20.250396370066976
20
3.7805389574458674
30
0
10
-20.239614303390056
20
3.7188569140139727
30
0
10
-20.236726303397546
20
3.6684653791057196
30
0
0
SPLINE
5
301
100
AcDbEntity
8
0
100
AcDbSpline
70
0
71
3
72
16
73
12
74
0
42
0.000000001
43
0.0000000001
44
0.0000000001
40
0
40
0
40
0
40
0
40
1.502915826759474
40
1.502915826759474
40
3.4579397217933434
40
3.4579397217933434
40
5.1471709193131154
40
5.1471709193131154
40
5.9514505611319057
40
5.9514505611319057
40
6.7264405355184929
40
6.7264405355184929
40
6.7264405355184929
40
6.7264405355184929
10
-18.996509837727011
20
2.6266644016407912
30
0
10
-18.907679602104011
20
2.8027611492378783
30
0
10
-18.853915070106833
20
2.9956779793861221
30
0
10
-18.798018868880746
20
3.446425900966823
30
0
10
-18.815636390310626
20
3.7113846563140274
30
0
10
-18.92712814353553
20
4.1770574851717344
30
0
10
-19.012055396812443
20
4.3889012613424079
30
0
10
-19.187544825386972
20
4.6643437411591853
30
0
10
-19.252432576024628
20
4.748313272012429
30
0
10
-19.396387916942011
20
4.8967154615070605
30
0
10
-19.474806914413904
20
4.9616908946467815
30
0
10
-19.560854065682008
20
5.015389929730496
30
0
0
SPLINE
5
302
100
AcDbEntity
8
0
100
AcDbSpline
70
0
71
3
72
10
73
6
74
0
42
0.000000001
43
0.0000000001
44
0.0000000001
40
0.7058309123495472
40
0.7058309123495472
40
0.7058309123495472
40
0.7058309123495472
40
4.1097984734222672
40
4.1097984734222672
40
7.7272626897880654
40
7.7272626897880654
40
7.7272626897880654
40
7.7272626897880654
10
-20.236726303397546
20
3.6684653791057196
30
0
10
-20.279727544236799
20
3.2142030070126308
30
0
10
-20.313117779869071
20
2.7402172724198981
30
0
10
-20.326274889094289
20
1.8066076448515274
30
0
10
-20.303788351703531
20
1.291687219442035
30
0
10
-20.21152316737755
20
0.81583957599838297
30
0
0
SPLINE
5
303
100
AcDbEntity
8
0
100
AcDbSpline
70
0
71
3
72
16
73
12
74
0
42
0.000000001
43
0.0000000001
44
0.0000000001
40
0
40
0
40
0
40
0
40
0.72249436145329304
40
0.72249436145329304
40
1.3005138139593049
40
1.3005138139593049
40
1.8349293213965867
40
1.8349293213965867
40
2.2297227025096764
40
2.2297227025096764
40
2.662708021485825
40
2.662708021485825
40
2.662708021485825
40
2.662708021485825
10
-19.560854065682008
20
5.015389929730496
30
0
10
-19.64129359992496
20
5.0655842185359417
30
0
10
-19.721410692232315
20
5.0970100937617184
30
0
10
-19.860989950089131
20
5.1211196043320646
30
0
10
-19.923647375264796
20
5.1206577471720847
30
0
10
-20.041637020750333
20
5.0937993038746638
30
0
10
-20.094239309940065
20
5.0700173293970483
30
0
10
-20.177218031762497
20
5.0122001192857697
30
0
10
-20.208923138271711
20
4.9830904086752845
30
0
10
-20.268236490025014
20
4.9152081562986254
30
0
10
-20.294959447126111
20
4.8760004483037989
30
0
10
-20.317838617252644
20
4.8347366159028118
30
0
0
SPLINE
5
304
100
AcDbEntity
8
0
100
AcDbSpline
70
0
71
3
72
14
73
10
74
0
42
0.000000001
43
0.0000000001
44
0.0000000001
40
0
40
0
40
0
40
0
40
0.36411024106082135
40
0.36411024106082135
40
0.66828900770936517
40
0.66828900770936517
40
1.0686200605694136
40
1.0686200605694136
40
1.5246474415105609
40
1.5246474415105609
40
1.5246474415105609
40
1.5246474415105609
10
-19.698178454448286
20
3.9845407201261294
30
0
10
-19.726365538596749
20
3.9459563865629645
30
0
10
-19.760007082084449
20
3.9127193164419061
30
0
10
-19.835230542000858
20
3.8671155610780445
30
0
10
-19.871963967910844
20
3.8537600827741696
30
0
10
-19.963024470134627
20
3.8356546426592475
30
0
10
-20.017215652392228
20
3.8353591959612769
30
0
10
-20.134868682115041
20
3.8423743713544947
30
0
10
-20.198661087249587
20
3.8507596903153876
30
0
10
-20.261239660348306
20
3.8543932361820259
30
0
0
SPLINE
5
305
100
AcDbEntity
8
0
100
AcDbSpline
70
0
71
3
72
8
73
4
74
0
42
0.000000001
43
0.0000000001
44
0.0000000001
40
0.64907970617882138
40
0.64907970617882138
40
0.64907970617882138
40
0.64907970617882138
40
0.98359741160844205
40
0.98359741160844205
40
0.98359741160844205
40
0.98359741160844205
10
-20.699979264536566
20
12.042648026412651
30
0
10
-20.697853987145454
20
12.002573929438155
30
0
10
-20.699695734593064
20
11.961043324959761
30
0
10
-20.701767161380051
20
11.919945411603463
30
0
0
SPLINE
5
306
100
AcDbEntity
8
0
100
AcDbSpline
70
0
71
3
72
8
73
4
74
0
42
0.000000001
43
0.0000000001
44
0.0000000001
40
0
40
0
40
0
40
0
40
4.5367334356890572
40
4.5367334356890572
40
4.5367334356890572
40
4.5367334356890572
10
-13.717157333688267
20
5.9629889255198947
30
0
10
-14.306542207551605
20
6.0472094732070953
30
0
10
-14.872455864172073
20
6.1280700806614012
30
0
10
-15.442010719161154
20
6.2094575562741587
30
0
0
SPLINE
5
307
100
AcDbEntity
8
0
100
AcDbSpline
70
0
71
3
72
8
73
4
74
0
42
0.000000001
43
0.0000000001
44
0.0000000001
40
2.9271753128193367
40
2.9271753128193367
40
2.9271753128193367
40
2.9271753128193367
40
4.4499867017205492
40
4.4499867017205492
40
4.4499867017205492
40
4.4499867017205492
10
-15.535590550035989
20
6.2405283871765436
30
0
10
-15.724734840880126
20
6.2674106228884821
30
0
10
-15.912123369622179
20
6.2940457113696775
30
0
10
-16.102888614639777
20
6.3211651608356121
30
0
0
SPLINE
5
308
100
AcDbEntity
8
0
100
AcDbSpline
70
0
71
3
72
8
73
4
74
0
42
0.000000001
43
0.0000000001
44
0.0000000001
40
0.14418027248178444
40
0.14418027248178444
40
0.14418027248178444
40
0.14418027248178444
40
0.41033907616997933
40
0.41033907616997933
40
0.41033907616997933
40
0.41033907616997933
10
-15.883505385612079
20
6.7764980386789206
30
0
10
-15.876227748508088
20
6.8005339249486019
30
0
10
-15.864746247456743
20
6.8207330553930676
30
0
10
-15.846573642648634
20
6.8326947020926898
30
0
0
SPLINE
5
309
100
AcDbEntity
8
0
100
AcDbSpline
70
0
71
3
72
8
73
4
74
0
42
0.000000001
43
0.0000000001
44
0.0000000001
40
1.6320776329226503
40
1.6320776329226503
40
1.6320776329226503
40
1.6320776329226503
40
6.0384365900179287
40
6.0384365900179287
40
6.0384365900179287
40
6.0384365900179287
10
-15.846573642648634
20
6.8326947020926871
30
0
10
-15.371523347629514
20
7.1441712170229561
30
0
10
-14.905887672301759
20
7.4494973306236787
30
0
10
-14.438220170128899
20
7.7561195440703612
30
0
0
LINE
5
310
100
AcDbEntity
8
0
100
AcDbLine
10
-15.435910846711407
20
7.8794427354795182
30
0
11
-12.037803015264632
21
8.3135843580579785
31
0
0
LINE
5
311
100
AcDbEntity
8
0
100
AcDbLine
10
-19.1365600400276
20
1.9736375980578273
30
0
11
-18.832919363792517
21
1.5058731603781537
31
0
0
SPLINE
5
312
100
AcDbEntity
8
0
100
AcDbSpline
70
0
71
3
72
10
73
6
74
0
42
0.000000001
43
0.0000000001
44
0.0000000001
40
0
40
0
40
0
40
0
40
3.4677942682435909
40
3.4677942682435909
40
7.0493211987656963
40
7.0493211987656963
40
7.0493211987656963
40
7.0493211987656963
10
-21.011012364581305
20
14.822332727889796
30
0
10
-21.028745727771057
20
14.367587252452505
30
0
10
-20.995095405328222
20
13.894715824983749
30
0
10
-20.881750891376292
20
12.980077139950067
30
0
10
-20.795799614760014
20
12.50263850050329
30
0
10
-20.699979264536566
20
12.042648026412651
30
0
0
SPLINE
5
313
100
AcDbEntity
8
0
100
AcDbSpline
70
0
71
3
72
10
73
6
74
0
42
0.000000001
43
0.0000000001
44
0.0000000001
40
2.0335508423621218
40
2.0335508423621218
40
2.0335508423621218
40
2.0335508423621218
40
2.0525838134369567
40
2.0525838134369567
40
3.1533126142499208
40
3.1533126142499208
40
3.1533126142499208
40
3.1533126142499208
10
-19.225163340096611
20
2.2474571959775704
30
0
10
-19.223675761526341
20
2.2494611282738366
30
0
10
-19.222192304975639
20
2.2514679512012119
30
0
10
-19.135157678418786
20
2.3697009255530315
30
0
10
-19.061310709654197
20
2.4981887563603684
30
0
10
-18.996509837727011
20
2.6266644016407912
30
0
0
ARC
5
314
100
AcDbEntity
8
0
100
AcDbCircle
10
-11.975806934949983
20
8.3215049657126947
30
0
40
0.062500000000001138
210
0
220
0
230
1
100
AcDbArc
50
-172.71934394049859
51
178.69709578529486
0
LINE
5
315
100
AcDbEntity
8
0
100
AcDbLine
10
-12.038290776078757
20
8.3229260912505545
30
0
11
-15.851134402888976
21
8.4096449829199127
31
0
0
LINE
5
316
100
AcDbEntity
8
0
100
AcDbLine
10
-19.71337944070569
20
13.813398050519648
30
0
11
-19.541383388666645
21
14.150797351726524
31
0
0
SPLINE
5
317
100
AcDbEntity
8
0
100
AcDbSpline
70
0
71
3
72
10
73
6
74
0
42
0.000000001
43
0.0000000001
44
0.0000000001
40
0
40
0
40
0
40
0
40
3.2088757678287889
40
3.2088757678287889
40
3.8440107871513529
40
3.8440107871513529
40
3.8440107871513529
40
3.8440107871513529
10
-20.111861512052482
20
0.90706954157466835
30
0
10
-19.823386310177021
20
1.2138555121428485
30
0
10
-19.58222612099263
20
1.5760425780523959
30
0
10
-19.338106919652063
20
2.0158710039151897
30
0
10
-19.298734822548465
20
2.0896419018461123
30
0
10
-19.260293802571905
20
2.1642518944563744
30
0
0
SPLINE
5
318
100
AcDbEntity
8
0
100
AcDbSpline
70
0
71
3
72
10
73
6
74
0
42
0.000000001
43
0.0000000001
44
0.0000000001
40
0
40
0
40
0
40
0
40
0.14393049944945369
40
0.14393049944945369
40
0.28922943594052625
40
0.28922943594052625
40
0.28922943594052625
40
0.28922943594052625
10
-19.541383388666986
20
14.15079735172773
30
0
10
-19.546537775636036
20
14.168968988114793
30
0
10
-19.551412715316893
20
14.187212035444182
30
0
10
-19.560635573484404
20
14.224030965234636
30
0
10
-19.564974198005398
20
14.242593028845913
30
0
10
-19.569013564838411
20
14.261228233593384
30
0
0
SPLINE
5
319
100
AcDbEntity
8
0
100
AcDbSpline
70
0
71
3
72
10
73
6
74
0
42
0.000000001
43
0.0000000001
44
0.0000000001
40
0
40
0
40
0
40
0
40
0.24837742655888631
40
0.24837742655888631
40
0.54239229070316231
40
0.54239229070316231
40
0.54239229070316231
40
0.54239229070316231
10
-20.21152316737755
20
0.81583957599838297
30
0
10
-20.187414546079236
20
0.83777672655255842
30
0
10
-20.167384303952492
20
0.85504773323493555
30
0
10
-20.138386990711215
20
0.88073572528506583
30
0
10
-20.125126335008808
20
0.89293012247191184
30
0
10
-20.111861512052482
20
0.90706954157466835
30
0
0
SPLINE
5
320
100
AcDbEntity
8
0
100
AcDbSpline
70
0
71
3
72
10
73
6
74
0
42
0.000000001
43
0.0000000001
44
0.0000000001
40
0
40
0
40
0
40
0
40
0.1098552746719311
40
0.1098552746719311
40
0.2196937611723124
40
0.2196937611723124
40
0.2196937611723124
40
0.2196937611723124
10
-19.76024841282123
20
13.886088785269431
30
0
10
-19.752373291320044
20
13.87401303359708
30
0
10
-19.74452967157384
20
13.861916707716048
30
0
10
-19.728906352798735
20
13.837685526680891
30
0
10
-19.721124399777132
20
13.825547154198553
30
0
10
-19.71337944070569
20
13.813398050519652
30
0
0
SPLINE
5
321
100
AcDbEntity
8
0
100
AcDbSpline
70
0
71
3
72
10
73
6
74
0
42
0.000000001
43
0.0000000001
44
0.0000000001
40
0
40
0
40
0
40
0
40
0.11001222343555628
40
0.11001222343555628
40
0.21996275816255809
40
0.21996275816255809
40
0.21996275816255809
40
0.21996275816255809
10
-19.097634430600532
20
2.0509964010077111
30
0
10
-19.104064568732735
20
2.0380701120904168
30
0
10
-19.110524097114087
20
2.0251579143203831
30
0
10
-19.123498753212488
20
1.9993716121516742
30
0
10
-19.130014276224998
20
1.9864966388262233
30
0
10
-19.1365600400276
20
1.9736375980578273
30
0
0
SPLINE
5
322
100
AcDbEntity
8
0
100
AcDbSpline
70
0
71
3
72
16
73
12
74
0
42
0.000000001
43
0.0000000001
44
0.0000000001
40
0
40
0
40
0
40
0
40
1.3668901608096462
40
1.3668901608096462
40
2.1537428150183184
40
2.1537428150183184
40
2.8269681359471583
40
2.8269681359471583
40
3.5373260263479245
40
3.5373260263479245
40
4.2831812506437004
40
4.2831812506437004
40
4.2831812506437004
40
4.2831812506437004
10
-20.317838617252644
20
4.8347366159028118
30
0
10
-20.138610840907948
20
4.8273019583467454
30
0
10
-20.001415380548305
20
4.8099177488943834
30
0
10
-19.838175901210359
20
4.7564924565733122
30
0
10
-19.789823361425743
20
4.731549014546375
30
0
10
-19.717881538020425
20
4.6729229955592171
30
0
10
-19.691654883469088
20
4.6409554588771531
30
0
10
-19.650204173521384
20
4.5633877472691857
30
0
10
-19.636132701657438
20
4.5180803481279774
30
0
10
-19.61828265583522
20
4.4134944282050936
30
0
10
-19.615634083406288
20
4.3563882816800721
30
0
10
-19.615937520496953
20
4.3024865246795398
30
0
0
SPLINE
5
323
100
AcDbEntity
8
0
100
AcDbSpline
70
0
71
3
72
8
73
4
74
0
42
0.000000001
43
0.0000000001
44
0.0000000001
40
4.0908896816349332
40
4.0908896816349332
40
4.0908896816349332
40
4.0908896816349332
40
7.8761579047836516
40
7.8761579047836516
40
7.8761579047836516
40
7.8761579047836516
10
-19.86352714315046
20
13.683490114954331
30
0
10
-20.138294808709372
20
14.099854033463886
30
0
10
-20.451087581276852
20
14.489342904398931
30
0
10
-20.807304233887461
20
14.835470935651646
30
0
0
SPLINE
5
324
100
AcDbEntity
8
0
100
AcDbSpline
70
0
71
3
72
20
73
16
74
0
42
0.000000001
43
0.0000000001
44
0.0000000001
40
0
40
0
40
0
40
0
40
0.3248936872549113
40
0.3248936872549113
40
0.52033511409882038
40
0.52033511409882038
40
0.61837241017129196
40
0.61837241017129196
40
0.68765343619058117
40
0.68765343619058117
40
0.75524304665809605
40
0.75524304665809605
40
0.85116204939823936
40
0.85116204939823936
40
1.1654079163582651
40
1.1654079163582651
40
1.1654079163582651
40
1.1654079163582651
10
-20.807304233887461
20
14.835470935651646
30
0
10
-20.837875691171547
20
14.865191247562944
30
0
10
-20.86941679621577
20
14.89360380200918
30
0
10
-20.914322295104245
20
14.924518956899334
30
0
10
-20.929059652834674
20
14.932238887939567
30
0
10
-20.948272399837663
20
14.937811060587105
30
0
10
-20.955090167701318
20
14.938920576098635
30
0
10
-20.966479673183148
20
14.937972629353965
30
0
10
-20.970966896112479
20
14.93676380842375
30
0
10
-20.979268847979572
20
14.932461009706255
30
0
10
-20.9828100382408
20
14.929562442324594
30
0
10
-20.99026042006188
20
14.921244469677761
30
0
10
-20.993631206176712
20
14.915351457689942
30
0
10
-21.004908217821644
20
14.889769076445122
30
0
10
-21.00951629255421
20
14.86062481752807
30
0
10
-21.011012364581305
20
14.822332727889796
30
0
0
LINE
5
325
100
AcDbEntity
8
0
100
AcDbLine
10
-20.27504656936166
20
10.020129797339283
30
0
11
-21.257082356403771
21
10.785164094839724
31
0
0
LINE
5
326
100
AcDbEntity
8
0
100
AcDbLine
10
-13.16020142352345
20
20.231611088804367
30
0
11
-10.85471232340366
21
25.404417726938711
31
0
0
LINE
5
327
100
AcDbEntity
8
0
100
AcDbLine
10
-13.535022983356418
20
17.468193982361189
30
0
11
-13.539277393210606
21
17.540201068845239
31
0
0
SPLINE
5
328
100
AcDbEntity
8
0
100
AcDbSpline
70
0
71
3
72
12
73
8
74
0
42
0.000000001
43
0.0000000001
44
0.0000000001
40
2.3270750621295342
40
2.3270750621295342
40
2.3270750621295342
40
2.3270750621295342
40
3.0911232446224095
40
3.0911232446224095
40
4.6732719848849538
40
4.6732719848849538
40
6.3295106857572687
40
6.3295106857572687
40
6.3295106857572687
40
6.3295106857572687
10
-14.775964980971342
20
11.897732822559787
30
0
10
-14.820149804822011
20
11.986251213240086
30
0
10
-14.869128629841011
20
12.072837849961854
30
0
10
-15.035013347163062
20
12.332290490117304
30
0
10
-15.164994051344722
20
12.492789247557152
30
0
10
-15.465228543867072
20
12.793665489365752
30
0
10
-15.634334775724685
20
12.929992039329354
30
0
10
-15.814921003672451
20
13.050990270008461
30
0
0
SPLINE
5
329
100
AcDbEntity
8
0
100
AcDbSpline
70
0
71
3
72
11
73
7
74
0
42
0.000000001
43
0.0000000001
44
0.0000000001
40
0.14411140668859707
40
0.14411140668859707
40
0.14411140668859707
40
0.14411140668859707
40
0.48245282971494102
40
0.48245282971494102
40
0.48245282971494102
40
0.50420685289621781
40
0.50420685289621781
40
0.50420685289621781
40
0.50420685289621781
10
-19.040617942511155
20
15.133133339084255
30
0
10
-19.073280140015161
20
15.123315651768644
30
0
10
-19.10185273797951
20
15.116535098763555
30
0
10
-19.126158450177005
20
15.120036852577027
30
0
10
-19.127721211904067
20
15.120262001578743
30
0
10
-19.129268606982414
20
15.120535504640374
30
0
10
-19.130797865015346
20
15.120862330686794
30
0
0
SPLINE
5
330
100
AcDbEntity
8
0
100
AcDbSpline
70
0
71
3
72
20
73
16
74
0
42
0.000000001
43
0.0000000001
44
0.0000000001
40
1.5029653787968371
40
1.5029653787968371
40
1.5029653787968371
40
1.5029653787968371
40
1.5474382109203073
40
1.5474382109203073
40
1.7542215231925145
40
1.7542215231925145
40
1.9000568744921589
40
1.9000568744921589
40
2.0394744084640122
40
2.0394744084640122
40
2.224441428005381
40
2.224441428005381
40
2.570272994096249
40
2.570272994096249
40
3.087747989325476
40
3.087747989325476
40
3.087747989325476
40
3.087747989325476
10
-19.130797865015346
20
15.120862330686784
30
0
10
-19.137320156310345
20
15.122748661790817
30
0
10
-19.143846351768321
20
15.124458982557865
30
0
10
-19.180665505577977
20
15.133011542948767
30
0
10
-19.212512706340675
20
15.136206814402064
30
0
10
-19.265009346961016
20
15.128597090036974
30
0
10
-19.285526225479341
20
15.121737292062319
30
0
10
-19.322350558858389
20
15.09971939198841
30
0
10
-19.337621720648112
20
15.08564639844958
30
0
10
-19.367656478420223
20
15.047186392017169
30
0
10
-19.380130133458081
20
15.021564609623644
30
0
10
-19.406427530239352
20
14.946168561454867
30
0
10
-19.413560679634728
20
14.890250809246506
30
0
10
-19.419272994085226
20
14.760559042373105
30
0
10
-19.412593166516139
20
14.675335842651911
30
0
10
-19.400772804883999
20
14.591260895216804
30
0
0
SPLINE
5
331
100
AcDbEntity
8
0
100
AcDbSpline
70
0
71
3
72
10
73
6
74
0
42
0.000000001
43
0.0000000001
44
0.0000000001
40
2.2384080914054238
40
2.2384080914054238
40
2.2384080914054238
40
2.2384080914054238
40
3.5297411055308667
40
3.5297411055308667
40
5.0448904473328327
40
5.0448904473328327
40
5.0448904473328327
40
5.0448904473328327
10
-17.425495719460894
20
12.432779633777125
30
0
10
-17.341420079420313
20
12.286196495984397
30
0
10
-17.277125920187029
20
12.130601165455053
30
0
10
-17.17482879244147
20
11.776736936723291
30
0
10
-17.144346081253627
20
11.579289136076465
30
0
10
-17.132183776815289
20
11.380839469609214
30
0
0
SPLINE
5
332
100
AcDbEntity
8
0
100
AcDbSpline
70
0
71
3
72
8
73
4
74
0
42
0.000000001
43
0.0000000001
44
0.0000000001
40
0
40
0
40
0
40
0
40
0.091081020057166728
40
0.091081020057166728
40
0.091081020057166728
40
0.091081020057166728
10
-19.407383263300968
20
14.444636388023973
30
0
10
-19.40789699479609
20
14.433540979407384
30
0
10
-19.408354026530585
20
14.422322679463742
30
0
10
-19.408686576529632
20
14.411104557366595
30
0
0
SPLINE
5
333
100
AcDbEntity
8
0
100
AcDbSpline
70
0
71
3
72
10
73
6
74
0
42
0.000000001
43
0.0000000001
44
0.0000000001
40
0
40
0
40
0
40
0
40
1.4239408899633741
40
1.4239408899633741
40
2.1588656151387844
40
2.1588656151387844
40
2.1588656151387844
40
2.1588656151387844
10
-17.132183776815289
20
11.380839469609214
30
0
10
-17.318781650533285
20
11.370779000866413
30
0
10
-17.507688494207486
20
11.360591514633876
30
0
10
-17.791965458841961
20
11.345251137005013
30
0
10
-17.888573732584891
20
11.340036176687502
30
0
10
-17.98520375575243
20
11.334817802177872
30
0
0
SPLINE
5
334
100
AcDbEntity
8
0
100
AcDbSpline
70
0
71
3
72
8
73
4
74
0
42
0.000000001
43
0.0000000001
44
0.0000000001
40
1.2432708206763046
40
1.2432708206763046
40
1.2432708206763046
40
1.2432708206763046
40
1.5202498948622878
40
1.5202498948622878
40
1.5202498948622878
40
1.5202498948622878
10
-17.98520375575243
20
11.334817802177868
30
0
10
-18.013607560497281
20
11.328868734541494
30
0
10
-18.042007545807074
20
11.326262988155634
30
0
10
-18.067533959903468
20
11.332134795859492
30
0
0
SPLINE
5
335
100
AcDbEntity
8
0
100
AcDbSpline
70
0
71
3
72
8
73
4
74
0
42
0.000000001
43
0.0000000001
44
0.0000000001
40
0.13990281257068796
40
0.13990281257068796
40
0.13990281257068796
40
0.13990281257068796
40
0.40488489415158535
40
0.40488489415158535
40
0.40488489415158535
40
0.40488489415158535
10
-15.32219630892773
20
10.826207830184124
30
0
10
-15.294802372879698
20
10.833641838628587
30
0
10
-15.267313557959913
20
10.843145943416474
30
0
10
-15.239840566196165
20
10.852183118980166
30
0
0
LINE
5
336
100
AcDbEntity
8
0
100
AcDbLine
10
-17.586865143037162
20
8.7201165387103821
30
0
11
-19.109232663758128
21
9.1298452833241033
31
0
0
LINE
5
337
100
AcDbEntity
8
0
100
AcDbLine
10
-16.435142675272374
20
8.6429755883175527
30
0
11
-16.657684076714403
21
8.8942685026084778
31
0
0
SPLINE
5
338
100
AcDbEntity
8
0
100
AcDbSpline
70
0
71
3
72
8
73
4
74
0
42
0.000000001
43
0.0000000001
44
0.0000000001
40
0.88280969837107359
40
0.88280969837107359
40
0.88280969837107359
40
0.88280969837107359
40
6.0999396844079792
40
6.0999396844079792
40
6.0999396844079792
40
6.0999396844079792
10
-16.158031544100712
20
9.050996460061322
30
0
10
-15.497204399395992
20
9.1945161840399869
30
0
10
-14.857269077567336
20
9.3335021203161741
30
0
10
-14.197433855368622
20
9.4768199162120137
30
0
0
SPLINE
5
339
100
AcDbEntity
8
0
100
AcDbSpline
70
0
71
3
72
8
73
4
74
0
42
0.000000001
43
0.0000000001
44
0.0000000001
40
0
40
0
40
0
40
0
40
2.5897447929474366
40
2.5897447929474366
40
2.5897447929474366
40
2.5897447929474366
10
-14.438220170128899
20
7.7561195440703612
30
0
10
-14.775515108530952
20
7.797808610333866
30
0
10
-15.104138381531365
20
7.8384299316309081
30
0
10
-15.435910846711405
20
7.8794427354795182
30
0
0
SPLINE
5
340
100
AcDbEntity
8
0
100
AcDbSpline
70
0
71
3
72
8
73
4
74
0
42
0.000000001
43
0.0000000001
44
0.0000000001
40
0.98876757102134083
40
0.98876757102134083
40
0.98876757102134083
40
0.98876757102134083
40
1.2419089549436064
40
1.2419089549436064
40
1.2419089549436064
40
1.2419089549436064
10
-15.617940942891515
20
10.110475379932167
30
0
10
-15.63757728664822
20
10.118765280813202
30
0
10
-15.652728034612903
20
10.13577593561976
30
0
10
-15.663565542377349
20
10.156554431434724
30
0
0
SPLINE
5
341
100
AcDbEntity
8
0
100
AcDbSpline
70
0
71
3
72
8
73
4
74
0
42
0.000000001
43
0.0000000001
44
0.0000000001
40
0
40
0
40
0
40
0
40
1.9695576992352568
40
1.9695576992352568
40
1.9695576992352568
40
1.9695576992352568
10
-16.028480608353213
20
10.661565361733402
30
0
10
-15.787326130763148
20
10.754583449121007
30
0
10
-15.553314764130334
20
10.801417934836225
30
0
10
-15.32219630892773
20
10.826207830184124
30
0
0
SPLINE
5
342
100
AcDbEntity
8
0
100
AcDbSpline
70
0
71
3
72
8
73
4
74
0
42
0.000000001
43
0.0000000001
44
0.0000000001
40
0
40
0
40
0
40
0
40
0.3445877198933433
40
0.3445877198933433
40
0.3445877198933433
40
0.3445877198933433
10
-18.183332571918395
20
11.367076557754626
30
0
10
-18.156926603723829
20
11.33036542049242
30
0
10
-18.13125608374472
20
11.293333558406477
30
0
10
-18.10637273411492
20
11.255945981504047
30
0
0
SPLINE
5
343
100
AcDbEntity
8
0
100
AcDbSpline
70
0
71
3
72
8
73
4
74
0
42
0.000000001
43
0.0000000001
44
0.0000000001
40
0
40
0
40
0
40
0
40
1.1765955650237927
40
1.1765955650237927
40
1.1765955650237927
40
1.1765955650237927
10
-17.174413258047633
20
8.9198613817599153
30
0
10
-17.311946530369884
20
8.8496709468623536
30
0
10
-17.449268351159304
20
8.7828524084885533
30
0
10
-17.586865143037162
20
8.7201165387103821
30
0
0
SPLINE
5
344
100
AcDbEntity
8
0
100
AcDbSpline
70
0
71
3
72
8
73
4
74
0
42
0.000000001
43
0.0000000001
44
0.0000000001
40
0
40
0
40
0
40
0
40
2.2401053907535284
40
2.2401053907535284
40
2.2401053907535284
40
2.2401053907535284
10
-17.831868123642209
20
13.323428360291327
30
0
10
-17.669467466486907
20
13.078380297054277
30
0
10
-17.543321881003294
20
12.81755749014879
30
0
10
-17.450917951173857
20
12.541731225497943
30
0
0
SPLINE
5
345
100
AcDbEntity
8
0
100
AcDbSpline
70
0
71
3
72
8
73
4
74
0
42
0.000000001
43
0.0000000001
44
0.0000000001
40
0
40
0
40
0
40
0
40
2.5234666540143578
40
2.5234666540143578
40
2.5234666540143578
40
2.5234666540143578
10
-13.998867949395866
20
11.184142222390872
30
0
10
-14.209885808588202
20
11.43936917038093
30
0
10
-14.462333710359731
20
11.654166963513171
30
0
10
-14.738345885491624
20
11.835949623052366
30
0
0
SPLINE
5
346
100
AcDbEntity
8
0
100
AcDbSpline
70
0
71
3
72
8
73
4
74
0
42
0.000000001
43
0.0000000001
44
0.0000000001
40
0
40
0
40
0
40
0
40
2.9403074447223632
40
2.9403074447223632
40
2.9403074447223632
40
2.9403074447223632
10
-15.814921003672451
20
13.050990270008461
30
0
10
-16.135495015032259
20
13.26575930073135
30
0
10
-16.47806364511073
20
13.443893598576929
30
0
10
-16.831837293613631
20
13.597340887723597
30
0
0
SPLINE
5
347
100
AcDbEntity
8
0
100
AcDbSpline
70
0
71
3
72
8
73
4
74
0
42
0.000000001
43
0.0000000001
44
0.0000000001
40
2.0668768612273949
40
2.0668768612273949
40
2.0668768612273949
40
2.0668768612273949
40
2.3271389227082042
40
2.3271389227082042
40
2.3271389227082042
40
2.3271389227082042
10
-16.831837293613631
20
13.597340887723592
30
0
10
-16.854562365151214
20
13.606554243662517
30
0
10
-16.873860584435072
20
13.622568633150106
30
0
10
-16.889704899515497
20
13.642645398892553
30
0
0
LINE
5
348
100
AcDbEntity
8
0
100
AcDbLine
10
-18.067533959903468
20
11.332134795859492
30
0
11
-18.183332571918395
21
11.367076557754626
31
0
0
SPLINE
5
349
100
AcDbEntity
8
0
100
AcDbSpline
70
0
71
3
72
10
73
6
74
0
42
0.000000001
43
0.0000000001
44
0.0000000001
40
0
40
0
40
0
40
0
40
3.3166663507916385
40
3.3166663507916385
40
3.9994744805525784
40
3.9994744805525784
40
3.9994744805525784
40
3.9994744805525784
10
-14.197433855368622
20
9.4768199162120137
30
0
10
-14.594929495285699
20
9.654152336979676
30
0
10
-14.998354124406733
20
9.8341014658967705
30
0
10
-15.462210233120095
20
10.041009444852421
30
0
10
-15.540410526981631
20
10.075891640904141
30
0
10
-15.617940942891515
20
10.110475379932167
30
0
0
SPLINE
5
350
100
AcDbEntity
8
0
100
AcDbSpline
70
0
71
3
72
10
73
6
74
0
42
0.000000001
43
0.0000000001
44
0.0000000001
40
0
40
0
40
0
40
0
40
1.5779033684519403
40
1.5779033684519403
40
3.1348192850907215
40
3.1348192850907215
40
3.1348192850907215
40
3.1348192850907215
10
-17.756089865227771
20
14.434730740117928
30
0
10
-17.914552627276958
20
14.568031778062286
30
0
10
-18.0742007663486
20
14.700427459232206
30
0
10
-18.405651824659046
20
14.930290229776356
30
0
10
-18.58026493562944
20
15.030278047098944
30
0
10
-18.769337074460751
20
15.097460520134428
30
0
0
SPLINE
5
351
100
AcDbEntity
8
0
100
AcDbSpline
70
0
71
3
72
8
73
4
74
0
42
0.000000001
43
0.0000000001
44
0.0000000001
40
3.4465234260627158
40
3.4465234260627158
40
3.4465234260627158
40
3.4465234260627158
40
6.4334979323489048
40
6.4334979323489048
40
6.4334979323489048
40
6.4334979323489048
10
-16.889704899515493
20
13.642645398892553
30
0
10
-17.165302725280828
20
13.921543760851192
30
0
10
-17.45535277548862
20
14.181630750850783
30
0
10
-17.756089865227771
20
14.434730740117928
30
0
0
SPLINE
5
352
100
AcDbEntity
8
0
100
AcDbSpline
70
0
71
3
72
10
73
6
74
0
42
0.000000001
43
0.0000000001
44
0.0000000001
40
0
40
0
40
0
40
0
40
0.67147708511119453
40
0.67147708511119453
40
0.80438549755248934
40
0.80438549755248934
40
0.80438549755248934
40
0.80438549755248934
10
-18.769337074460751
20
15.097460520134428
30
0
10
-18.852374676605493
20
15.126955488062219
30
0
10
-18.929355394591663
20
15.139461308259401
30
0
10
-19.013228165399632
20
15.136105208914955
30
0
10
-19.026989280710136
20
15.134941381649844
30
0
10
-19.040617942511155
20
15.133133339084255
30
0
0
SPLINE
5
353
100
AcDbEntity
8
0
100
AcDbSpline
70
0
71
3
72
11
73
7
74
0
42
0.000000001
43
0.0000000001
44
0.0000000001
40
0.8407696363722964
40
0.8407696363722964
40
0.8407696363722964
40
0.8407696363722964
40
1.1193272296491026
40
1.1193272296491026
40
1.1193272296491026
40
1.2941427842655959
40
1.2941427842655959
40
1.2941427842655959
40
1.2941427842655959
10
-19.40077280488401
20
14.591260895216799
30
0
10
-19.400892183981526
20
14.56324700399813
30
0
10
-19.402459024878603
20
14.534995877252966
30
0
10
-19.404197684487208
20
14.50407945976105
30
0
10
-19.405288822374324
20
14.484677114245976
30
0
10
-19.406455044866565
20
14.464708513364272
30
0
10
-19.407383263300968
20
14.44463638802398
30
0
0
SPLINE
5
354
100
AcDbEntity
8
0
100
AcDbSpline
70
0
71
3
72
14
73
10
74
0
42
0.000000001
43
0.0000000001
44
0.0000000001
40
0
40
0
40
0
40
0
40
0.28692927796980322
40
0.28692927796980322
40
0.529199094722411
40
0.529199094722411
40
0.80165770400084779
40
0.80165770400084779
40
1.2033015500808264
40
1.2033015500808264
40
1.2033015500808264
40
1.2033015500808264
10
-18.836201639637558
20
14.0705113111269
30
0
10
-18.805829521781828
20
14.092769241725279
30
0
10
-18.772390472823783
20
14.109655262522873
30
0
10
-18.704954580316453
20
14.126035917212768
30
0
10
-18.673618931831303
20
14.127392079859321
30
0
10
-18.606769622196072
20
14.118151803998959
30
0
10
-18.572802259481531
20
14.106267295599642
30
0
10
-18.494156869066391
20
14.065860999608772
30
0
10
-18.451398675954657
20
14.031826892438614
30
0
10
-18.414273892432995
20
13.994287827988254
30
0
0
SPLINE
5
355
100
AcDbEntity
8
0
100
AcDbSpline
70
0
71
3
72
8
73
4
74
0
42
0.000000001
43
0.0000000001
44
0.0000000001
40
1.2123002609485911
40
1.2123002609485911
40
1.2123002609485911
40
1.2123002609485911
40
1.4882675113437001
40
1.4882675113437001
40
1.4882675113437001
40
1.4882675113437001
10
-18.10637273411492
20
11.255945981504047
30
0
10
-18.094169188194112
20
11.229783513032539
30
0
10
-18.079697498499478
20
11.205562438377067
30
0
10
-18.060207702875818
20
11.187684893909481
30
0
0
SPLINE
5
356
100
AcDbEntity
8
0
100
AcDbSpline
70
0
71
3
72
12
73
8
74
0
42
0.000000001
43
0.0000000001
44
0.0000000001
40
0.5923656373427193
40
0.5923656373427193
40
0.5923656373427193
40
0.5923656373427193
40
1.9413419534320835
40
1.9413419534320835
40
2.9133699856356734
40
2.9133699856356734
40
3.9402605963964974
40
3.9402605963964974
40
3.9402605963964974
40
3.9402605963964974
10
-18.060207702875807
20
11.187684893909486
30
0
10
-17.926663961418527
20
11.082155028730147
30
0
10
-17.810849438098579
20
10.965749430588543
30
0
10
-17.649745032493225
20
10.739972280971244
30
0
10
-17.594762193442488
20
10.639065177302486
30
0
10
-17.508525984462008
20
10.416326809928208
30
0
10
-17.480420173598194
20
10.297825173528107
30
0
10
-17.46598460852907
20
10.176021684405114
30
0
0
SPLINE
5
357
100
AcDbEntity
8
0
100
AcDbSpline
70
0
71
3
72
8
73
4
74
0
42
0.000000001
43
0.0000000001
44
0.0000000001
40
0.12981374665225939
40
0.12981374665225939
40
0.12981374665225939
40
0.12981374665225939
40
0.40941316869329897
40
0.40941316869329897
40
0.40941316869329897
40
0.40941316869329897
10
-16.2448755138516
20
9.0162167560358153
30
0
10
-16.215893154748283
20
9.0268841712866639
30
0
10
-16.186936200968493
20
9.0395430558350629
30
0
10
-16.158031544100712
20
9.050996460061322
30
0
0
SPLINE
5
358
100
AcDbEntity
8
0
100
AcDbSpline
70
0
71
3
72
12
73
8
74
0
42
0.000000001
43
0.0000000001
44
0.0000000001
40
0
40
0
40
0
40
0
40
1.1208411680025143
40
1.1208411680025143
40
1.6893649817998928
40
1.6893649817998928
40
2.254725498878916
40
2.254725498878916
40
2.254725498878916
40
2.254725498878916
10
-17.46598460852907
20
10.176021684405114
30
0
10
-17.613076364987922
20
10.176298429088984
30
0
10
-17.762926217246942
20
10.176585682884813
30
0
10
-17.97370734743323
20
10.17698844467944
30
0
10
-18.045324609995038
20
10.177125054698811
30
0
10
-18.18736580672601
20
10.177393924739564
30
0
10
-18.258137510458599
20
10.177526859470245
30
0
10
-18.32897299233796
20
10.177658090287364
30
0
0
SPLINE
5
359
100
AcDbEntity
8
0
100
AcDbSpline
70
0
71
3
72
8
73
4
74
0
42
0.000000001
43
0.0000000001
44
0.0000000001
40
0.58769251739499728
40
0.58769251739499728
40
0.58769251739499728
40
0.58769251739499728
40
0.8999067011185361
40
0.8999067011185361
40
0.8999067011185361
40
0.8999067011185361
10
-17.450917951173857
20
12.541731225497943
30
0
10
-17.444396998454806
20
12.501687287615139
30
0
10
-17.436994891053523
20
12.46309138850388
30
0
10
-17.425495719460898
20
12.43277963377712
30
0
0
SPLINE
5
360
100
AcDbEntity
8
0
100
AcDbSpline
70
0
71
3
72
10
73
6
74
0
42
0.000000001
43
0.0000000001
44
0.0000000001
40
0
40
0
40
0
40
0
40
2.228095623066348
40
2.228095623066348
40
4.3944158698842273
40
4.3944158698842273
40
4.3944158698842273
40
4.3944158698842273
10
-18.32897299233796
20
10.177658090287364
30
0
10
-18.087863322926502
20
10.012235986707983
30
0
10
-17.874019042100187
20
9.8218687584664863
30
0
10
-17.48894842537625
20
9.391397322306906
30
0
10
-17.324551810209019
20
9.1615488707849071
30
0
10
-17.174413258047633
20
8.9198613817599153
30
0
0
SPLINE
5
361
100
AcDbEntity
8
0
100
AcDbSpline
70
0
71
3
72
8
73
4
74
0
42
0.000000001
43
0.0000000001
44
0.0000000001
40
0.30389261104624937
40
0.30389261104624937
40
0.30389261104624937
40
0.30389261104624937
40
2.8599428545534429
40
2.8599428545534429
40
2.8599428545534429
40
2.8599428545534429
10
-19.468588093839198
20
9.3918753065911389
30
0
10
-19.306854716410388
20
9.6833182256049479
30
0
10
-19.103796754738543
20
9.9432310974988738
30
0
10
-18.875423084423165
20
10.189041462026395
30
0
0
LINE
5
362
100
AcDbEntity
8
0
100
AcDbLine
10
-23.853158523185556
20
16.966715592750372
30
0
11
-18.189837191467067
21
16.966715592750379
31
0
0
LINE
5
363
100
AcDbEntity
8
0
100
AcDbLine
10
-13.395949615589306
20
14.469286598164592
30
0
11
-10.70621085650672
21
10.936025803058273
31
0
0
LINE
5
364
100
AcDbEntity
8
0
100
AcDbLine
10
-16.617170922270745
20
8.9447096847459271
30
0
11
-16.2448755138516
21
9.0162167560358153
31
0
0
SPLINE
5
365
100
AcDbEntity
8
0
100
AcDbSpline
70
0
71
3
72
12
73
8
74
0
42
0.000000001
43
0.0000000001
44
0.0000000001
40
0
40
0
40
0
40
0
40
1.4270730894238557
40
1.4270730894238557
40
2.0492096852936559
40
2.0492096852936559
40
2.6405051758602927
40
2.6405051758602927
40
2.6405051758602927
40
2.6405051758602927
10
-18.875423084423165
20
10.189041462026395
30
0
10
-19.041394237074389
20
10.275801762800032
30
0
10
-19.224728455563501
20
10.347039752526143
30
0
10
-19.490580614068914
20
10.384372407957397
30
0
10
-19.57236043082511
20
10.387192529326146
30
0
10
-19.730379511442312
20
10.370084935920687
30
0
10
-19.805002321236056
20
10.3514587630906
30
0
10
-19.876295732318862
20
10.321205663121056
30
0
0
SPLINE
5
366
100
AcDbEntity
8
0
100
AcDbSpline
70
0
71
3
72
10
73
6
74
0
42
0.000000001
43
0.0000000001
44
0.0000000001
40
0.089750565291121021
40
0.089750565291121021
40
0.089750565291121021
40
0.089750565291121021
40
1.5120296920720973
40
1.5120296920720973
40
3.0183062555142754
40
3.0183062555142754
40
3.0183062555142754
40
3.0183062555142754
10
-19.408686576529632
20
14.411104557366595
30
0
10
-19.388390952166475
20
14.226985509591328
30
0
10
-19.336711956188044
20
14.056805033431909
30
0
10
-19.176616763446503
20
13.705263321422782
30
0
10
-19.069108541669006
20
13.532684011434839
30
0
10
-18.953293732305568
20
13.353286568293401
30
0
0
LINE
5
367
100
AcDbEntity
8
0
100
AcDbLine
10
-9.1200571389428671
20
25.494989445008393
30
0
11
-6.2883964730836164
21
20.590409301945883
31
0
0
LINE
5
368
100
AcDbEntity
8
0
100
AcDbLine
10
-24.64204870670314
20
15.419174277166219
30
0
11
-23.853158523185556
21
16.966715592750372
31
0
0
LINE
5
369
100
AcDbEntity
8
0
100
AcDbLine
10
-15.577218505935555
20
16.217309100690006
30
0
11
-15.513180070154027
21
16.184109714403679
31
0
0
SPLINE
5
370
100
AcDbEntity
8
0
100
AcDbSpline
70
0
71
3
72
10
73
6
74
0
42
0.000000001
43
0.0000000001
44
0.0000000001
40
0
40
0
40
0
40
0
40
1.1285562724101008
40
1.1285562724101008
40
1.6714314331977242
40
1.6714314331977242
40
1.6714314331977242
40
1.6714314331977242
10
-19.876295732318862
20
10.321205663121056
30
0
10
-20.012649255856967
20
10.263389931220225
30
0
10
-20.113827365545674
20
10.205021452990099
30
0
10
-20.222609497469065
20
10.099426212377519
30
0
10
-20.251622287254609
20
10.062044129990188
30
0
10
-20.27504656936166
20
10.020129797339283
30
0
0
SPLINE
5
371
100
AcDbEntity
8
0
100
AcDbSpline
70
0
71
3
72
10
73
6
74
0
42
0.000000001
43
0.0000000001
44
0.0000000001
40
0
40
0
40
0
40
0
40
0.42870609422841471
40
0.42870609422841471
40
0.8209257959867593
40
0.8209257959867593
40
0.8209257959867593
40
0.8209257959867593
10
-18.953293732305568
20
13.353286568293401
30
0
10
-18.957858265863266
20
13.409361740196555
30
0
10
-18.961750323797009
20
13.455320342256984
30
0
10
-18.966526815538064
20
13.512850650511187
30
0
10
-18.969440956480703
20
13.548471301520623
30
0
10
-18.971686067571763
20
13.580478349535122
30
0
0
LINE
5
372
100
AcDbEntity
8
0
100
AcDbLine
10
-6.054289638603966
20
15.190066381056225
30
0
11
-7.7693138658203624
21
11.094053888593898
31
0
0
LINE
5
373
100
AcDbEntity
8
0
100
AcDbLine
10
-21.31501129927392
20
10.836158829247202
30
0
11
-24.64204870670314
21
15.419174277166219
31
0
0
LINE
5
374
100
AcDbEntity
8
0
100
AcDbLine
10
-18.114538371132451
20
16.949794806256545
30
0
11
-15.577218505935555
21
16.217309100690006
31
0
0
SPLINE
5
375
100
AcDbEntity
8
0
100
AcDbSpline
70
0
71
3
72
8
73
4
74
0
42
0.000000001
43
0.0000000001
44
0.0000000001
40
1.0040524440276193
40
1.0040524440276193
40
1.0040524440276193
40
1.0040524440276193
40
1.266883122416667
40
1.266883122416667
40
1.266883122416667
40
1.266883122416667
10
-14.738345885491633
20
11.835949623052366
30
0
10
-14.756728002540605
20
11.84921123184782
30
0
10
-14.768045491962742
20
11.872219917794038
30
0
10
-14.775964980971338
20
11.897732822559787
30
0
0
SPLINE
5
376
100
AcDbEntity
8
0
100
AcDbSpline
70
0
71
3
72
10
73
6
74
0
42
0.000000001
43
0.0000000001
44
0.0000000001
40
0
40
0
40
0
40
0
40
0.082180566821613954
40
0.082180566821613954
40
0.16434273573306718
40
0.16434273573306718
40
0.16434273573306718
40
0.16434273573306718
10
-16.657684076714403
20
8.8942685026084778
30
0
10
-16.65094748758041
20
8.9026905797966762
30
0
10
-16.644203699276414
20
8.9111031493807893
30
0
10
-16.630697589688829
20
8.9279178551356715
30
0
10
-16.62393869349771
20
8.9363157346519522
30
0
10
-16.617170922270745
20
8.9447096847459271
30
0
0
SPLINE
5
377
100
AcDbEntity
8
0
100
AcDbSpline
70
0
71
3
72
8
73
4
74
0
42
0.000000001
43
0.0000000001
44
0.0000000001
40
2.8741678268618731
40
2.8741678268618731
40
2.8741678268618731
40
2.8741678268618731
40
4.5696357501212495
40
4.5696357501212495
40
4.5696357501212495
40
4.5696357501212495
10
-15.663565542377352
20
10.156554431434721
30
0
10
-15.786196792325553
20
10.326251503247466
30
0
10
-15.905479773406247
20
10.491323715461155
30
0
10
-16.028480608353213
20
10.661565361733402
30
0
0
SPLINE
5
378
100
AcDbEntity
8
0
100
AcDbSpline
70
0
71
3
72
10
73
6
74
0
42
0.000000001
43
0.0000000001
44
0.0000000001
40
0
40
0
40
0
40
0
40
0.28538488288777503
40
0.28538488288777503
40
0.55890434580953419
40
0.55890434580953419
40
0.55890434580953419
40
0.55890434580953419
10
-13.877489031891706
20
11.028569002001934
30
0
10
-13.900480471233712
20
11.058133378209225
30
0
10
-13.921639679524015
20
11.086010233702725
30
0
10
-13.95972338167384
20
11.135506025653731
30
0
10
-13.978930686166363
20
11.16012254242337
30
0
10
-13.998867949395866
20
11.184142222390872
30
0
0
SPLINE
5
379
100
AcDbEntity
8
0
100
AcDbSpline
70
0
71
3
72
14
73
10
74
0
42
0.000000001
43
0.0000000001
44
0.0000000001
40
0
40
0
40
0
40
0
40
0.71894951872933444
40
0.71894951872933444
40
1.0693122221026492
40
1.0693122221026492
40
1.2435824444394663
40
1.2435824444394663
40
1.4265157989901891
40
1.4265157989901891
40
1.4265157989901891
40
1.4265157989901891
10
-18.971686067571763
20
13.580478349535122
30
0
10
-18.978258736495189
20
13.67459946776366
30
0
10
-18.981581681478676
20
13.770072517522006
30
0
10
-18.956280884531395
20
13.897261974580605
30
0
10
-18.942936200807065
20
13.937685291686995
30
0
10
-18.911380612215716
20
13.992995222342277
30
0
10
-18.899206330383723
20
14.010124425304159
30
0
10
-18.870479357112512
20
14.042593929976764
30
0
10
-18.854105969651695
20
14.057387262805404
30
0
10
-18.836201639637558
20
14.0705113111269
30
0
0
SPLINE
5
380
100
AcDbEntity
8
0
100
AcDbSpline
70
0
71
3
72
10
73
6
74
0
42
0.000000001
43
0.0000000001
44
0.0000000001
40
0
40
0
40
0
40
0
40
1.0043917229390171
40
1.0043917229390171
40
2.0249183605575927
40
2.0249183605575927
40
2.0249183605575927
40
2.0249183605575927
10
-18.414273892432995
20
13.994287827988254
30
0
10
-18.321605560205086
20
13.900551816777011
30
0
10
-18.207178896006077
20
13.785032249491934
30
0
10
-18.008393571985422
20
13.563750217496471
30
0
10
-17.914566455623198
20
13.448223717909693
30
0
10
-17.831868123642209
20
13.323428360291327
30
0
0
SPLINE
5
381
100
AcDbEntity
8
0
100
AcDbSpline
70
0
71
3
72
8
73
4
74
0
42
0.000000001
43
0.0000000001
44
0.0000000001
40
1.4874180340016281
40
1.4874180340016281
40
1.4874180340016281
40
1.4874180340016281
40
2.9403580899901351
40
2.9403580899901351
40
2.9403580899901351
40
2.9403580899901351
10
-15.851134402888976
20
8.4096449829199127
30
0
10
-16.030482328173221
20
8.4749760785674937
30
0
10
-16.209165577940333
20
8.5400661053553932
30
0
10
-16.385705581585526
20
8.6043753880097125
30
0
0
SPLINE
5
382
100
AcDbEntity
8
0
100
AcDbSpline
70
0
71
3
72
8
73
4
74
0
42
0.000000001
43
0.0000000001
44
0.0000000001
40
0.9222085898138096
40
0.9222085898138096
40
0.9222085898138096
40
0.9222085898138096
40
1.1450652056524384
40
1.1450652056524384
40
1.1450652056524384
40
1.1450652056524384
10
-16.385705581585526
20
8.6043753880097107
30
0
10
-16.405907143221139
20
8.6106826733932973
30
0
10
-16.422575225503032
20
8.624589301297334
30
0
10
-16.435142675272374
20
8.6429755883175527
30
0
0
SPLINE
5
383
100
AcDbEntity
8
0
100
AcDbSpline
70
0
71
3
72
10
73
6
74
0
42
0.000000001
43
0.0000000001
44
0.0000000001
40
3.2004796903803898
40
3.2004796903803898
40
3.2004796903803898
40
3.2004796903803898
40
3.4650865009424359
40
3.4650865009424359
40
6.6750033803170652
40
6.6750033803170652
40
6.6750033803170652
40
6.6750033803170652
10
-15.239840566196165
20
10.852183118980166
30
0
10
-15.205573816487599
20
10.857580585900626
30
0
10
-15.171265261083231
20
10.86285237944783
30
0
10
-14.720224002099929
20
10.930597054403377
30
0
10
-14.302665915537267
20
10.975996973619315
30
0
10
-13.877489031891706
20
11.028569002001934
30
0
0
LINE
5
384
100
AcDbEntity
8
0
100
AcDbLine
10
-19.173719834832905
20
9.1621643995543192
30
0
11
-19.468588093839198
21
9.3918753065911389
31
0
0
ARC
5
385
100
AcDbEntity
8
0
100
AcDbCircle
10
-10.668353368907004
20
10.886295926398084
30
0
40
0.062500000000000527
210
0
220
0
230
1
100
AcDbArc
50
-232.71934394050055
51
118.69709578529449
0
LINE
5
386
100
AcDbEntity
8
0
100
AcDbLine
10
-19.109232663758128
20
9.1298452833241033
30
0
11
-19.173719834832905
21
9.1621643995543192
31
0
0
LINE
5
387
100
AcDbEntity
8
0
100
AcDbLine
10
-13.539277393210606
20
17.540201068845239
30
0
11
-13.175399687544463
21
20.15594578546073
31
0
0
LINE
5
388
100
AcDbEntity
8
0
100
AcDbLine
10
-12.84911722382865
20
14.896946486780751
30
0
11
-13.535022983356418
21
17.468193982361189
31
0
0
LINE
5
389
100
AcDbEntity
8
0
100
AcDbLine
10
-6.2654008938720809
20
20.516738217414257
30
0
11
-5.6310921902031934
21
17.953111903843489
31
0
0
LINE
5
390
100
AcDbEntity
8
0
100
AcDbLine
10
-21.257082356403771
20
10.785164094839724
30
0
11
-21.31501129927392
21
10.836158829247202
31
0
0
LINE
5
391
100
AcDbEntity
8
0
100
AcDbLine
10
-13.175399687544463
20
20.15594578546073
30
0
11
-13.16020142352345
21
20.231611088804367
31
0
0
LINE
5
392
100
AcDbEntity
8
0
100
AcDbLine
10
-6.2883964730836164
20
20.590409301945883
30
0
11
-6.2654008938720809
21
20.516738217414257
31
0
0
LINE
5
393
100
AcDbEntity
8
0
100
AcDbLine
10
-5.6278244842264833
20
17.881053298494905
30
0
11
-6.0422249948102964
21
15.252355405751958
31
0
0
LINE
5
394
100
AcDbEntity
8
0
100
AcDbLine
10
-15.513180070154027
20
16.184109714403679
30
0
11
-13.443861171456019
21
14.510879398525454
31
0
0
LINE
5
395
100
AcDbEntity
8
0
100
AcDbLine
10
-10.698364558653637
20
10.941119082910562
30
0
11
-12.830631261642713
21
14.836252603814618
31
0
0
LINE
5
396
100
AcDbEntity
8
0
100
AcDbLine
10
-12.830631261642713
20
14.836252603814618
30
0
11
-12.84911722382865
21
14.896946486780751
31
0
0
LINE
5
397
100
AcDbEntity
8
0
100
AcDbLine
10
-6.0422249948102964
20
15.252355405751958
30
0
11
-6.054289638603966
21
15.190066381056225
31
0
0
LINE
5
398
100
AcDbEntity
8
0
100
AcDbLine
10
-18.189837191467067
20
16.966715592750379
30
0
11
-18.114538371132451
21
16.949794806256545
31
0
0
LINE
5
399
100
AcDbEntity
8
0
100
AcDbLine
10
-5.6310921902031934
20
17.953111903843489
30
0
11
-5.6278244842264833
21
17.881053298494905
31
0
0
LINE
5
400
100
AcDbEntity
8
0
100
AcDbLine
10
-10.85471232340366
20
25.404417726938711
30
0
11
-9.1200571389428671
21
25.494989445008393
31
0
0
LINE
5
401
100
AcDbEntity
8
0
100
AcDbLine
10
-13.443861171456019
20
14.510879398525454
30
0
11
-13.395949615589306
21
14.469286598164592
31
0
0
LINE
5
402
100
AcDbEntity
8
0
100
AcDbLine
10
-18.901008198650398
20
6.6060340753816877
30
0
11
-18.930082366025093
21
6.5874428976437551
31
0
0
LWPOLYLINE
5
403
100
AcDbEntity
8
0
100
AcDbPolyline
90
8
70
1
43
0.0
10
-8.2077921868306198
20
-9.4678157853003793
10
-8.1472480387086854
20
-10.627374449602913
42
2.4142135623730949
10
-8.1262324037765339
20
-10.64630440175284
10
-8.0792963389550927
20
-10.643853724483723
42
2.4142135623730949
10
-8.0603663868051676
20
-10.622838089551571
10
-8.1209105349270985
20
-9.4632794252490413
42
2.414213562372975
10
-8.14192616985925
20
-9.4443494730991144
10
-8.188862234680693
20
-9.4468001503682277
42
2.4142135623730949
0
LINE
5
404
100
AcDbEntity
8
0
100
AcDbLine
10
-15.557328675787964
20
-4.4767107407161451
30
0
11
-14.368190488563524
21
-4.4767107407161451
31
0
0
LINE
5
405
100
AcDbEntity
8
0
100
AcDbLine
10
-13.232137248852295
20
-1.6188664466324729
30
0
11
-14.191751672671417
21
-0.88361100484090127
31
0
0
ARC
5
406
100
AcDbEntity
8
0
100
AcDbCircle
10
-12.458199821275786
20
-4.0040595101688687
30
0
40
3.5696498895699524
210
0
220
0
230
1
100
AcDbArc
50
178.20460341789038
51
178.20992134715678
0
SPLINE
5
407
100
AcDbEntity
8
0
100
AcDbSpline
70
4
71
5
72
58
73
52
74
0
42
0.000000001
43
0.0000000001
44
0.0000000001
40
-0.92921632863124282
40
-0.92921632863124282
40
-0.92921632863124282
40
-0.92921632863124282
40
-0.92921632863124282
40
-0.92921632863124282
40
-0.92000000000000037
40
-0.90000000000000036
40
-0.88000000000000034
40
-0.86000000000000032
40
-0.8400000000000003
40
-0.8200000000000004
40
-0.80000000000000027
40
-0.78000000000000025
40
-0.76000000000000034
40
-0.74000000000000032
40
-0.72000000000000031
40
-0.70000000000000018
40
-0.68000000000000016
40
-0.66000000000000025
40
-0.64000000000000024
40
-0.62000000000000022
40
-0.6000000000000002
40
-0.58000000000000018
40
-0.56000000000000016
40
-0.54000000000000015
40
-0.52000000000000013
40
-0.50000000000000011
40
-0.4800000000000002
40
-0.46000000000000008
40
-0.44000000000000011
40
-0.4200000000000001
40
-0.40000000000000008
40
-0.38000000000000012
40
-0.36000000000000004
40
-0.34000000000000002
40
-0.32000000000000001
40
-0.29999999999999999
40
-0.28000000000000003
40
-0.25999999999999995
40
-0.23999999999999999
40
-0.22
40
-0.20000000000000001
40
-0.17999999999999999
40
-0.16
40
-0.14000000000000001
40
-0.12
40
-0.10000000000000001
40
-0.080000000000000002
40
-0.059999999999999998
40
-0.040000000000000001
40
-0.02
40
-6.9451694608029511e-05
40
-6.9451694608029511e-05
40
-6.9451694608029511e-05
40
-6.9451694608029511e-05
40
-6.9451694608029511e-05
40
-6.9451694608029511e-05
41
1
41
1
41
1
41
1
41
1
41
1
41
1
41
1
41
1
41
1
41
1
41
1
41
1
41
1
41
1
41
1
41
1
41
1
41
1
41
1
41
1
41
1
41
1
41
1
41
1
41
1
41
1
41
1
41
1
41
1
41
1
41
1
41
1
41
1
41
1
41
1
41
1
41
1
41
1
41
1
41
1
41
1
41
1
41
1
41
1
41
1
41
1
41
1
41
1
41
1
41
1
41
1
10
-15.655237834932267
20
-2.4161839372362177
30
0
10
-15.664585308382668
20
-2.404101392459407
30
0
10
-15.695440007734499
20
-2.3665645912303095
30
0
10
-15.753858136271866
20
-2.3074439475367861
30
0
10
-15.850533469549694
20
-2.2342373611867337
30
0
10
-15.998207028708467
20
-2.1587241296440669
30
0
10
-16.185794179427329
20
-2.1004094531246826
30
0
10
-16.38437138419561
20
-2.0710541802302687
30
0
10
-16.579078804494401
20
-2.0741023838454096
30
0
10
-16.753439837028775
20
-2.1124501795396764
30
0
10
-16.891492807414991
20
-2.187086609221117
30
0
10
-16.9798970904695
20
-2.2957847271601866
30
0
10
-17.010146560087822
20
-2.4316378422772256
30
0
10
-16.980538677636126
20
-2.5819417288354232
30
0
10
-16.898819906561826
20
-2.7261509253421838
30
0
10
-16.780106812426958
20
-2.8402062556936776
30
0
10
-16.643777840977709
20
-2.9020717495744814
30
0
10
-16.510701884864222
20
-2.8972434889011924
30
0
10
-16.400401846489444
20
-2.8234244283594805
30
0
10
-16.328075216492952
20
-2.6976858818459331
30
0
10
-16.302298055473706
20
-2.5552013089009269
30
0
10
-16.324075662420228
20
-2.4355224439850587
30
0
10
-16.385219274095078
20
-2.3714147064122835
30
0
10
-16.467687345039931
20
-2.3775746997471123
30
0
10
-16.540663417954232
20
-2.4369544255967117
30
0
10
-16.577126097836135
20
-2.5161650979138614
30
0
10
-16.569359229305011
20
-2.582418535345504
30
0
10
-16.551906900668694
20
-2.6239810747862777
30
0
10
-16.577771840983974
20
-2.6452669576251866
30
0
10
-16.662175689303314
20
-2.6471576926551315
30
0
10
-16.77758122896412
20
-2.6244697436217188
30
0
10
-16.880759891341093
20
-2.5724597527430713
30
0
10
-16.929514552488584
20
-2.4904849555857527
30
0
10
-16.90708714099825
20
-2.387914761234557
30
0
10
-16.819502867708991
20
-2.281657413824913
30
0
10
-16.686389593020056
20
-2.1916419162290355
30
0
10
-16.533847168029681
20
-2.1369010612332526
30
0
10
-16.386770288916093
20
-2.1315870150655338
30
0
10
-16.260659010631208
20
-2.180519796231287
30
0
10
-16.162592123643989
20
-2.2807083838247633
30
0
10
-16.09347999097518
20
-2.4236747053641126
30
0
10
-16.049824669234074
20
-2.5974554236746767
30
0
10
-16.025707861292545
20
-2.7887684593216862
30
0
10
-16.014591110459683
20
-2.9850050333167375
30
0
10
-16.01140535961212
20
-3.1765523223382197
30
0
10
-16.012589512438904
20
-3.356656434890593
30
0
10
-16.015753349016851
20
-3.5208311963088956
30
0
10
-16.019470954472563
20
-3.666329861345043
30
0
10
-16.022318891627553
20
-3.7668398435308847
30
0
10
-16.024277779981475
20
-3.8330985730723977
30
0
10
-16.025504549945826
20
-3.8732073004932057
30
0
10
-16.026097340207901
20
-3.8922207579190293
30
0
0
LINE
5
408
100
AcDbEntity
8
0
100
AcDbLine
10
-14.368190488563524
20
-3.8925519153631467
30
0
11
-13.926545101135735
21
-3.8925519153631445
31
0
0
LINE
5
409
100
AcDbEntity
8
0
100
AcDbLine
10
-16.02610766627507
20
-3.8925519153631671
30
0
11
-15.557328675787971
21
-3.8925519153631543
31
0
0
ARC
5
410
100
AcDbEntity
8
0
100
AcDbCircle
10
-12.830362432353324
20
-2.9844552970441174
30
0
40
1.4234661610102941
210
0
220
0
230
1
100
AcDbArc
50
106.39460036777001
51
219.6389362949092
0
LWPOLYLINE
5
411
100
AcDbEntity
8
0
100
AcDbPolyline
90
3
70
1
43
0.0
10
-14.920791013141102
20
-3.52740278487251
42
-0.16826817170982017
10
-14.18858675539771
20
-1.6859771721873005
10
-14.304282380685656
20
-1.592440932954285
42
0.25853098308325556
0
LINE
5
412
100
AcDbEntity
8
0
100
AcDbLine
10
-14.368190488563524
20
-4.4767107407161451
30
0
11
-14.368190488563524
21
-3.8925519153631467
31
0
0
ARC
5
413
100
AcDbEntity
8
0
100
AcDbCircle
10
-12.458199821275786
20
-4.0040595101688687
30
0
40
3.5696499682575022
210
0
220
0
230
1
100
AcDbArc
50
119.05417402900552
51
153.58774914709258
0
LINE
5
414
100
AcDbEntity
8
0
100
AcDbLine
10
-15.557328675787971
20
-3.8925519153631543
30
0
11
-15.557328675787964
21
-4.4767107407161451
31
0
0
ENDSEC
0
SECTION
2
OBJECTS
0
DICTIONARY
5
C
100
AcDbDictionary
3
ACAD_GROUP
350
D
3
ACAD_MLINESTYLE
350
17
0
DICTIONARY
5
D
100
AcDbDictionary
0
DICTIONARY
5
1A
330
C
100
AcDbDictionary
0
DICTIONARY
5
17
100
AcDbDictionary
0
ENDSEC
0
EOF
