0
SECTION
2
HEADER
9
$INSUNITS
70
1
9
$ACADVER
1
AC1014
9
$HANDSEED
5
FFFF
0
ENDSEC
0
SECTION
2
TABLES
0
TABLE
2
VPORT
5
8
100
AcDbSymbolTable
0
ENDTAB
0
TABLE
2
LTYPE
5
5
100
AcDbSymbolTable
0
LTYPE
5
14
100
AcDbSymbolTableRecord
100
AcDbLinetypeTableRecord
2
BYBLOCK
70
0
0
LTYPE
5
15
100
AcDbSymbolTableRecord
100
AcDbLinetypeTableRecord
2
BYLAYER
70
0
0
ENDTAB
0
TABLE
2
LAYER
5
2
100
AcDbSymbolTable
70
2
0
LAYER
5
50
100
AcDbSymbolTableRecord
100
AcDbLayerTableRecord
2
0
70
0
6
CONTINUOUS
0
ENDTAB
0
TABLE
2
STYLE
5
3
100
AcDbSymbolTable
70
1
0
STYLE
5
11
100
AcDbSymbolTableRecord
100
AcDbTextStyleTableRecord
2
STANDARD
70
0
0
ENDTAB
0
TABLE
2
VIEW
5
6
100
AcDbSymbolTable
70
0
0
ENDTAB
0
TABLE
2
UCS
5
7
100
AcDbSymbolTable
70
0
0
ENDTAB
0
TABLE
2
APPID
5
9
100
AcDbSymbolTable
70
2
0
APPID
5
12
100
AcDbSymbolTableRecord
100
AcDbRegAppTableRecord
2
ACAD
70
0
0
ENDTAB
0
TABLE
2
DIMSTYLE
5
A
100
AcDbSymbolTable
70
1
0
ENDTAB
0
TABLE
2
BLOCK_RECORD
5
1
100
AcDbSymbolTable
70
1
0
BLOCK_RECORD
5
1F
100
AcDbSymbolTableRecord
100
AcDbBlockTableRecord
2
*MODEL_SPACE
0
BLOCK_RECORD
5
1B
100
AcDbSymbolTableRecord
100
AcDbBlockTableRecord
2
*PAPER_SPACE
0
ENDTAB
0
ENDSEC
0
SECTION
2
BLOCKS
0
BLOCK
5
20
100
AcDbEntity
100
AcDbBlockBegin
2
*MODEL_SPACE
0
ENDBLK
5
21
100
AcDbEntity
100
AcDbBlockEnd
0
BLOCK
5
1C
100
AcDbEntity
100
AcDbBlockBegin
2
*PAPER_SPACE
0
ENDBLK
5
1D
100
AcDbEntity
100
AcDbBlockEnd
0
ENDSEC
0
SECTION
2
ENTITIES
0
ARC
5
100
100
AcDbEntity
8
0
100
AcDbCircle
10
-5.7476269990601194
20
-5.6030836491396032
30
0
40
0.18500000000000102
210
0
220
-0
230
1
100
AcDbArc
50
0
51
89.99999999999973
0
LINE
5
101
100
AcDbEntity
8
0
100
AcDbLine
10
-5.7476269990601185
20
-5.4180836491396018
30
0
11
-6.3367863762536913
21
-5.4180836491395947
31
0
0
ARC
5
102
100
AcDbEntity
8
0
100
AcDbCircle
10
-6.3367866476467807
20
8.4586715947227322
30
0
40
13.876755243862329
210
0
220
0
230
1
100
AcDbArc
50
255.3962373371572
51
270.00000112055585
0
ARC
5
103
100
AcDbEntity
8
0
100
AcDbCircle
10
-10.008914674966826
20
-5.6350506446057382
30
0
40
0.68749999999999722
210
0
220
-0
230
1
100
AcDbArc
50
75.396237337156066
51
167.24559542660018
0
ARC
5
104
100
AcDbEntity
8
0
100
AcDbCircle
10
-13.163620648654797
20
-4.9209385988399141
30
0
40
2.5470209500811114
210
0
220
0
230
1
100
AcDbArc
50
252.75472401524729
51
347.24515605862416
0
ARC
5
105
100
AcDbEntity
8
0
100
AcDbCircle
10
-14.122535892707432
20
-8.0100496896291578
30
0
40
0.68750000000000311
210
0
220
-0
230
1
100
AcDbArc
50
72.754724015247447
51
270
0
ARC
5
106
100
AcDbEntity
8
0
100
AcDbCircle
10
-14.122535892707448
20
59.772584999251976
30
0
40
68.470134688881132
210
-0
220
0
230
1
100
AcDbArc
50
270
51
274.78448317708717
0
ARC
5
107
100
AcDbEntity
8
0
100
AcDbCircle
10
-8.2441415848483626
20
-10.459443440485796
30
0
40
2.0074740816397352
210
0
220
-0
230
1
100
AcDbArc
50
61.362202769141689
51
94.784483177087182
0
LINE
5
108
100
AcDbEntity
8
0
100
AcDbLine
10
-7.2820175808095815
20
-8.697549689629156
30
0
11
-7.2787030036755107
21
-8.697549689629156
31
0
0
ARC
5
109
100
AcDbEntity
8
0
100
AcDbCircle
10
-6.336786376253694
20
-7.1930836491396031
30
0
40
1.7750000000000001
210
0
220
0
230
1
100
AcDbArc
50
237.95012634552003
51
270
0
LINE
5
110
100
AcDbEntity
8
0
100
AcDbLine
10
-6.3367863762536931
20
-8.9680836491396043
30
0
11
-5.7476269990601176
21
-8.9680836491396043
31
0
0
ARC
5
111
100
AcDbEntity
8
0
100
AcDbCircle
10
-5.7476269990601168
20
-8.7830836491396056
30
0
40
0.18499999999999822
210
0
220
0
230
1
100
AcDbArc
50
-90.000000000000313
51
0
0
LINE
5
112
100
AcDbEntity
8
0
100
AcDbLine
10
-5.562626999060118
20
-8.7830836491396038
30
0
11
-5.5626269990601172
21
-8.7684896650002049
31
0
0
ARC
5
113
100
AcDbEntity
8
0
100
AcDbCircle
10
-5.7476269990601176
20
-8.7684896650002049
30
0
40
0.18500000000000033
210
0
220
0
230
1
100
AcDbArc
50
0
51
90
0
LINE
5
114
100
AcDbEntity
8
0
100
AcDbLine
10
-5.7476269990601176
20
-8.5834896650002044
30
0
11
-6.1731675782546587
21
-8.5834896650002044
31
0
0
ARC
5
115
100
AcDbEntity
8
0
100
AcDbCircle
10
-6.336786376253694
20
-7.1930836491396031
30
0
40
1.4000000000000004
210
0
220
-0
230
1
100
AcDbArc
50
90
51
276.71152844898887
0
LINE
5
116
100
AcDbEntity
8
0
100
AcDbLine
10
-6.336786376253694
20
-5.7930836491396027
30
0
11
-5.7476269990601185
21
-5.7930836491396036
31
0
0
ARC
5
117
100
AcDbEntity
8
0
100
AcDbCircle
10
-5.7476269990601176
20
-5.608083649139604
30
0
40
0.18499999999999964
210
0
220
0
230
1
100
AcDbArc
50
-90.000000000000313
51
0
0
LINE
5
118
100
AcDbEntity
8
0
100
AcDbLine
10
-5.5626269990601189
20
-5.6080836491396031
30
0
11
-5.562626999060118
21
-5.6030836491396023
31
0
0
CIRCLE
5
119
100
AcDbEntity
8
0
100
AcDbCircle
10
-10.008914674966826
20
-5.6350506446057382
30
0
40
0.31249999999999967
210
0
220
-0
230
1
0
CIRCLE
5
120
100
AcDbEntity
8
0
100
AcDbCircle
10
-14.122535892707432
20
-8.0100496896291578
30
0
40
0.31249999999999967
210
0
220
-0
230
1
0
ENDSEC
0
SECTION
2
OBJECTS
0
DICTIONARY
5
C
100
AcDbDictionary
3
ACAD_GROUP
350
D
3
ACAD_MLINESTYLE
350
17
0
DICTIONARY
5
D
100
AcDbDictionary
0
DICTIONARY
5
1A
330
C
100
AcDbDictionary
0
DICTIONARY
5
17
100
AcDbDictionary
0
ENDSEC
0
EOF
