  0
SECTION
  2
HEADER
  9
$ACADVER
  1
AC1009
  9
$EXTMAX
 10
310.841674804688
 20
160.755004882813
 30
0.0
  9
$EXTMIN
 10
6.0416827201843
 20
8.3550119400024
 30
0.0
  9
$INSUNITS
 70
     1
  9
$LUNITS
 70
     2
  9
$LUPREC
 70
     4
  9
$MEASUREMENT
 70
     0
  0
ENDSEC
  0
SECTION
  2
TABLES
  0
TABLE
  2
LAYER
 70
     1
  0
LAYER
  2
0
 70
     0
 62
     7
  6
Continuous
  0
LAYER
  2
LAYER1
 70
     0
 62
     7
  6
Continuous
  0
ENDTAB
  0
TABLE
  2
APPID
 70
     1
  0
APPID
  2
ACAD
 70
     0
  0
ENDTAB
  0
ENDSEC
  0
SECTION
  2
ENTITIES
  0
POLYLINE
  8
LAYER1
 66
     1
 10
0.0
 20
0.0
 30
0.0
 70
     1
  0
VERTEX
  8
LAYER1
 10
0.2378615289927
 20
0.3289374709129
 42
0.0
  0
VERTEX
  8
LAYER1
 10
12.2378616333008
 20
0.3289374709129
 42
0.0
  0
VERTEX
  8
LAYER1
 10
12.2378616333008
 20
6.3289375305176
 42
0.0
  0
VERTEX
  8
LAYER1
 10
0.2378615289927
 20
6.3289375305176
 42
0.0
  0
SEQEND
  0
CIRCLE
  8
LAYER1
 10
0.5951637671479
 20
6.0030907595972
 30
0.0
 40
0.125
  0
CIRCLE
  8
LAYER1
 10
11.8954835658739
 20
5.999345325807
 30
0.0
 40
0.125
  0
POLYLINE
  8
LAYER1
 66
     1
 10
0.0
 20
0.0
 30
0.0
 70
     1
  0
VERTEX
  8
LAYER1
 10
1.2497870843834
 20
3.0880517840483
 42
0.0
  0
VERTEX
  8
LAYER1
 10
1.2171978857226
 20
3.0733651229956
 42
0.0
  0
VERTEX
  8
LAYER1
 10
1.1794903426117
 20
3.0590051901915
 42
0.0
  0
VERTEX
  8
LAYER1
 10
1.1352868001885
 20
3.0445518374541
 42
0.0
  0
VERTEX
  8
LAYER1
 10
1.1352868001885
 20
3.2065517783263
 42
0.0
  0
VERTEX
  8
LAYER1
 10
1.1975975299067
 20
3.2297474745372
 42
0.0
  0
VERTEX
  8
LAYER1
 10
1.2498894068665
 20
3.2557745732405
 42
0.0
  0
VERTEX
  8
LAYER1
 10
1.2932870309776
 20
3.2855517745116
 42
0.0
  0
VERTEX
  8
LAYER1
 10
1.3276334348864
 20
3.3183075721481
 42
0.0
  0
VERTEX
  8
LAYER1
 10
1.3567526541657
 20
3.3558549600222
 42
0.0
  0
VERTEX
  8
LAYER1
 10
1.3812870901055
 20
3.3995517373183
 42
0.0
  0
VERTEX
  8
LAYER1
 10
1.5452871244377
 20
3.3995517373183
 42
0.0
  0
VERTEX
  8
LAYER1
 10
1.5452871244377
 20
2.6715518117049
 42
0.0
  0
VERTEX
  8
LAYER1
 10
1.3442869108147
 20
2.6715518117049
 42
0.0
  0
VERTEX
  8
LAYER1
 10
1.3442869108147
 20
3.1475517630675
 42
0.0
  0
VERTEX
  8
LAYER1
 10
1.3123281741804
 20
3.1247108414986
 42
0.0
  0
VERTEX
  8
LAYER1
 10
1.2811316822952
 20
3.1050279987433
 42
0.0
  0
SEQEND
  0
POLYLINE
  8
LAYER1
 66
     1
 10
0.0
 20
0.0
 30
0.0
 70
     1
  0
VERTEX
  8
LAYER1
 10
4.0639052312798
 20
1.6832489848235
 42
0.0
  0
VERTEX
  8
LAYER1
 10
4.1015210613735
 20
1.5825600835561
 42
0.0
  0
VERTEX
  8
LAYER1
 10
4.2482050923248
 20
1.5825600835561
 42
0.0
  0
VERTEX
  8
LAYER1
 10
4.1409053724236
 20
1.850248801718
 42
0.0
  0
VERTEX
  8
LAYER1
 10
3.9879050176567
 20
1.850248801718
 42
0.0
  0
VERTEX
  8
LAYER1
 10
3.883970035218
 20
1.5825600835561
 42
0.0
  0
VERTEX
  8
LAYER1
 10
4.0270492620431
 20
1.5825600835561
 42
0.0
  0
SEQEND
  0
POLYLINE
  8
LAYER1
 66
     1
 10
0.0
 20
0.0
 30
0.0
 70
     1
  0
VERTEX
  8
LAYER1
 10
3.9923272967321
 20
1.4877011879846
 42
0.0
  0
VERTEX
  8
LAYER1
 10
3.8471393547431
 20
1.4877011879846
 42
0.0
  0
VERTEX
  8
LAYER1
 10
3.709905139727
 20
1.134248960028
 42
0.0
  0
VERTEX
  8
LAYER1
 10
3.8629050176567
 20
1.134248960028
 42
0.0
  0
VERTEX
  8
LAYER1
 10
3.9229054372734
 20
1.2972488284209
 42
0.0
  0
VERTEX
  8
LAYER1
 10
4.209905139727
 20
1.2972488284209
 42
0.0
  0
VERTEX
  8
LAYER1
 10
4.2719054143852
 20
1.134248960028
 42
0.0
  0
VERTEX
  8
LAYER1
 10
4.4279050748772
 20
1.134248960028
 42
0.0
  0
VERTEX
  8
LAYER1
 10
4.2844052236504
 20
1.4877011879846
 42
0.0
  0
VERTEX
  8
LAYER1
 10
4.136958890705
 20
1.4877011879846
 42
0.0
  0
VERTEX
  8
LAYER1
 10
4.1629052083916
 20
1.4182488799193
 42
0.0
  0
VERTEX
  8
LAYER1
 10
3.9669051092095
 20
1.4182488799193
 42
0.0
  0
SEQEND
  0
POLYLINE
  8
LAYER1
 66
     1
 10
0.0
 20
0.0
 30
0.0
 70
     1
  0
VERTEX
  8
LAYER1
 10
5.0162868421501
 20
3.1205518126586
 42
0.0
  0
VERTEX
  8
LAYER1
 10
5.3592872541374
 20
3.1205518126586
 42
0.0
  0
VERTEX
  8
LAYER1
 10
5.3592872541374
 20
2.974551785002
 42
0.0
  0
VERTEX
  8
LAYER1
 10
5.0162868421501
 20
2.974551785002
 42
0.0
  0
VERTEX
  8
LAYER1
 10
5.0162868421501
 20
2.8335517525771
 42
0.0
  0
VERTEX
  8
LAYER1
 10
5.397287360949
 20
2.8335517525771
 42
0.0
  0
VERTEX
  8
LAYER1
 10
5.397287360949
 20
2.6715518117049
 42
0.0
  0
VERTEX
  8
LAYER1
 10
4.7942867200798
 20
2.6715518117049
 42
0.0
  0
VERTEX
  8
LAYER1
 10
4.7942867200798
 20
3.3875517726042
 42
0.0
  0
VERTEX
  8
LAYER1
 10
5.3862867277092
 20
3.3875517726042
 42
0.0
  0
VERTEX
  8
LAYER1
 10
5.3862867277092
 20
3.2345517754653
 42
0.0
  0
VERTEX
  8
LAYER1
 10
5.0162868421501
 20
3.2345517754653
 42
0.0
  0
SEQEND
  0
POLYLINE
  8
LAYER1
 66
     1
 10
0.0
 20
0.0
 30
0.0
 70
     1
  0
VERTEX
  8
LAYER1
 10
10.6795072477288
 20
5.0156160473921
 42
0.0
  0
VERTEX
  8
LAYER1
 10
10.6795072477288
 20
5.3696160197356
 42
0.0
  0
VERTEX
  8
LAYER1
 10
12.0255069654412
 20
5.3696160197356
 42
0.0
  0
VERTEX
  8
LAYER1
 10
12.0255069654412
 20
5.0156160473921
 42
0.0
  0
VERTEX
  8
LAYER1
 10
11.5735073011345
 20
5.0156160473921
 42
0.0
  0
VERTEX
  8
LAYER1
 10
11.5735073011345
 20
3.9376160383322
 42
0.0
  0
VERTEX
  8
LAYER1
 10
11.1315069120354
 20
3.9376160383322
 42
0.0
  0
VERTEX
  8
LAYER1
 10
11.1315069120354
 20
5.0156160473921
 42
0.0
  0
SEQEND
  0
POLYLINE
  8
LAYER1
 66
     1
 10
0.0
 20
0.0
 30
0.0
 70
     1
  0
VERTEX
  8
LAYER1
 10
8.5819048803276
 20
1.2547488093474
 42
0.0
  0
VERTEX
  8
LAYER1
 10
8.59662951302
 20
1.2440023498872
 42
0.0
  0
VERTEX
  8
LAYER1
 10
8.614403436274
 20
1.2375029941657
 42
0.0
  0
VERTEX
  8
LAYER1
 10
8.6359052579827
 20
1.2352487921813
 42
0.0
  0
VERTEX
  8
LAYER1
 10
8.6622639079041
 20
1.2395503419736
 42
0.0
  0
VERTEX
  8
LAYER1
 10
8.6859000993675
 20
1.2524549913504
 42
0.0
  0
VERTEX
  8
LAYER1
 10
8.7074050825066
 20
1.2747487902739
 42
0.0
  0
VERTEX
  8
LAYER1
 10
8.7245337774224
 20
1.3099119550088
 42
0.0
  0
VERTEX
  8
LAYER1
 10
8.7369798520989
 20
1.363261451731
 42
0.0
  0
VERTEX
  8
LAYER1
 10
8.7449054639763
 20
1.4372489333251
 42
0.0
  0
VERTEX
  8
LAYER1
 10
8.7083048285431
 20
1.4041829648593
 42
0.0
  0
VERTEX
  8
LAYER1
 10
8.665823707766
 20
1.3841849839308
 42
0.0
  0
VERTEX
  8
LAYER1
 10
8.615904800219
 20
1.3772489905455
 42
0.0
  0
VERTEX
  8
LAYER1
 10
8.5624188669628
 20
1.3843274837949
 42
0.0
  0
VERTEX
  8
LAYER1
 10
8.5141598586983
 20
1.4055629635432
 42
0.0
  0
VERTEX
  8
LAYER1
 10
8.4699053686089
 20
1.4422489285567
 42
0.0
  0
VERTEX
  8
LAYER1
 10
8.4597128475894
 20
1.4547438456869
 42
0.0
  0
VERTEX
  8
LAYER1
 10
8.4492826214445
 20
1.469377125308
 42
0.0
  0
VERTEX
  8
LAYER1
 10
8.4392423623331
 20
1.4855561029787
 42
0.0
  0
VERTEX
  8
LAYER1
 10
8.4302773962785
 20
1.5023867809256
 42
0.0
  0
VERTEX
  8
LAYER1
 10
8.4229941229954
 20
1.5188159200752
 42
0.0
  0
VERTEX
  8
LAYER1
 10
8.4177909475986
 20
1.5338399443497
 42
0.0
  0
VERTEX
  8
LAYER1
 10
8.41479037325
 20
1.5466992415299
 42
0.0
  0
VERTEX
  8
LAYER1
 10
8.4138544883679
 20
1.5569839460662
 42
0.0
  0
VERTEX
  8
LAYER1
 10
8.5494003143636
 20
1.5569839460662
 42
0.0
  0
VERTEX
  8
LAYER1
 10
8.5497677346368
 20
1.5518830966114
 42
0.0
  0
VERTEX
  8
LAYER1
 10
8.5509457340552
 20
1.5459335197632
 42
0.0
  0
VERTEX
  8
LAYER1
 10
8.5529884555075
 20
1.5393794800919
 42
0.0
  0
VERTEX
  8
LAYER1
 10
8.5558478053168
 20
1.5325852313783
 42
0.0
  0
VERTEX
  8
LAYER1
 10
8.5593673730966
 20
1.5259766774564
 42
0.0
  0
VERTEX
  8
LAYER1
 10
8.5633090915877
 20
1.5199567551154
 42
0.0
  0
VERTEX
  8
LAYER1
 10
8.5674039077479
 20
1.5148275704737
 42
0.0
  0
VERTEX
  8
LAYER1
 10
8.5714054029412
 20
1.5107488513091
 42
0.0
  0
VERTEX
  8
LAYER1
 10
8.5909167328781
 20
1.492838085542
 42
0.0
  0
VERTEX
  8
LAYER1
 10
8.6131505212731
 20
1.4820058260062
 42
0.0
  0
VERTEX
  8
LAYER1
 10
8.6389055173821
 20
1.4782488226989
 42
0.0
  0
VERTEX
  8
LAYER1
 10
8.6638897909588
 20
1.4816247246721
 42
0.0
  0
VERTEX
  8
LAYER1
 10
8.686042662043
 20
1.4917524305918
 42
0.0
  0
VERTEX
  8
LAYER1
 10
8.705905429644
 20
1.5092488408187
 42
0.0
  0
VERTEX
  8
LAYER1
 10
8.7100372734585
 20
1.5141774862747
 42
0.0
  0
VERTEX
  8
LAYER1
 10
8.7142654781685
 20
1.5200490447201
 42
0.0
  0
VERTEX
  8
LAYER1
 10
8.718335598056
 20
1.5266392561497
 42
0.0
  0
VERTEX
  8
LAYER1
 10
8.7219698156817
 20
1.5335925816026
 42
0.0
  0
VERTEX
  8
LAYER1
 10
8.7249223087506
 20
1.5404768874508
 42
0.0
  0
VERTEX
  8
LAYER1
 10
8.727031571811
 20
1.5468685765274
 42
0.0
  0
VERTEX
  8
LAYER1
 10
8.7282479445355
 20
1.5524352091036
 42
0.0
  0
VERTEX
  8
LAYER1
 10
8.7286273335163
 20
1.5569839460662
 42
0.0
  0
VERTEX
  8
LAYER1
 10
8.8840093022193
 20
1.5569839460662
 42
0.0
  0
VERTEX
  8
LAYER1
 10
8.8845359881748
 20
1.5494579565541
 42
0.0
  0
VERTEX
  8
LAYER1
 10
8.8850749572495
 20
1.5408194635101
 42
0.0
  0
VERTEX
  8
LAYER1
 10
8.8855937752587
 20
1.5314422404755
 42
0.0
  0
VERTEX
  8
LAYER1
 10
8.886057028825
 20
1.5218596462094
 42
0.0
  0
VERTEX
  8
LAYER1
 10
8.8864333829911
 20
1.5126766315977
 42
0.0
  0
VERTEX
  8
LAYER1
 10
8.8867022506638
 20
1.5044487268404
 42
0.0
  0
VERTEX
  8
LAYER1
 10
8.8868573016433
 20
1.4975755608214
 42
0.0
  0
VERTEX
  8
LAYER1
 10
8.8869056623406
 20
1.4922490000823
 42
0.0
  0
VERTEX
  8
LAYER1
 10
8.8790103874153
 20
1.3742079840162
 42
0.0
  0
VERTEX
  8
LAYER1
 10
8.8553245626396
 20
1.2801249710658
 42
0.0
  0
VERTEX
  8
LAYER1
 10
8.8144054334587
 20
1.2082489609816
 42
0.0
  0
VERTEX
  8
LAYER1
 10
8.7618181382126
 20
1.1603032541492
 42
0.0
  0
VERTEX
  8
LAYER1
 10
8.6997565545983
 20
1.131306150017
 42
0.0
  0
VERTEX
  8
LAYER1
 10
8.6259050291008
 20
1.1212489485839
 42
0.0
  0
VERTEX
  8
LAYER1
 10
8.5740044979519
 20
1.1261494439104
 42
0.0
  0
VERTEX
  8
LAYER1
 10
8.5291824211067
 20
1.1408509298899
 42
0.0
  0
VERTEX
  8
LAYER1
 10
8.4904055517144
 20
1.1662489056685
 42
0.0
  0
VERTEX
  8
LAYER1
 10
8.46039045052
 20
1.2007404805639
 42
0.0
  0
VERTEX
  8
LAYER1
 10
8.4383249404854
 20
1.2448152618983
 42
0.0
  0
VERTEX
  8
LAYER1
 10
8.4239053647942
 20
1.3002488494017
 42
0.0
  0
VERTEX
  8
LAYER1
 10
8.5569047849602
 20
1.3152489543059
 42
0.0
  0
VERTEX
  8
LAYER1
 10
8.5618383459515
 20
1.2905302320101
 42
0.0
  0
VERTEX
  8
LAYER1
 10
8.5700388778633
 20
1.2704942338088
 42
0.0
  0
SEQEND
  0
POLYLINE
  8
LAYER1
 66
     1
 10
0.0
 20
0.0
 30
0.0
 70
     1
  0
VERTEX
  8
LAYER1
 10
1.4535074155754
 20
4.4836160421469
 42
0.0
  0
VERTEX
  8
LAYER1
 10
1.4146343037541
 20
4.613361125232
 42
0.0
  0
VERTEX
  8
LAYER1
 10
1.8305748893639
 20
4.613361125232
 42
0.0
  0
VERTEX
  8
LAYER1
 10
2.0835075300163
 20
3.9376160383322
 42
0.0
  0
VERTEX
  8
LAYER1
 10
1.6195073049492
 20
3.9376160383322
 42
0.0
  0
VERTEX
  8
LAYER1
 10
1.5475072782463
 20
4.1736160397628
 42
0.0
  0
VERTEX
  8
LAYER1
 10
1.0475072782463
 20
4.1736160397628
 42
0.0
  0
VERTEX
  8
LAYER1
 10
0.9755072515434
 20
3.9376160383322
 42
0.0
  0
VERTEX
  8
LAYER1
 10
0.5235071103996
 20
3.9376160383322
 42
0.0
  0
VERTEX
  8
LAYER1
 10
0.7773834607144
 20
4.613361125232
 42
0.0
  0
VERTEX
  8
LAYER1
 10
1.1813898689223
 20
4.613361125232
 42
0.0
  0
VERTEX
  8
LAYER1
 10
1.1415071409172
 20
4.4836160421469
 42
0.0
  0
SEQEND
  0
POLYLINE
  8
LAYER1
 66
     1
 10
0.0
 20
0.0
 30
0.0
 70
     1
  0
VERTEX
  8
LAYER1
 10
9.2079048078484
 20
1.7402489066222
 42
0.0
  0
VERTEX
  8
LAYER1
 10
9.1819817782826
 20
1.7374175041297
 42
0.0
  0
VERTEX
  8
LAYER1
 10
9.1596524478859
 20
1.7289232966521
 42
0.0
  0
VERTEX
  8
LAYER1
 10
9.1404051702446
 20
1.714248883734
 42
0.0
  0
VERTEX
  8
LAYER1
 10
9.1259166506237
 20
1.6933862773516
 42
0.0
  0
VERTEX
  8
LAYER1
 10
9.1161108550972
 20
1.6651184884169
 42
0.0
  0
VERTEX
  8
LAYER1
 10
9.1109056394524
 20
1.6282489180663
 42
0.0
  0
VERTEX
  8
LAYER1
 10
8.973905555529
 20
1.6422488570311
 42
0.0
  0
VERTEX
  8
LAYER1
 10
8.9875428359932
 20
1.7099136725166
 42
0.0
  0
VERTEX
  8
LAYER1
 10
9.0126145666069
 20
1.7637482297518
 42
0.0
  0
VERTEX
  8
LAYER1
 10
9.0504054944939
 20
1.804748880873
 42
0.0
  0
VERTEX
  8
LAYER1
 10
9.0965146779007
 20
1.8320283902624
 42
0.0
  0
VERTEX
  8
LAYER1
 10
9.1497024194664
 20
1.8485267761805
 42
0.0
  0
VERTEX
  8
LAYER1
 10
9.2119054716057
 20
1.8542489886382
 42
0.0
  0
VERTEX
  8
LAYER1
 10
9.2769105079598
 20
1.8479872381189
 42
0.0
  0
VERTEX
  8
LAYER1
 10
9.3320056875176
 20
1.8292019865611
 42
0.0
  0
VERTEX
  8
LAYER1
 10
9.3784055631584
 20
1.7967489838698
 42
0.0
  0
VERTEX
  8
LAYER1
 10
9.4117471930451
 20
1.7558042270878
 42
0.0
  0
VERTEX
  8
LAYER1
 10
9.4319118913597
 20
1.7088699630358
 42
0.0
  0
VERTEX
  8
LAYER1
 10
9.4389057081169
 20
1.6542489409545
 42
0.0
  0
VERTEX
  8
LAYER1
 10
9.4369999144978
 20
1.6230044841268
 42
0.0
  0
VERTEX
  8
LAYER1
 10
9.4312825336403
 20
1.5926312420466
 42
0.0
  0
VERTEX
  8
LAYER1
 10
9.4214053075737
 20
1.5622488141158
 42
0.0
  0
VERTEX
  8
LAYER1
 10
9.4077315692372
 20
1.5327732131937
 42
0.0
  0
VERTEX
  8
LAYER1
 10
9.3898108829445
 20
1.5024264494517
 42
0.0
  0
VERTEX
  8
LAYER1
 10
9.3669052045769
 20
1.4702489256957
 42
0.0
  0
VERTEX
  8
LAYER1
 10
9.3528355421269
 20
1.4540425902776
 42
0.0
  0
VERTEX
  8
LAYER1
 10
9.3233312193838
 20
1.4228669293806
 42
0.0
  0
VERTEX
  8
LAYER1
 10
9.2639882834084
 20
1.3676462360376
 42
0.0
  0
VERTEX
  8
LAYER1
 10
9.2529654954988
 20
1.3575171506116
 42
0.0
  0
VERTEX
  8
LAYER1
 10
9.2206446149953
 20
1.3269027257797
 42
0.0
  0
VERTEX
  8
LAYER1
 10
9.2023170299317
 20
1.3085342852423
 42
0.0
  0
VERTEX
  8
LAYER1
 10
9.1939053457207
 20
1.2997488856414
 42
0.0
  0
VERTEX
  8
LAYER1
 10
9.1833388302273
 20
1.2869333203652
 42
0.0
  0
VERTEX
  8
LAYER1
 10
9.1740789161629
 20
1.2742266471961
 42
0.0
  0
VERTEX
  8
LAYER1
 10
9.1659049909539
 20
1.2612488150695
 42
0.0
  0
VERTEX
  8
LAYER1
 10
9.4389057081169
 20
1.2612488150695
 42
0.0
  0
VERTEX
  8
LAYER1
 10
9.4389057081169
 20
1.134248960028
 42
0.0
  0
VERTEX
  8
LAYER1
 10
8.9579048078484
 20
1.134248960028
 42
0.0
  0
VERTEX
  8
LAYER1
 10
8.9665609176106
 20
1.1810066679933
 42
0.0
  0
VERTEX
  8
LAYER1
 10
8.9819687534279
 20
1.2262397566416
 42
0.0
  0
VERTEX
  8
LAYER1
 10
9.004905216021
 20
1.271248924742
 42
0.0
  0
VERTEX
  8
LAYER1
 10
9.0159527093215
 20
1.2873034309724
 42
0.0
  0
VERTEX
  8
LAYER1
 10
9.0425320335204
 20
1.3232713166651
 42
0.0
  0
VERTEX
  8
LAYER1
 10
9.0944782907535
 20
1.3804211282543
 42
0.0
  0
VERTEX
  8
LAYER1
 10
9.1318805154282
 20
1.4172439806939
 42
0.0
  0
VERTEX
  8
LAYER1
 10
9.1753277654875
 20
1.4584706365454
 42
0.0
  0
VERTEX
  8
LAYER1
 10
9.2016209879482
 20
1.4836074936012
 42
0.0
  0
VERTEX
  8
LAYER1
 10
9.2371802604576
 20
1.5196898546016
 42
0.0
  0
VERTEX
  8
LAYER1
 10
9.2561471547006
 20
1.5408201069649
 42
0.0
  0
VERTEX
  8
LAYER1
 10
9.2604203528168
 20
1.5458471052831
 42
0.0
  0
VERTEX
  8
LAYER1
 10
9.2688020956479
 20
1.5560588938914
 42
0.0
  0
VERTEX
  8
LAYER1
 10
9.272905341906
 20
1.5612487673857
 42
0.0
  0
VERTEX
  8
LAYER1
 10
9.2883360746331
 20
1.5889688038924
 42
0.0
  0
VERTEX
  8
LAYER1
 10
9.297668433947
 20
1.616688840399
 42
0.0
  0
VERTEX
  8
LAYER1
 10
9.3009052198357
 20
1.645248878012
 42
0.0
  0
VERTEX
  8
LAYER1
 10
9.2982371814675
 20
1.6732675314644
 42
0.0
  0
VERTEX
  8
LAYER1
 10
9.2902330663628
 20
1.6966034867861
 42
0.0
  0
VERTEX
  8
LAYER1
 10
9.2764053266472
 20
1.7157488942244
 42
0.0
  0
VERTEX
  8
LAYER1
 10
9.2581117673821
 20
1.7292508510568
 42
0.0
  0
VERTEX
  8
LAYER1
 10
9.2355709485955
 20
1.737416705189
 42
0.0
  0
SEQEND
  0
POLYLINE
  8
LAYER1
 66
     1
 10
0.0
 20
0.0
 30
0.0
 70
     1
  0
VERTEX
  8
LAYER1
 10
1.2995071332878
 20
4.9976160407164
 42
0.0
  0
VERTEX
  8
LAYER1
 10
1.3306893798828
 20
4.8935404217169
 42
0.0
  0
VERTEX
  8
LAYER1
 10
1.7257032584932
 20
4.8935404217169
 42
0.0
  0
VERTEX
  8
LAYER1
 10
1.5475072782463
 20
5.3696160197356
 42
0.0
  0
VERTEX
  8
LAYER1
 10
1.0615072172112
 20
5.3696160197356
 42
0.0
  0
VERTEX
  8
LAYER1
 10
0.8826463750948
 20
4.8935404217169
 42
0.0
  0
VERTEX
  8
LAYER1
 10
1.2675150183974
 20
4.8935404217169
 42
0.0
  0
SEQEND
  0
POLYLINE
  8
LAYER1
 66
     1
 10
0.0
 20
0.0
 30
0.0
 70
     1
  0
VERTEX
  8
LAYER1
 10
2.7194051664299
 20
1.270248878012
 42
0.0
  0
VERTEX
  8
LAYER1
 10
2.7369215313143
 20
1.2880557241299
 42
0.0
  0
VERTEX
  8
LAYER1
 10
2.7492107115692
 20
1.3084761365988
 42
0.0
  0
VERTEX
  8
LAYER1
 10
2.7564051073021
 20
1.3322489142516
 42
0.0
  0
VERTEX
  8
LAYER1
 10
2.7588274009052
 20
1.3524781257158
 42
0.0
  0
VERTEX
  8
LAYER1
 10
2.7618816000912
 20
1.3931121542412
 42
0.0
  0
VERTEX
  8
LAYER1
 10
2.7627672632502
 20
1.433869444505
 42
0.0
  0
VERTEX
  8
LAYER1
 10
2.7629051130242
 20
1.4542488932707
 42
0.0
  0
VERTEX
  8
LAYER1
 10
2.7629051130242
 20
1.5862488627532
 42
0.0
  0
VERTEX
  8
LAYER1
 10
2.7629051130242
 20
1.6740338083178
 42
0.0
  0
VERTEX
  8
LAYER1
 10
2.7629051130242
 20
1.7182488322356
 42
0.0
  0
VERTEX
  8
LAYER1
 10
2.7629051130242
 20
1.7414101293238
 42
0.0
  0
VERTEX
  8
LAYER1
 10
2.7629051130242
 20
1.7750982898267
 42
0.0
  0
VERTEX
  8
LAYER1
 10
2.7629051130242
 20
1.7919423700782
 42
0.0
  0
VERTEX
  8
LAYER1
 10
2.7629051130242
 20
1.800364410204
 42
0.0
  0
VERTEX
  8
LAYER1
 10
2.7629051130242
 20
1.8243348321003
 42
0.0
  0
VERTEX
  8
LAYER1
 10
2.7629051130242
 20
1.8295176260239
 42
0.0
  0
VERTEX
  8
LAYER1
 10
2.7629051130242
 20
1.850248801718
 42
0.0
  0
VERTEX
  8
LAYER1
 10
2.9079050939507
 20
1.850248801718
 42
0.0
  0
VERTEX
  8
LAYER1
 10
2.9079045355092
 20
1.7249154925519
 42
0.0
  0
VERTEX
  8
LAYER1
 10
2.9078987835979
 20
1.5689834114588
 42
0.0
  0
VERTEX
  8
LAYER1
 10
2.9078908035658
 20
1.4808729462989
 42
0.0
  0
VERTEX
  8
LAYER1
 10
2.9072659460736
 20
1.4081249888879
 42
0.0
  0
VERTEX
  8
LAYER1
 10
2.9062286983158
 20
1.3824543547562
 42
0.0
  0
VERTEX
  8
LAYER1
 10
2.9055858450974
 20
1.3718158100958
 42
0.0
  0
VERTEX
  8
LAYER1
 10
2.9041838121617
 20
1.3536932246212
 42
0.0
  0
VERTEX
  8
LAYER1
 10
2.9007463352015
 20
1.321524227141
 42
0.0
  0
VERTEX
  8
LAYER1
 10
2.8964052122063
 20
1.2912489056685
 42
0.0
  0
VERTEX
  8
LAYER1
 10
2.8866372663683
 20
1.2580657071808
 42
0.0
  0
VERTEX
  8
LAYER1
 10
2.872513272757
 20
1.2284762338259
 42
0.0
  0
VERTEX
  8
LAYER1
 10
2.8534052293724
 20
1.2017488360503
 42
0.0
  0
VERTEX
  8
LAYER1
 10
2.8303282726235
 20
1.1792379035452
 42
0.0
  0
VERTEX
  8
LAYER1
 10
2.8026775358147
 20
1.1598850758174
 42
0.0
  0
VERTEX
  8
LAYER1
 10
2.7694051187462
 20
1.1432489037612
 42
0.0
  0
VERTEX
  8
LAYER1
 10
2.7312158593363
 20
1.131124728463
 42
0.0
  0
VERTEX
  8
LAYER1
 10
2.6859480936951
 20
1.1237921434024
 42
0.0
  0
VERTEX
  8
LAYER1
 10
2.6319050710625
 20
1.1212489485839
 42
0.0
  0
VERTEX
  8
LAYER1
 10
2.569921306414
 20
1.1238080948451
 42
0.0
  0
VERTEX
  8
LAYER1
 10
2.5186096952385
 20
1.1314855336287
 42
0.0
  0
VERTEX
  8
LAYER1
 10
2.4769053380913
 20
1.1447489142516
 42
0.0
  0
VERTEX
  8
LAYER1
 10
2.4443755839056
 20
1.161837943981
 42
0.0
  0
VERTEX
  8
LAYER1
 10
2.4167462861008
 20
1.1820850784877
 42
0.0
  0
VERTEX
  8
LAYER1
 10
2.3934051912255
 20
1.2062488675215
 42
0.0
  0
VERTEX
  8
LAYER1
 10
2.3755075725741
 20
1.2317644667127
 42
0.0
  0
VERTEX
  8
LAYER1
 10
2.3620749457306
 20
1.2581512806513
 42
0.0
  0
VERTEX
  8
LAYER1
 10
2.352905265612
 20
1.2862489104369
 42
0.0
  0
VERTEX
  8
LAYER1
 10
2.3479176342638
 20
1.3162973136364
 42
0.0
  0
VERTEX
  8
LAYER1
 10
2.3412934190331
 20
1.3768497532771
 42
0.0
  0
VERTEX
  8
LAYER1
 10
2.339230789441
 20
1.4377787480177
 42
0.0
  0
VERTEX
  8
LAYER1
 10
2.3389053266472
 20
1.4682488322356
 42
0.0
  0
VERTEX
  8
LAYER1
 10
2.3389053266472
 20
1.5955821553964
 42
0.0
  0
VERTEX
  8
LAYER1
 10
2.3389053266472
 20
1.658206382172
 42
0.0
  0
VERTEX
  8
LAYER1
 10
2.3389053266472
 20
1.7229154785572
 42
0.0
  0
VERTEX
  8
LAYER1
 10
2.3389053266472
 20
1.7316343661161
 42
0.0
  0
VERTEX
  8
LAYER1
 10
2.3389053266472
 20
1.7683483580881
 42
0.0
  0
VERTEX
  8
LAYER1
 10
2.3389053266472
 20
1.7867053540741
 42
0.0
  0
VERTEX
  8
LAYER1
 10
2.3389053266472
 20
1.7958838520671
 42
0.0
  0
VERTEX
  8
LAYER1
 10
2.3389053266472
 20
1.8220072694318
 42
0.0
  0
VERTEX
  8
LAYER1
 10
2.3389053266472
 20
1.8276555758891
 42
0.0
  0
VERTEX
  8
LAYER1
 10
2.3389053266472
 20
1.850248801718
 42
0.0
  0
VERTEX
  8
LAYER1
 10
2.4839053075737
 20
1.850248801718
 42
0.0
  0
VERTEX
  8
LAYER1
 10
2.4839040253757
 20
1.7209154646081
 42
0.0
  0
VERTEX
  8
LAYER1
 10
2.4838895085111
 20
1.5515200191954
 42
0.0
  0
VERTEX
  8
LAYER1
 10
2.4838829445834
 20
1.5148364081015
 42
0.0
  0
VERTEX
  8
LAYER1
 10
2.4838741004939
 20
1.4487657664496
 42
0.0
  0
VERTEX
  8
LAYER1
 10
2.4841507649007
 20
1.4157417197005
 42
0.0
  0
VERTEX
  8
LAYER1
 10
2.4845828431754
 20
1.3992421390241
 42
0.0
  0
VERTEX
  8
LAYER1
 10
2.4853479573689
 20
1.3821837661458
 42
0.0
  0
VERTEX
  8
LAYER1
 10
2.4863287804012
 20
1.3675511997003
 42
0.0
  0
VERTEX
  8
LAYER1
 10
2.4889054220146
 20
1.3422489047148
 42
0.0
  0
VERTEX
  8
LAYER1
 10
2.4981733486599
 20
1.3151146925905
 42
0.0
  0
VERTEX
  8
LAYER1
 10
2.5127774558968
 20
1.2917919378855
 42
0.0
  0
VERTEX
  8
LAYER1
 10
2.5334052961296
 20
1.2717488885024
 42
0.0
  0
VERTEX
  8
LAYER1
 10
2.5589523071713
 20
1.2571446801641
 42
0.0
  0
VERTEX
  8
LAYER1
 10
2.5900531791634
 20
1.2483121948817
 42
0.0
  0
VERTEX
  8
LAYER1
 10
2.6279053609795
 20
1.2452487826445
 42
0.0
  0
VERTEX
  8
LAYER1
 10
2.6648438324398
 20
1.24797129303
 42
0.0
  0
VERTEX
  8
LAYER1
 10
2.6951394180245
 20
1.2561388241866
 42
0.0
  0
SEQEND
  0
POLYLINE
  8
LAYER1
 66
     1
 10
0.0
 20
0.0
 30
0.0
 70
     1
  0
VERTEX
  8
LAYER1
 10
9.2212867658562
 20
3.2015517830947
 42
0.0
  0
VERTEX
  8
LAYER1
 10
9.2402384723091
 20
3.1382979014018
 42
0.0
  0
VERTEX
  8
LAYER1
 10
9.4385833398291
 20
3.1382979014018
 42
0.0
  0
VERTEX
  8
LAYER1
 10
9.3452873151726
 20
3.3875517726042
 42
0.0
  0
VERTEX
  8
LAYER1
 10
9.102287284655
 20
3.3875517726042
 42
0.0
  0
VERTEX
  8
LAYER1
 10
9.0086429992827
 20
3.1382979014018
 42
0.0
  0
VERTEX
  8
LAYER1
 10
9.2018430816382
 20
3.1382979014018
 42
0.0
  0
SEQEND
  0
POLYLINE
  8
LAYER1
 66
     1
 10
0.0
 20
0.0
 30
0.0
 70
     1
  0
VERTEX
  8
LAYER1
 10
2.004905216021
 20
1.134248960028
 42
0.0
  0
VERTEX
  8
LAYER1
 10
1.8599052350945
 20
1.134248960028
 42
0.0
  0
VERTEX
  8
LAYER1
 10
1.8599052350945
 20
1.435248839865
 42
0.0
  0
VERTEX
  8
LAYER1
 10
1.5979051511711
 20
1.850248801718
 42
0.0
  0
VERTEX
  8
LAYER1
 10
1.7669052999443
 20
1.850248801718
 42
0.0
  0
VERTEX
  8
LAYER1
 10
1.9359054487175
 20
1.5662488818267
 42
0.0
  0
VERTEX
  8
LAYER1
 10
2.1009054105705
 20
1.850248801718
 42
0.0
  0
VERTEX
  8
LAYER1
 10
2.2679052274651
 20
1.850248801718
 42
0.0
  0
VERTEX
  8
LAYER1
 10
2.004905216021
 20
1.4342489123442
 42
0.0
  0
SEQEND
  0
POLYLINE
  8
LAYER1
 66
     1
 10
0.0
 20
0.0
 30
0.0
 70
     1
  0
VERTEX
  8
LAYER1
 10
9.5575075071282
 20
5.3696160197356
 42
0.0
  0
VERTEX
  8
LAYER1
 10
9.5575075071282
 20
4.8696160495379
 42
0.0
  0
VERTEX
  8
LAYER1
 10
10.0415077131218
 20
4.8696160495379
 42
0.0
  0
VERTEX
  8
LAYER1
 10
10.0415077131218
 20
5.3696160197356
 42
0.0
  0
VERTEX
  8
LAYER1
 10
10.4855070035881
 20
5.3696160197356
 42
0.0
  0
VERTEX
  8
LAYER1
 10
10.4855070035881
 20
3.9376160383322
 42
0.0
  0
VERTEX
  8
LAYER1
 10
10.0415077131218
 20
3.9376160383322
 42
0.0
  0
VERTEX
  8
LAYER1
 10
10.0415077131218
 20
4.5176160439947
 42
0.0
  0
VERTEX
  8
LAYER1
 10
9.5575075071282
 20
4.5176160439947
 42
0.0
  0
VERTEX
  8
LAYER1
 10
9.5575075071282
 20
3.9376160383322
 42
0.0
  0
VERTEX
  8
LAYER1
 10
9.115507118029
 20
3.9376160383322
 42
0.0
  0
VERTEX
  8
LAYER1
 10
9.115507118029
 20
5.3696160197356
 42
0.0
  0
SEQEND
  0
POLYLINE
  8
LAYER1
 66
     1
 10
0.0
 20
0.0
 30
0.0
 70
     1
  0
VERTEX
  8
LAYER1
 10
8.4635076444573
 20
4.3216160416701
 42
0.0
  0
VERTEX
  8
LAYER1
 10
8.4635076444573
 20
4.455616045008
 42
0.0
  0
VERTEX
  8
LAYER1
 10
8.1675071638054
 20
4.455616045008
 42
0.0
  0
VERTEX
  8
LAYER1
 10
8.1675071638054
 20
4.7536160379746
 42
0.0
  0
VERTEX
  8
LAYER1
 10
8.8515071790642
 20
4.7536160379746
 42
0.0
  0
VERTEX
  8
LAYER1
 10
8.8515071790642
 20
4.1436160385707
 42
0.0
  0
VERTEX
  8
LAYER1
 10
8.7270476219124
 20
4.0645414522984
 42
0.0
  0
VERTEX
  8
LAYER1
 10
8.6123890813774
 20
4.0041976585486
 42
0.0
  0
VERTEX
  8
LAYER1
 10
8.5045070569939
 20
3.9616160571673
 42
0.0
  0
VERTEX
  8
LAYER1
 10
8.3986398282952
 20
3.9351632528314
 42
0.0
  0
VERTEX
  8
LAYER1
 10
8.2803581724114
 20
3.919164850209
 42
0.0
  0
VERTEX
  8
LAYER1
 10
8.1455078046746
 20
3.9136160492995
 42
0.0
  0
VERTEX
  8
LAYER1
 10
7.9879951633877
 20
3.9230903490269
 42
0.0
  0
VERTEX
  8
LAYER1
 10
7.8507381156868
 20
3.951513248209
 42
0.0
  0
VERTEX
  8
LAYER1
 10
7.7305073659844
 20
4.0006160467961
 42
0.0
  0
VERTEX
  8
LAYER1
 10
7.6321971576161
 20
4.0672925452412
 42
0.0
  0
VERTEX
  8
LAYER1
 10
7.5497862354225
 20
4.1524820438811
 42
0.0
  0
VERTEX
  8
LAYER1
 10
7.4815072935051
 20
4.2596160426834
 42
0.0
  0
VERTEX
  8
LAYER1
 10
7.4330103295273
 20
4.378581042108
 42
0.0
  0
VERTEX
  8
LAYER1
 10
7.4036798303551
 20
4.5084360425064
 42
0.0
  0
VERTEX
  8
LAYER1
 10
7.3935069959587
 20
4.6536160439351
 42
0.0
  0
VERTEX
  8
LAYER1
 10
7.4040703092522
 20
4.8014131499359
 42
0.0
  0
VERTEX
  8
LAYER1
 10
7.4357602491326
 20
4.9359244517305
 42
0.0
  0
VERTEX
  8
LAYER1
 10
7.490507118029
 20
5.0606160491803
 42
0.0
  0
VERTEX
  8
LAYER1
 10
7.5642192711777
 20
5.1657573424482
 42
0.0
  0
VERTEX
  8
LAYER1
 10
7.6573155694908
 20
5.2528212315359
 42
0.0
  0
VERTEX
  8
LAYER1
 10
7.7735071103996
 20
5.3236160159209
 42
0.0
  0
VERTEX
  8
LAYER1
 10
7.8807570915169
 20
5.3621930448272
 42
0.0
  0
VERTEX
  8
LAYER1
 10
8.0097871557183
 20
5.3855240623095
 42
0.0
  0
VERTEX
  8
LAYER1
 10
8.1655073087639
 20
5.393616068373
 42
0.0
  0
VERTEX
  8
LAYER1
 10
8.3084171457237
 20
5.3889333669969
 42
0.0
  0
VERTEX
  8
LAYER1
 10
8.4256265760369
 20
5.3748852628687
 42
0.0
  0
VERTEX
  8
LAYER1
 10
8.5195074003166
 20
5.3506160557368
 42
0.0
  0
VERTEX
  8
LAYER1
 10
8.5929225325054
 20
5.3171177483835
 42
0.0
  0
VERTEX
  8
LAYER1
 10
8.6574078887886
 20
5.2733828430035
 42
0.0
  0
VERTEX
  8
LAYER1
 10
8.714507571978
 20
5.2176160395243
 42
0.0
  0
VERTEX
  8
LAYER1
 10
8.7612983456082
 20
5.1527710391113
 42
0.0
  0
VERTEX
  8
LAYER1
 10
8.8000304801888
 20
5.0770360425928
 42
0.0
  0
VERTEX
  8
LAYER1
 10
8.8315076749748
 20
4.9876160502532
 42
0.0
  0
VERTEX
  8
LAYER1
 10
8.4055070798821
 20
4.9116160452464
 42
0.0
  0
VERTEX
  8
LAYER1
 10
8.3843177971787
 20
4.9614889396587
 42
0.0
  0
VERTEX
  8
LAYER1
 10
8.3550699792809
 20
5.0028676395753
 42
0.0
  0
VERTEX
  8
LAYER1
 10
8.3165073316521
 20
5.0366160452464
 42
0.0
  0
VERTEX
  8
LAYER1
 10
8.2711159256882
 20
5.0603133522102
 42
0.0
  0
VERTEX
  8
LAYER1
 10
8.2181013452477
 20
5.0746452564218
 42
0.0
  0
VERTEX
  8
LAYER1
 10
8.1555070798821
 20
5.0796160578826
 42
0.0
  0
VERTEX
  8
LAYER1
 10
8.0656811340756
 20
5.0686171566882
 42
0.0
  0
VERTEX
  8
LAYER1
 10
7.9889231758064
 20
5.0356204531052
 42
0.0
  0
VERTEX
  8
LAYER1
 10
7.9235072057671
 20
4.9786160469153
 42
0.0
  0
VERTEX
  8
LAYER1
 10
7.8761126246876
 20
4.8992147414425
 42
0.0
  0
VERTEX
  8
LAYER1
 10
7.8474488361305
 20
4.7943308395007
 42
0.0
  0
VERTEX
  8
LAYER1
 10
7.8375072400994
 20
4.6596160411933
 42
0.0
  0
VERTEX
  8
LAYER1
 10
7.8469815284676
 20
4.5208708438986
 42
0.0
  0
VERTEX
  8
LAYER1
 10
7.8754043935723
 20
4.4108752432027
 42
0.0
  0
VERTEX
  8
LAYER1
 10
7.9245071332878
 20
4.3276160389283
 42
0.0
  0
VERTEX
  8
LAYER1
 10
7.9894411893791
 20
4.2725060340011
 42
0.0
  0
VERTEX
  8
LAYER1
 10
8.0694034986443
 20
4.2391760310211
 42
0.0
  0
VERTEX
  8
LAYER1
 10
8.1675071638054
 20
4.2276160299876
 42
0.0
  0
VERTEX
  8
LAYER1
 10
8.215693943972
 20
4.2299029313767
 42
0.0
  0
VERTEX
  8
LAYER1
 10
8.2625738111443
 20
4.2367636355438
 42
0.0
  0
VERTEX
  8
LAYER1
 10
8.3095073621697
 20
4.248616042743
 42
0.0
  0
VERTEX
  8
LAYER1
 10
8.3563475220627
 20
4.2658519482666
 42
0.0
  0
VERTEX
  8
LAYER1
 10
8.4071082132286
 20
4.2898396480003
 42
0.0
  0
SEQEND
  0
POLYLINE
  8
LAYER1
 66
     1
 10
0.0
 20
0.0
 30
0.0
 70
     1
  0
VERTEX
  8
LAYER1
 10
10.795405380053
 20
1.5107488513091
 42
0.0
  0
VERTEX
  8
LAYER1
 10
10.8149167099899
 20
1.492838085542
 42
0.0
  0
VERTEX
  8
LAYER1
 10
10.8371504983849
 20
1.4820058260062
 42
0.0
  0
VERTEX
  8
LAYER1
 10
10.8629054944939
 20
1.4782488226989
 42
0.0
  0
VERTEX
  8
LAYER1
 10
10.8878897680706
 20
1.4816247246721
 42
0.0
  0
VERTEX
  8
LAYER1
 10
10.9100426391548
 20
1.4917524305918
 42
0.0
  0
VERTEX
  8
LAYER1
 10
10.9299054067559
 20
1.5092488408187
 42
0.0
  0
VERTEX
  8
LAYER1
 10
10.9334984283723
 20
1.5138208670228
 42
0.0
  0
VERTEX
  8
LAYER1
 10
10.9371752447293
 20
1.5189442361002
 42
0.0
  0
VERTEX
  8
LAYER1
 10
10.9407145916635
 20
1.5243799638639
 42
0.0
  0
VERTEX
  8
LAYER1
 10
10.943874881131
 20
1.5298076665758
 42
0.0
  0
VERTEX
  8
LAYER1
 10
10.9464423478348
 20
1.5348807247627
 42
0.0
  0
VERTEX
  8
LAYER1
 10
10.9482765477976
 20
1.5392963819842
 42
0.0
  0
VERTEX
  8
LAYER1
 10
10.9493342967565
 20
1.542852945651
 42
0.0
  0
VERTEX
  8
LAYER1
 10
10.9496642106811
 20
1.5454728820422
 42
0.0
  0
VERTEX
  8
LAYER1
 10
11.1086952099914
 20
1.5454728820422
 42
0.0
  0
VERTEX
  8
LAYER1
 10
11.1090971635137
 20
1.5406086320136
 42
0.0
  0
VERTEX
  8
LAYER1
 10
11.1095084912049
 20
1.5345684864743
 42
0.0
  0
VERTEX
  8
LAYER1
 10
11.1099044401077
 20
1.5275502947801
 42
0.0
  0
VERTEX
  8
LAYER1
 10
11.1102579836203
 20
1.5199121043297
 42
0.0
  0
VERTEX
  8
LAYER1
 10
11.1105452076883
 20
1.5121215563045
 42
0.0
  0
VERTEX
  8
LAYER1
 10
11.1107504007582
 20
1.5046651357279
 42
0.0
  0
VERTEX
  8
LAYER1
 10
11.1108687317802
 20
1.4979518804815
 42
0.0
  0
VERTEX
  8
LAYER1
 10
11.1109056394524
 20
1.4922490000823
 42
0.0
  0
VERTEX
  8
LAYER1
 10
11.1030103645271
 20
1.3742079840162
 42
0.0
  0
VERTEX
  8
LAYER1
 10
11.0793245397515
 20
1.2801249710658
 42
0.0
  0
VERTEX
  8
LAYER1
 10
11.0384054105705
 20
1.2082489609816
 42
0.0
  0
VERTEX
  8
LAYER1
 10
10.9858181153244
 20
1.1603032541492
 42
0.0
  0
VERTEX
  8
LAYER1
 10
10.9237565317101
 20
1.131306150017
 42
0.0
  0
VERTEX
  8
LAYER1
 10
10.8499050062126
 20
1.1212489485839
 42
0.0
  0
VERTEX
  8
LAYER1
 10
10.7980044750637
 20
1.1261494439104
 42
0.0
  0
VERTEX
  8
LAYER1
 10
10.7531823982186
 20
1.1408509298899
 42
0.0
  0
VERTEX
  8
LAYER1
 10
10.7144055288262
 20
1.1662489056685
 42
0.0
  0
VERTEX
  8
LAYER1
 10
10.6843904276318
 20
1.2007404805639
 42
0.0
  0
VERTEX
  8
LAYER1
 10
10.6623249175972
 20
1.2448152618983
 42
0.0
  0
VERTEX
  8
LAYER1
 10
10.647905341906
 20
1.3002488494017
 42
0.0
  0
VERTEX
  8
LAYER1
 10
10.7809057157463
 20
1.3152489543059
 42
0.0
  0
VERTEX
  8
LAYER1
 10
10.7858387511677
 20
1.2905302320101
 42
0.0
  0
VERTEX
  8
LAYER1
 10
10.7940389652199
 20
1.2704942338088
 42
0.0
  0
VERTEX
  8
LAYER1
 10
10.8059048574394
 20
1.2547488093474
 42
0.0
  0
VERTEX
  8
LAYER1
 10
10.8206294901318
 20
1.2440023498872
 42
0.0
  0
VERTEX
  8
LAYER1
 10
10.8384034133858
 20
1.2375029941657
 42
0.0
  0
VERTEX
  8
LAYER1
 10
10.8599052350945
 20
1.2352487921813
 42
0.0
  0
VERTEX
  8
LAYER1
 10
10.8862638850159
 20
1.2395503419736
 42
0.0
  0
VERTEX
  8
LAYER1
 10
10.9099000764794
 20
1.2524549913504
 42
0.0
  0
VERTEX
  8
LAYER1
 10
10.9314050596184
 20
1.2747487902739
 42
0.0
  0
VERTEX
  8
LAYER1
 10
10.9485337545342
 20
1.3099119550088
 42
0.0
  0
VERTEX
  8
LAYER1
 10
10.9609798292107
 20
1.363261451731
 42
0.0
  0
VERTEX
  8
LAYER1
 10
10.9689054410881
 20
1.4372489333251
 42
0.0
  0
VERTEX
  8
LAYER1
 10
10.9323048056549
 20
1.4041829648593
 42
0.0
  0
VERTEX
  8
LAYER1
 10
10.8898236848778
 20
1.3841849839308
 42
0.0
  0
VERTEX
  8
LAYER1
 10
10.8399047773308
 20
1.3772489905455
 42
0.0
  0
VERTEX
  8
LAYER1
 10
10.7864188440746
 20
1.3843274837949
 42
0.0
  0
VERTEX
  8
LAYER1
 10
10.7381598358101
 20
1.4055629635432
 42
0.0
  0
VERTEX
  8
LAYER1
 10
10.6939053457207
 20
1.4422489285567
 42
0.0
  0
VERTEX
  8
LAYER1
 10
10.6840950924688
 20
1.4522768130665
 42
0.0
  0
VERTEX
  8
LAYER1
 10
10.6740560491584
 20
1.4644680227088
 42
0.0
  0
VERTEX
  8
LAYER1
 10
10.6643923472726
 20
1.4783897137099
 42
0.0
  0
VERTEX
  8
LAYER1
 10
10.6557636098658
 20
1.4933113610717
 42
0.0
  0
VERTEX
  8
LAYER1
 10
10.648753493794
 20
1.5083126604042
 42
0.0
  0
VERTEX
  8
LAYER1
 10
10.6437454620952
 20
1.5224634558272
 42
0.0
  0
VERTEX
  8
LAYER1
 10
10.6408574234829
 20
1.5350065647088
 42
0.0
  0
VERTEX
  8
LAYER1
 10
10.6399566387123
 20
1.5454728820422
 42
0.0
  0
VERTEX
  8
LAYER1
 10
10.7766210936077
 20
1.5454728820422
 42
0.0
  0
VERTEX
  8
LAYER1
 10
10.776934735956
 20
1.5425284568279
 42
0.0
  0
VERTEX
  8
LAYER1
 10
10.7779403160258
 20
1.5387716464238
 42
0.0
  0
VERTEX
  8
LAYER1
 10
10.7796840520146
 20
1.5343125840568
 42
0.0
  0
VERTEX
  8
LAYER1
 10
10.7821248895362
 20
1.5293709363723
 42
0.0
  0
VERTEX
  8
LAYER1
 10
10.7851293114046
 20
1.5242466518235
 42
0.0
  0
VERTEX
  8
LAYER1
 10
10.7884940953709
 20
1.5192622676993
 42
0.0
  0
VERTEX
  8
LAYER1
 10
10.7919895686758
 20
1.5146985748909
 42
0.0
  0
SEQEND
  0
POLYLINE
  8
LAYER1
 66
     1
 10
0.0
 20
0.0
 30
0.0
 70
     1
  0
VERTEX
  8
LAYER1
 10
7.3532867353386
 20
2.9445518136122
 42
0.0
  0
VERTEX
  8
LAYER1
 10
7.3340874463422
 20
3.0086328291673
 42
0.0
  0
VERTEX
  8
LAYER1
 10
7.542116988978
 20
3.0086328291673
 42
0.0
  0
VERTEX
  8
LAYER1
 10
7.6682872693962
 20
2.6715518117049
 42
0.0
  0
VERTEX
  8
LAYER1
 10
7.4362869184441
 20
2.6715518117049
 42
0.0
  0
VERTEX
  8
LAYER1
 10
7.4002866666741
 20
2.7895518422225
 42
0.0
  0
VERTEX
  8
LAYER1
 10
7.1502866666741
 20
2.7895518422225
 42
0.0
  0
VERTEX
  8
LAYER1
 10
7.1142873685784
 20
2.6715518117049
 42
0.0
  0
VERTEX
  8
LAYER1
 10
6.8882865827507
 20
2.6715518117049
 42
0.0
  0
VERTEX
  8
LAYER1
 10
7.0149273881295
 20
3.0086328291673
 42
0.0
  0
VERTEX
  8
LAYER1
 10
7.2169847736583
 20
3.0086328291673
 42
0.0
  0
VERTEX
  8
LAYER1
 10
7.1972865980095
 20
2.9445518136122
 42
0.0
  0
SEQEND
  0
POLYLINE
  8
LAYER1
 66
     1
 10
0.0
 20
0.0
 30
0.0
 70
     1
  0
VERTEX
  8
LAYER1
 10
7.1279048841423
 20
1.7072489142516
 42
0.0
  0
VERTEX
  8
LAYER1
 10
7.099544747538
 20
1.7248841499903
 42
0.0
  0
VERTEX
  8
LAYER1
 10
7.0672642873711
 20
1.7355497716048
 42
0.0
  0
VERTEX
  8
LAYER1
 10
7.0299053113884
 20
1.7392489791014
 42
0.0
  0
VERTEX
  8
LAYER1
 10
6.9804268046803
 20
1.7330416746357
 42
0.0
  0
VERTEX
  8
LAYER1
 10
6.9375911838478
 20
1.7144197612384
 42
0.0
  0
VERTEX
  8
LAYER1
 10
6.9004053991265
 20
1.6822489380934
 42
0.0
  0
VERTEX
  8
LAYER1
 10
6.8731259554333
 20
1.6368970132091
 42
0.0
  0
VERTEX
  8
LAYER1
 10
6.8566276092476
 20
1.5760812926867
 42
0.0
  0
VERTEX
  8
LAYER1
 10
6.8509054105705
 20
1.4972488761046
 42
0.0
  0
VERTEX
  8
LAYER1
 10
6.856241487307
 20
1.4160375707843
 42
0.0
  0
VERTEX
  8
LAYER1
 10
6.8722497175163
 20
1.3519235465625
 42
0.0
  0
VERTEX
  8
LAYER1
 10
6.8999051969475
 20
1.3037489533522
 42
0.0
  0
VERTEX
  8
LAYER1
 10
6.9354031866974
 20
1.2720607007244
 42
0.0
  0
VERTEX
  8
LAYER1
 10
6.9772174379296
 20
1.2528959491351
 42
0.0
  0
VERTEX
  8
LAYER1
 10
7.026905051989
 20
1.2462489485839
 42
0.0
  0
VERTEX
  8
LAYER1
 10
7.0633884711689
 20
1.2502237960913
 42
0.0
  0
VERTEX
  8
LAYER1
 10
7.0962779834694
 20
1.2621483386138
 42
0.0
  0
VERTEX
  8
LAYER1
 10
7.1264052312798
 20
1.2827489256957
 42
0.0
  0
VERTEX
  8
LAYER1
 10
7.151235934586
 20
1.3114671626666
 42
0.0
  0
VERTEX
  8
LAYER1
 10
7.17094855308
 20
1.3494419037917
 42
0.0
  0
VERTEX
  8
LAYER1
 10
7.1859054487175
 20
1.3982488989928
 42
0.0
  0
VERTEX
  8
LAYER1
 10
7.325904838366
 20
1.3552489161589
 42
0.0
  0
VERTEX
  8
LAYER1
 10
7.3001023861832
 20
1.2839573488214
 42
0.0
  0
VERTEX
  8
LAYER1
 10
7.2649344858116
 20
1.2258426870921
 42
0.0
  0
VERTEX
  8
LAYER1
 10
7.2189054410881
 20
1.179748880873
 42
0.0
  0
VERTEX
  8
LAYER1
 10
7.1649406270928
 20
1.1480606282451
 42
0.0
  0
VERTEX
  8
LAYER1
 10
7.1020459333367
 20
1.1288958766558
 42
0.0
  0
VERTEX
  8
LAYER1
 10
7.0279054563469
 20
1.1222488761046
 42
0.0
  0
VERTEX
  8
LAYER1
 10
6.9396303461975
 20
1.1328666224697
 42
0.0
  0
VERTEX
  8
LAYER1
 10
6.8622452775902
 20
1.1647198615649
 42
0.0
  0
VERTEX
  8
LAYER1
 10
6.7939052503533
 20
1.219748842726
 42
0.0
  0
VERTEX
  8
LAYER1
 10
6.7432040461487
 20
1.2918851905325
 42
0.0
  0
VERTEX
  8
LAYER1
 10
6.7125404436058
 20
1.3795942780116
 42
0.0
  0
VERTEX
  8
LAYER1
 10
6.7019052427239
 20
1.4862489581206
 42
0.0
  0
VERTEX
  8
LAYER1
 10
6.711978515572
 20
1.5956769009688
 42
0.0
  0
VERTEX
  8
LAYER1
 10
6.7421983341164
 20
1.6876808604338
 42
0.0
  0
VERTEX
  8
LAYER1
 10
6.7944054525322
 20
1.7642488360503
 42
0.0
  0
VERTEX
  8
LAYER1
 10
6.8617172766155
 20
1.8188077234366
 42
0.0
  0
VERTEX
  8
LAYER1
 10
6.9415524719185
 20
1.851804415808
 42
0.0
  0
VERTEX
  8
LAYER1
 10
7.0369052808708
 20
1.8632488131621
 42
0.0
  0
VERTEX
  8
LAYER1
 10
7.1185802399582
 20
1.8547546316483
 42
0.0
  0
VERTEX
  8
LAYER1
 10
7.1893651575035
 20
1.829272087107
 42
0.0
  0
VERTEX
  8
LAYER1
 10
7.2509050291008
 20
1.7852489829161
 42
0.0
  0
VERTEX
  8
LAYER1
 10
7.2805224296517
 20
1.7505329585889
 42
0.0
  0
VERTEX
  8
LAYER1
 10
7.3046949132866
 20
1.7071048906424
 42
0.0
  0
VERTEX
  8
LAYER1
 10
7.3239049833244
 20
1.6532487750151
 42
0.0
  0
VERTEX
  8
LAYER1
 10
7.1809053342766
 20
1.6192488551238
 42
0.0
  0
VERTEX
  8
LAYER1
 10
7.169384769339
 20
1.6535952590325
 42
0.0
  0
VERTEX
  8
LAYER1
 10
7.1519837190575
 20
1.6827144783118
 42
0.0
  0
SEQEND
  0
POLYLINE
  8
LAYER1
 66
     1
 10
0.0
 20
0.0
 30
0.0
 70
     1
  0
VERTEX
  8
LAYER1
 10
6.1559057157463
 20
1.031248795996
 42
0.0
  0
VERTEX
  8
LAYER1
 10
6.1804062336868
 20
1.0415778860667
 42
0.0
  0
VERTEX
  8
LAYER1
 10
6.1997885629601
 20
1.0540849221327
 42
0.0
  0
VERTEX
  8
LAYER1
 10
6.214405051989
 20
1.0692489028075
 42
0.0
  0
VERTEX
  8
LAYER1
 10
6.224158203978
 20
1.0869401778319
 42
0.0
  0
VERTEX
  8
LAYER1
 10
6.2303177606529
 20
1.1083340960601
 42
0.0
  0
VERTEX
  8
LAYER1
 10
6.232905380053
 20
1.134248960028
 42
0.0
  0
VERTEX
  8
LAYER1
 10
6.1669053953118
 20
1.134248960028
 42
0.0
  0
VERTEX
  8
LAYER1
 10
6.1669053953118
 20
1.2712488055327
 42
0.0
  0
VERTEX
  8
LAYER1
 10
6.3039054792351
 20
1.2712488055327
 42
0.0
  0
VERTEX
  8
LAYER1
 10
6.3039007175867
 20
1.2385822038906
 42
0.0
  0
VERTEX
  8
LAYER1
 10
6.3038323612458
 20
1.1900353088617
 42
0.0
  0
VERTEX
  8
LAYER1
 10
6.3032873797663
 20
1.143629039847
 42
0.0
  0
VERTEX
  8
LAYER1
 10
6.3020848573706
 20
1.1256309504641
 42
0.0
  0
VERTEX
  8
LAYER1
 10
6.2973084302581
 20
1.0942532979026
 42
0.0
  0
VERTEX
  8
LAYER1
 10
6.2960421912834
 20
1.0881759594807
 42
0.0
  0
VERTEX
  8
LAYER1
 10
6.2939052503533
 20
1.0787488103011
 42
0.0
  0
VERTEX
  8
LAYER1
 10
6.2852904654926
 20
1.0567955641248
 42
0.0
  0
VERTEX
  8
LAYER1
 10
6.2726464130348
 20
1.0364758293727
 42
0.0
  0
VERTEX
  8
LAYER1
 10
6.2554049413628
 20
1.0172488570311
 42
0.0
  0
VERTEX
  8
LAYER1
 10
6.2349069829411
 20
1.0006267808297
 42
0.0
  0
VERTEX
  8
LAYER1
 10
6.2110332134194
 20
0.9864004867652
 42
0.0
  0
VERTEX
  8
LAYER1
 10
6.1829051893181
 20
0.9742488741973
 42
0.0
  0
SEQEND
  0
POLYLINE
  8
LAYER1
 66
     1
 10
0.0
 20
0.0
 30
0.0
 70
     1
  0
VERTEX
  8
LAYER1
 10
10.8932866971916
 20
2.6715518117049
 42
0.0
  0
VERTEX
  8
LAYER1
 10
10.6852865140862
 20
2.6715518117049
 42
0.0
  0
VERTEX
  8
LAYER1
 10
10.6852865140862
 20
3.3875517726042
 42
0.0
  0
VERTEX
  8
LAYER1
 10
10.892287246508
 20
3.3875517726042
 42
0.0
  0
VERTEX
  8
LAYER1
 10
11.1602868955559
 20
2.9925517916777
 42
0.0
  0
VERTEX
  8
LAYER1
 10
11.1602868955559
 20
3.3875517726042
 42
0.0
  0
VERTEX
  8
LAYER1
 10
11.369286529345
 20
3.3875517726042
 42
0.0
  0
VERTEX
  8
LAYER1
 10
11.369286529345
 20
2.6715518117049
 42
0.0
  0
VERTEX
  8
LAYER1
 10
11.1602868955559
 20
2.6715518117049
 42
0.0
  0
VERTEX
  8
LAYER1
 10
10.8932866971916
 20
3.0645518183806
 42
0.0
  0
SEQEND
  0
POLYLINE
  8
LAYER1
 66
     1
 10
0.0
 20
0.0
 30
0.0
 70
     1
  0
VERTEX
  8
LAYER1
 10
4.2772869985527
 20
2.9595517993071
 42
0.0
  0
VERTEX
  8
LAYER1
 10
4.3672871511406
 20
2.9595517993071
 42
0.0
  0
VERTEX
  8
LAYER1
 10
4.3672871511406
 20
2.8055517554381
 42
0.0
  0
VERTEX
  8
LAYER1
 10
4.2772869985527
 20
2.8055517554381
 42
0.0
  0
VERTEX
  8
LAYER1
 10
4.2772869985527
 20
2.6715518117049
 42
0.0
  0
VERTEX
  8
LAYER1
 10
4.1042871396965
 20
2.6715518117049
 42
0.0
  0
VERTEX
  8
LAYER1
 10
4.1042871396965
 20
2.8055517554381
 42
0.0
  0
VERTEX
  8
LAYER1
 10
3.7422871511406
 20
2.8055517554381
 42
0.0
  0
VERTEX
  8
LAYER1
 10
3.7422871511406
 20
2.9695517897704
 42
0.0
  0
VERTEX
  8
LAYER1
 10
4.1042871396965
 20
3.3995517373183
 42
0.0
  0
VERTEX
  8
LAYER1
 10
4.2772869985527
 20
3.3995517373183
 42
0.0
  0
VERTEX
  8
LAYER1
 10
4.2772869985527
 20
3.1208826660786
 42
0.0
  0
VERTEX
  8
LAYER1
 10
4.1042871396965
 20
3.1208826660786
 42
0.0
  0
VERTEX
  8
LAYER1
 10
4.1042871396965
 20
3.1855517506697
 42
0.0
  0
VERTEX
  8
LAYER1
 10
3.9132871549553
 20
2.9595517993071
 42
0.0
  0
VERTEX
  8
LAYER1
 10
4.1042871396965
 20
2.9595517993071
 42
0.0
  0
VERTEX
  8
LAYER1
 10
4.1042871396965
 20
3.0292419651333
 42
0.0
  0
VERTEX
  8
LAYER1
 10
4.2772869985527
 20
3.0292419651333
 42
0.0
  0
SEQEND
  0
POLYLINE
  8
LAYER1
 66
     1
 10
0.0
 20
0.0
 30
0.0
 70
     1
  0
VERTEX
  8
LAYER1
 10
10.7929053228325
 20
1.7102489352324
 42
0.0
  0
VERTEX
  8
LAYER1
 10
10.8114081890053
 20
1.7271809190848
 42
0.0
  0
VERTEX
  8
LAYER1
 10
10.8322411557621
 20
1.7369819097378
 42
0.0
  0
VERTEX
  8
LAYER1
 10
10.8559055250115
 20
1.7402489066222
 42
0.0
  0
VERTEX
  8
LAYER1
 10
10.8820072959847
 20
1.7360295092681
 42
0.0
  0
VERTEX
  8
LAYER1
 10
10.9052409119076
 20
1.7238640668967
 42
0.0
  0
VERTEX
  8
LAYER1
 10
10.9264054220146
 20
1.7037489295104
 42
0.0
  0
VERTEX
  8
LAYER1
 10
10.929978373135
 20
1.6993507505997
 42
0.0
  0
VERTEX
  8
LAYER1
 10
10.9339368434518
 20
1.6933083499548
 42
0.0
  0
VERTEX
  8
LAYER1
 10
10.9380897309468
 20
1.6857450064148
 42
0.0
  0
VERTEX
  8
LAYER1
 10
10.9421879842387
 20
1.6770014044132
 42
0.0
  0
VERTEX
  8
LAYER1
 10
10.9459683341803
 20
1.6675978496573
 42
0.0
  0
VERTEX
  8
LAYER1
 10
10.9492068304474
 20
1.6581362719246
 42
0.0
  0
VERTEX
  8
LAYER1
 10
10.9517608164033
 20
1.6491782262522
 42
0.0
  0
VERTEX
  8
LAYER1
 10
10.9535839142269
 20
1.6411474322655
 42
0.0
  0
VERTEX
  8
LAYER1
 10
11.0978423461842
 20
1.6411474322655
 42
0.0
  0
VERTEX
  8
LAYER1
 10
11.0968916677382
 20
1.6527048964712
 42
0.0
  0
VERTEX
  8
LAYER1
 10
11.0938436632098
 20
1.6671422303251
 42
0.0
  0
VERTEX
  8
LAYER1
 10
11.0885582410443
 20
1.6839975698126
 42
0.0
  0
VERTEX
  8
LAYER1
 10
11.081159840815
 20
1.7024176875817
 42
0.0
  0
VERTEX
  8
LAYER1
 10
11.0720531652399
 20
1.7212770496265
 42
0.0
  0
VERTEX
  8
LAYER1
 10
11.0618541994146
 20
1.7393957954678
 42
0.0
  0
VERTEX
  8
LAYER1
 10
11.0512591023335
 20
1.7557736930664
 42
0.0
  0
VERTEX
  8
LAYER1
 10
11.040905467791
 20
1.7697489142516
 42
0.0
  0
VERTEX
  8
LAYER1
 10
10.9887969470925
 20
1.8174407562354
 42
0.0
  0
VERTEX
  8
LAYER1
 10
10.929598122353
 20
1.8450469305375
 42
0.0
  0
VERTEX
  8
LAYER1
 10
10.861905090136
 20
1.8542489886382
 42
0.0
  0
VERTEX
  8
LAYER1
 10
10.7980091747231
 20
1.8465615808108
 42
0.0
  0
VERTEX
  8
LAYER1
 10
10.7438414010472
 20
1.8243971082428
 42
0.0
  0
VERTEX
  8
LAYER1
 10
10.6974053304619
 20
1.7877489209273
 42
0.0
  0
VERTEX
  8
LAYER1
 10
10.6857185938743
 20
1.7746605321694
 42
0.0
  0
VERTEX
  8
LAYER1
 10
10.673824015009
 20
1.7582720656169
 42
0.0
  0
VERTEX
  8
LAYER1
 10
10.6624474763983
 20
1.7391028569595
 42
0.0
  0
VERTEX
  8
LAYER1
 10
10.6523728851771
 20
1.718120283357
 42
0.0
  0
VERTEX
  8
LAYER1
 10
10.6442846825398
 20
1.696605467716
 42
0.0
  0
VERTEX
  8
LAYER1
 10
10.6386216297886
 20
1.6759053615366
 42
0.0
  0
VERTEX
  8
LAYER1
 10
10.6355028367033
 20
1.6571654708211
 42
0.0
  0
VERTEX
  8
LAYER1
 10
10.634749890556
 20
1.6411474322655
 42
0.0
  0
VERTEX
  8
LAYER1
 10
10.7707952384896
 20
1.6411474322655
 42
0.0
  0
VERTEX
  8
LAYER1
 10
10.7711644118832
 20
1.6481264764462
 42
0.0
  0
VERTEX
  8
LAYER1
 10
10.7723480320448
 20
1.6565012113137
 42
0.0
  0
VERTEX
  8
LAYER1
 10
10.7744005002019
 20
1.6659598730534
 42
0.0
  0
VERTEX
  8
LAYER1
 10
10.7772734932021
 20
1.675997247908
 42
0.0
  0
VERTEX
  8
LAYER1
 10
10.7808098543572
 20
1.6859912758427
 42
0.0
  0
VERTEX
  8
LAYER1
 10
10.7847703804868
 20
1.6953252580429
 42
0.0
  0
VERTEX
  8
LAYER1
 10
10.7888847347804
 20
1.7035084879418
 42
0.0
  0
SEQEND
  0
POLYLINE
  8
LAYER1
 66
     1
 10
0.0
 20
0.0
 30
0.0
 70
     1
  0
VERTEX
  8
LAYER1
 10
8.1852865140862
 20
3.1815518021681
 42
0.0
  0
VERTEX
  8
LAYER1
 10
8.1724266128964
 20
3.1967994363287
 42
0.0
  0
VERTEX
  8
LAYER1
 10
8.1576064460701
 20
3.2095423702815
 42
0.0
  0
VERTEX
  8
LAYER1
 10
8.1402869146294
 20
3.2200517535308
 42
0.0
  0
VERTEX
  8
LAYER1
 10
8.1218135427899
 20
3.2274915898659
 42
0.0
  0
VERTEX
  8
LAYER1
 10
8.1020333618111
 20
3.2319911316016
 42
0.0
  0
VERTEX
  8
LAYER1
 10
8.0802869718498
 20
3.2335517287352
 42
0.0
  0
VERTEX
  8
LAYER1
 10
8.0340472582764
 20
3.2270177349665
 42
0.0
  0
VERTEX
  8
LAYER1
 10
7.9956483995384
 20
3.2074157536605
 42
0.0
  0
VERTEX
  8
LAYER1
 10
7.9642867963738
 20
3.1735517859557
 42
0.0
  0
VERTEX
  8
LAYER1
 10
7.9477539435333
 20
3.1382979014018
 42
0.0
  0
VERTEX
  8
LAYER1
 10
7.937755032534
 20
3.0919361910918
 42
0.0
  0
VERTEX
  8
LAYER1
 10
7.9342870634026
 20
3.0325517535308
 42
0.0
  0
VERTEX
  8
LAYER1
 10
7.9382074388928
 20
2.9621792734363
 42
0.0
  0
VERTEX
  8
LAYER1
 10
7.9499685653633
 20
2.9081417777636
 42
0.0
  0
VERTEX
  8
LAYER1
 10
7.9702868383354
 20
2.8695517659285
 42
0.0
  0
VERTEX
  8
LAYER1
 10
7.9973137126393
 20
2.8453033496359
 42
0.0
  0
VERTEX
  8
LAYER1
 10
8.0308746326393
 20
2.8306381397822
 42
0.0
  0
VERTEX
  8
LAYER1
 10
8.0722865980095
 20
2.8255517363646
 42
0.0
  0
VERTEX
  8
LAYER1
 10
8.1105454993672
 20
2.8294176917651
 42
0.0
  0
VERTEX
  8
LAYER1
 10
8.1421613071388
 20
2.8410155579665
 42
0.0
  0
VERTEX
  8
LAYER1
 10
8.1677870672173
 20
2.8610517859557
 42
0.0
  0
VERTEX
  8
LAYER1
 10
8.1873312389797
 20
2.8880210588196
 42
0.0
  0
VERTEX
  8
LAYER1
 10
8.2030640312142
 20
2.9220688119509
 42
0.0
  0
VERTEX
  8
LAYER1
 10
8.2152872007317
 20
2.9645517945388
 42
0.0
  0
VERTEX
  8
LAYER1
 10
8.409286491198
 20
2.90555177928
 42
0.0
  0
VERTEX
  8
LAYER1
 10
8.3936909844345
 20
2.8549776473382
 42
0.0
  0
VERTEX
  8
LAYER1
 10
8.3733038095421
 20
2.8101752124884
 42
0.0
  0
VERTEX
  8
LAYER1
 10
8.3472871702141
 20
2.7700518250563
 42
0.0
  0
VERTEX
  8
LAYER1
 10
8.3173892412133
 20
2.7369676778116
 42
0.0
  0
VERTEX
  8
LAYER1
 10
8.2831352125115
 20
2.7096552146771
 42
0.0
  0
VERTEX
  8
LAYER1
 10
8.2432870786614
 20
2.6875517845252
 42
0.0
  0
VERTEX
  8
LAYER1
 10
8.1985554140038
 20
2.6721209532538
 42
0.0
  0
VERTEX
  8
LAYER1
 10
8.1462007825798
 20
2.6627885343411
 42
0.0
  0
VERTEX
  8
LAYER1
 10
8.0842866819329
 20
2.6595517277816
 42
0.0
  0
VERTEX
  8
LAYER1
 10
8.012300398106
 20
2.6632543320396
 42
0.0
  0
VERTEX
  8
LAYER1
 10
7.949461778254
 20
2.6743621448138
 42
0.0
  0
VERTEX
  8
LAYER1
 10
7.8942866247124
 20
2.6935517668822
 42
0.0
  0
VERTEX
  8
LAYER1
 10
7.847624700684
 20
2.7216001386383
 42
0.0
  0
VERTEX
  8
LAYER1
 10
7.8053187725014
 20
2.7608652022937
 42
0.0
  0
VERTEX
  8
LAYER1
 10
7.7662868421501
 20
2.8130518078902
 42
0.0
  0
VERTEX
  8
LAYER1
 10
7.7365274968094
 20
2.8746545607069
 42
0.0
  0
VERTEX
  8
LAYER1
 10
7.7185293298668
 20
2.9466028166392
 42
0.0
  0
VERTEX
  8
LAYER1
 10
7.7122869413323
 20
3.03155182601
 42
0.0
  0
VERTEX
  8
LAYER1
 10
7.7225779983944
 20
3.1394964347103
 42
0.0
  0
VERTEX
  8
LAYER1
 10
7.7534511695809
 20
3.2296903577426
 42
0.0
  0
VERTEX
  8
LAYER1
 10
7.8067870061821
 20
3.3040517449477
 42
0.0
  0
VERTEX
  8
LAYER1
 10
7.8777057284779
 20
3.3566817907431
 42
0.0
  0
VERTEX
  8
LAYER1
 10
7.9657218097634
 20
3.3885119382003
 42
0.0
  0
VERTEX
  8
LAYER1
 10
8.0742874067253
 20
3.3995517373183
 42
0.0
  0
VERTEX
  8
LAYER1
 10
8.15712529468
 20
3.3936166890838
 42
0.0
  0
VERTEX
  8
LAYER1
 10
8.2274399152703
 20
3.3758115443804
 42
0.0
  0
VERTEX
  8
LAYER1
 10
8.2867870252556
 20
3.3450517535308
 42
0.0
  0
VERTEX
  8
LAYER1
 10
8.3336355722374
 20
3.3026022165158
 42
0.0
  0
VERTEX
  8
LAYER1
 10
8.3718807599968
 20
3.2471935840705
 42
0.0
  0
VERTEX
  8
LAYER1
 10
8.4022865217156
 20
3.1765518069365
 42
0.0
  0
VERTEX
  8
LAYER1
 10
8.2072868268913
 20
3.1335518241027
 42
0.0
  0
VERTEX
  8
LAYER1
 10
8.2004688916153
 20
3.1533716183403
 42
0.0
  0
VERTEX
  8
LAYER1
 10
8.1932153879112
 20
3.1692710111239
 42
0.0
  0
SEQEND
  0
POLYLINE
  8
LAYER1
 66
     1
 10
0.0
 20
0.0
 30
0.0
 70
     1
  0
VERTEX
  8
LAYER1
 10
6.6875076215691
 20
5.3696160197356
 42
0.0
  0
VERTEX
  8
LAYER1
 10
7.1315069120354
 20
5.3696160197356
 42
0.0
  0
VERTEX
  8
LAYER1
 10
7.1315069120354
 20
3.9376160383322
 42
0.0
  0
VERTEX
  8
LAYER1
 10
6.6875076215691
 20
3.9376160383322
 42
0.0
  0
SEQEND
  0
POLYLINE
  8
LAYER1
 66
     1
 10
0.0
 20
0.0
 30
0.0
 70
     1
  0
VERTEX
  8
LAYER1
 10
7.7309055250115
 20
1.6832489848235
 42
0.0
  0
VERTEX
  8
LAYER1
 10
7.7723734463388
 20
1.5722489237883
 42
0.0
  0
VERTEX
  8
LAYER1
 10
7.919338010392
 20
1.5722489237883
 42
0.0
  0
VERTEX
  8
LAYER1
 10
7.8079051893181
 20
1.850248801718
 42
0.0
  0
VERTEX
  8
LAYER1
 10
7.6549053113884
 20
1.850248801718
 42
0.0
  0
VERTEX
  8
LAYER1
 10
7.5469668348288
 20
1.5722489237883
 42
0.0
  0
VERTEX
  8
LAYER1
 10
7.6902752789438
 20
1.5722489237883
 42
0.0
  0
SEQEND
  0
POLYLINE
  8
LAYER1
 66
     1
 10
0.0
 20
0.0
 30
0.0
 70
     1
  0
VERTEX
  8
LAYER1
 10
10.5832872312493
 20
2.8475518107512
 42
0.0
  0
VERTEX
  8
LAYER1
 10
10.5832872312493
 20
2.6715518117049
 42
0.0
  0
VERTEX
  8
LAYER1
 10
10.0162868421501
 20
2.6715518117049
 42
0.0
  0
VERTEX
  8
LAYER1
 10
10.0162868421501
 20
3.3875517726042
 42
0.0
  0
VERTEX
  8
LAYER1
 10
10.2372865598625
 20
3.3875517726042
 42
0.0
  0
VERTEX
  8
LAYER1
 10
10.2372865598625
 20
2.8475518107512
 42
0.0
  0
SEQEND
  0
POLYLINE
  8
LAYER1
 66
     1
 10
0.0
 20
0.0
 30
0.0
 70
     1
  0
VERTEX
  8
LAYER1
 10
3.3572869222588
 20
3.1205518126586
 42
0.0
  0
VERTEX
  8
LAYER1
 10
3.3810601836151
 20
3.1232743100622
 42
0.0
  0
VERTEX
  8
LAYER1
 10
3.402219826693
 20
3.1314418022731
 42
0.0
  0
VERTEX
  8
LAYER1
 10
3.4212870519585
 20
3.1455517888167
 42
0.0
  0
VERTEX
  8
LAYER1
 10
3.4356156645722
 20
3.1630318799355
 42
0.0
  0
VERTEX
  8
LAYER1
 10
3.4442814722008
 20
3.1824721847632
 42
0.0
  0
VERTEX
  8
LAYER1
 10
3.4472870748467
 20
3.2045518040755
 42
0.0
  0
VERTEX
  8
LAYER1
 10
3.4451635229773
 20
3.2243105259874
 42
0.0
  0
VERTEX
  8
LAYER1
 10
3.4387928673691
 20
3.2413467634776
 42
0.0
  0
VERTEX
  8
LAYER1
 10
3.4277870576805
 20
3.2560517668822
 42
0.0
  0
VERTEX
  8
LAYER1
 10
3.4133380069441
 20
3.2667982263425
 42
0.0
  0
VERTEX
  8
LAYER1
 10
3.3957308773941
 20
3.2732975820639
 42
0.0
  0
VERTEX
  8
LAYER1
 10
3.374287120623
 20
3.2755517840483
 42
0.0
  0
VERTEX
  8
LAYER1
 10
3.3526571058459
 20
3.2732648810365
 42
0.0
  0
VERTEX
  8
LAYER1
 10
3.3339674895233
 20
3.2664041720011
 42
0.0
  0
VERTEX
  8
LAYER1
 10
3.3177869241661
 20
3.2545517563918
 42
0.0
  0
VERTEX
  8
LAYER1
 10
3.3050671558088
 20
3.2372069440582
 42
0.0
  0
VERTEX
  8
LAYER1
 10
3.2952876820511
 20
3.2128925435641
 42
0.0
  0
VERTEX
  8
LAYER1
 10
3.2882871549553
 20
3.1805517554381
 42
0.0
  0
VERTEX
  8
LAYER1
 10
3.1002869527764
 20
3.2135517478087
 42
0.0
  0
VERTEX
  8
LAYER1
 10
3.1202042296118
 20
3.268377963815
 42
0.0
  0
VERTEX
  8
LAYER1
 10
3.1495957428879
 20
3.3140565677741
 42
0.0
  0
VERTEX
  8
LAYER1
 10
3.1897871416039
 20
3.3515517592528
 42
0.0
  0
VERTEX
  8
LAYER1
 10
3.2397210349745
 20
3.3780045471647
 42
0.0
  0
VERTEX
  8
LAYER1
 10
3.3017427830643
 20
3.3940029398539
 42
0.0
  0
VERTEX
  8
LAYER1
 10
3.378286830706
 20
3.3995517373183
 42
0.0
  0
VERTEX
  8
LAYER1
 10
3.4622472699112
 20
3.3938889388242
 42
0.0
  0
VERTEX
  8
LAYER1
 10
3.5293281343407
 20
3.3769005433419
 42
0.0
  0
VERTEX
  8
LAYER1
 10
3.5807871740288
 20
3.3475517511466
 42
0.0
  0
VERTEX
  8
LAYER1
 10
3.6152309240288
 20
3.3102914591828
 42
0.0
  0
VERTEX
  8
LAYER1
 10
3.6360621740288
 20
3.267150565038
 42
0.0
  0
VERTEX
  8
LAYER1
 10
3.6432871740288
 20
3.2165517687895
 42
0.0
  0
VERTEX
  8
LAYER1
 10
3.6405102175898
 20
3.1865663540342
 42
0.0
  0
VERTEX
  8
LAYER1
 10
3.6321793482727
 20
3.158650019131
 42
0.0
  0
VERTEX
  8
LAYER1
 10
3.617787114901
 20
3.1320518136122
 42
0.0
  0
VERTEX
  8
LAYER1
 10
3.5981801194376
 20
3.1083363507846
 42
0.0
  0
VERTEX
  8
LAYER1
 10
3.5730192110962
 20
3.0866899937728
 42
0.0
  0
VERTEX
  8
LAYER1
 10
3.5412869375176
 20
3.0665517926314
 42
0.0
  0
VERTEX
  8
LAYER1
 10
3.5668288706726
 20
3.0595161915519
 42
0.0
  0
VERTEX
  8
LAYER1
 10
3.588014911837
 20
3.051609375725
 42
0.0
  0
VERTEX
  8
LAYER1
 10
3.6052870672173
 20
3.042551743994
 42
0.0
  0
VERTEX
  8
LAYER1
 10
3.626753481049
 20
3.0265071672418
 42
0.0
  0
VERTEX
  8
LAYER1
 10
3.6449529239601
 20
3.0074133778193
 42
0.0
  0
VERTEX
  8
LAYER1
 10
3.6602868955559
 20
2.9845517754653
 42
0.0
  0
VERTEX
  8
LAYER1
 10
3.6713088850445
 20
2.9592671733
 42
0.0
  0
VERTEX
  8
LAYER1
 10
3.6779748786873
 20
2.9309333844283
 42
0.0
  0
VERTEX
  8
LAYER1
 10
3.6802868764824
 20
2.8985518097975
 42
0.0
  0
VERTEX
  8
LAYER1
 10
3.6767476233668
 20
2.8581218393066
 42
0.0
  0
VERTEX
  8
LAYER1
 10
3.6661298640198
 20
2.8186719756701
 42
0.0
  0
VERTEX
  8
LAYER1
 10
3.6477868478722
 20
2.7790517687895
 42
0.0
  0
VERTEX
  8
LAYER1
 10
3.6231787501759
 20
2.7439876141885
 42
0.0
  0
VERTEX
  8
LAYER1
 10
3.5922544948525
 20
2.7146951566794
 42
0.0
  0
VERTEX
  8
LAYER1
 10
3.5537869852013
 20
2.6905517459014
 42
0.0
  0
VERTEX
  8
LAYER1
 10
3.5090043851084
 20
2.6734676359155
 42
0.0
  0
VERTEX
  8
LAYER1
 10
3.4558363657898
 20
2.6631353298762
 42
0.0
  0
VERTEX
  8
LAYER1
 10
3.3922867696709
 20
2.6595517277816
 42
0.0
  0
VERTEX
  8
LAYER1
 10
3.3321260969109
 20
2.6620564279893
 42
0.0
  0
VERTEX
  8
LAYER1
 10
3.2810041440911
 20
2.6695705286124
 42
0.0
  0
VERTEX
  8
LAYER1
 10
3.2377867620415
 20
2.6825517296889
 42
0.0
  0
VERTEX
  8
LAYER1
 10
3.2027292337126
 20
2.700073086504
 42
0.0
  0
VERTEX
  8
LAYER1
 10
3.1721365933365
 20
2.7222771544316
 42
0.0
  0
VERTEX
  8
LAYER1
 10
3.1452867906517
 20
2.7500517845252
 42
0.0
  0
VERTEX
  8
LAYER1
 10
3.1232691853708
 20
2.7818720541396
 42
0.0
  0
VERTEX
  8
LAYER1
 10
3.1047363871521
 20
2.8185927931168
 42
0.0
  0
VERTEX
  8
LAYER1
 10
3.0892867963738
 20
2.8615517497161
 42
0.0
  0
VERTEX
  8
LAYER1
 10
3.2882871549553
 20
2.8875517726042
 42
0.0
  0
VERTEX
  8
LAYER1
 10
3.2975682027525
 20
2.8519266513863
 42
0.0
  0
VERTEX
  8
LAYER1
 10
3.3095718647904
 20
2.8242512122014
 42
0.0
  0
VERTEX
  8
LAYER1
 10
3.3247868936485
 20
2.8040518045523
 42
0.0
  0
VERTEX
  8
LAYER1
 10
3.342427127809
 20
2.7911009406247
 42
0.0
  0
VERTEX
  8
LAYER1
 10
3.3630076565689
 20
2.7832683822015
 42
0.0
  0
VERTEX
  8
LAYER1
 10
3.3872871320671
 20
2.78055177928
 42
0.0
  0
VERTEX
  8
LAYER1
 10
3.4122169595904
 20
2.7837643301108
 42
0.0
  0
VERTEX
  8
LAYER1
 10
3.4342064925141
 20
2.7934019826033
 42
0.0
  0
VERTEX
  8
LAYER1
 10
3.4537870805687
 20
2.8100517869094
 42
0.0
  0
VERTEX
  8
LAYER1
 10
3.4683912232107
 20
2.8315364387253
 42
0.0
  0
VERTEX
  8
LAYER1
 10
3.4772236687607
 20
2.8570503841021
 42
0.0
  0
VERTEX
  8
LAYER1
 10
3.4802870672173
 20
2.8875517726042
 42
0.0
  0
VERTEX
  8
LAYER1
 10
3.4775101107783
 20
2.918101559166
 42
0.0
  0
VERTEX
  8
LAYER1
 10
3.4691792414612
 20
2.9437508244374
 42
0.0
  0
VERTEX
  8
LAYER1
 10
3.4547870080895
 20
2.9650518179038
 42
0.0
  0
VERTEX
  8
LAYER1
 10
3.4359423093027
 20
2.9802070534506
 42
0.0
  0
VERTEX
  8
LAYER1
 10
3.4130682909912
 20
2.9893727947095
 42
0.0
  0
VERTEX
  8
LAYER1
 10
3.3852868001885
 20
2.9925517916777
 42
0.0
  0
VERTEX
  8
LAYER1
 10
3.368146742577
 20
2.9912449955204
 42
0.0
  0
VERTEX
  8
LAYER1
 10
3.3470862575478
 20
2.9873246070483
 42
0.0
  0
VERTEX
  8
LAYER1
 10
3.3212871473259
 20
2.9805518269637
 42
0.0
  0
VERTEX
  8
LAYER1
 10
3.3312868993706
 20
3.1225517869094
 42
0.0
  0
VERTEX
  8
LAYER1
 10
3.3416357895798
 20
3.1214496010997
 42
0.0
  0
VERTEX
  8
LAYER1
 10
3.3502421983666
 20
3.120783009682
 42
0.0
  0
SEQEND
  0
POLYLINE
  8
LAYER1
 66
     1
 10
0.0
 20
0.0
 30
0.0
 70
     1
  0
VERTEX
  8
LAYER1
 10
9.2982873838372
 20
2.9445518136122
 42
0.0
  0
VERTEX
  8
LAYER1
 10
9.1422872465081
 20
2.9445518136122
 42
0.0
  0
VERTEX
  8
LAYER1
 10
9.1619851843653
 20
3.0086328291673
 42
0.0
  0
VERTEX
  8
LAYER1
 10
8.959928036628
 20
3.0086328291673
 42
0.0
  0
VERTEX
  8
LAYER1
 10
8.8332872312493
 20
2.6715518117049
 42
0.0
  0
VERTEX
  8
LAYER1
 10
9.0592870634026
 20
2.6715518117049
 42
0.0
  0
VERTEX
  8
LAYER1
 10
9.0952873151726
 20
2.7895518422225
 42
0.0
  0
VERTEX
  8
LAYER1
 10
9.3452873151726
 20
2.7895518422225
 42
0.0
  0
VERTEX
  8
LAYER1
 10
9.3812866132683
 20
2.6715518117049
 42
0.0
  0
VERTEX
  8
LAYER1
 10
9.6132869642205
 20
2.6715518117049
 42
0.0
  0
VERTEX
  8
LAYER1
 10
9.4792871396965
 20
3.0086328291673
 42
0.0
  0
VERTEX
  8
LAYER1
 10
9.2790878570492
 20
3.0086328291673
 42
0.0
  0
SEQEND
  0
POLYLINE
  8
LAYER1
 66
     1
 10
0.0
 20
0.0
 30
0.0
 70
     1
  0
VERTEX
  8
LAYER1
 10
5.7102870862908
 20
3.2105518460372
 42
0.0
  0
VERTEX
  8
LAYER1
 10
5.712029463858
 20
3.1996585090616
 42
0.0
  0
VERTEX
  8
LAYER1
 10
5.7172565965599
 20
3.1894186026194
 42
0.0
  0
VERTEX
  8
LAYER1
 10
5.7262868802971
 20
3.1795518279174
 42
0.0
  0
VERTEX
  8
LAYER1
 10
5.7310943717771
 20
3.1763583172602
 42
0.0
  0
VERTEX
  8
LAYER1
 10
5.743491055576
 20
3.1693137138892
 42
0.0
  0
VERTEX
  8
LAYER1
 10
5.7686479997785
 20
3.1610471770408
 42
0.0
  0
VERTEX
  8
LAYER1
 10
5.8175641585266
 20
3.1496290862126
 42
0.0
  0
VERTEX
  8
LAYER1
 10
5.8813749328372
 20
3.1344279461586
 42
0.0
  0
VERTEX
  8
LAYER1
 10
5.9135658152131
 20
3.1258105007774
 42
0.0
  0
VERTEX
  8
LAYER1
 10
5.9509273771221
 20
3.1139448789974
 42
0.0
  0
VERTEX
  8
LAYER1
 10
5.9905579830018
 20
3.0980867568152
 42
0.0
  0
VERTEX
  8
LAYER1
 10
5.9942124237914
 20
3.0965023544652
 42
0.0
  0
VERTEX
  8
LAYER1
 10
6.007786742968
 20
3.0905517816642
 42
0.0
  0
VERTEX
  8
LAYER1
 10
6.0453341516918
 20
3.0677438272157
 42
0.0
  0
VERTEX
  8
LAYER1
 10
6.0754763778633
 20
3.041559970794
 42
0.0
  0
VERTEX
  8
LAYER1
 10
6.0987868230766
 20
3.0110517621138
 42
0.0
  0
VERTEX
  8
LAYER1
 10
6.1144932172245
 20
2.9784494025686
 42
0.0
  0
VERTEX
  8
LAYER1
 10
6.1239922939247
 20
2.9433423428157
 42
0.0
  0
VERTEX
  8
LAYER1
 10
6.1272869031853
 20
2.9045517325499
 42
0.0
  0
VERTEX
  8
LAYER1
 10
6.1231486915535
 20
2.860209692029
 42
0.0
  0
VERTEX
  8
LAYER1
 10
6.1107340566582
 20
2.8182634206631
 42
0.0
  0
VERTEX
  8
LAYER1
 10
6.0892867963738
 20
2.7775518179038
 42
0.0
  0
VERTEX
  8
LAYER1
 10
6.0608852829403
 20
2.7423209990242
 42
0.0
  0
VERTEX
  8
LAYER1
 10
6.0258408836312
 20
2.7131885795214
 42
0.0
  0
VERTEX
  8
LAYER1
 10
5.9827866476006
 20
2.689551758776
 42
0.0
  0
VERTEX
  8
LAYER1
 10
5.9337106645054
 20
2.6730187416949
 42
0.0
  0
VERTEX
  8
LAYER1
 10
5.8769027706093
 20
2.6630197313645
 42
0.0
  0
VERTEX
  8
LAYER1
 10
5.8102865140862
 20
2.6595517277816
 42
0.0
  0
VERTEX
  8
LAYER1
 10
5.7023092606491
 20
2.6672291795471
 42
0.0
  0
VERTEX
  8
LAYER1
 10
5.6186164529747
 20
2.6902615348437
 42
0.0
  0
VERTEX
  8
LAYER1
 10
5.5577869337029
 20
2.730051743994
 42
0.0
  0
VERTEX
  8
LAYER1
 10
5.5179540967888
 20
2.7806655072906
 42
0.0
  0
VERTEX
  8
LAYER1
 10
5.4915160795159
 20
2.83944677578
 42
0.0
  0
VERTEX
  8
LAYER1
 10
5.4782867353386
 20
2.9085518002608
 42
0.0
  0
VERTEX
  8
LAYER1
 10
5.4782867353386
 20
2.9075517535308
 42
0.0
  0
VERTEX
  8
LAYER1
 10
5.6882867734856
 20
2.9215518117049
 42
0.0
  0
VERTEX
  8
LAYER1
 10
5.6944313466973
 20
2.890505404649
 42
0.0
  0
VERTEX
  8
LAYER1
 10
5.7036251066155
 20
2.8646861822226
 42
0.0
  0
VERTEX
  8
LAYER1
 10
5.7162866514153
 20
2.8435517430403
 42
0.0
  0
VERTEX
  8
LAYER1
 10
5.7418849401421
 20
2.8198544525006
 42
0.0
  0
VERTEX
  8
LAYER1
 10
5.7737992826409
 20
2.8055225582221
 42
0.0
  0
VERTEX
  8
LAYER1
 10
5.8132867734856
 20
2.8005517602065
 42
0.0
  0
VERTEX
  8
LAYER1
 10
5.8425166889614
 20
2.8029475618162
 42
0.0
  0
VERTEX
  8
LAYER1
 10
5.8668459922737
 20
2.8101349666455
 42
0.0
  0
VERTEX
  8
LAYER1
 10
5.8867869298882
 20
2.8225517749884
 42
0.0
  0
VERTEX
  8
LAYER1
 10
5.900839881081
 20
2.8379429800191
 42
0.0
  0
VERTEX
  8
LAYER1
 10
5.9093389713234
 20
2.855076575599
 42
0.0
  0
VERTEX
  8
LAYER1
 10
5.9122867505974
 20
2.8745517611602
 42
0.0
  0
VERTEX
  8
LAYER1
 10
5.9096731323189
 20
2.8918272946456
 42
0.0
  0
VERTEX
  8
LAYER1
 10
5.9018322774834
 20
2.9080138032057
 42
0.0
  0
VERTEX
  8
LAYER1
 10
5.8882865827507
 20
2.9235517859557
 42
0.0
  0
VERTEX
  8
LAYER1
 10
5.8807853361125
 20
2.9285960406958
 42
0.0
  0
VERTEX
  8
LAYER1
 10
5.8616750018228
 20
2.9396993448326
 42
0.0
  0
VERTEX
  8
LAYER1
 10
5.8233118733474
 20
2.953146797406
 42
0.0
  0
VERTEX
  8
LAYER1
 10
5.7637461607807
 20
2.9684903825236
 42
0.0
  0
VERTEX
  8
LAYER1
 10
5.6932446482352
 20
2.987956856008
 42
0.0
  0
VERTEX
  8
LAYER1
 10
5.6227280458343
 20
3.0163185741578
 42
0.0
  0
VERTEX
  8
LAYER1
 10
5.605652699487
 20
3.0262230473162
 42
0.0
  0
VERTEX
  8
LAYER1
 10
5.591073651193
 20
3.0357584994681
 42
0.0
  0
VERTEX
  8
LAYER1
 10
5.5842262768079
 20
3.0404864339973
 42
0.0
  0
VERTEX
  8
LAYER1
 10
5.5672864835686
 20
3.0525517344573
 42
0.0
  0
VERTEX
  8
LAYER1
 10
5.5331186577744
 20
3.0914587445595
 42
0.0
  0
VERTEX
  8
LAYER1
 10
5.5124542840904
 20
3.1368997484305
 42
0.0
  0
VERTEX
  8
LAYER1
 10
5.5052871625847
 20
3.1905517459014
 42
0.0
  0
VERTEX
  8
LAYER1
 10
5.5087719696469
 20
3.2261983789005
 42
0.0
  0
VERTEX
  8
LAYER1
 10
5.5192263908333
 20
3.2605381897786
 42
0.0
  0
VERTEX
  8
LAYER1
 10
5.5372872274346
 20
3.2945517778495
 42
0.0
  0
VERTEX
  8
LAYER1
 10
5.56189202537
 20
3.3246048583546
 42
0.0
  0
VERTEX
  8
LAYER1
 10
5.5934663335747
 20
3.350084145818
 42
0.0
  0
VERTEX
  8
LAYER1
 10
5.633286945147
 20
3.3715517401793
 42
0.0
  0
VERTEX
  8
LAYER1
 10
5.6807540045208
 20
3.3869825386026
 42
0.0
  0
VERTEX
  8
LAYER1
 10
5.7386756408638
 20
3.396314937649
 42
0.0
  0
VERTEX
  8
LAYER1
 10
5.8092870634026
 20
3.3995517373183
 42
0.0
  0
VERTEX
  8
LAYER1
 10
5.8926286125607
 20
3.3939978374222
 42
0.0
  0
VERTEX
  8
LAYER1
 10
5.9618131492562
 20
3.3773361377337
 42
0.0
  0
VERTEX
  8
LAYER1
 10
6.0182871740288
 20
3.348551738272
 42
0.0
  0
VERTEX
  8
LAYER1
 10
6.059490982098
 20
3.3082488400438
 42
0.0
  0
VERTEX
  8
LAYER1
 10
6.0880623710579
 20
3.2546601441004
 42
0.0
  0
VERTEX
  8
LAYER1
 10
6.1042871396965
 20
3.1855517506697
 42
0.0
  0
VERTEX
  8
LAYER1
 10
5.8962869565911
 20
3.1735517859557
 42
0.0
  0
VERTEX
  8
LAYER1
 10
5.8889376559681
 20
3.2029515012303
 42
0.0
  0
VERTEX
  8
LAYER1
 10
5.8774502475685
 20
3.2264706143239
 42
0.0
  0
VERTEX
  8
LAYER1
 10
5.8612866323418
 20
3.2445518255332
 42
0.0
  0
VERTEX
  8
LAYER1
 10
5.8413976111836
 20
3.2566760336795
 42
0.0
  0
VERTEX
  8
LAYER1
 10
5.8173704822487
 20
3.2640086386063
 42
0.0
  0
VERTEX
  8
LAYER1
 10
5.7882871549553
 20
3.2665518403151
 42
0.0
  0
VERTEX
  8
LAYER1
 10
5.7646704473442
 20
3.2647549842396
 42
0.0
  0
VERTEX
  8
LAYER1
 10
5.7453009992546
 20
3.259364416013
 42
0.0
  0
VERTEX
  8
LAYER1
 10
5.7297868650383
 20
3.2500517845252
 42
0.0
  0
VERTEX
  8
LAYER1
 10
5.7190405369705
 20
3.2384539165535
 42
0.0
  0
VERTEX
  8
LAYER1
 10
5.712541260714
 20
3.2254403862813
 42
0.0
  0
SEQEND
  0
POLYLINE
  8
LAYER1
 66
     1
 10
0.0
 20
0.0
 30
0.0
 70
     1
  0
VERTEX
  8
LAYER1
 10
5.6035070341057
 20
4.5176160439947
 42
0.0
  0
VERTEX
  8
LAYER1
 10
5.5635070722527
 20
4.5176160439947
 42
0.0
  0
VERTEX
  8
LAYER1
 10
5.5635070722527
 20
3.9376160383322
 42
0.0
  0
VERTEX
  8
LAYER1
 10
5.1195077817864
 20
3.9376160383322
 42
0.0
  0
VERTEX
  8
LAYER1
 10
5.1195077817864
 20
4.8540361445019
 42
0.0
  0
VERTEX
  8
LAYER1
 10
5.5635070722527
 20
4.8540361445019
 42
0.0
  0
VERTEX
  8
LAYER1
 10
5.5635070722527
 20
4.7876160472729
 42
0.0
  0
VERTEX
  8
LAYER1
 10
5.749506942553
 20
4.7876160472729
 42
0.0
  0
VERTEX
  8
LAYER1
 10
5.769394971182
 20
4.7893107660978
 42
0.0
  0
VERTEX
  8
LAYER1
 10
5.8089118129829
 20
4.7950554904226
 42
0.0
  0
VERTEX
  8
LAYER1
 10
5.8480067111753
 20
4.8032938547192
 42
0.0
  0
VERTEX
  8
LAYER1
 10
5.8813406982434
 20
4.8114398362629
 42
0.0
  0
VERTEX
  8
LAYER1
 10
5.9077693261192
 20
4.8226224205489
 42
0.0
  0
VERTEX
  8
LAYER1
 10
5.9298037750635
 20
4.8410386318194
 42
0.0
  0
VERTEX
  8
LAYER1
 10
5.9395074766106
 20
4.8516160503128
 42
0.0
  0
VERTEX
  8
LAYER1
 10
5.9549382093376
 20
4.8766828511761
 42
0.0
  0
VERTEX
  8
LAYER1
 10
5.9642705686516
 20
4.9043632459768
 42
0.0
  0
VERTEX
  8
LAYER1
 10
5.9675073545403
 20
4.9356160342791
 42
0.0
  0
VERTEX
  8
LAYER1
 10
5.9627157383389
 20
4.9782223468133
 42
0.0
  0
VERTEX
  8
LAYER1
 10
5.9483408897347
 20
5.0136412545183
 42
0.0
  0
VERTEX
  8
LAYER1
 10
5.9235072057671
 20
5.0426160574057
 42
0.0
  0
VERTEX
  8
LAYER1
 10
5.9112528454369
 20
5.0500664824663
 42
0.0
  0
VERTEX
  8
LAYER1
 10
5.8820097471726
 20
5.0645455693621
 42
0.0
  0
VERTEX
  8
LAYER1
 10
5.8251605230067
 20
5.0760029944583
 42
0.0
  0
VERTEX
  8
LAYER1
 10
5.7821188938514
 20
5.078790536569
 42
0.0
  0
VERTEX
  8
LAYER1
 10
5.7575073163933
 20
5.0796160578826
 42
0.0
  0
VERTEX
  8
LAYER1
 10
5.6928405683464
 20
5.0796160578826
 42
0.0
  0
VERTEX
  8
LAYER1
 10
5.6281738202995
 20
5.0796160578826
 42
0.0
  0
VERTEX
  8
LAYER1
 10
5.6123393539519
 20
5.0796160578826
 42
0.0
  0
VERTEX
  8
LAYER1
 10
5.5940272483147
 20
5.0796160578826
 42
0.0
  0
VERTEX
  8
LAYER1
 10
5.5818191778899
 20
5.0796160578826
 42
0.0
  0
VERTEX
  8
LAYER1
 10
5.5635070722527
 20
5.0796160578826
 42
0.0
  0
VERTEX
  8
LAYER1
 10
5.5635070722527
 20
4.9962379003043
 42
0.0
  0
VERTEX
  8
LAYER1
 10
5.1195077817864
 20
4.9962379003043
 42
0.0
  0
VERTEX
  8
LAYER1
 10
5.1195077817864
 20
5.3696160197356
 42
0.0
  0
VERTEX
  8
LAYER1
 10
5.3655077477927
 20
5.3695938031492
 42
0.0
  0
VERTEX
  8
LAYER1
 10
5.6115075332187
 20
5.3694382860185
 42
0.0
  0
VERTEX
  8
LAYER1
 10
5.8989374435641
 20
5.3686741343254
 42
0.0
  0
VERTEX
  8
LAYER1
 10
5.9750263633024
 20
5.3661835763765
 42
0.0
  0
VERTEX
  8
LAYER1
 10
6.0799145582097
 20
5.3553395618866
 42
0.0
  0
VERTEX
  8
LAYER1
 10
6.1193161578417
 20
5.3473354398601
 42
0.0
  0
VERTEX
  8
LAYER1
 10
6.1422526697894
 20
5.3418208124535
 42
0.0
  0
VERTEX
  8
LAYER1
 10
6.1705074232048
 20
5.3346160233119
 42
0.0
  0
VERTEX
  8
LAYER1
 10
6.2377648350662
 20
5.3048731268146
 42
0.0
  0
VERTEX
  8
LAYER1
 10
6.2956567987389
 20
5.2618444326022
 42
0.0
  0
VERTEX
  8
LAYER1
 10
6.3455076139397
 20
5.2036160409548
 42
0.0
  0
VERTEX
  8
LAYER1
 10
6.3818802055306
 20
5.1359000479021
 42
0.0
  0
VERTEX
  8
LAYER1
 10
6.4038780004448
 20
5.0594720501759
 42
0.0
  0
VERTEX
  8
LAYER1
 10
6.4115075986809
 20
4.9716160476306
 42
0.0
  0
VERTEX
  8
LAYER1
 10
6.4059536858029
 20
4.8961186450903
 42
0.0
  0
VERTEX
  8
LAYER1
 10
6.3892919471688
 20
4.8280264437639
 42
0.0
  0
VERTEX
  8
LAYER1
 10
6.3605074804253
 20
4.7656160436669
 42
0.0
  0
VERTEX
  8
LAYER1
 10
6.3228180828518
 20
4.7123408439578
 42
0.0
  0
VERTEX
  8
LAYER1
 10
6.2770700462288
 20
4.6660352437684
 42
0.0
  0
VERTEX
  8
LAYER1
 10
6.2215070646233
 20
4.6256160430708
 42
0.0
  0
VERTEX
  8
LAYER1
 10
6.1788712217278
 20
4.6042650435696
 42
0.0
  0
VERTEX
  8
LAYER1
 10
6.1275231794304
 20
4.5850920438168
 42
0.0
  0
VERTEX
  8
LAYER1
 10
6.0655069272942
 20
4.5676160438084
 42
0.0
  0
VERTEX
  8
LAYER1
 10
6.112413192553
 20
4.5504560443733
 42
0.0
  0
VERTEX
  8
LAYER1
 10
6.1501718976921
 20
4.5332960455467
 42
0.0
  0
VERTEX
  8
LAYER1
 10
6.1795072477287
 20
4.5156160473921
 42
0.0
  0
VERTEX
  8
LAYER1
 10
6.1924133247273
 20
4.5042034001143
 42
0.0
  0
VERTEX
  8
LAYER1
 10
6.2167849455021
 20
4.4798378588883
 42
0.0
  0
VERTEX
  8
LAYER1
 10
6.2509866830684
 20
4.439724923577
 42
0.0
  0
VERTEX
  8
LAYER1
 10
6.2842281531841
 20
4.3976534073541
 42
0.0
  0
VERTEX
  8
LAYER1
 10
6.3043174969276
 20
4.3673188373287
 42
0.0
  0
VERTEX
  8
LAYER1
 10
6.3135070722527
 20
4.3516160428622
 42
0.0
  0
VERTEX
  8
LAYER1
 10
6.3848406395541
 20
4.2136160413522
 42
0.0
  0
VERTEX
  8
LAYER1
 10
6.4215482228754
 20
4.1426025375362
 42
0.0
  0
VERTEX
  8
LAYER1
 10
6.4561742068555
 20
4.0756160398422
 42
0.0
  0
VERTEX
  8
LAYER1
 10
6.4620621689537
 20
4.0642253466641
 42
0.0
  0
VERTEX
  8
LAYER1
 10
6.4721906554732
 20
4.0446310489461
 42
0.0
  0
VERTEX
  8
LAYER1
 10
6.4823191419928
 20
4.025036751228
 42
0.0
  0
VERTEX
  8
LAYER1
 10
6.4924476285123
 20
4.00544245351
 42
0.0
  0
VERTEX
  8
LAYER1
 10
6.4975118717721
 20
3.995645304651
 42
0.0
  0
VERTEX
  8
LAYER1
 10
6.5119254872038
 20
3.9677611117446
 42
0.0
  0
VERTEX
  8
LAYER1
 10
6.5150419445944
 20
3.9617320970621
 42
0.0
  0
VERTEX
  8
LAYER1
 10
6.527507774157
 20
3.9376160383322
 42
0.0
  0
VERTEX
  8
LAYER1
 10
6.027507774157
 20
3.9376160383322
 42
0.0
  0
VERTEX
  8
LAYER1
 10
5.9488214923299
 20
4.0829387565129
 42
0.0
  0
VERTEX
  8
LAYER1
 10
5.8608235203439
 20
4.245114175315
 42
0.0
  0
VERTEX
  8
LAYER1
 10
5.8284921709961
 20
4.3045343879132
 42
0.0
  0
VERTEX
  8
LAYER1
 10
5.7891289384899
 20
4.3767162671404
 42
0.0
  0
VERTEX
  8
LAYER1
 10
5.7646529273987
 20
4.4198795588124
 42
0.0
  0
VERTEX
  8
LAYER1
 10
5.7384352939801
 20
4.4573843151875
 42
0.0
  0
VERTEX
  8
LAYER1
 10
5.7344777582772
 20
4.4618073242688
 42
0.0
  0
VERTEX
  8
LAYER1
 10
5.7199493738688
 20
4.4760282497965
 42
0.0
  0
VERTEX
  8
LAYER1
 10
5.7115077894158
 20
4.4836160421469
 42
0.0
  0
VERTEX
  8
LAYER1
 10
5.6785207587189
 20
4.5023534431652
 42
0.0
  0
VERTEX
  8
LAYER1
 10
5.6429201097435
 20
4.5136856437811
 42
0.0
  0
SEQEND
  0
POLYLINE
  8
LAYER1
 66
     1
 10
0.0
 20
0.0
 30
0.0
 70
     1
  0
VERTEX
  8
LAYER1
 10
10.2394051473564
 20
1.5107488513091
 42
0.0
  0
VERTEX
  8
LAYER1
 10
10.2589162145085
 20
1.492838085542
 42
0.0
  0
VERTEX
  8
LAYER1
 10
10.2811498439736
 20
1.4820058260062
 42
0.0
  0
VERTEX
  8
LAYER1
 10
10.3069047849602
 20
1.4782488226989
 42
0.0
  0
VERTEX
  8
LAYER1
 10
10.3318895841069
 20
1.4816247246721
 42
0.0
  0
VERTEX
  8
LAYER1
 10
10.3540427730507
 20
1.4917524305918
 42
0.0
  0
VERTEX
  8
LAYER1
 10
10.3739056508965
 20
1.5092488408187
 42
0.0
  0
VERTEX
  8
LAYER1
 10
10.3774986725129
 20
1.5133646621931
 42
0.0
  0
VERTEX
  8
LAYER1
 10
10.3811754888699
 20
1.51812186769
 42
0.0
  0
VERTEX
  8
LAYER1
 10
10.3847148358042
 20
1.5233192042152
 42
0.0
  0
VERTEX
  8
LAYER1
 10
10.3878751252716
 20
1.52866402624
 42
0.0
  0
VERTEX
  8
LAYER1
 10
10.3904425919754
 20
1.5338199651141
 42
0.0
  0
VERTEX
  8
LAYER1
 10
10.3922767919382
 20
1.5384740135739
 42
0.0
  0
VERTEX
  8
LAYER1
 10
10.3933345408971
 20
1.5423967408213
 42
0.0
  0
VERTEX
  8
LAYER1
 10
10.3936644548217
 20
1.5454728820422
 42
0.0
  0
VERTEX
  8
LAYER1
 10
10.5526945139539
 20
1.5454728820422
 42
0.0
  0
VERTEX
  8
LAYER1
 10
10.553096465022
 20
1.5411565370507
 42
0.0
  0
VERTEX
  8
LAYER1
 10
10.5535077902017
 20
1.5355561564091
 42
0.0
  0
VERTEX
  8
LAYER1
 10
10.553903736687
 20
1.528824274179
 42
0.0
  0
VERTEX
  8
LAYER1
 10
10.554257278041
 20
1.5212856239856
 42
0.0
  0
VERTEX
  8
LAYER1
 10
10.5545445003553
 20
1.5133955357034
 42
0.0
  0
VERTEX
  8
LAYER1
 10
10.5547496921724
 20
1.5056528056627
 42
0.0
  0
VERTEX
  8
LAYER1
 10
10.5548680224718
 20
1.4984997855187
 42
0.0
  0
VERTEX
  8
LAYER1
 10
10.5549049299187
 20
1.4922490000823
 42
0.0
  0
VERTEX
  8
LAYER1
 10
10.547009706921
 20
1.3742079840162
 42
0.0
  0
VERTEX
  8
LAYER1
 10
10.523324037928
 20
1.2801249710658
 42
0.0
  0
VERTEX
  8
LAYER1
 10
10.482405177874
 20
1.2082489609816
 42
0.0
  0
VERTEX
  8
LAYER1
 10
10.4298181454129
 20
1.1603032541492
 42
0.0
  0
VERTEX
  8
LAYER1
 10
10.3677567207283
 20
1.131306150017
 42
0.0
  0
VERTEX
  8
LAYER1
 10
10.2939052503533
 20
1.1212489485839
 42
0.0
  0
VERTEX
  8
LAYER1
 10
10.2420046672768
 20
1.1261494439104
 42
0.0
  0
VERTEX
  8
LAYER1
 10
10.1971824346489
 20
1.1408509298899
 42
0.0
  0
VERTEX
  8
LAYER1
 10
10.1584052961296
 20
1.1662489056685
 42
0.0
  0
VERTEX
  8
LAYER1
 10
10.1283900360054
 20
1.2007404805639
 42
0.0
  0
VERTEX
  8
LAYER1
 10
10.1063246786064
 20
1.2448152618983
 42
0.0
  0
VERTEX
  8
LAYER1
 10
10.0919055860466
 20
1.3002488494017
 42
0.0
  0
VERTEX
  8
LAYER1
 10
10.2249050062126
 20
1.3152489543059
 42
0.0
  0
VERTEX
  8
LAYER1
 10
10.2298385672039
 20
1.2905302320101
 42
0.0
  0
VERTEX
  8
LAYER1
 10
10.2380390991158
 20
1.2704942338088
 42
0.0
  0
VERTEX
  8
LAYER1
 10
10.2499051015801
 20
1.2547488093474
 42
0.0
  0
VERTEX
  8
LAYER1
 10
10.2646297342724
 20
1.2440023498872
 42
0.0
  0
VERTEX
  8
LAYER1
 10
10.2824036575264
 20
1.2375029941657
 42
0.0
  0
VERTEX
  8
LAYER1
 10
10.3039054792351
 20
1.2352487921813
 42
0.0
  0
VERTEX
  8
LAYER1
 10
10.3302641291565
 20
1.2395503419736
 42
0.0
  0
VERTEX
  8
LAYER1
 10
10.35390032062
 20
1.2524549913504
 42
0.0
  0
VERTEX
  8
LAYER1
 10
10.375405303759
 20
1.2747487902739
 42
0.0
  0
VERTEX
  8
LAYER1
 10
10.3925339986748
 20
1.3099119550088
 42
0.0
  0
VERTEX
  8
LAYER1
 10
10.4049800733513
 20
1.363261451731
 42
0.0
  0
VERTEX
  8
LAYER1
 10
10.4129056852288
 20
1.4372489333251
 42
0.0
  0
VERTEX
  8
LAYER1
 10
10.3763050497955
 20
1.4041829648593
 42
0.0
  0
VERTEX
  8
LAYER1
 10
10.3338239290184
 20
1.3841849839308
 42
0.0
  0
VERTEX
  8
LAYER1
 10
10.2839050214714
 20
1.3772489905455
 42
0.0
  0
VERTEX
  8
LAYER1
 10
10.2304186145729
 20
1.3843274837949
 42
0.0
  0
VERTEX
  8
LAYER1
 10
10.1821594442314
 20
1.4055629635432
 42
0.0
  0
VERTEX
  8
LAYER1
 10
10.1379051130242
 20
1.4422489285567
 42
0.0
  0
VERTEX
  8
LAYER1
 10
10.1294301869797
 20
1.4525710600427
 42
0.0
  0
VERTEX
  8
LAYER1
 10
10.1204629339716
 20
1.4649984410698
 42
0.0
  0
VERTEX
  8
LAYER1
 10
10.1114970468975
 20
1.4790738917343
 42
0.0
  0
VERTEX
  8
LAYER1
 10
10.1031109576278
 20
1.4940489962058
 42
0.0
  0
VERTEX
  8
LAYER1
 10
10.0958583156672
 20
1.5089968384286
 42
0.0
  0
VERTEX
  8
LAYER1
 10
10.090152583845
 20
1.5229938741882
 42
0.0
  0
VERTEX
  8
LAYER1
 10
10.0861928559808
 20
1.535300811685
 42
0.0
  0
VERTEX
  8
LAYER1
 10
10.0839568277306
 20
1.5454728820422
 42
0.0
  0
VERTEX
  8
LAYER1
 10
10.2238843303627
 20
1.5454728820422
 42
0.0
  0
VERTEX
  8
LAYER1
 10
10.2241434823675
 20
1.5419436083765
 42
0.0
  0
VERTEX
  8
LAYER1
 10
10.2249743589771
 20
1.5377173811904
 42
0.0
  0
VERTEX
  8
LAYER1
 10
10.2264151487162
 20
1.5329527044644
 42
0.0
  0
VERTEX
  8
LAYER1
 10
10.2284319297419
 20
1.5279048048544
 42
0.0
  0
VERTEX
  8
LAYER1
 10
10.2309143813446
 20
1.5228867722311
 42
0.0
  0
VERTEX
  8
LAYER1
 10
10.2336945878921
 20
1.5182080024659
 42
0.0
  0
VERTEX
  8
LAYER1
 10
10.2365827785949
 20
1.5141137264395
 42
0.0
  0
SEQEND
  0
POLYLINE
  8
LAYER1
 66
     1
 10
0.0
 20
0.0
 30
0.0
 70
     1
  0
VERTEX
  8
LAYER1
 10
8.5252866666741
 20
3.3875517726042
 42
0.0
  0
VERTEX
  8
LAYER1
 10
8.7472867887444
 20
3.3875517726042
 42
0.0
  0
VERTEX
  8
LAYER1
 10
8.7472867887444
 20
2.6715518117049
 42
0.0
  0
VERTEX
  8
LAYER1
 10
8.5252866666741
 20
2.6715518117049
 42
0.0
  0
SEQEND
  0
POLYLINE
  8
LAYER1
 66
     1
 10
0.0
 20
0.0
 30
0.0
 70
     1
  0
VERTEX
  8
LAYER1
 10
10.2369055669731
 20
1.7102489352324
 42
0.0
  0
VERTEX
  8
LAYER1
 10
10.2554083229012
 20
1.7271809190848
 42
0.0
  0
VERTEX
  8
LAYER1
 10
10.2762409717983
 20
1.7369819097378
 42
0.0
  0
VERTEX
  8
LAYER1
 10
10.2999048154778
 20
1.7402489066222
 42
0.0
  0
VERTEX
  8
LAYER1
 10
10.3260066415734
 20
1.7360295092681
 42
0.0
  0
VERTEX
  8
LAYER1
 10
10.3492404164261
 20
1.7238640668967
 42
0.0
  0
VERTEX
  8
LAYER1
 10
10.3704051893181
 20
1.7037489295104
 42
0.0
  0
VERTEX
  8
LAYER1
 10
10.3753475146279
 20
1.6987026073484
 42
0.0
  0
VERTEX
  8
LAYER1
 10
10.3804051024969
 20
1.6921399876303
 42
0.0
  0
VERTEX
  8
LAYER1
 10
10.3852735964278
 20
1.6842379548387
 42
0.0
  0
VERTEX
  8
LAYER1
 10
10.3896206837233
 20
1.6753766018739
 42
0.0
  0
VERTEX
  8
LAYER1
 10
10.3931523228356
 20
1.6660907980811
 42
0.0
  0
VERTEX
  8
LAYER1
 10
10.3956753282241
 20
1.6569679096001
 42
0.0
  0
VERTEX
  8
LAYER1
 10
10.3971302984438
 20
1.6485300830008
 42
0.0
  0
VERTEX
  8
LAYER1
 10
10.39758410644
 20
1.6411474322655
 42
0.0
  0
VERTEX
  8
LAYER1
 10
10.5418417282537
 20
1.6411474322655
 42
0.0
  0
VERTEX
  8
LAYER1
 10
10.54089105624
 20
1.6529964504842
 42
0.0
  0
VERTEX
  8
LAYER1
 10
10.5378430723343
 20
1.6676677942705
 42
0.0
  0
VERTEX
  8
LAYER1
 10
10.5325576859298
 20
1.6846754862051
 42
0.0
  0
VERTEX
  8
LAYER1
 10
10.525159335758
 20
1.7031485718416
 42
0.0
  0
VERTEX
  8
LAYER1
 10
10.5160527217986
 20
1.721954966019
 42
0.0
  0
VERTEX
  8
LAYER1
 10
10.5058538249793
 20
1.7399213594131
 42
0.0
  0
VERTEX
  8
LAYER1
 10
10.4952587995845
 20
1.7560652470794
 42
0.0
  0
VERTEX
  8
LAYER1
 10
10.4849052350945
 20
1.7697489142516
 42
0.0
  0
VERTEX
  8
LAYER1
 10
10.4327969835228
 20
1.8174407562354
 42
0.0
  0
VERTEX
  8
LAYER1
 10
10.3735983145661
 20
1.8450469305375
 42
0.0
  0
VERTEX
  8
LAYER1
 10
10.3059053342766
 20
1.8542489886382
 42
0.0
  0
VERTEX
  8
LAYER1
 10
10.2420089357323
 20
1.8465615808108
 42
0.0
  0
VERTEX
  8
LAYER1
 10
10.1878410094208
 20
1.8243971082428
 42
0.0
  0
VERTEX
  8
LAYER1
 10
10.1414050977654
 20
1.7877489209273
 42
0.0
  0
VERTEX
  8
LAYER1
 10
10.1334692857728
 20
1.7784422530736
 42
0.0
  0
VERTEX
  8
LAYER1
 10
10.1245112915523
 20
1.7650891083262
 42
0.0
  0
VERTEX
  8
LAYER1
 10
10.1149396867022
 20
1.7478960495712
 42
0.0
  0
VERTEX
  8
LAYER1
 10
10.1053124729069
 20
1.7276005174181
 42
0.0
  0
VERTEX
  8
LAYER1
 10
10.0962422268682
 20
1.7053986603277
 42
0.0
  0
VERTEX
  8
LAYER1
 10
10.0882726385759
 20
1.6827224042458
 42
0.0
  0
VERTEX
  8
LAYER1
 10
10.0817753057577
 20
1.6609471917253
 42
0.0
  0
VERTEX
  8
LAYER1
 10
10.0769052427239
 20
1.6411474322655
 42
0.0
  0
VERTEX
  8
LAYER1
 10
10.2147954826302
 20
1.6411474322655
 42
0.0
  0
VERTEX
  8
LAYER1
 10
10.2151646560239
 20
1.6499189201127
 42
0.0
  0
VERTEX
  8
LAYER1
 10
10.2163482761854
 20
1.6597323236402
 42
0.0
  0
VERTEX
  8
LAYER1
 10
10.2184007443425
 20
1.6701276323368
 42
0.0
  0
VERTEX
  8
LAYER1
 10
10.2212737373427
 20
1.6804906481168
 42
0.0
  0
VERTEX
  8
LAYER1
 10
10.2248100984979
 20
1.6901590351261
 42
0.0
  0
VERTEX
  8
LAYER1
 10
10.2287706246274
 20
1.6985563703694
 42
0.0
  0
VERTEX
  8
LAYER1
 10
10.232884978921
 20
1.7053009316084
 42
0.0
  0
SEQEND
  0
POLYLINE
  8
LAYER1
 66
     1
 10
0.0
 20
0.0
 30
0.0
 70
     1
  0
VERTEX
  8
LAYER1
 10
9.8104052465386
 20
1.7187489152053
 42
0.0
  0
VERTEX
  8
LAYER1
 10
9.7946361081547
 20
1.7305975604751
 42
0.0
  0
VERTEX
  8
LAYER1
 10
9.7757088390297
 20
1.7377635076144
 42
0.0
  0
VERTEX
  8
LAYER1
 10
9.7529048841423
 20
1.7402489066222
 42
0.0
  0
VERTEX
  8
LAYER1
 10
9.730893957848
 20
1.7375808552721
 42
0.0
  0
VERTEX
  8
LAYER1
 10
9.711060977549
 20
1.7295767012217
 42
0.0
  0
VERTEX
  8
LAYER1
 10
9.6929049413628
 20
1.7157488942244
 42
0.0
  0
VERTEX
  8
LAYER1
 10
9.6785829801983
 20
1.6971286448696
 42
0.0
  0
VERTEX
  8
LAYER1
 10
9.6686172225899
 20
1.6736079131701
 42
0.0
  0
VERTEX
  8
LAYER1
 10
9.6629056852288
 20
1.6442489504912
 42
0.0
  0
VERTEX
  8
LAYER1
 10
9.5369052808708
 20
1.6662487864592
 42
0.0
  0
VERTEX
  8
LAYER1
 10
9.5469551989025
 20
1.7063174217322
 42
0.0
  0
VERTEX
  8
LAYER1
 10
9.5599455673165
 20
1.7407232520201
 42
0.0
  0
VERTEX
  8
LAYER1
 10
9.5764050405449
 20
1.770248878012
 42
0.0
  0
VERTEX
  8
LAYER1
 10
9.5962364992089
 20
1.7941920510867
 42
0.0
  0
VERTEX
  8
LAYER1
 10
9.6207505781121
 20
1.8145415249922
 42
0.0
  0
VERTEX
  8
LAYER1
 10
9.6509051244683
 20
1.8317489504912
 42
0.0
  0
VERTEX
  8
LAYER1
 10
9.6837829483456
 20
1.844148721514
 42
0.0
  0
VERTEX
  8
LAYER1
 10
9.7190566062874
 20
1.8516479842284
 42
0.0
  0
VERTEX
  8
LAYER1
 10
9.7579049985833
 20
1.8542489886382
 42
0.0
  0
VERTEX
  8
LAYER1
 10
9.8202089958138
 20
1.8471704824069
 42
0.0
  0
VERTEX
  8
LAYER1
 10
9.873801209063
 20
1.8259349637129
 42
0.0
  0
VERTEX
  8
LAYER1
 10
9.9199056547112
 20
1.7892489314177
 42
0.0
  0
VERTEX
  8
LAYER1
 10
9.9474602342552
 20
1.7528532477954
 42
0.0
  0
VERTEX
  8
LAYER1
 10
9.9641249799675
 20
1.7136261616805
 42
0.0
  0
VERTEX
  8
LAYER1
 10
9.9699048917717
 20
1.6702489733794
 42
0.0
  0
VERTEX
  8
LAYER1
 10
9.9586882258362
 20
1.6116871401646
 42
0.0
  0
VERTEX
  8
LAYER1
 10
9.9250382280297
 20
1.5614016782859
 42
0.0
  0
VERTEX
  8
LAYER1
 10
9.8669052045769
 20
1.5182487845519
 42
0.0
  0
VERTEX
  8
LAYER1
 10
9.9045515526242
 20
1.5060750778296
 42
0.0
  0
VERTEX
  8
LAYER1
 10
9.9369707679695
 20
1.486713972769
 42
0.0
  0
VERTEX
  8
LAYER1
 10
9.964905254168
 20
1.4592487692931
 42
0.0
  0
VERTEX
  8
LAYER1
 10
9.9852960529751
 20
1.4268196869233
 42
0.0
  0
VERTEX
  8
LAYER1
 10
9.9976282127327
 20
1.3902524448493
 42
0.0
  0
VERTEX
  8
LAYER1
 10
10.0019054334587
 20
1.3482489466765
 42
0.0
  0
VERTEX
  8
LAYER1
 10
9.9943913068718
 20
1.2892036465743
 42
0.0
  0
VERTEX
  8
LAYER1
 10
9.9718489271111
 20
1.2361478797057
 42
0.0
  0
VERTEX
  8
LAYER1
 10
9.9329051893181
 20
1.1877488970854
 42
0.0
  0
VERTEX
  8
LAYER1
 10
9.8837714328713
 20
1.1511007754662
 42
0.0
  0
VERTEX
  8
LAYER1
 10
9.8274504857964
 20
1.1289363426306
 42
0.0
  0
VERTEX
  8
LAYER1
 10
9.7619056623406
 20
1.1212489485839
 42
0.0
  0
VERTEX
  8
LAYER1
 10
9.7014792809433
 20
1.1273473479607
 42
0.0
  0
VERTEX
  8
LAYER1
 10
9.6482402978844
 20
1.1456425460913
 42
0.0
  0
VERTEX
  8
LAYER1
 10
9.6009054105706
 20
1.1772489428618
 42
0.0
  0
VERTEX
  8
LAYER1
 10
9.5645459141678
 20
1.2180204224684
 42
0.0
  0
VERTEX
  8
LAYER1
 10
9.5399475961632
 20
1.2664148688414
 42
0.0
  0
VERTEX
  8
LAYER1
 10
9.526905051989
 20
1.3242487788298
 42
0.0
  0
VERTEX
  8
LAYER1
 10
9.526905051989
 20
1.3232488513091
 42
0.0
  0
VERTEX
  8
LAYER1
 10
9.6599054258293
 20
1.3402488112548
 42
0.0
  0
VERTEX
  8
LAYER1
 10
9.6662610248036
 20
1.3092024698951
 42
0.0
  0
VERTEX
  8
LAYER1
 10
9.6774083957619
 20
1.2833832872012
 42
0.0
  0
VERTEX
  8
LAYER1
 10
9.6939053457207
 20
1.2622488617995
 42
0.0
  0
VERTEX
  8
LAYER1
 10
9.7135833930439
 20
1.2473691234329
 42
0.0
  0
VERTEX
  8
LAYER1
 10
9.7356570667214
 20
1.2383700002291
 42
0.0
  0
VERTEX
  8
LAYER1
 10
9.7609052579827
 20
1.2352487921813
 42
0.0
  0
VERTEX
  8
LAYER1
 10
9.7872094878144
 20
1.2387880452969
 42
0.0
  0
VERTEX
  8
LAYER1
 10
9.8106824190087
 20
1.2494058046439
 42
0.0
  0
VERTEX
  8
LAYER1
 10
9.8319053571648
 20
1.2677488207915
 42
0.0
  0
VERTEX
  8
LAYER1
 10
9.8478874127335
 20
1.2915402017214
 42
0.0
  0
VERTEX
  8
LAYER1
 10
9.8575532068199
 20
1.3200143067458
 42
0.0
  0
VERTEX
  8
LAYER1
 10
9.8609056394524
 20
1.3542489886382
 42
0.0
  0
VERTEX
  8
LAYER1
 10
9.8579108728356
 20
1.3862275383928
 42
0.0
  0
VERTEX
  8
LAYER1
 10
9.8489265729851
 20
1.4135234419444
 42
0.0
  0
VERTEX
  8
LAYER1
 10
9.8334054868645
 20
1.4367488503554
 42
0.0
  0
VERTEX
  8
LAYER1
 10
9.8138941569275
 20
1.4535574303129
 42
0.0
  0
VERTEX
  8
LAYER1
 10
9.7916603685326
 20
1.4637230984309
 42
0.0
  0
VERTEX
  8
LAYER1
 10
9.7659053724236
 20
1.4672489047148
 42
0.0
  0
VERTEX
  8
LAYER1
 10
9.7471051134056
 20
1.4661599057534
 42
0.0
  0
VERTEX
  8
LAYER1
 10
9.7263449003166
 20
1.462892908869
 42
0.0
  0
VERTEX
  8
LAYER1
 10
9.7029056470818
 20
1.4572489142516
 42
0.0
  0
VERTEX
  8
LAYER1
 10
9.7179050367302
 20
1.5682489752867
 42
0.0
  0
VERTEX
  8
LAYER1
 10
9.7519246329254
 20
1.5704747402766
 42
0.0
  0
VERTEX
  8
LAYER1
 10
9.7800637437767
 20
1.5784722542861
 42
0.0
  0
VERTEX
  8
LAYER1
 10
9.8029050748772
 20
1.5927488684752
 42
0.0
  0
VERTEX
  8
LAYER1
 10
9.8188871304459
 20
1.6114846491912
 42
0.0
  0
VERTEX
  8
LAYER1
 10
9.8285529245323
 20
1.6340319132903
 42
0.0
  0
VERTEX
  8
LAYER1
 10
9.8319053571648
 20
1.6612489104369
 42
0.0
  0
VERTEX
  8
LAYER1
 10
9.8295639951176
 20
1.6834298668602
 42
0.0
  0
VERTEX
  8
LAYER1
 10
9.822539908976
 20
1.7024527185061
 42
0.0
  0
SEQEND
  0
POLYLINE
  8
LAYER1
 66
     1
 10
0.0
 20
0.0
 30
0.0
 70
     1
  0
VERTEX
  8
LAYER1
 10
7.276287071032
 20
3.2015517830947
 42
0.0
  0
VERTEX
  8
LAYER1
 10
7.2923073692282
 20
3.148081210403
 42
0.0
  0
VERTEX
  8
LAYER1
 10
7.4899211059323
 20
3.148081210403
 42
0.0
  0
VERTEX
  8
LAYER1
 10
7.4002866666741
 20
3.3875517726042
 42
0.0
  0
VERTEX
  8
LAYER1
 10
7.1572866361565
 20
3.3875517726042
 42
0.0
  0
VERTEX
  8
LAYER1
 10
7.0673179245097
 20
3.148081210403
 42
0.0
  0
VERTEX
  8
LAYER1
 10
7.2598504911214
 20
3.148081210403
 42
0.0
  0
SEQEND
  0
POLYLINE
  8
LAYER1
 66
     1
 10
0.0
 20
0.0
 30
0.0
 70
     1
  0
VERTEX
  8
LAYER1
 10
5.7309055250115
 20
1.6832489848235
 42
0.0
  0
VERTEX
  8
LAYER1
 10
5.7723734463388
 20
1.5722489237883
 42
0.0
  0
VERTEX
  8
LAYER1
 10
5.919338010392
 20
1.5722489237883
 42
0.0
  0
VERTEX
  8
LAYER1
 10
5.8079051893181
 20
1.850248801718
 42
0.0
  0
VERTEX
  8
LAYER1
 10
5.6549053113884
 20
1.850248801718
 42
0.0
  0
VERTEX
  8
LAYER1
 10
5.5469668348288
 20
1.5722489237883
 42
0.0
  0
VERTEX
  8
LAYER1
 10
5.6902752789438
 20
1.5722489237883
 42
0.0
  0
SEQEND
  0
POLYLINE
  8
LAYER1
 66
     1
 10
0.0
 20
0.0
 30
0.0
 70
     1
  0
VERTEX
  8
LAYER1
 10
5.6609922191079
 20
1.492248880873
 42
0.0
  0
VERTEX
  8
LAYER1
 10
5.5159053724236
 20
1.492248880873
 42
0.0
  0
VERTEX
  8
LAYER1
 10
5.3769054334587
 20
1.134248960028
 42
0.0
  0
VERTEX
  8
LAYER1
 10
5.5299053113884
 20
1.134248960028
 42
0.0
  0
VERTEX
  8
LAYER1
 10
5.5899047773308
 20
1.2972488284209
 42
0.0
  0
VERTEX
  8
LAYER1
 10
5.8769054334587
 20
1.2972488284209
 42
0.0
  0
VERTEX
  8
LAYER1
 10
5.9389057081169
 20
1.134248960028
 42
0.0
  0
VERTEX
  8
LAYER1
 10
6.0949048917717
 20
1.134248960028
 42
0.0
  0
VERTEX
  8
LAYER1
 10
5.9514050405449
 20
1.492248880873
 42
0.0
  0
VERTEX
  8
LAYER1
 10
5.8022602360833
 20
1.492248880873
 42
0.0
  0
VERTEX
  8
LAYER1
 10
5.8299055021233
 20
1.4182488799193
 42
0.0
  0
VERTEX
  8
LAYER1
 10
5.6339054029411
 20
1.4182488799193
 42
0.0
  0
SEQEND
  0
POLYLINE
  8
LAYER1
 66
     1
 10
0.0
 20
0.0
 30
0.0
 70
     1
  0
VERTEX
  8
LAYER1
 10
4.383507243914
 20
4.9456160545447
 42
0.0
  0
VERTEX
  8
LAYER1
 10
4.3790423559612
 20
4.9846979451352
 42
0.0
  0
VERTEX
  8
LAYER1
 10
4.3656476921028
 20
5.0174636423984
 42
0.0
  0
VERTEX
  8
LAYER1
 10
4.3425073545403
 20
5.0446160465577
 42
0.0
  0
VERTEX
  8
LAYER1
 10
4.331600808227
 20
5.0516399202275
 42
0.0
  0
VERTEX
  8
LAYER1
 10
4.3063220947827
 20
5.0650364204769
 42
0.0
  0
VERTEX
  8
LAYER1
 10
4.2579983700134
 20
5.0761487572586
 42
0.0
  0
VERTEX
  8
LAYER1
 10
4.2218947195709
 20
5.0788526038572
 42
0.0
  0
VERTEX
  8
LAYER1
 10
4.2015075605339
 20
5.0796160578826
 42
0.0
  0
VERTEX
  8
LAYER1
 10
4.1361741941399
 20
5.0796160578826
 42
0.0
  0
VERTEX
  8
LAYER1
 10
4.1222906856762
 20
5.0796160578826
 42
0.0
  0
VERTEX
  8
LAYER1
 10
4.0708408277458
 20
5.0796160578826
 42
0.0
  0
VERTEX
  8
LAYER1
 10
4.0513048042241
 20
5.0796160578826
 42
0.0
  0
VERTEX
  8
LAYER1
 10
4.034130800647
 20
5.0796160578826
 42
0.0
  0
VERTEX
  8
LAYER1
 10
4.0226814649289
 20
5.0796160578826
 42
0.0
  0
VERTEX
  8
LAYER1
 10
4.0055074613518
 20
5.0796160578826
 42
0.0
  0
VERTEX
  8
LAYER1
 10
4.0055074613518
 20
5.0097809246664
 42
0.0
  0
VERTEX
  8
LAYER1
 10
3.5595073621697
 20
5.0097809246664
 42
0.0
  0
VERTEX
  8
LAYER1
 10
3.5595073621697
 20
5.3696160197356
 42
0.0
  0
VERTEX
  8
LAYER1
 10
4.3875074308342
 20
5.3696160197356
 42
0.0
  0
VERTEX
  8
LAYER1
 10
4.5142242383904
 20
5.3583993213453
 42
0.0
  0
VERTEX
  8
LAYER1
 10
4.6198144193596
 20
5.3247492261746
 42
0.0
  0
VERTEX
  8
LAYER1
 10
4.7065076749748
 20
5.2666160345175
 42
0.0
  0
VERTEX
  8
LAYER1
 10
4.7676798086113
 20
5.1935177420148
 42
0.0
  0
VERTEX
  8
LAYER1
 10
4.8046761289543
 20
5.1101828449943
 42
0.0
  0
VERTEX
  8
LAYER1
 10
4.81750773601
 20
5.013616043339
 42
0.0
  0
VERTEX
  8
LAYER1
 10
4.8087957443184
 20
4.9332742478111
 42
0.0
  0
VERTEX
  8
LAYER1
 10
4.7826597692436
 20
4.8612088495829
 42
0.0
  0
VERTEX
  8
LAYER1
 10
4.7375078123039
 20
4.7956160485842
 42
0.0
  0
VERTEX
  8
LAYER1
 10
4.6977427613205
 20
4.7577452448354
 42
0.0
  0
VERTEX
  8
LAYER1
 10
4.647087668795
 20
4.7259728420862
 42
0.0
  0
VERTEX
  8
LAYER1
 10
4.5835075300163
 20
4.6996160402992
 42
0.0
  0
VERTEX
  8
LAYER1
 10
4.6763267806
 20
4.6688732430418
 42
0.0
  0
VERTEX
  8
LAYER1
 10
4.7515041597313
 20
4.6268048447394
 42
0.0
  0
VERTEX
  8
LAYER1
 10
4.8105077665276
 20
4.5716160453954
 42
0.0
  0
VERTEX
  8
LAYER1
 10
4.8507380413002
 20
4.507206645484
 42
0.0
  0
VERTEX
  8
LAYER1
 10
4.875068926043
 20
4.4327784455531
 42
0.0
  0
VERTEX
  8
LAYER1
 10
4.8835077207512
 20
4.345616045604
 42
0.0
  0
VERTEX
  8
LAYER1
 10
4.8778449157662
 20
4.2742007451528
 42
0.0
  0
VERTEX
  8
LAYER1
 10
4.860856500811
 20
4.2077948483625
 42
0.0
  0
VERTEX
  8
LAYER1
 10
4.8315076749748
 20
4.1446160554984
 42
0.0
  0
VERTEX
  8
LAYER1
 10
4.7930494331307
 20
4.0899053578713
 42
0.0
  0
VERTEX
  8
LAYER1
 10
4.7463147680229
 20
4.0432532473662
 42
0.0
  0
VERTEX
  8
LAYER1
 10
4.6895074766106
 20
4.0036160230735
 42
0.0
  0
VERTEX
  8
LAYER1
 10
4.6753035163217
 20
3.9968320528263
 42
0.0
  0
VERTEX
  8
LAYER1
 10
4.6433006869724
 20
3.9833016625471
 42
0.0
  0
VERTEX
  8
LAYER1
 10
4.5867681862903
 20
3.9683251498689
 42
0.0
  0
VERTEX
  8
LAYER1
 10
4.5447772044839
 20
3.9611702950003
 42
0.0
  0
VERTEX
  8
LAYER1
 10
4.4556913074155
 20
3.9491444315574
 42
0.0
  0
VERTEX
  8
LAYER1
 10
4.3897456571493
 20
3.9418805305257
 42
0.0
  0
VERTEX
  8
LAYER1
 10
4.3235073011345
 20
3.9376160383322
 42
0.0
  0
VERTEX
  8
LAYER1
 10
4.2427059382232
 20
3.9376160383322
 42
0.0
  0
VERTEX
  8
LAYER1
 10
4.0688406548129
 20
3.9376160383322
 42
0.0
  0
VERTEX
  8
LAYER1
 10
3.9466532219333
 20
3.9376160383322
 42
0.0
  0
VERTEX
  8
LAYER1
 10
3.8141740084913
 20
3.9376160383322
 42
0.0
  0
VERTEX
  8
LAYER1
 10
3.7986268637884
 20
3.9376160383322
 42
0.0
  0
VERTEX
  8
LAYER1
 10
3.7616202742522
 20
3.9376160383322
 42
0.0
  0
VERTEX
  8
LAYER1
 10
3.7246136847159
 20
3.9376160383322
 42
0.0
  0
VERTEX
  8
LAYER1
 10
3.6876070951797
 20
3.9376160383322
 42
0.0
  0
VERTEX
  8
LAYER1
 10
3.6691038004116
 20
3.9376160383322
 42
0.0
  0
VERTEX
  8
LAYER1
 10
3.6164405768408
 20
3.9376160383322
 42
0.0
  0
VERTEX
  8
LAYER1
 10
3.6050539339066
 20
3.9376160383322
 42
0.0
  0
VERTEX
  8
LAYER1
 10
3.5595073621697
 20
3.9376160383322
 42
0.0
  0
VERTEX
  8
LAYER1
 10
3.5595073621697
 20
4.3100579992896
 42
0.0
  0
VERTEX
  8
LAYER1
 10
4.0055074613518
 20
4.3100579992896
 42
0.0
  0
VERTEX
  8
LAYER1
 10
4.0055074613518
 20
4.2456160366633
 42
0.0
  0
VERTEX
  8
LAYER1
 10
4.2315072935051
 20
4.2456160366633
 42
0.0
  0
VERTEX
  8
LAYER1
 10
4.2994509257979
 20
4.250080937598
 42
0.0
  0
VERTEX
  8
LAYER1
 10
4.3528020291275
 20
4.2634756404021
 42
0.0
  0
VERTEX
  8
LAYER1
 10
4.3925073068566
 20
4.2866160452464
 42
0.0
  0
VERTEX
  8
LAYER1
 10
4.418409100408
 20
4.3166163487562
 42
0.0
  0
VERTEX
  8
LAYER1
 10
4.434074256987
 20
4.3524972479561
 42
0.0
  0
VERTEX
  8
LAYER1
 10
4.4395074766106
 20
4.3956160426238
 42
0.0
  0
VERTEX
  8
LAYER1
 10
4.4344980761952
 20
4.434031342153
 42
0.0
  0
VERTEX
  8
LAYER1
 10
4.4194698749489
 20
4.4674372420781
 42
0.0
  0
VERTEX
  8
LAYER1
 10
4.3935074727959
 20
4.4966160424152
 42
0.0
  0
VERTEX
  8
LAYER1
 10
4.3810529583275
 20
4.5044538319865
 42
0.0
  0
VERTEX
  8
LAYER1
 10
4.3518544187618
 20
4.5195122121029
 42
0.0
  0
VERTEX
  8
LAYER1
 10
4.2956641316246
 20
4.5317762898879
 42
0.0
  0
VERTEX
  8
LAYER1
 10
4.2534607096372
 20
4.5347591691672
 42
0.0
  0
VERTEX
  8
LAYER1
 10
4.2295074384636
 20
4.5356160432198
 42
0.0
  0
VERTEX
  8
LAYER1
 10
4.1548407794263
 20
4.5356160432198
 42
0.0
  0
VERTEX
  8
LAYER1
 10
4.1397942299876
 20
4.5356160432198
 42
0.0
  0
VERTEX
  8
LAYER1
 10
4.0801741203891
 20
4.5356160432198
 42
0.0
  0
VERTEX
  8
LAYER1
 10
4.0581689392482
 20
4.5356160432198
 42
0.0
  0
VERTEX
  8
LAYER1
 10
4.038420885037
 20
4.5356160432198
 42
0.0
  0
VERTEX
  8
LAYER1
 10
4.0252555155629
 20
4.5356160432198
 42
0.0
  0
VERTEX
  8
LAYER1
 10
4.0055074613518
 20
4.5356160432198
 42
0.0
  0
VERTEX
  8
LAYER1
 10
4.0055074613518
 20
4.4770886330892
 42
0.0
  0
VERTEX
  8
LAYER1
 10
3.5595073621697
 20
4.4770886330892
 42
0.0
  0
VERTEX
  8
LAYER1
 10
3.5595073621697
 20
4.8811221932262
 42
0.0
  0
VERTEX
  8
LAYER1
 10
4.0055074613518
 20
4.8811221932262
 42
0.0
  0
VERTEX
  8
LAYER1
 10
4.0055074613518
 20
4.8076160431006
 42
0.0
  0
VERTEX
  8
LAYER1
 10
4.1975073736138
 20
4.8076160431006
 42
0.0
  0
VERTEX
  8
LAYER1
 10
4.2592867120213
 20
4.8115364429318
 42
0.0
  0
VERTEX
  8
LAYER1
 10
4.3073446063942
 20
4.8232976424256
 42
0.0
  0
VERTEX
  8
LAYER1
 10
4.3425073545403
 20
4.8436160415509
 42
0.0
  0
VERTEX
  8
LAYER1
 10
4.3651023935742
 20
4.8706430422806
 42
0.0
  0
VERTEX
  8
LAYER1
 10
4.3787676567024
 20
4.9042040465155
 42
0.0
  0
SEQEND
  0
POLYLINE
  8
LAYER1
 66
     1
 10
0.0
 20
0.0
 30
0.0
 70
     1
  0
VERTEX
  8
LAYER1
 10
5.1654047887749
 20
1.5722489237883
 42
0.0
  0
VERTEX
  8
LAYER1
 10
5.1744979366726
 20
1.5888511998513
 42
0.0
  0
VERTEX
  8
LAYER1
 10
5.1799973854012
 20
1.6069781211951
 42
0.0
  0
VERTEX
  8
LAYER1
 10
5.1819047849602
 20
1.6272489905455
 42
0.0
  0
VERTEX
  8
LAYER1
 10
5.1794001107163
 20
1.6520699129799
 42
0.0
  0
VERTEX
  8
LAYER1
 10
5.1718860879845
 20
1.6737327306369
 42
0.0
  0
VERTEX
  8
LAYER1
 10
5.1589050214714
 20
1.6927488923171
 42
0.0
  0
VERTEX
  8
LAYER1
 10
5.1424183684296
 20
1.7074553137758
 42
0.0
  0
VERTEX
  8
LAYER1
 10
5.1233180971092
 20
1.7179146574595
 42
0.0
  0
VERTEX
  8
LAYER1
 10
5.1009054105705
 20
1.7242488741973
 42
0.0
  0
VERTEX
  8
LAYER1
 10
5.043574888509
 20
1.7289186979467
 42
0.0
  0
VERTEX
  8
LAYER1
 10
4.9851758727105
 20
1.7295555280898
 42
0.0
  0
VERTEX
  8
LAYER1
 10
4.9623976912781
 20
1.7293727296847
 42
0.0
  0
VERTEX
  8
LAYER1
 10
4.9365051744456
 20
1.7292329351484
 42
0.0
  0
VERTEX
  8
LAYER1
 10
4.9279050748772
 20
1.7292489886382
 42
0.0
  0
VERTEX
  8
LAYER1
 10
4.9279050748772
 20
1.6722433890283
 42
0.0
  0
VERTEX
  8
LAYER1
 10
4.7829055707878
 20
1.6722433890283
 42
0.0
  0
VERTEX
  8
LAYER1
 10
4.7829055707878
 20
1.850248801718
 42
0.0
  0
VERTEX
  8
LAYER1
 10
4.8602386970971
 20
1.8502362449469
 42
0.0
  0
VERTEX
  8
LAYER1
 10
4.9632612879026
 20
1.850089516391
 42
0.0
  0
VERTEX
  8
LAYER1
 10
5.0853220372222
 20
1.8491695928135
 42
0.0
  0
VERTEX
  8
LAYER1
 10
5.1428550503038
 20
1.8461754696234
 42
0.0
  0
VERTEX
  8
LAYER1
 10
5.1603092150801
 20
1.8438779544539
 42
0.0
  0
VERTEX
  8
LAYER1
 10
5.1743180728676
 20
1.8415353235272
 42
0.0
  0
VERTEX
  8
LAYER1
 10
5.1869048994011
 20
1.839248883734
 42
0.0
  0
VERTEX
  8
LAYER1
 10
5.225041761536
 20
1.8245506636837
 42
0.0
  0
VERTEX
  8
LAYER1
 10
5.2589312602944
 20
1.8015760463336
 42
0.0
  0
VERTEX
  8
LAYER1
 10
5.2894053380913
 20
1.7692488312819
 42
0.0
  0
VERTEX
  8
LAYER1
 10
5.312275775761
 20
1.7302329160907
 42
0.0
  0
VERTEX
  8
LAYER1
 10
5.3261075973457
 20
1.6844651969531
 42
0.0
  0
VERTEX
  8
LAYER1
 10
5.3309049528069
 20
1.6302487731078
 42
0.0
  0
VERTEX
  8
LAYER1
 10
5.3282913864559
 20
1.5889756861904
 42
0.0
  0
VERTEX
  8
LAYER1
 10
5.3204506874031
 20
1.5522764052966
 42
0.0
  0
VERTEX
  8
LAYER1
 10
5.3069052617974
 20
1.5192488312819
 42
0.0
  0
VERTEX
  8
LAYER1
 10
5.2897041845745
 20
1.4916724114754
 42
0.0
  0
VERTEX
  8
LAYER1
 10
5.2697805450386
 20
1.4683430954077
 42
0.0
  0
VERTEX
  8
LAYER1
 10
5.246405593676
 20
1.4487489342787
 42
0.0
  0
VERTEX
  8
LAYER1
 10
5.2221522446579
 20
1.4337158105352
 42
0.0
  0
VERTEX
  8
LAYER1
 10
5.1975721673912
 20
1.4222763599971
 42
0.0
  0
VERTEX
  8
LAYER1
 10
5.1719055097527
 20
1.4142489314177
 42
0.0
  0
VERTEX
  8
LAYER1
 10
5.1470752949552
 20
1.4107314957893
 42
0.0
  0
VERTEX
  8
LAYER1
 10
5.0971472338006
 20
1.4059962539115
 42
0.0
  0
VERTEX
  8
LAYER1
 10
5.0156077685638
 20
1.404439293096
 42
0.0
  0
VERTEX
  8
LAYER1
 10
4.9592382800103
 20
1.4042868085983
 42
0.0
  0
VERTEX
  8
LAYER1
 10
4.9401292522326
 20
1.4042554034602
 42
0.0
  0
VERTEX
  8
LAYER1
 10
4.9279050748772
 20
1.4042489409545
 42
0.0
  0
VERTEX
  8
LAYER1
 10
4.9279050748772
 20
1.134248960028
 42
0.0
  0
VERTEX
  8
LAYER1
 10
4.7829055707878
 20
1.134248960028
 42
0.0
  0
VERTEX
  8
LAYER1
 10
4.7829055707878
 20
1.5611599414648
 42
0.0
  0
VERTEX
  8
LAYER1
 10
4.9279050748772
 20
1.5611599414648
 42
0.0
  0
VERTEX
  8
LAYER1
 10
4.9279050748772
 20
1.5252489924529
 42
0.0
  0
VERTEX
  8
LAYER1
 10
4.9542385593783
 20
1.5252565496849
 42
0.0
  0
VERTEX
  8
LAYER1
 10
4.9972085511946
 20
1.525386751394
 42
0.0
  0
VERTEX
  8
LAYER1
 10
5.0527561313778
 20
1.5263481725311
 42
0.0
  0
VERTEX
  8
LAYER1
 10
5.0908754204655
 20
1.5296131924522
 42
0.0
  0
VERTEX
  8
LAYER1
 10
5.1118079880211
 20
1.5343616811134
 42
0.0
  0
VERTEX
  8
LAYER1
 10
5.1204051893181
 20
1.5367489934066
 42
0.0
  0
VERTEX
  8
LAYER1
 10
5.1379081702656
 20
1.5457002362468
 42
0.0
  0
VERTEX
  8
LAYER1
 10
5.1527976367897
 20
1.5573739635089
 42
0.0
  0
SEQEND
  0
POLYLINE
  8
LAYER1
 66
     1
 10
0.0
 20
0.0
 30
0.0
 70
     1
  0
VERTEX
  8
LAYER1
 10
2.7722868841118
 20
2.8165517926314
 42
0.0
  0
VERTEX
  8
LAYER1
 10
2.7855544646925
 20
2.8331343082884
 42
0.0
  0
VERTEX
  8
LAYER1
 10
2.7963174229569
 20
2.8551618187525
 42
0.0
  0
VERTEX
  8
LAYER1
 10
2.804786912722
 20
2.8835518241027
 42
0.0
  0
VERTEX
  8
LAYER1
 10
2.8065661598032
 20
2.8935699255614
 42
0.0
  0
VERTEX
  8
LAYER1
 10
2.8083869016382
 20
2.9053924581836
 42
0.0
  0
VERTEX
  8
LAYER1
 10
2.810139569274
 20
2.9185528488017
 42
0.0
  0
VERTEX
  8
LAYER1
 10
2.8117045294693
 20
2.9323316899821
 42
0.0
  0
VERTEX
  8
LAYER1
 10
2.8129759266738
 20
2.9458694316623
 42
0.0
  0
VERTEX
  8
LAYER1
 10
2.813884213703
 20
2.9583363433731
 42
0.0
  0
VERTEX
  8
LAYER1
 10
2.8144080059171
 20
2.9690937079905
 42
0.0
  0
VERTEX
  8
LAYER1
 10
2.8145713777112
 20
2.977784711906
 42
0.0
  0
VERTEX
  8
LAYER1
 10
3.0110578562837
 20
2.977784711906
 42
0.0
  0
VERTEX
  8
LAYER1
 10
3.0099930717521
 20
2.9516943775315
 42
0.0
  0
VERTEX
  8
LAYER1
 10
3.0065792275778
 20
2.9216142368443
 42
0.0
  0
VERTEX
  8
LAYER1
 10
3.0006594175841
 20
2.8888273101823
 42
0.0
  0
VERTEX
  8
LAYER1
 10
2.9923730173227
 20
2.8551864727719
 42
0.0
  0
VERTEX
  8
LAYER1
 10
2.9821733043405
 20
2.8228112352651
 42
0.0
  0
VERTEX
  8
LAYER1
 10
2.9707501979305
 20
2.7936645767819
 42
0.0
  0
VERTEX
  8
LAYER1
 10
2.9588834142338
 20
2.7691758061454
 42
0.0
  0
VERTEX
  8
LAYER1
 10
2.9472870748467
 20
2.7500517845252
 42
0.0
  0
VERTEX
  8
LAYER1
 10
2.893381555838
 20
2.7001772032538
 42
0.0
  0
VERTEX
  8
LAYER1
 10
2.8187849786705
 20
2.6700135343411
 42
0.0
  0
VERTEX
  8
LAYER1
 10
2.7202868383354
 20
2.6595517277816
 42
0.0
  0
VERTEX
  8
LAYER1
 10
2.6645896176523
 20
2.6627098325589
 42
0.0
  0
VERTEX
  8
LAYER1
 10
2.616297527594
 20
2.6721841468909
 42
0.0
  0
VERTEX
  8
LAYER1
 10
2.5742871683068
 20
2.6885517716506
 42
0.0
  0
VERTEX
  8
LAYER1
 10
2.5396140361494
 20
2.7105231901148
 42
0.0
  0
VERTEX
  8
LAYER1
 10
2.5095146321243
 20
2.7381573876002
 42
0.0
  0
VERTEX
  8
LAYER1
 10
2.4832868497795
 20
2.7725517630675
 42
0.0
  0
VERTEX
  8
LAYER1
 10
2.4706132320174
 20
2.7961482147893
 42
0.0
  0
VERTEX
  8
LAYER1
 10
2.4583010519757
 20
2.8233238647879
 42
0.0
  0
VERTEX
  8
LAYER1
 10
2.447193661072
 20
2.8529155335405
 42
0.0
  0
VERTEX
  8
LAYER1
 10
2.4381240493684
 20
2.883248308227
 42
0.0
  0
VERTEX
  8
LAYER1
 10
2.4317360044823
 20
2.9124101796453
 42
0.0
  0
VERTEX
  8
LAYER1
 10
2.4283416533219
 20
2.9386339578855
 42
0.0
  0
VERTEX
  8
LAYER1
 10
2.4278765288544
 20
2.9606366038034
 42
0.0
  0
VERTEX
  8
LAYER1
 10
2.4299632101959
 20
2.977787986789
 42
0.0
  0
VERTEX
  8
LAYER1
 10
2.6266574198628
 20
2.977784711906
 42
0.0
  0
VERTEX
  8
LAYER1
 10
2.6229962923304
 20
2.9715378361192
 42
0.0
  0
VERTEX
  8
LAYER1
 10
2.620965920199
 20
2.9612172030459
 42
0.0
  0
VERTEX
  8
LAYER1
 10
2.6209560321957
 20
2.9468315066962
 42
0.0
  0
VERTEX
  8
LAYER1
 10
2.6231627479362
 20
2.9289153296126
 42
0.0
  0
VERTEX
  8
LAYER1
 10
2.6275159732383
 20
2.9084993276628
 42
0.0
  0
VERTEX
  8
LAYER1
 10
2.6336801299953
 20
2.8869233392722
 42
0.0
  0
VERTEX
  8
LAYER1
 10
2.6411329517571
 20
2.8655585793388
 42
0.0
  0
VERTEX
  8
LAYER1
 10
2.6492869775719
 20
2.8455517768958
 42
0.0
  0
VERTEX
  8
LAYER1
 10
2.6675227390951
 20
2.8179967703262
 42
0.0
  0
VERTEX
  8
LAYER1
 10
2.6905501168198
 20
2.8013317663529
 42
0.0
  0
VERTEX
  8
LAYER1
 10
2.7192869108147
 20
2.7955517649749
 42
0.0
  0
VERTEX
  8
LAYER1
 10
2.7387668686337
 20
2.7978386679867
 42
0.0
  0
VERTEX
  8
LAYER1
 10
2.7562865608162
 20
2.804699377022
 42
0.0
  0
SEQEND
  0
POLYLINE
  8
LAYER1
 66
     1
 10
0.0
 20
0.0
 30
0.0
 70
     1
  0
VERTEX
  8
LAYER1
 10
8.8155840591136
 20
1.6411474322655
 42
0.0
  0
VERTEX
  8
LAYER1
 10
8.7295839371151
 20
1.6411474322655
 42
0.0
  0
VERTEX
  8
LAYER1
 10
8.728972155975
 20
1.6479241213579
 42
0.0
  0
VERTEX
  8
LAYER1
 10
8.7273904088582
 20
1.655875585099
 42
0.0
  0
VERTEX
  8
LAYER1
 10
8.7247848898536
 20
1.6646818264578
 42
0.0
  0
VERTEX
  8
LAYER1
 10
8.721224605007
 20
1.6738575426011
 42
0.0
  0
VERTEX
  8
LAYER1
 10
8.7169062866202
 20
1.6828289832153
 42
0.0
  0
VERTEX
  8
LAYER1
 10
8.7121204218626
 20
1.6910476631292
 42
0.0
  0
VERTEX
  8
LAYER1
 10
8.7071897127066
 20
1.6980966457055
 42
0.0
  0
VERTEX
  8
LAYER1
 10
8.7024054449028
 20
1.7037489295104
 42
0.0
  0
VERTEX
  8
LAYER1
 10
8.6812409347958
 20
1.7238640668967
 42
0.0
  0
VERTEX
  8
LAYER1
 10
8.6580073188729
 20
1.7360295092681
 42
0.0
  0
VERTEX
  8
LAYER1
 10
8.6319055478997
 20
1.7402489066222
 42
0.0
  0
VERTEX
  8
LAYER1
 10
8.6082411786503
 20
1.7369819097378
 42
0.0
  0
VERTEX
  8
LAYER1
 10
8.5874082118935
 20
1.7271809190848
 42
0.0
  0
VERTEX
  8
LAYER1
 10
8.5689053457207
 20
1.7102489352324
 42
0.0
  0
VERTEX
  8
LAYER1
 10
8.5648847576686
 20
1.7053062805216
 42
0.0
  0
VERTEX
  8
LAYER1
 10
8.560770403375
 20
1.6985788278831
 42
0.0
  0
VERTEX
  8
LAYER1
 10
8.5568098772454
 20
1.690211145241
 42
0.0
  0
VERTEX
  8
LAYER1
 10
8.5532735160902
 20
1.680584255873
 42
0.0
  0
VERTEX
  8
LAYER1
 10
8.5504005230901
 20
1.6702723125837
 42
0.0
  0
VERTEX
  8
LAYER1
 10
8.548348054933
 20
1.6599341968028
 42
0.0
  0
VERTEX
  8
LAYER1
 10
8.5471644347714
 20
1.6501802031793
 42
0.0
  0
VERTEX
  8
LAYER1
 10
8.5467952613777
 20
1.641466767627
 42
0.0
  0
VERTEX
  8
LAYER1
 10
8.4089050214714
 20
1.641466767627
 42
0.0
  0
VERTEX
  8
LAYER1
 10
8.4099819873502
 20
1.6564100771302
 42
0.0
  0
VERTEX
  8
LAYER1
 10
8.4134348865818
 20
1.6742745429027
 42
0.0
  0
VERTEX
  8
LAYER1
 10
8.4194224203809
 20
1.6943861885965
 42
0.0
  0
VERTEX
  8
LAYER1
 10
8.4278036187119
 20
1.7156652277217
 42
0.0
  0
VERTEX
  8
LAYER1
 10
8.4381200184422
 20
1.736791007708
 42
0.0
  0
VERTEX
  8
LAYER1
 10
8.4496738074647
 20
1.7564618313341
 42
0.0
  0
VERTEX
  8
LAYER1
 10
8.4616763495306
 20
1.773649204325
 42
0.0
  0
VERTEX
  8
LAYER1
 10
8.4734053533501
 20
1.7877489209273
 42
0.0
  0
VERTEX
  8
LAYER1
 10
8.5198414239353
 20
1.8243971082428
 42
0.0
  0
VERTEX
  8
LAYER1
 10
8.5740091976113
 20
1.8465615808108
 42
0.0
  0
VERTEX
  8
LAYER1
 10
8.6379051130242
 20
1.8542489886382
 42
0.0
  0
VERTEX
  8
LAYER1
 10
8.7055981452412
 20
1.8450469305375
 42
0.0
  0
VERTEX
  8
LAYER1
 10
8.7647969699806
 20
1.8174407562354
 42
0.0
  0
VERTEX
  8
LAYER1
 10
8.8169054906792
 20
1.7697489142516
 42
0.0
  0
VERTEX
  8
LAYER1
 10
8.8272591252217
 20
1.7578130894438
 42
0.0
  0
VERTEX
  8
LAYER1
 10
8.8378542223028
 20
1.7430720721043
 42
0.0
  0
VERTEX
  8
LAYER1
 10
8.8480531881281
 20
1.7260190191193
 42
0.0
  0
VERTEX
  8
LAYER1
 10
8.8571598637032
 20
1.7075301629575
 42
0.0
  0
VERTEX
  8
LAYER1
 10
8.8645582639324
 20
1.6887395393054
 42
0.0
  0
VERTEX
  8
LAYER1
 10
8.8698436860979
 20
1.6708185069616
 42
0.0
  0
VERTEX
  8
LAYER1
 10
8.8728916906264
 20
1.6547442928486
 42
0.0
  0
VERTEX
  8
LAYER1
 10
8.8738423690723
 20
1.6411474322655
 42
0.0
  0
SEQEND
  0
POLYLINE
  8
LAYER1
 66
     1
 10
0.0
 20
0.0
 30
0.0
 70
     1
  0
VERTEX
  8
LAYER1
 10
1.9167869012779
 20
3.0880517840483
 42
0.0
  0
VERTEX
  8
LAYER1
 10
1.8841977545447
 20
3.0733651229956
 42
0.0
  0
VERTEX
  8
LAYER1
 10
1.8464903672165
 20
3.0590051901915
 42
0.0
  0
VERTEX
  8
LAYER1
 10
1.8022870939202
 20
3.0445518374541
 42
0.0
  0
VERTEX
  8
LAYER1
 10
1.8022870939202
 20
3.2065517783263
 42
0.0
  0
VERTEX
  8
LAYER1
 10
1.8645975608534
 20
3.2297474745372
 42
0.0
  0
VERTEX
  8
LAYER1
 10
1.9168892788834
 20
3.2557745732405
 42
0.0
  0
VERTEX
  8
LAYER1
 10
1.9602868478722
 20
3.2855517745116
 42
0.0
  0
VERTEX
  8
LAYER1
 10
1.9946332517809
 20
3.3183075721481
 42
0.0
  0
VERTEX
  8
LAYER1
 10
2.0237524710602
 20
3.3558549600222
 42
0.0
  0
VERTEX
  8
LAYER1
 10
2.048286907
 20
3.3995517373183
 42
0.0
  0
VERTEX
  8
LAYER1
 10
2.2122869413323
 20
3.3995517373183
 42
0.0
  0
VERTEX
  8
LAYER1
 10
2.2122869413323
 20
2.6715518117049
 42
0.0
  0
VERTEX
  8
LAYER1
 10
2.0112867277092
 20
2.6715518117049
 42
0.0
  0
VERTEX
  8
LAYER1
 10
2.0112867277092
 20
3.1475517630675
 42
0.0
  0
VERTEX
  8
LAYER1
 10
1.979327991075
 20
3.1247108414986
 42
0.0
  0
VERTEX
  8
LAYER1
 10
1.9481314991898
 20
3.1050279987433
 42
0.0
  0
SEQEND
  0
POLYLINE
  8
LAYER1
 66
     1
 10
0.0
 20
0.0
 30
0.0
 70
     1
  0
VERTEX
  8
LAYER1
 10
2.9197869222588
 20
3.3350518226721
 42
0.0
  0
VERTEX
  8
LAYER1
 10
2.9378956721014
 20
3.3159151133456
 42
0.0
  0
VERTEX
  8
LAYER1
 10
2.9532819115586
 20
3.2961250124314
 42
0.0
  0
VERTEX
  8
LAYER1
 10
2.9662868898338
 20
3.275051820288
 42
0.0
  0
VERTEX
  8
LAYER1
 10
2.9747019135673
 20
3.2584499456768
 42
0.0
  0
VERTEX
  8
LAYER1
 10
2.9833131884804
 20
3.2365286946129
 42
0.0
  0
VERTEX
  8
LAYER1
 10
2.9916025036117
 20
3.2098383230851
 42
0.0
  0
VERTEX
  8
LAYER1
 10
2.9990040485263
 20
3.179638947652
 42
0.0
  0
VERTEX
  8
LAYER1
 10
3.0050171749568
 20
3.1477457494558
 42
0.0
  0
VERTEX
  8
LAYER1
 10
3.0093129565764
 20
3.1161834044963
 42
0.0
  0
VERTEX
  8
LAYER1
 10
3.0117902538329
 20
3.0867789118154
 42
0.0
  0
VERTEX
  8
LAYER1
 10
3.0125629275884
 20
3.0608536332715
 42
0.0
  0
VERTEX
  8
LAYER1
 10
2.8143938732795
 20
3.0608536332716
 42
0.0
  0
VERTEX
  8
LAYER1
 10
2.8140080553983
 20
3.0829283414785
 42
0.0
  0
VERTEX
  8
LAYER1
 10
2.812771070744
 20
3.1069748219221
 42
0.0
  0
VERTEX
  8
LAYER1
 10
2.8106260653643
 20
3.1317731391927
 42
0.0
  0
VERTEX
  8
LAYER1
 10
2.8076235411012
 20
3.1557965420392
 42
0.0
  0
VERTEX
  8
LAYER1
 10
2.8039277401818
 20
3.17748727585
 42
0.0
  0
VERTEX
  8
LAYER1
 10
2.7997886504597
 20
3.195576094456
 42
0.0
  0
VERTEX
  8
LAYER1
 10
2.7954887971036
 20
3.2093169358521
 42
0.0
  0
VERTEX
  8
LAYER1
 10
2.7912869375176
 20
3.218551802645
 42
0.0
  0
VERTEX
  8
LAYER1
 10
2.7727243682808
 20
3.2455556834617
 42
0.0
  0
VERTEX
  8
LAYER1
 10
2.7487168821282
 20
3.2618873718598
 42
0.0
  0
VERTEX
  8
LAYER1
 10
2.7182869832939
 20
3.2675517678359
 42
0.0
  0
VERTEX
  8
LAYER1
 10
2.6888871560997
 20
3.2621067665377
 42
0.0
  0
VERTEX
  8
LAYER1
 10
2.6653680219597
 20
3.2457717626431
 42
0.0
  0
VERTEX
  8
LAYER1
 10
2.6472868841118
 20
3.2175517559149
 42
0.0
  0
VERTEX
  8
LAYER1
 10
2.6434114218359
 20
3.2071253603115
 42
0.0
  0
VERTEX
  8
LAYER1
 10
2.6394455778728
 20
3.1924682957764
 42
0.0
  0
VERTEX
  8
LAYER1
 10
2.6356280095448
 20
3.1738409484558
 42
0.0
  0
VERTEX
  8
LAYER1
 10
2.6322192956767
 20
3.1520606573926
 42
0.0
  0
VERTEX
  8
LAYER1
 10
2.6294500052529
 20
3.1284167090945
 42
0.0
  0
VERTEX
  8
LAYER1
 10
2.6274716222869
 20
3.1044288903412
 42
0.0
  0
VERTEX
  8
LAYER1
 10
2.6263307256754
 20
3.0815382622459
 42
0.0
  0
VERTEX
  8
LAYER1
 10
2.6259748778387
 20
3.0608536332717
 42
0.0
  0
VERTEX
  8
LAYER1
 10
2.4294554849813
 20
3.0637447146196
 42
0.0
  0
VERTEX
  8
LAYER1
 10
2.4299590756266
 20
3.0973394870566
 42
0.0
  0
VERTEX
  8
LAYER1
 10
2.4332660414303
 20
3.1345093714489
 42
0.0
  0
VERTEX
  8
LAYER1
 10
2.4396125881308
 20
3.1734527642935
 42
0.0
  0
VERTEX
  8
LAYER1
 10
2.4488834429176
 20
3.2118294036949
 42
0.0
  0
VERTEX
  8
LAYER1
 10
2.4605803013655
 20
3.2471722394031
 42
0.0
  0
VERTEX
  8
LAYER1
 10
2.4739048068223
 20
3.2773894471286
 42
0.0
  0
VERTEX
  8
LAYER1
 10
2.4879297603367
 20
3.3011561074359
 42
0.0
  0
VERTEX
  8
LAYER1
 10
2.5017869394249
 20
3.3180517435172
 42
0.0
  0
VERTEX
  8
LAYER1
 10
2.5586277546114
 20
3.362966390101
 42
0.0
  0
VERTEX
  8
LAYER1
 10
2.632130308432
 20
3.3901303380349
 42
0.0
  0
VERTEX
  8
LAYER1
 10
2.7252869527764
 20
3.3995517373183
 42
0.0
  0
VERTEX
  8
LAYER1
 10
2.7705266279644
 20
3.3975915430823
 42
0.0
  0
VERTEX
  8
LAYER1
 10
2.8098857139534
 20
3.3917109603741
 42
0.0
  0
VERTEX
  8
LAYER1
 10
2.8442869108147
 20
3.3815517902472
 42
0.0
  0
VERTEX
  8
LAYER1
 10
2.8728500637478
 20
3.3685283671835
 42
0.0
  0
VERTEX
  8
LAYER1
 10
2.8978195175118
 20
3.353218028126
 42
0.0
  0
SEQEND
  0
POLYLINE
  8
LAYER1
 66
     1
 10
0.0
 20
0.0
 30
0.0
 70
     1
  0
VERTEX
  8
LAYER1
 10
7.6609922191079
 20
1.492248880873
 42
0.0
  0
VERTEX
  8
LAYER1
 10
7.5159053724236
 20
1.492248880873
 42
0.0
  0
VERTEX
  8
LAYER1
 10
7.3769054334587
 20
1.134248960028
 42
0.0
  0
VERTEX
  8
LAYER1
 10
7.5299053113884
 20
1.134248960028
 42
0.0
  0
VERTEX
  8
LAYER1
 10
7.5899047773308
 20
1.2972488284209
 42
0.0
  0
VERTEX
  8
LAYER1
 10
7.8769054334587
 20
1.2972488284209
 42
0.0
  0
VERTEX
  8
LAYER1
 10
7.9389057081169
 20
1.134248960028
 42
0.0
  0
VERTEX
  8
LAYER1
 10
8.0949048917717
 20
1.134248960028
 42
0.0
  0
VERTEX
  8
LAYER1
 10
7.9514050405449
 20
1.492248880873
 42
0.0
  0
VERTEX
  8
LAYER1
 10
7.8022602360833
 20
1.492248880873
 42
0.0
  0
VERTEX
  8
LAYER1
 10
7.8299055021233
 20
1.4182488799193
 42
0.0
  0
VERTEX
  8
LAYER1
 10
7.6339054029412
 20
1.4182488799193
 42
0.0
  0
SEQEND
  0
POLYLINE
  8
LAYER1
 66
     1
 10
0.0
 20
0.0
 30
0.0
 70
     1
  0
VERTEX
  8
LAYER1
 10
4.4999055784172
 20
1.134248960028
 42
0.0
  0
VERTEX
  8
LAYER1
 10
4.4999055784172
 20
1.850248801718
 42
0.0
  0
VERTEX
  8
LAYER1
 10
4.6449050825066
 20
1.850248801718
 42
0.0
  0
VERTEX
  8
LAYER1
 10
4.6449050825066
 20
1.134248960028
 42
0.0
  0
SEQEND
  0
POLYLINE
  8
LAYER1
 66
     1
 10
0.0
 20
0.0
 30
0.0
 70
     1
  0
VERTEX
  8
LAYER1
 10
3.3575072210259
 20
4.2896160364249
 42
0.0
  0
VERTEX
  8
LAYER1
 10
3.3575072210259
 20
3.9376160383322
 42
0.0
  0
VERTEX
  8
LAYER1
 10
2.2235073965019
 20
3.9376160383322
 42
0.0
  0
VERTEX
  8
LAYER1
 10
2.2235073965019
 20
5.3696160197356
 42
0.0
  0
VERTEX
  8
LAYER1
 10
2.6655073087639
 20
5.3696160197356
 42
0.0
  0
VERTEX
  8
LAYER1
 10
2.6655073087639
 20
4.2896160364249
 42
0.0
  0
SEQEND
  0
POLYLINE
  8
LAYER1
 66
     1
 10
0.0
 20
0.0
 30
0.0
 70
     1
  0
VERTEX
  8
LAYER1
 10
6.1882867734856
 20
3.2105518460372
 42
0.0
  0
VERTEX
  8
LAYER1
 10
6.1882867734856
 20
3.3875517726042
 42
0.0
  0
VERTEX
  8
LAYER1
 10
6.8612871091789
 20
3.3875517726042
 42
0.0
  0
VERTEX
  8
LAYER1
 10
6.8612871091789
 20
3.2105518460372
 42
0.0
  0
VERTEX
  8
LAYER1
 10
6.6352872770256
 20
3.2105518460372
 42
0.0
  0
VERTEX
  8
LAYER1
 10
6.6352872770256
 20
2.6715518117049
 42
0.0
  0
VERTEX
  8
LAYER1
 10
6.4142866056389
 20
2.6715518117049
 42
0.0
  0
VERTEX
  8
LAYER1
 10
6.4142866056389
 20
3.2105518460372
 42
0.0
  0
SEQEND
  0
POLYLINE
  8
LAYER1
 66
     1
 10
0.0
 20
0.0
 30
0.0
 70
     1
  0
VERTEX
  8
LAYER1
 10
3.4609050672478
 20
1.7072489142516
 42
0.0
  0
VERTEX
  8
LAYER1
 10
3.4325448787159
 20
1.7248841499903
 42
0.0
  0
VERTEX
  8
LAYER1
 10
3.4002642627663
 20
1.7355497716048
 42
0.0
  0
VERTEX
  8
LAYER1
 10
3.3629050176567
 20
1.7392489791014
 42
0.0
  0
VERTEX
  8
LAYER1
 10
3.3134265109486
 20
1.7330416746357
 42
0.0
  0
VERTEX
  8
LAYER1
 10
3.2705908901161
 20
1.7144197612384
 42
0.0
  0
VERTEX
  8
LAYER1
 10
3.2334051053948
 20
1.6822489380934
 42
0.0
  0
VERTEX
  8
LAYER1
 10
3.2061256617016
 20
1.6368970132091
 42
0.0
  0
VERTEX
  8
LAYER1
 10
3.1896273155159
 20
1.5760812926867
 42
0.0
  0
VERTEX
  8
LAYER1
 10
3.1839051168389
 20
1.4972488761046
 42
0.0
  0
VERTEX
  8
LAYER1
 10
3.1892412195391
 20
1.4160375707843
 42
0.0
  0
VERTEX
  8
LAYER1
 10
3.2052495276398
 20
1.3519235465625
 42
0.0
  0
VERTEX
  8
LAYER1
 10
3.2329051416344
 20
1.3037489533522
 42
0.0
  0
VERTEX
  8
LAYER1
 10
3.2684032627768
 20
1.2720607007244
 42
0.0
  0
VERTEX
  8
LAYER1
 10
3.3102175934738
 20
1.2528959491351
 42
0.0
  0
VERTEX
  8
LAYER1
 10
3.3599052350945
 20
1.2462489485839
 42
0.0
  0
VERTEX
  8
LAYER1
 10
3.3963884174532
 20
1.2502237960913
 42
0.0
  0
VERTEX
  8
LAYER1
 10
3.4292778487152
 20
1.2621483386138
 42
0.0
  0
VERTEX
  8
LAYER1
 10
3.4594051759667
 20
1.2827489256957
 42
0.0
  0
VERTEX
  8
LAYER1
 10
3.4842359587378
 20
1.3114671626666
 42
0.0
  0
VERTEX
  8
LAYER1
 10
3.503948500914
 20
1.3494419037917
 42
0.0
  0
VERTEX
  8
LAYER1
 10
3.5189051549858
 20
1.3982488989928
 42
0.0
  0
VERTEX
  8
LAYER1
 10
3.6589050214714
 20
1.3552489161589
 42
0.0
  0
VERTEX
  8
LAYER1
 10
3.6331025433249
 20
1.2839573488214
 42
0.0
  0
VERTEX
  8
LAYER1
 10
3.597934565062
 20
1.2258426870921
 42
0.0
  0
VERTEX
  8
LAYER1
 10
3.551905385775
 20
1.179748880873
 42
0.0
  0
VERTEX
  8
LAYER1
 10
3.4979404403872
 20
1.1480606282451
 42
0.0
  0
VERTEX
  8
LAYER1
 10
3.4350456671662
 20
1.1288958766558
 42
0.0
  0
VERTEX
  8
LAYER1
 10
3.3609051626152
 20
1.1222488761046
 42
0.0
  0
VERTEX
  8
LAYER1
 10
3.2726303152508
 20
1.1328666224697
 42
0.0
  0
VERTEX
  8
LAYER1
 10
3.1952454055733
 20
1.1647198615649
 42
0.0
  0
VERTEX
  8
LAYER1
 10
3.1269054334587
 20
1.219748842726
 42
0.0
  0
VERTEX
  8
LAYER1
 10
3.0762042292542
 20
1.2918851905325
 42
0.0
  0
VERTEX
  8
LAYER1
 10
3.0455406267113
 20
1.3795942780116
 42
0.0
  0
VERTEX
  8
LAYER1
 10
3.0349054258293
 20
1.4862489581206
 42
0.0
  0
VERTEX
  8
LAYER1
 10
3.0449786727137
 20
1.5956769009688
 42
0.0
  0
VERTEX
  8
LAYER1
 10
3.0751984133667
 20
1.6876808604338
 42
0.0
  0
VERTEX
  8
LAYER1
 10
3.1274053972191
 20
1.7642488360503
 42
0.0
  0
VERTEX
  8
LAYER1
 10
3.1947171418375
 20
1.8188077234366
 42
0.0
  0
VERTEX
  8
LAYER1
 10
3.2745524134583
 20
1.851804415808
 42
0.0
  0
VERTEX
  8
LAYER1
 10
3.3699054639763
 20
1.8632488131621
 42
0.0
  0
VERTEX
  8
LAYER1
 10
3.4515804230637
 20
1.8547546316483
 42
0.0
  0
VERTEX
  8
LAYER1
 10
3.522365340609
 20
1.829272087107
 42
0.0
  0
VERTEX
  8
LAYER1
 10
3.5839052122063
 20
1.7852489829161
 42
0.0
  0
VERTEX
  8
LAYER1
 10
3.6135228236145
 20
1.7505329585889
 42
0.0
  0
VERTEX
  8
LAYER1
 10
3.6376953103966
 20
1.7071048906424
 42
0.0
  0
VERTEX
  8
LAYER1
 10
3.6569051664299
 20
1.6532487750151
 42
0.0
  0
VERTEX
  8
LAYER1
 10
3.5139050405449
 20
1.6192488551238
 42
0.0
  0
VERTEX
  8
LAYER1
 10
3.5023847383923
 20
1.6535952590325
 42
0.0
  0
VERTEX
  8
LAYER1
 10
3.4849838470406
 20
1.6827144783118
 42
0.0
  0
SEQEND
  0
ENDSEC
  0
EOF
