0
SECTION
2
HEADER
9
$INSUNITS
70
1
9
$ACADVER
1
AC1014
9
$HANDSEED
5
FFFF
0
ENDSEC
0
SECTION
2
TABLES
0
TABLE
2
VPORT
5
8
100
AcDbSymbolTable
0
ENDTAB
0
TABLE
2
LTYPE
5
5
100
AcDbSymbolTable
0
LTYPE
5
14
100
AcDbSymbolTableRecord
100
AcDbLinetypeTableRecord
2
BYBLOCK
70
0
0
LTYPE
5
15
100
AcDbSymbolTableRecord
100
AcDbLinetypeTableRecord
2
BYLAYER
70
0
0
ENDTAB
0
TABLE
2
LAYER
5
2
100
AcDbSymbolTable
70
2
0
LAYER
5
50
100
AcDbSymbolTableRecord
100
AcDbLayerTableRecord
2
0
70
0
6
CONTINUOUS
0
ENDTAB
0
TABLE
2
STYLE
5
3
100
AcDbSymbolTable
70
1
0
STYLE
5
11
100
AcDbSymbolTableRecord
100
AcDbTextStyleTableRecord
2
STANDARD
70
0
0
ENDTAB
0
TABLE
2
VIEW
5
6
100
AcDbSymbolTable
70
0
0
ENDTAB
0
TABLE
2
UCS
5
7
100
AcDbSymbolTable
70
0
0
ENDTAB
0
TABLE
2
APPID
5
9
100
AcDbSymbolTable
70
2
0
APPID
5
12
100
AcDbSymbolTableRecord
100
AcDbRegAppTableRecord
2
ACAD
70
0
0
ENDTAB
0
TABLE
2
DIMSTYLE
5
A
100
AcDbSymbolTable
70
1
0
ENDTAB
0
TABLE
2
BLOCK_RECORD
5
1
100
AcDbSymbolTable
70
1
0
BLOCK_RECORD
5
1F
100
AcDbSymbolTableRecord
100
AcDbBlockTableRecord
2
*MODEL_SPACE
0
BLOCK_RECORD
5
1B
100
AcDbSymbolTableRecord
100
AcDbBlockTableRecord
2
*PAPER_SPACE
0
ENDTAB
0
ENDSEC
0
SECTION
2
BLOCKS
0
BLOCK
5
20
100
AcDbEntity
100
AcDbBlockBegin
2
*MODEL_SPACE
0
ENDBLK
5
21
100
AcDbEntity
100
AcDbBlockEnd
0
BLOCK
5
1C
100
AcDbEntity
100
AcDbBlockBegin
2
*PAPER_SPACE
0
ENDBLK
5
1D
100
AcDbEntity
100
AcDbBlockEnd
0
ENDSEC
0
SECTION
2
ENTITIES
0
LWPOLYLINE
5
100
100
AcDbEntity
8
0
100
AcDbPolyline
90
8
70
1
43
0.0
10
15
20
-2.0980592591341539e-15
10
0.99999999999999956
20
-1.7483827159451283e-16
42
-0.41421356237309548
10
0
20
0.99999999999999956
10
0
20
12.124999999999998
42
-0.41421356237309664
10
0.99999999999999956
20
13.124999999999998
10
14.999999999999996
20
13.124999999999995
42
-0.41421356237309709
10
15.999999999999996
20
12.124999999999998
10
15.999999999999998
20
1.0000000000000002
42
-0.41421356237309581
0
LWPOLYLINE
5
101
100
AcDbEntity
8
0
100
AcDbPolyline
90
6
70
1
43
0.0
10
2.2006628817923137
20
9.0695054645316429
10
0.58817330304375048
20
8.9925048744493559
10
2.2965590326584282
20
8.8992897967442843
42
-0.66994998683718054
10
13.915564172222945
20
8.9163171496074209
10
15.637275513022807
20
8.9925048744493559
10
14.022572259582887
20
9.0695054645316429
42
0.65944209138552945
0
LWPOLYLINE
5
102
100
AcDbEntity
8
0
100
AcDbPolyline
90
6
70
1
43
0.0
10
2.3138808473024906
20
4.159458688761025
10
0.58817330304375048
20
4.0770516450389165
10
2.214982451238678
20
4.0094523929439818
42
0.660136976935913
10
14.009946411779138
20
4.0078106319479403
10
15.618661386502751
20
4.0770516450389165
10
13.906133500457051
20
4.1639111678587399
42
-0.66773148775770219
0
LWPOLYLINE
5
103
100
AcDbEntity
8
0
100
AcDbPolyline
90
3
70
1
43
0.0
10
4.1030510170939536
20
3.6416448084053989
10
3.1151054211364522
20
3.573899967539742
10
4.051082021273209
20
3.4355871446746038
0
LWPOLYLINE
5
104
100
AcDbEntity
8
0
100
AcDbPolyline
90
3
70
1
43
0.0
10
12.969757701286943
20
3.5386159765400018
10
11.960723676471604
20
3.627672064159833
10
11.906668282285064
20
3.4355871446746038
0
LWPOLYLINE
5
105
100
AcDbEntity
8
0
100
AcDbPolyline
90
11
70
1
43
0.0
10
3.982792902564003
20
10.193982883899309
10
2.9517740668103141
20
9.3313636900876826
42
-0.63702561126132284
10
13.312743073134902
20
9.153652627971864
10
11.333460843833837
20
10.557284207759254
10
10.877074326170485
20
10.213414033785758
10
10.658362781694695
20
10.381556435030154
10
9.9769435766516263
20
10.100897690095902
10
8.1374931728437598
20
11.906070904029033
10
6.6303457175676925
20
10.265668097000033
10
6.3658626411405921
20
10.520571471446308
10
5.0273536323636785
20
9.1872566372262359
0
LWPOLYLINE
5
106
100
AcDbEntity
8
0
100
AcDbPolyline
90
6
70
1
43
0.0
10
3.926944494031881
20
9.7121916629083263
10
4.0228377540371163
20
10.018136825782172
10
4.7445251434075226
20
9.128066257424317
10
4.2192354199901061
20
8.8547515001856318
10
4.3049012394231276
20
9.128066257424317
10
4.0771592510664316
20
9.7031121894987518
0
LWPOLYLINE
5
107
100
AcDbEntity
8
0
100
AcDbPolyline
90
9
70
1
43
0.0
10
8.1438369271321864
20
11.133893074894457
10
8.2152175394398572
20
11.686517170179654
10
9.5882581561838691
20
10.158741806755787
10
9.2488548576628773
20
10.158741806755787
10
9.2944463455239053
20
9.3862193735550221
10
8.8537286295339612
20
10.019434482735976
10
8.6156397484819234
20
8.8467201005328491
10
8.3037525247053399
20
10.168873248502683
10
8.4636681222784933
20
10.417093571301617
0
LWPOLYLINE
5
108
100
AcDbEntity
8
0
100
AcDbPolyline
90
7
70
1
43
0.0
10
11.488673096841364
20
9.6635534971981762
10
11.40767751872999
20
10.213166348668208
10
11.632631478674272
20
10.015625259336757
10
11.837910545434031
20
10.083094602957097
10
13.19344488333579
20
8.9333089357429092
10
12.657092165082283
20
9.0126846022920564
10
12.527152116197895
20
8.8102072278104977
0
ARC
5
109
100
AcDbEntity
8
0
100
AcDbCircle
10
0.87443301214736779
20
8.1583771743072901
30
0
40
0.42009331515896908
210
0
220
-0
230
1
100
AcDbArc
50
1.4862873882423628
51
54.903670736681882
0
LINE
5
110
100
AcDbEntity
8
0
100
AcDbLine
10
1.2943849916494146
20
8.1692734284142983
30
0
11
1.2943849916494146
21
5.2009199032454481
31
0
0
ARC
5
111
100
AcDbEntity
8
0
100
AcDbCircle
10
0.77076079364154249
20
5.2009199032454472
30
0
40
0.52362419800786997
210
0
220
0
230
1
100
AcDbArc
50
-48.217770835383973
51
0
0
ARC
5
112
100
AcDbEntity
8
0
100
AcDbCircle
10
2.7709792054258116
20
5.7855924394720883
30
0
40
0.97513003950002675
210
0
220
0
230
1
100
AcDbArc
50
-90
51
79.056923817953646
0
ARC
5
113
100
AcDbEntity
8
0
100
AcDbCircle
10
2.7236637222017794
20
7.5914681659432279
30
0
40
0.87973649682691835
210
-0
220
0
230
1
100
AcDbArc
50
-74.680470378544229
51
83.715410245814468
0
LINE
5
114
100
AcDbEntity
8
0
100
AcDbLine
10
1.115966854630049
20
8.5020918763158075
30
0
11
2.211344073303072
21
8.5020918763158075
31
0
0
ARC
5
115
100
AcDbEntity
8
0
100
AcDbCircle
10
2.4431060543848226
20
6.5209500735544985
30
0
40
1.9811418027613077
210
0
220
-0
230
1
100
AcDbArc
50
79.034171416530157
51
86.987495829567479
0
LINE
5
116
100
AcDbEntity
8
0
100
AcDbLine
10
2.0252729341241915
20
8.0227203520756998
30
0
11
2.0252729341241915
21
6.9631625290987067
31
0
0
LINE
5
117
100
AcDbEntity
8
0
100
AcDbLine
10
2.0252729341241915
20
6.9631625290987067
30
0
11
2.4089059389951721
21
6.9631625290987067
31
0
0
LINE
5
118
100
AcDbEntity
8
0
100
AcDbLine
10
2.0322715442255324
20
6.4843376359811833
30
0
11
2.0322715442255324
21
5.2773010283050006
31
0
0
LINE
5
119
100
AcDbEntity
8
0
100
AcDbLine
10
2.0322715442255324
20
6.4843376359811833
30
0
11
2.6343142531887138
21
6.4843376359811833
31
0
0
ARC
5
120
100
AcDbEntity
8
0
100
AcDbCircle
10
2.6018867882761803
20
6.1416079822280976
30
0
40
0.3442603027396034
210
0
220
-0
230
1
100
AcDbArc
50
6.6200013171642862
51
84.595033509716274
0
LWPOLYLINE
5
121
100
AcDbEntity
8
0
100
AcDbPolyline
90
14
70
1
43
0.0
10
5.0465513377656741
20
8.5057195725691663
10
3.9718095940456668
20
8.5057195725691663
42
-0.26253951571749823
10
4.1458422178452041
20
8.1971239747528344
10
4.1458422178452041
20
6.0768190067404788
42
0.25667970500942822
10
4.6049555594695279
20
5.2709270535335602
42
0.237156104085818
10
6.1186716379137422
20
5.2709270535335602
42
0.23596775464336148
10
6.5506399976848835
20
6.0110650966263126
10
6.5506399976848853
20
8.2255407220034247
42
-0.16699509720530736
10
6.7121834384528807
20
8.5057195725691663
10
5.9179281880102286
20
8.5057195725691663
42
-0.26188745064518149
10
6.0734557345005795
20
8.229149077050625
10
6.0734557345005795
20
6.0659883689935983
42
-0.91171575411726691
10
4.8713611717707748
20
6.0659883689935974
10
4.8713611717707748
20
8.2317875088699921
42
-0.20908099907337718
0
LINE
5
122
100
AcDbEntity
8
0
100
AcDbLine
10
8.9910214422921477
20
8.5063303143934128
30
0
11
8.9910214422921477
21
7.5641590325313306
31
0
0
SPLINE
5
123
100
AcDbEntity
8
0
100
AcDbSpline
70
4
71
5
72
71
73
65
74
0
42
0.000000001
43
0.0000000001
44
0.0000000001
40
0
40
0
40
0
40
0
40
0
40
0
40
0.016666666666666666
40
0.033333333333333333
40
0.050000000000000003
40
0.066666666666666666
40
0.083333333333333329
40
0.099999999999999992
40
0.11666666666666665
40
0.13333333333333333
40
0.14999999999999999
40
0.16666666666666666
40
0.18333333333333332
40
0.19999999999999998
40
0.21666666666666665
40
0.23333333333333331
40
0.24999999999999997
40
0.26666666666666666
40
0.28333333333333333
40
0.29999999999999999
40
0.31666666666666665
40
0.33333333333333331
40
0.34999999999999998
40
0.36666666666666664
40
0.3833333333333333
40
0.39999999999999997
40
0.41666666666666663
40
0.43333333333333329
40
0.44999999999999996
40
0.46666666666666662
40
0.48333333333333328
40
0.49999999999999994
40
0.51666666666666661
40
0.53333333333333333
40
0.55000000000000004
40
0.56666666666666676
40
0.58333333333333348
40
0.6000000000000002
40
0.61666666666666692
40
0.63333333333333364
40
0.65000000000000036
40
0.66666666666666707
40
0.68333333333333379
40
0.70000000000000051
40
0.71666666666666723
40
0.73333333333333395
40
0.75000000000000067
40
0.76666666666666738
40
0.7833333333333341
40
0.80000000000000082
40
0.81666666666666754
40
0.83333333333333426
40
0.85000000000000098
40
0.8666666666666677
40
0.88333333333333441
40
0.90000000000000113
40
0.91666666666666785
40
0.93333333333333457
40
0.95000000000000129
40
0.96666666666666801
40
0.98333333333333472
40
1
40
1
40
1
40
1
40
1
40
1
41
1
41
1
41
1
41
1
41
1
41
1
41
1
41
1
41
1
41
1
41
1
41
1
41
1
41
1
41
1
41
1
41
1
41
1
41
1
41
1
41
1
41
1
41
1
41
1
41
1
41
1
41
1
41
1
41
1
41
1
41
1
41
1
41
1
41
1
41
1
41
1
41
1
41
1
41
1
41
1
41
1
41
1
41
1
41
1
41
1
41
1
41
1
41
1
41
1
41
1
41
1
41
1
41
1
41
1
41
1
41
1
41
1
41
1
41
1
41
1
41
1
41
1
41
1
41
1
41
1
10
8.9910214422921477
20
7.5641590325313306
30
0
10
8.9852461974876032
20
7.5721835960179451
30
0
10
8.9735490635967352
20
7.5889071229232661
30
0
10
8.9555634843874916
20
7.616015670676525
30
0
10
8.9307020859149429
20
7.6562082474781432
30
0
10
8.8978283431962222
20
7.7127941369397481
30
0
10
8.8621642275642518
20
7.774492940254909
30
0
10
8.8217460671724588
20
7.83884738431769
30
0
10
8.7742882868146204
20
7.9028084042017621
30
0
10
8.7177603696774693
20
7.963288941638659
30
0
10
8.6510669847320258
20
8.0178334426596276
30
0
10
8.5744512712422374
20
8.0649737058549924
30
0
10
8.4891092873142515
20
8.1036996532849344
30
0
10
8.3969373765239244
20
8.1330700845983372
30
0
10
8.3002459633688037
20
8.1518053568794073
30
0
10
8.2014434217378884
20
8.1577917653805656
30
0
10
8.1031966254199261
20
8.1485749628194704
30
0
10
8.0086979926665478
20
8.1220432655650967
30
0
10
7.9218604332305125
20
8.0770163251960234
30
0
10
7.8476252390322472
20
8.0139406519204055
30
0
10
7.7919837221807944
20
7.9353478991868229
30
0
10
7.7606363209800735
20
7.8451485366642606
30
0
10
7.757757276226644
20
7.7480650525111079
30
0
10
7.7848522661281017
20
7.6490316581705979
30
0
10
7.839226071865931
20
7.5525620223176038
30
0
10
7.9149196118961189
20
7.462453243112753
30
0
10
8.0043586010859755
20
7.3816062676755383
30
0
10
8.0998185664163742
20
7.3117893313325029
30
0
10
8.1948335581195284
20
7.2534588046797346
30
0
10
8.2859494972372527
20
7.2054664333625835
30
0
10
8.3732354675584659
20
7.1651098464474847
30
0
10
8.4586744048218385
20
7.1287526745901015
30
0
10
8.5449873068110662
20
7.0923284921641967
30
0
10
8.6343999919312004
20
7.051858569168556
30
0
10
8.727150989730335
20
7.0040418067707471
30
0
10
8.8213456265662931
20
6.946471973759853
30
0
10
8.9138386748400187
20
6.8775679707242841
30
0
10
9.0008210476298771
20
6.7965920554366157
30
0
10
9.078507271548915
20
6.7036290868968971
30
0
10
9.1438260260631132
20
6.59959484710296
30
0
10
9.1949714766639357
20
6.4862019298932214
30
0
10
9.2310566348645171
20
6.3657250831750014
30
0
10
9.251884584927792
20
6.2407930816218524
30
0
10
9.2576700664135245
20
6.1141677878433391
30
0
10
9.2487957951921125
20
5.988537047158264
30
0
10
9.2255247394076871
20
5.8662826607819767
30
0
10
9.1878236627518532
20
5.7493172754531132
30
0
10
9.1355840853794952
20
5.6391720117025326
30
0
10
9.0687774401830143
20
5.5370436936279352
30
0
10
8.9876440345732824
20
5.44385800535703
30
0
10
8.8928503862565442
20
5.3603232656345225
30
0
10
8.7857043775195507
20
5.2869923429611676
30
0
10
8.6681980701482804
20
5.2243045215958253
30
0
10
8.542750418598132
20
5.1725949793356172
30
0
10
8.4120177989996687
20
5.1321111264369259
30
0
10
8.2786785128895133
20
5.1030258641961845
30
0
10
8.1452274457945197
20
5.085451873973013
30
0
10
8.0137690511608177
20
5.0794551357399547
30
0
10
7.8858025337575661
20
5.0850686463030961
30
0
10
7.7623184264899949
20
5.1023009391816041
30
0
10
7.6439050850207151
20
5.131144339473094
30
0
10
7.5534615469142041
20
5.163495368565659
30
0
10
7.4880814242412521
20
5.1929694785282852
30
0
10
7.445584191848611
20
5.2149337661333215
30
0
10
7.4246079549429673
20
5.2264946301877346
30
0
0
ARC
5
124
100
AcDbEntity
8
0
100
AcDbCircle
10
7.3160642498047013
20
5.017456734837805
30
0
40
0.2355389089247692
210
0
220
-0
230
1
100
AcDbArc
50
62.559236239683095
51
147.76872319264123
0
LINE
5
125
100
AcDbEntity
8
0
100
AcDbLine
10
7.1168213799076447
20
5.1430786135558666
30
0
11
7.1168213799076447
21
6.1905454746018806
31
0
0
SPLINE
5
126
100
AcDbEntity
8
0
100
AcDbSpline
70
4
71
5
72
41
73
35
74
0
42
0.000000001
43
0.0000000001
44
0.0000000001
40
0
40
0
40
0
40
0
40
0
40
0
40
0.033333333333333333
40
0.066666666666666666
40
0.10000000000000001
40
0.13333333333333333
40
0.16666666666666666
40
0.19999999999999998
40
0.23333333333333331
40
0.26666666666666666
40
0.29999999999999999
40
0.33333333333333331
40
0.36666666666666664
40
0.39999999999999997
40
0.43333333333333329
40
0.46666666666666662
40
0.49999999999999994
40
0.53333333333333333
40
0.56666666666666665
40
0.59999999999999998
40
0.6333333333333333
40
0.66666666666666663
40
0.69999999999999996
40
0.73333333333333328
40
0.76666666666666661
40
0.79999999999999993
40
0.83333333333333326
40
0.86666666666666659
40
0.89999999999999991
40
0.93333333333333324
40
0.96666666666666656
40
1
40
1
40
1
40
1
40
1
40
1
41
1
41
1
41
1
41
1
41
1
41
1
41
1
41
1
41
1
41
1
41
1
41
1
41
1
41
1
41
1
41
1
41
1
41
1
41
1
41
1
41
1
41
1
41
1
41
1
41
1
41
1
41
1
41
1
41
1
41
1
41
1
41
1
41
1
41
1
41
1
10
7.1168213799076447
20
6.1905454746018806
30
0
10
7.1214771002775299
20
6.1842365690009364
30
0
10
7.1308781103073278
20
6.171174076458767
30
0
10
7.1452484133650929
20
6.1502463835568344
30
0
10
7.1649466700223421
20
6.119669272058144
30
0
10
7.1905569238404494
20
6.0770719136905438
30
0
10
7.2174051817224321
20
6.0303732475981784
30
0
10
7.2460112442088835
20
5.980189525367285
30
0
10
7.2771315813757091
20
5.9274680901436367
30
0
10
7.3115968335371706
20
5.8733338159794277
30
0
10
7.3501881325462461
20
5.8189793493611575
30
0
10
7.3934912255082139
20
5.7655338366893272
30
0
10
7.4417737769273522
20
5.7139542066665268
30
0
10
7.4950707655658206
20
5.6650942701357154
30
0
10
7.5532536952230531
20
5.6197612363844307
30
0
10
7.616103975929235
20
5.5787763108857318
30
0
10
7.683381427366645
20
5.5430319827895005
30
0
10
7.7548965808057195
20
5.5135524498904642
30
0
10
7.8303892457197435
20
5.4914051859966815
30
0
10
7.909407738924231
20
5.4776119766590234
30
0
10
7.9911770967094693
20
5.4730539411608348
30
0
10
8.0744887856464995
20
5.4783868006585594
30
0
10
8.1575288907881465
20
5.4939229236382321
30
0
10
8.2379092386675055
20
5.51961747668076
30
0
10
8.3129528374270958
20
5.5551844437510045
30
0
10
8.3799094642992689
20
5.6001750616048671
30
0
10
8.4362063495929327
20
5.6540695359226509
30
0
10
8.479670508055829
20
5.7163565244783339
30
0
10
8.508809237772784
20
5.7866254137489168
30
0
10
8.5227214497833579
20
5.8645694823812988
30
0
10
8.5209381571168894
20
5.9499708007896164
30
0
10
8.5068227848096498
20
6.0241465339330142
30
0
10
8.4890999793409172
20
6.0830387773620869
30
0
10
8.4741188666337806
20
6.1237467448479244
30
0
10
8.4658368309202228
20
6.1444623462849339
30
0
0
SPLINE
5
127
100
AcDbEntity
8
0
100
AcDbSpline
70
4
71
5
72
46
73
40
74
0
42
0.000000001
43
0.0000000001
44
0.0000000001
40
0
40
0
40
0
40
0
40
0
40
0
40
0.028571428571428571
40
0.057142857142857141
40
0.085714285714285715
40
0.11428571428571428
40
0.14285714285714285
40
0.17142857142857143
40
0.20000000000000001
40
0.22857142857142859
40
0.25714285714285717
40
0.28571428571428575
40
0.31428571428571433
40
0.34285714285714292
40
0.3714285714285715
40
0.40000000000000008
40
0.42857142857142866
40
0.45714285714285724
40
0.48571428571428582
40
0.51428571428571435
40
0.54285714285714293
40
0.57142857142857151
40
0.60000000000000009
40
0.62857142857142867
40
0.65714285714285725
40
0.68571428571428583
40
0.71428571428571441
40
0.74285714285714299
40
0.77142857142857157
40
0.80000000000000016
40
0.82857142857142874
40
0.85714285714285732
40
0.8857142857142859
40
0.91428571428571448
40
0.94285714285714306
40
0.97142857142857164
40
1
40
1
40
1
40
1
40
1
40
1
41
1
41
1
41
1
41
1
41
1
41
1
41
1
41
1
41
1
41
1
41
1
41
1
41
1
41
1
41
1
41
1
41
1
41
1
41
1
41
1
41
1
41
1
41
1
41
1
41
1
41
1
41
1
41
1
41
1
41
1
41
1
41
1
41
1
41
1
41
1
41
1
41
1
41
1
41
1
41
1
10
8.4658368309202228
20
6.1444623462849339
30
0
10
8.4662184155716567
20
6.1498830988461233
30
0
10
8.464130554744818
20
6.1618478392591216
30
0
10
8.4524428107650422
20
6.1831660803130672
30
0
10
8.419749395189724
20
6.2183292336805884
30
0
10
8.3516802936576351
20
6.2728560164399259
30
0
10
8.2610885835152352
20
6.3356365796150733
30
0
10
8.1556546067971585
20
6.4028879503839438
30
0
10
8.0440940776643597
20
6.4703621825088362
30
0
10
7.9345778695149818
20
6.5341451134599131
30
0
10
7.8331898819622179
20
6.5914565253356168
30
0
10
7.7418803276461379
20
6.6416538692113809
30
0
10
7.6584656427810645
20
6.6863947981925866
30
0
10
7.5789830513482501
20
6.7288466173068482
30
0
10
7.4993372286740607
20
6.773160117690245
30
0
10
7.4173904551204677
20
6.8238367826439603
30
0
10
7.334399480857452
20
6.8851624856334945
30
0
10
7.2538163617985685
20
6.9607669598156754
30
0
10
7.1804032022500124
20
7.0531380615511372
30
0
10
7.1192907956774052
20
7.1632097822517595
30
0
10
7.0749267439376098
20
7.2897540485661692
30
0
10
7.0506267498582842
20
7.4294752496381911
30
0
10
7.0486980498350853
20
7.5777453867479512
30
0
10
7.0703984711075849
20
7.7291429111380294
30
0
10
7.1159465618216808
20
7.8780851716232476
30
0
10
7.1845197067855091
20
8.0193727195256681
30
0
10
7.2742028519764004
20
8.1488851862398874
30
0
10
7.3821304444011142
20
8.2637743386428024
30
0
10
7.5048314438693451
20
8.3621603246764398
30
0
10
7.6385133970567063
20
8.4429686875687562
30
0
10
7.7793677849523393
20
8.5057163599155849
30
0
10
7.9238631356573332
20
8.5503256737527309
30
0
10
8.0690460164545783
20
8.5769301444287045
30
0
10
8.2128337711362462
20
8.5856900754577214
30
0
10
8.3538560029325133
20
8.57677447201376
30
0
10
8.4913067164450862
20
8.5503423439935062
30
0
10
8.5980982009875557
20
8.5152894236803363
30
0
10
8.6763557621772822
20
8.481217654121247
30
0
10
8.7277125280420123
20
8.4550490365344899
30
0
10
8.7531871757334017
20
8.4411012013737636
30
0
0
ARC
5
128
100
AcDbEntity
8
0
100
AcDbCircle
10
8.8278578725210526
20
8.6350443163092905
30
0
40
0.20782118465076643
210
0
220
0
230
1
100
AcDbArc
50
248.9426260944031
51
321.73133358308928
0
LINE
5
129
100
AcDbEntity
8
0
100
AcDbLine
10
11.824316520954277
20
8.5472408520321821
30
0
11
11.824316520954277
21
7.5568187511620675
31
0
0
SPLINE
5
130
100
AcDbEntity
8
0
100
AcDbSpline
70
4
71
5
72
61
73
55
74
0
42
0.000000001
43
0.0000000001
44
0.0000000001
40
0
40
0
40
0
40
0
40
0
40
0
40
0.02
40
0.040000000000000001
40
0.059999999999999998
40
0.080000000000000002
40
0.10000000000000001
40
0.12000000000000001
40
0.14000000000000001
40
0.16
40
0.17999999999999999
40
0.19999999999999998
40
0.21999999999999997
40
0.23999999999999996
40
0.25999999999999995
40
0.27999999999999997
40
0.29999999999999999
40
0.32000000000000001
40
0.34000000000000002
40
0.36000000000000004
40
0.38000000000000006
40
0.40000000000000008
40
0.4200000000000001
40
0.44000000000000011
40
0.46000000000000013
40
0.48000000000000015
40
0.50000000000000011
40
0.52000000000000013
40
0.54000000000000015
40
0.56000000000000016
40
0.58000000000000018
40
0.6000000000000002
40
0.62000000000000022
40
0.64000000000000024
40
0.66000000000000025
40
0.68000000000000027
40
0.70000000000000029
40
0.72000000000000031
40
0.74000000000000032
40
0.76000000000000034
40
0.78000000000000036
40
0.80000000000000038
40
0.8200000000000004
40
0.84000000000000041
40
0.86000000000000043
40
0.88000000000000045
40
0.90000000000000047
40
0.92000000000000048
40
0.9400000000000005
40
0.96000000000000052
40
0.98000000000000054
40
1
40
1
40
1
40
1
40
1
40
1
41
1
41
1
41
1
41
1
41
1
41
1
41
1
41
1
41
1
41
1
41
1
41
1
41
1
41
1
41
1
41
1
41
1
41
1
41
1
41
1
41
1
41
1
41
1
41
1
41
1
41
1
41
1
41
1
41
1
41
1
41
1
41
1
41
1
41
1
41
1
41
1
41
1
41
1
41
1
41
1
41
1
41
1
41
1
41
1
41
1
41
1
41
1
41
1
41
1
41
1
41
1
41
1
41
1
41
1
41
1
10
11.824316520954277
20
7.5568187511620675
30
0
10
11.814993222968244
20
7.5696240474579213
30
0
10
11.796652190758945
20
7.595473752747476
30
0
10
11.770056853829997
20
7.6349654299030822
30
0
10
11.736434186441894
20
7.6890580721901216
30
0
10
11.696980315151308
20
7.7587970055664357
30
0
10
11.658700353137439
20
7.8298687063630314
30
0
10
11.618636304489941
20
7.9006176677418507
30
0
10
11.572348211524877
20
7.9685041401805004
30
0
10
11.515493349353967
20
8.0307615184941721
30
0
10
11.444931480637022
20
8.0848475639083262
30
0
10
11.360361970299175
20
8.1291137654482792
30
0
10
11.264236982221538
20
8.1627840798267108
30
0
10
11.160526608002566
20
8.1854742144806689
30
0
10
11.053843945485328
20
8.1968584168071192
30
0
10
10.948382385211504
20
8.1962503265950595
30
0
10
10.847054735984004
20
8.1822944711431056
30
0
10
10.751809067736202
20
8.1533606211420917
30
0
10
10.66385286283526
20
8.1078930924803494
30
0
10
10.5838954691704
20
8.0447477214290064
30
0
10
10.512415302035604
20
7.9636085267258538
30
0
10
10.449752993632133
20
7.8650262851601207
30
0
10
10.396093409343646
20
7.750226818641738
30
0
10
10.351480444878849
20
7.6209910578238995
30
0
10
10.315819247061826
20
7.4795091373747562
30
0
10
10.288879240076007
20
7.328243413974449
30
0
10
10.270308047631534
20
7.1698006711174953
30
0
10
10.259710964964247
20
7.0068719201112737
30
0
10
10.256721158491112
20
6.8421626147877213
30
0
10
10.261072770313977
20
6.6783270892900735
30
0
10
10.27267396645925
20
6.5179006899237963
30
0
10
10.291677475012577
20
6.3632337628371438
30
0
10
10.318559152865971
20
6.2164215918162782
30
0
10
10.354174903087742
20
6.0792431023059157
30
0
10
10.399540282623068
20
5.9532142834923523
30
0
10
10.455631434704278
20
5.8396320944026758
30
0
10
10.523172730331062
20
5.739623197231106
30
0
10
10.602440562267734
20
5.6541849239557003
30
0
10
10.693031633248355
20
5.5842404478640884
30
0
10
10.793729163949605
20
5.5306510899114949
30
0
10
10.902697163153242
20
5.4940915736247131
30
0
10
11.017619110320537
20
5.4749433949866804
30
0
10
11.135856082695952
20
5.4731877668571229
30
0
10
11.254597127976668
20
5.4882786853094361
30
0
10
11.371006974078821
20
5.5190787567760422
30
0
10
11.482344884528327
20
5.5640925550029694
30
0
10
11.586087564074992
20
5.6216565895854593
30
0
10
11.680052438862925
20
5.6901467385375133
30
0
10
11.762518651404983
20
5.7681741718497612
30
0
10
11.83235910558899
20
5.8547962790113628
30
0
10
11.888921820389262
20
5.949437672278366
30
0
10
11.923305030437728
20
6.0313267457318487
30
0
10
11.942942054247213
20
6.0961682816538598
30
0
10
11.953301667874786
20
6.1409170712361583
30
0
10
11.957798541439681
20
6.1636717415239852
30
0
0
LINE
5
131
100
AcDbEntity
8
0
100
AcDbLine
10
11.957798541439681
20
6.1636717415239852
30
0
11
11.957798541439681
21
5.319306223741477
31
0
0
SPLINE
5
132
100
AcDbEntity
8
0
100
AcDbSpline
70
4
71
5
72
56
73
50
74
0
42
0.000000001
43
0.0000000001
44
0.0000000001
40
0
40
0
40
0
40
0
40
0
40
0
40
0.022222222222222223
40
0.044444444444444446
40
0.066666666666666666
40
0.088888888888888892
40
0.11111111111111112
40
0.13333333333333333
40
0.15555555555555556
40
0.17777777777777778
40
0.20000000000000001
40
0.22222222222222224
40
0.24444444444444446
40
0.26666666666666666
40
0.28888888888888886
40
0.31111111111111106
40
0.33333333333333326
40
0.35555555555555546
40
0.37777777777777766
40
0.39999999999999986
40
0.42222222222222205
40
0.44444444444444425
40
0.46666666666666645
40
0.48888888888888865
40
0.51111111111111085
40
0.5333333333333331
40
0.55555555555555536
40
0.57777777777777761
40
0.59999999999999987
40
0.62222222222222212
40
0.64444444444444438
40
0.66666666666666663
40
0.68888888888888888
40
0.71111111111111114
40
0.73333333333333339
40
0.75555555555555565
40
0.7777777777777779
40
0.80000000000000016
40
0.82222222222222241
40
0.84444444444444466
40
0.86666666666666692
40
0.88888888888888917
40
0.91111111111111143
40
0.93333333333333368
40
0.95555555555555594
40
0.97777777777777819
40
1
40
1
40
1
40
1
40
1
40
1
41
1
41
1
41
1
41
1
41
1
41
1
41
1
41
1
41
1
41
1
41
1
41
1
41
1
41
1
41
1
41
1
41
1
41
1
41
1
41
1
41
1
41
1
41
1
41
1
41
1
41
1
41
1
41
1
41
1
41
1
41
1
41
1
41
1
41
1
41
1
41
1
41
1
41
1
41
1
41
1
41
1
41
1
41
1
41
1
41
1
41
1
41
1
41
1
41
1
41
1
10
11.957798541439681
20
5.319306223741477
30
0
10
11.940386586064214
20
5.3120469026268093
30
0
10
11.905295682215064
20
5.297525266918794
30
0
10
11.851858235311642
20
5.2757341340417865
30
0
10
11.779005806007349
20
5.2466593034404658
30
0
10
11.685201922933448
20
5.2105403183267676
30
0
10
11.588488194327194
20
5.1753712067046838
30
0
10
11.488496072494431
20
5.1426983566434297
30
0
10
11.384774807072858
20
5.1146906107404213
30
0
10
11.277108787797461
20
5.0934290713192896
30
0
10
11.165743046237145
20
5.0803963090990996
30
0
10
11.051735464902249
20
5.0757455401547853
30
0
10
10.936574456009959
20
5.0787064203617058
30
0
10
10.82159581499363
20
5.0882698196829654
30
0
10
10.707518185607825
20
5.1037431546574297
30
0
10
10.593799157500371
20
5.1254447959876828
30
0
10
10.479187072594277
20
5.1546324399575614
30
0
10
10.362556789969537
20
5.1932939716214266
30
0
10
10.24356726792065
20
5.2439698930765255
30
0
10
10.123592549525466
20
5.309606969305511
30
0
10
10.005495080188767
20
5.3931770148437934
30
0
10
9.8928980288668207
20
5.4971952289984847
30
0
10
9.7895957760742505
20
5.6232425568581377
30
0
10
9.6989598202485023
20
5.7715420075433634
30
0
10
9.623215536102542
20
5.9403582942766766
30
0
10
9.5634014093618713
20
6.1261864344261348
30
0
10
9.5197281372781983
20
6.3243905389055168
30
0
10
9.4918113855719817
20
6.5297006739444381
30
0
10
9.4789527704335548
20
6.736762784608139
30
0
10
9.4804008411870075
20
6.9406703571464607
30
0
10
9.4956130653889197
20
7.1374912494487361
30
0
10
9.52453486489315
20
7.3248363355286843
30
0
10
9.5674420328955634
20
7.5015200030278981
30
0
10
9.6247569047362127
20
7.667169719863332
30
0
10
9.6968767969072704
20
7.8218619578407997
30
0
10
9.7839908363987558
20
7.9657395575725003
30
0
10
9.8859144241642731
20
8.0986611420195658
30
0
10
10.00187806890469
20
8.2197762633945217
30
0
10
10.130650160567418
20
8.3276580940063063
30
0
10
10.270723867424437
20
8.4205446296221762
30
0
10
10.420482088483208
20
8.4965440506949808
30
0
10
10.578366488781151
20
8.5538496299938362
30
0
10
10.743054061987149
20
8.5909643480677005
30
0
10
10.913602153823572
20
8.6068846001976897
30
0
10
11.089370437950182
20
8.6009848757744898
30
0
10
11.269967681515377
20
8.5729366635256223
30
0
10
11.418145207036531
20
8.5326802247023643
30
0
10
11.531325612956222
20
8.4924631228884451
30
0
10
11.607688368500174
20
8.461199833773966
30
0
10
11.64609703483818
20
8.4444552180312904
30
0
0
LINE
5
133
100
AcDbEntity
8
0
100
AcDbLine
10
11.64609703483818
20
8.4444552180312886
30
0
11
11.824316520954277
21
8.5472408520321821
31
0
0
LWPOLYLINE
5
134
100
AcDbEntity
8
0
100
AcDbPolyline
90
20
70
1
43
0.0
10
13.31152175858479
20
8.5051020260427723
10
12.332339944313096
20
8.5051020260427723
42
-0.2414877568095459
10
12.482615074954344
20
8.2121024193620755
10
12.482615074954344
20
5.1165426920923629
42
-0.20402849363759759
10
12.324052591232984
20
4.7992499336615779
10
13.318885359469952
20
4.799249933661577
42
-0.23950230918478566
10
13.153947879816771
20
5.1238322783516264
10
13.153947879816771
20
6.4035807933829849
10
14.120986352769069
20
6.4035807933829849
10
14.120986352769073
20
5.093109589592558
42
-0.18175283173378792
10
13.963344663857461
20
4.8056453333419755
10
14.95324173981713
20
4.8056453333419755
42
-0.22351320395992622
10
14.801617927963317
20
5.1278834915583547
10
14.801617927963317
20
8.234987261039759
42
-0.20375871577014026
10
14.958086102515679
20
8.5051020260427723
10
13.972198135424696
20
8.5051020260427723
42
-0.16841487052007698
10
14.124062685113572
20
8.224686181398404
10
14.124062685113572
20
6.9287060945241139
10
13.152366819732581
20
6.9287060945241139
10
13.152366819732581
20
8.224686181398404
42
-0.13152989633671658
0
LINE
5
135
100
AcDbEntity
8
0
100
AcDbLine
10
2.2113440733401637
20
8.0625448402123165
30
0
11
2.211344073303072
21
8.5020918763158075
31
0
0
LINE
5
136
100
AcDbEntity
8
0
100
AcDbLine
10
2.5472227723706129
20
8.0093315644495711
30
0
11
2.5472227723706129
21
8.4993541151203758
31
0
0
SPLINE
5
137
100
AcDbEntity
8
0
100
AcDbSpline
70
4
71
5
72
41
73
35
74
0
42
0.000000001
43
0.0000000001
44
0.0000000001
40
0
40
0
40
0
40
0
40
0
40
0
40
0.033333333333333333
40
0.066666666666666666
40
0.10000000000000001
40
0.13333333333333333
40
0.16666666666666666
40
0.19999999999999998
40
0.23333333333333331
40
0.26666666666666666
40
0.29999999999999999
40
0.33333333333333331
40
0.36666666666666664
40
0.39999999999999997
40
0.43333333333333329
40
0.46666666666666662
40
0.49999999999999994
40
0.53333333333333333
40
0.56666666666666665
40
0.59999999999999998
40
0.6333333333333333
40
0.66666666666666663
40
0.69999999999999996
40
0.73333333333333328
40
0.76666666666666661
40
0.79999999999999993
40
0.83333333333333326
40
0.86666666666666659
40
0.89999999999999991
40
0.93333333333333324
40
0.96666666666666656
40
1
40
1
40
1
40
1
40
1
40
1
41
1
41
1
41
1
41
1
41
1
41
1
41
1
41
1
41
1
41
1
41
1
41
1
41
1
41
1
41
1
41
1
41
1
41
1
41
1
41
1
41
1
41
1
41
1
41
1
41
1
41
1
41
1
41
1
41
1
41
1
41
1
41
1
41
1
41
1
41
1
10
2.4089059389951721
20
6.9631625290987067
30
0
10
2.4133077166433328
20
6.9627473623817107
30
0
10
2.422124379013618
20
6.9620486696693735
30
0
10
2.4353887724468297
20
6.9613955371103451
30
0
10
2.4531528889480074
20
6.9613160724186391
30
0
10
2.4755609463927968
20
6.9625559406398647
30
0
10
2.498375419812414
20
6.9651838202614726
30
0
10
2.5220292467091778
20
6.9692814496869504
30
0
10
2.5469508172634798
20
6.9750248028143309
30
0
10
2.573325038530033
20
6.9827399611777823
30
0
10
2.6007753838531245
20
6.9929880245495841
30
0
10
2.6283818205032627
20
7.0065368603629912
30
0
10
2.655064184517852
20
7.0242127600481323
30
0
10
2.679833321080765
20
7.0467928003985234
30
0
10
2.7021684604642431
20
7.0748608466166383
30
0
10
2.7220404962758384
20
7.1087563726479965
30
0
10
2.7396806542034216
20
7.1485900921875469
30
0
10
2.755417827161021
20
7.1942365401113459
30
0
10
2.7695027752973238
20
7.2453361803438812
30
0
10
2.7819057288376201
20
7.3012827420556103
30
0
10
2.7922381794761204
20
7.3612404627831713
30
0
10
2.7998824785116772
20
7.4242071112081893
30
0
10
2.804070964834025
20
7.4890644194745049
30
0
10
2.8039848111266972
20
7.5546319140338261
30
0
10
2.7988442731877323
20
7.6197181207644187
30
0
10
2.7880042019534375
20
7.6831726414993806
30
0
10
2.7710477971147531
20
7.7439376512011195
30
0
10
2.7478876557559739
20
7.8011016981134782
30
0
10
2.7186815135021107
20
7.8538962693851397
30
0
10
2.6837456118313905
20
7.9016922265891836
30
0
10
2.6434715585701301
20
7.9439982017438924
30
0
10
2.6072893180831849
20
7.9731678693026842
30
0
10
2.5780565300123914
20
7.9923185832168953
30
0
10
2.5576531647880341
20
8.0038641644387933
30
0
10
2.5472227723706129
20
8.0093315644495711
30
0
0
SPLINE
5
138
100
AcDbEntity
8
0
100
AcDbSpline
70
4
71
5
72
14
73
8
74
0
42
0.000000001
43
0.0000000001
44
0.0000000001
40
0.93416108391989761
40
0.93416108391989761
40
0.93416108391989761
40
0.93416108391989761
40
0.93416108391989761
40
0.93416108391989761
40
0.94285714285714306
40
0.97142857142857164
40
1
40
1
40
1
40
1
40
1
40
1
41
1
41
1
41
1
41
1
41
1
41
1
41
1
41
1
10
2.2113440733401637
20
8.0625448402123165
30
0
10
2.2066782199479165
20
8.062026681858562
30
0
10
2.1866110972500841
20
8.059654567227815
30
0
10
2.1506204293855808
20
8.054317147637212
30
0
10
2.1136851081905577
20
8.0469573227214699
30
0
10
2.0758124769851762
20
8.0375812474544794
30
0
10
2.0422369691945144
20
8.027926782228624
30
0
10
2.0252729341241915
20
8.0227203520756998
30
0
0
LINE
5
139
100
AcDbEntity
8
0
100
AcDbLine
10
2.2113440750687765
20
5.1920132359644171
30
0
11
2.2113440733401637
21
4.810462399972061
31
0
0
LINE
5
140
100
AcDbEntity
8
0
100
AcDbLine
10
2.6018867882200563
20
5.225618696649498
30
0
11
2.6018867882761803
21
4.810462399972061
31
0
0
SPLINE
5
141
100
AcDbEntity
8
0
100
AcDbSpline
70
4
71
5
72
35
73
29
74
0
42
0.000000001
43
0.0000000001
44
0.0000000001
40
0
40
0
40
0
40
0
40
0
40
0
40
0.028571428571428571
40
0.057142857142857141
40
0.085714285714285715
40
0.11428571428571428
40
0.14285714285714285
40
0.17142857142857143
40
0.20000000000000001
40
0.22857142857142859
40
0.25714285714285717
40
0.28571428571428575
40
0.31428571428571433
40
0.34285714285714292
40
0.3714285714285715
40
0.40000000000000008
40
0.42857142857142866
40
0.45714285714285724
40
0.48571428571428582
40
0.51428571428571435
40
0.54285714285714293
40
0.57142857142857151
40
0.60000000000000009
40
0.62857142857142867
40
0.65714285714285725
40
0.66748407744502214
40
0.66748407744502214
40
0.66748407744502214
40
0.66748407744502214
40
0.66748407744502214
40
0.66748407744502214
41
1
41
1
41
1
41
1
41
1
41
1
41
1
41
1
41
1
41
1
41
1
41
1
41
1
41
1
41
1
41
1
41
1
41
1
41
1
41
1
41
1
41
1
41
1
41
1
41
1
41
1
41
1
41
1
41
1
10
2.9438517636067476
20
6.181295659024908
30
0
10
2.9451428283761842
20
6.1790095556529039
30
0
10
2.947638920234815
20
6.1734511056421999
30
0
10
2.9511249341580874
20
6.1621548740446501
30
0
10
2.9552561126340828
20
6.1411667430516674
30
0
10
2.9595362646081669
20
6.1052907429009
30
0
10
2.9628739730478748
20
6.0605361240969335
30
0
10
2.9651534375812441
20
6.008548647500251
30
0
10
2.9662184421826705
20
5.9516187593904268
30
0
10
2.9658976682745273
20
5.8923092352633013
30
0
10
2.9640270788574035
20
5.8331311413394333
30
0
10
2.9604737396230907
20
5.7761999609288139
30
0
10
2.9551592295017475
20
5.7228990840783158
30
0
10
2.9480839610629728
20
5.6735352310951601
30
0
10
2.9392593840754668
20
5.6276621179027373
30
0
10
2.9286414117913253
20
5.5843984130809785
30
0
10
2.9160612360589644
20
5.5427495323562459
30
0
10
2.9011618076507766
20
5.5019149656818218
30
0
10
2.8833179422892901
20
5.4616324300951726
30
0
10
2.8617502748899262
20
5.4220791051327852
30
0
10
2.8356596052360494
20
5.3837278048577799
30
0
10
2.8043532230353994
20
5.3472216110285968
30
0
10
2.7673774199012615
20
5.3132403217239546
30
0
10
2.7246437384245255
20
5.2823746977628874
30
0
10
2.6825511691864787
20
5.2586008949202006
30
0
10
2.6472985284007016
20
5.2425454180979001
30
0
10
2.6213243851995021
20
5.2324492725145069
30
0
10
2.6059872957552996
20
5.2270302423113417
30
0
10
2.6018867882200563
20
5.225618696649498
30
0
0
SPLINE
5
142
100
AcDbEntity
8
0
100
AcDbSpline
70
4
71
5
72
17
73
11
74
0
42
0.000000001
43
0.0000000001
44
0.0000000001
40
0.8551357014530877
40
0.8551357014530877
40
0.8551357014530877
40
0.8551357014530877
40
0.8551357014530877
40
0.8551357014530877
40
0.85714285714285732
40
0.8857142857142859
40
0.91428571428571448
40
0.94285714285714306
40
0.97142857142857164
40
1
40
1
40
1
40
1
40
1
40
1
41
1
41
1
41
1
41
1
41
1
41
1
41
1
41
1
41
1
41
1
41
1
10
2.2113440750687765
20
5.1920132359644171
30
0
10
2.2106159492682584
20
5.1921297875766657
30
0
10
2.1995432543168447
20
5.1939190312368533
30
0
10
2.1787211857979338
20
5.1977804352654715
30
0
10
2.1496765383778151
20
5.2046307340764688
30
0
10
2.1151793701517079
20
5.2158364535135648
30
0
10
2.0797409126015287
20
5.2328739493142855
30
0
10
2.0571342610732972
20
5.2490626440041392
30
0
10
2.0434374790241492
20
5.262628622463005
30
0
10
2.0357524904504394
20
5.272304852073475
30
0
10
2.0322715442255324
20
5.2773010283050006
30
0
0
LINE
5
143
100
AcDbEntity
8
0
100
AcDbLine
10
1.119652236467102
20
4.810462399972061
30
0
11
2.2113440733401637
21
4.810462399972061
31
0
0
LINE
5
144
100
AcDbEntity
8
0
100
AcDbLine
10
2.6018867882761803
20
4.810462399972061
30
0
11
2.7709792054258111
21
4.810462399972061
31
0
0
LWPOLYLINE
5
145
100
AcDbEntity
8
0
100
AcDbPolyline
90
10
70
1
43
0.0
10
5.1449027765516684
20
4.3208930360337572
10
4.3793896288848702
20
4.3208930360337572
42
-0.22514233865039579
10
4.4600796230396549
20
4.1444179193006834
10
4.1744528901868492
20
2.8342454723178401
42
-0.10327753392686641
10
4.0263693944437771
20
2.657779306557345
10
5.3632857954814552
20
2.657779306557345
10
5.4638655602995847
20
3.0771193258913776
42
-0.1359632038563254
10
5.2408361427510259
20
2.9162678065684777
10
4.7231375553504336
20
2.9162678065684777
10
4.9694269833902238
20
4.086194162680326
42
-0.16586405192101622
0
LWPOLYLINE
5
146
100
AcDbEntity
8
0
100
AcDbPolyline
90
8
70
1
43
0.0
10
5.9080796794069723
20
4.3208930360337572
42
-0.3167216102728212
10
5.9895943316546809
20
4.1146796468894831
10
5.7186868202767078
20
2.8494864391079546
42
-0.1996942474603452
10
5.5580600529001725
20
2.6704545213028577
10
6.3243835889257278
20
2.6704545213028577
42
-0.27761921651852628
10
6.247416596224471
20
2.8980091084196165
10
6.5183670100509961
20
4.1361308711651965
42
-0.17135590031592166
10
6.6749609472636982
20
4.3208930360337572
0
LINE
5
147
100
AcDbEntity
8
0
100
AcDbLine
10
8.4058909865460709
20
4.3244004026143052
30
0
11
8.2863058399676817
21
3.7659134325300947
31
0
0
SPLINE
5
148
100
AcDbEntity
8
0
100
AcDbSpline
70
4
71
5
72
46
73
40
74
0
42
0.000000001
43
0.0000000001
44
0.0000000001
40
0
40
0
40
0
40
0
40
0
40
0
40
0.028571428571428571
40
0.057142857142857141
40
0.085714285714285715
40
0.11428571428571428
40
0.14285714285714285
40
0.17142857142857143
40
0.20000000000000001
40
0.22857142857142859
40
0.25714285714285717
40
0.28571428571428575
40
0.31428571428571433
40
0.34285714285714292
40
0.3714285714285715
40
0.40000000000000008
40
0.42857142857142866
40
0.45714285714285724
40
0.48571428571428582
40
0.51428571428571435
40
0.54285714285714293
40
0.57142857142857151
40
0.60000000000000009
40
0.62857142857142867
40
0.65714285714285725
40
0.68571428571428583
40
0.71428571428571441
40
0.74285714285714299
40
0.77142857142857157
40
0.80000000000000016
40
0.82857142857142874
40
0.85714285714285732
40
0.8857142857142859
40
0.91428571428571448
40
0.94285714285714306
40
0.97142857142857164
40
1
40
1
40
1
40
1
40
1
40
1
41
1
41
1
41
1
41
1
41
1
41
1
41
1
41
1
41
1
41
1
41
1
41
1
41
1
41
1
41
1
41
1
41
1
41
1
41
1
41
1
41
1
41
1
41
1
41
1
41
1
41
1
41
1
41
1
41
1
41
1
41
1
41
1
41
1
41
1
41
1
41
1
41
1
41
1
41
1
41
1
10
8.2863058399676817
20
3.7659134325300947
30
0
10
8.2806442083698943
20
3.7716334618492122
30
0
10
8.269831005369328
20
3.7835456393900824
30
0
10
8.2551407131059182
20
3.8028300359887299
30
0
10
8.2386225576706913
20
3.8313805604815863
30
0
10
8.2224270801316699
20
3.8715198913845392
30
0
10
8.2087614894823631
20
3.9152717300833371
30
0
10
8.193522491326096
20
3.9608519764524988
30
0
10
8.1714768413245142
20
4.0058128360228258
30
0
10
8.1378779699467696
20
4.0475159433640719
30
0
10
8.0899115736172025
20
4.0835437915643862
30
0
10
8.0281760929229069
20
4.1121270855232055
30
0
10
7.9556184324061627
20
4.1319786928146014
30
0
10
7.876560822888818
20
4.1421503755548601
30
0
10
7.7956800313826218
20
4.1418784967663127
30
0
10
7.7170643024712646
20
4.1304488725354842
30
0
10
7.6430965581706927
20
4.1070234677920086
30
0
10
7.5747211377192052
20
4.0707838769707028
30
0
10
7.5119489745027348
20
4.0211310529521471
30
0
10
7.4542751733586439
20
3.9578689385342565
30
0
10
7.4011252007762813
20
3.8813957555290406
30
0
10
7.3522963311563352
20
3.7929029181621683
30
0
10
7.308375532387716
20
3.6945587308741574
30
0
10
7.2704881250699502
20
3.5892475067608833
30
0
10
7.2400787822442396
20
3.4803324394537567
30
0
10
7.2186791166127895
20
3.3714114405995823
30
0
10
7.2076868918807468
20
3.2660826577538082
30
0
10
7.2081252068818884
20
3.1676961490180715
30
0
10
7.2204392496457439
20
3.0791341078248795
30
0
10
7.2441935324562872
20
3.0025165103197389
30
0
10
7.2781321166748487
20
2.9391791281915212
30
0
10
7.3205445596677921
20
2.8898839006112662
30
0
10
7.3695534669584619
20
2.8549628104505436
30
0
10
7.4234066281096318
20
2.8344772729650165
30
0
10
7.480828801406056
20
2.8283859585117423
30
0
10
7.5410729553549807
20
2.8366238855628505
30
0
10
7.5912149752495965
20
2.8546146658972642
30
0
10
7.6298570040604634
20
2.8744920310271063
30
0
10
7.6560777962472013
20
2.890577239945161
30
0
10
7.6693030625322223
20
2.8993282557466959
30
0
0
LINE
5
149
100
AcDbEntity
8
0
100
AcDbLine
10
7.6693030625322223
20
2.8993282557466959
30
0
11
7.7534865012313112
21
3.2527276840452095
31
0
0
ARC
5
150
100
AcDbEntity
8
0
100
AcDbCircle
10
7.5889362628355537
20
3.2919252712444989
30
0
40
0.16915446136104884
210
0
220
0
230
1
100
AcDbArc
50
-13.398744892686334
51
63.704979169635266
0
LINE
5
151
100
AcDbEntity
8
0
100
AcDbLine
10
7.6638705528180013
20
3.4435764630735548
30
0
11
8.4222870051306433
21
3.4435764630735548
31
0
0
ARC
5
152
100
AcDbEntity
8
0
100
AcDbCircle
10
8.7825523873364233
20
2.9955135408171265
30
0
40
0.57493610768227166
210
0
220
0
230
1
100
AcDbArc
50
128.80105186676104
51
151.37139155250841
0
LINE
5
153
100
AcDbEntity
8
0
100
AcDbLine
10
8.2779057549091988
20
3.2709827846479209
30
0
11
8.2062129961785519
21
2.9624715844620995
31
0
0
ARC
5
154
100
AcDbEntity
8
0
100
AcDbCircle
10
8.4773703460853564
20
2.8994592255811198
30
0
40
0.27838258885969858
210
0
220
0
230
1
100
AcDbArc
50
166.91762710496593
51
212.29815377568917
0
ARC
5
155
100
AcDbEntity
8
0
100
AcDbCircle
10
8.1693708840530803
20
2.1104464906096676
30
0
40
0.64437882793769463
210
0
220
-0
230
1
100
AcDbArc
50
83.523022315926895
51
116.19510809536372
0
SPLINE
5
156
100
AcDbEntity
8
0
100
AcDbSpline
70
4
71
5
72
46
73
40
74
0
42
0.000000001
43
0.0000000001
44
0.0000000001
40
0
40
0
40
0
40
0
40
0
40
0
40
0.028571428571428571
40
0.057142857142857141
40
0.085714285714285715
40
0.11428571428571428
40
0.14285714285714285
40
0.17142857142857143
40
0.20000000000000001
40
0.22857142857142859
40
0.25714285714285717
40
0.28571428571428575
40
0.31428571428571433
40
0.34285714285714292
40
0.3714285714285715
40
0.40000000000000008
40
0.42857142857142866
40
0.45714285714285724
40
0.48571428571428582
40
0.51428571428571435
40
0.54285714285714293
40
0.57142857142857151
40
0.60000000000000009
40
0.62857142857142867
40
0.65714285714285725
40
0.68571428571428583
40
0.71428571428571441
40
0.74285714285714299
40
0.77142857142857157
40
0.80000000000000016
40
0.82857142857142874
40
0.85714285714285732
40
0.8857142857142859
40
0.91428571428571448
40
0.94285714285714306
40
0.97142857142857164
40
1
40
1
40
1
40
1
40
1
40
1
41
1
41
1
41
1
41
1
41
1
41
1
41
1
41
1
41
1
41
1
41
1
41
1
41
1
41
1
41
1
41
1
41
1
41
1
41
1
41
1
41
1
41
1
41
1
41
1
41
1
41
1
41
1
41
1
41
1
41
1
41
1
41
1
41
1
41
1
41
1
41
1
41
1
41
1
41
1
41
1
10
7.8849232255708319
20
2.6886450754214297
30
0
10
7.8757443454382585
20
2.6869847291062556
30
0
10
7.8572157960229854
20
2.683603291110924
30
0
10
7.828910996148589
20
2.6783488406542926
30
0
10
7.7901425509946929
20
2.6709783319933149
30
0
10
7.7396497010499132
20
2.6612545991473757
30
0
10
7.6861181086054779
20
2.6513262578434804
30
0
10
7.6277040514901362
20
2.6417865899325133
30
0
10
7.5625246544576923
20
2.6334614222492623
30
0
10
7.4892885477531079
20
2.6273757735259307
30
0
10
7.408062804744354
20
2.6247110396673174
30
0
10
7.3200660138078044
20
2.626807661403701
30
0
10
7.2273699188845004
20
2.6351782679998514
30
0
10
7.1326441510178062
20
2.6515043874661948
30
0
10
7.0388747404809333
20
2.6776712345727356
30
0
10
6.949137761410709
20
2.7156856947812922
30
0
10
6.8664796587746704
20
2.767342619379054
30
0
10
6.79377367093615
20
2.8339302202049037
30
0
10
6.733589460386959
20
2.9159372442922917
30
0
10
6.688042259958582
20
3.0127032939074008
30
0
10
6.6586854566053635
20
3.122243431105244
30
0
10
6.6465419840226732
20
3.2416587043979161
30
0
10
6.652108814716267
20
3.3674398859246772
30
0
10
6.6753661358129808
20
3.4958108980006313
30
0
10
6.7157818089647812
20
3.6230461098411917
30
0
10
6.7723073281095463
20
3.7458129753958671
30
0
10
6.8433884611184794
20
3.8614622592146279
30
0
10
6.9271217503608788
20
3.9679178021478902
30
0
10
7.0213950573535673
20
4.0636064850856881
30
0
10
7.1240298104518578
20
4.1473768916109419
30
0
10
7.2329240782913065
20
4.2184260500093735
30
0
10
7.3461862800564148
20
4.27622728710028
30
0
10
7.4622926840382098
20
4.3204581238697148
30
0
10
7.5801725172690082
20
4.350939597372034
30
0
10
7.6991076651859673
20
4.3676028530886306
30
0
10
7.8186693776229337
20
4.3704523827903543
30
0
10
7.9146473355514901
20
4.3617166146156876
30
0
10
7.9867830381787197
20
4.3489918446014144
30
0
10
8.0349410594881423
20
4.3377687824759761
30
0
10
8.0590369593585773
20
4.3314722806058503
30
0
0
ARC
5
157
100
AcDbEntity
8
0
100
AcDbCircle
10
8.2387536128016716
20
4.636423975858456
30
0
40
0.35396837706527501
210
0
220
0
230
1
100
AcDbArc
50
239.48795304726349
51
298.17600585619221
0
LWPOLYLINE
5
158
100
AcDbEntity
8
0
100
AcDbPolyline
90
20
70
1
43
0.0
10
9.6039546632890271
20
4.3285839898224534
10
8.8325023241211333
20
4.3285839898224534
42
-0.248608700066444
10
8.9180967294433682
20
4.0943377810677966
10
8.6640631398097092
20
2.9238287675348982
42
-0.19531378472779376
10
8.4901258313324881
20
2.6693042083336813
10
9.2629142766626078
20
2.6693042083336818
42
-0.35974410782414179
10
9.174909898546721
20
2.8673140590944231
10
9.2899297873196378
20
3.4145179485208219
10
9.7724412917081391
20
3.4145179485208219
10
9.6473099749033899
20
2.8894345095612151
42
-0.19831048705039533
10
9.4902774377165375
20
2.6720048426871132
10
10.245912638025917
20
2.6720048426871132
42
-0.18995081876897071
10
10.16269881490126
20
2.8545383901863586
10
10.431044544629053
20
4.0867133704536567
42
-0.21788664065268654
10
10.605115902206188
20
4.3188085138898398
10
9.8330771959149992
20
4.3188085138898398
42
-0.23380882969494818
10
9.9233364183624051
20
4.1592431027774648
10
9.8225267499745037
20
3.6704509102390799
10
9.3442455605434649
20
3.6704509102390799
10
9.4401795581446741
20
4.1356026142009936
42
-0.11917067643427862
0
LWPOLYLINE
5
159
100
AcDbEntity
8
0
100
AcDbPolyline
90
14
70
1
43
0.0
10
10.700431062253246
20
3.9667024443864753
10
10.78554744161292
20
4.3404165475125422
42
0.080250680531878518
10
10.988426865650498
20
4.3265397614230618
10
12.050170804171739
20
4.3300739390376748
42
0.13104564304594707
10
12.219756035043524
20
4.3452289894391383
10
12.145053131172416
20
3.9705095845372873
42
0.28392773358934542
10
11.981188696874501
20
4.0717199704271767
10
11.707679677862538
20
4.0717199704271767
10
11.444467912765267
20
2.8578621117126008
42
0.35163715548260122
10
11.530049772324563
20
2.6713375460064408
10
10.759813036290893
20
2.6713375460064408
42
0.26169236420414227
10
10.926587942098752
20
2.8600565183679674
10
11.187190356716378
20
4.071767975158572
10
10.899922576377481
20
4.071767975158572
42
0.17635947071810429
0
LINE
5
160
100
AcDbEntity
8
0
100
AcDbLine
10
1.2499999999999996
20
11.999999999999998
30
0
11
1.2499999999999996
21
11.874999999999998
31
0
0
CIRCLE
5
161
100
AcDbEntity
8
0
100
AcDbCircle
10
1.2499999999999996
20
11.874999999999998
30
0
40
0.12499999999999986
210
0
220
0
230
1
0
LINE
5
162
100
AcDbEntity
8
0
100
AcDbLine
10
14.75
20
11.999999999999998
30
0
11
14.75
21
11.874999999999998
31
0
0
CIRCLE
5
163
100
AcDbEntity
8
0
100
AcDbCircle
10
14.75
20
11.874999999999998
30
0
40
0.12499999999999949
210
0
220
0
230
1
0
LINE
5
164
100
AcDbEntity
8
0
100
AcDbLine
10
1.2499999999999996
20
11.874999999999998
30
0
11
1.1249999999999998
21
11.874999999999998
31
0
0
LINE
5
165
100
AcDbEntity
8
0
100
AcDbLine
10
0
20
11.874999999999998
30
0
11
-0.43168749035247078
21
11.874999999999998
31
0
0
ENDSEC
0
SECTION
2
OBJECTS
0
DICTIONARY
5
C
100
AcDbDictionary
3
ACAD_GROUP
350
D
3
ACAD_MLINESTYLE
350
17
0
DICTIONARY
5
D
100
AcDbDictionary
0
DICTIONARY
5
1A
330
C
100
AcDbDictionary
0
DICTIONARY
5
17
100
AcDbDictionary
0
ENDSEC
0
EOF
