  0
SECTION
  2
HEADER
  9
$ACADVER
  1
AC1014
  9
$HANDSEED
  5
FFFF
  9
$MEASUREMENT
 70
     1
  0
ENDSEC
  0
SECTION
  2
TABLES
  0
TABLE
  2
VPORT
  5
8
330
0
100
AcDbSymbolTable
 70
     4
  0
VPORT
  5
2E
330
8
100
AcDbSymbolTableRecord
100
AcDbViewportTableRecord
  2
*ACTIVE
 70
     0
 10
0.0
 20
0.0
 11
1.0
 21
1.0
 12
210.0
 22
148.5
 13
0.0
 23
0.0
 14
10.0
 24
10.0
 15
10.0
 25
10.0
 16
0.0
 26
0.0
 36
1.0
 17
0.0
 27
0.0
 37
0.0
 40
341.0
 41
1.24
 42
50.0
 43
0.0
 44
0.0
 50
0.0
 51
0.0
 71
     0
 72
   100
 73
     1
 74
     3
 75
     0
 76
     0
 77
     0
 78
     0
  0
ENDTAB
  0
TABLE
  2
LTYPE
  5
5
330
0
100
AcDbSymbolTable
 70
     1
  0
LTYPE
  5
14
330
5
100
AcDbSymbolTableRecord
100
AcDbLinetypeTableRecord
  2
BYBLOCK
 70
     0
  3

 72
    65
 73
     0
 40
0.0
  0
LTYPE
  5
15
330
5
100
AcDbSymbolTableRecord
100
AcDbLinetypeTableRecord
  2
BYLAYER
 70
     0
  3

 72
    65
 73
     0
 40
0.0
  0
LTYPE
  5
16
330
5
100
AcDbSymbolTableRecord
100
AcDbLinetypeTableRecord
  2
CONTINUOUS
 70
     0
  3
Solid line
 72
    65
 73
     0
 40
0.0
  0
ENDTAB
  0
TABLE
  2
LAYER
  5
2
100
AcDbSymbolTable
 70
2
  0
LAYER
  5
50
100
AcDbSymbolTableRecord
100
AcDbLayerTableRecord
  2
0
 70
0
  6
CONTINUOUS
  0
LAYER
  5
51
100
AcDbSymbolTableRecord
100
AcDbLayerTableRecord
  2
Layer_1
 70
0
  6
CONTINUOUS
  0
ENDTAB
  0
TABLE
  2
STYLE
  5
3
330
0
100
AcDbSymbolTable
 70
     1
  0
STYLE
  5
11
330
3
100
AcDbSymbolTableRecord
100
AcDbTextStyleTableRecord
  2
STANDARD
 70
     0
 40
0.0
 41
1.0
 50
0.0
 71
     0
 42
2.5
  3
txt
  4

  0
ENDTAB
  0
TABLE
  2
VIEW
  5
6
330
0
100
AcDbSymbolTable
 70
     0
  0
ENDTAB
  0
TABLE
  2
UCS
  5
7
330
0
100
AcDbSymbolTable
 70
     0
  0
ENDTAB
  0
TABLE
  2
APPID
  5
9
330
0
100
AcDbSymbolTable
 70
     2
  0
APPID
  5
12
330
9
100
AcDbSymbolTableRecord
100
AcDbRegAppTableRecord
  2
ACAD
 70
     0
  0
ENDTAB
  0
TABLE
  2
DIMSTYLE
  5
A
330
0
100
AcDbSymbolTable
 70
     1
  0
DIMSTYLE
105
27
330
A
100
AcDbSymbolTableRecord
100
AcDbDimStyleTableRecord
  2
ISO-25
 70
     0
  3

  4

  5

  6

  7

 40
1.0
 41
2.5
 42
0.625
 43
3.75
 44
1.25
 45
0.0
 46
0.0
 47
0.0
 48
0.0
140
2.5
141
2.5
142
0.0
143
0.03937007874016
144
1.0
145
0.0
146
1.0
147
0.625
 71
     0
 72
     0
 73
     0
 74
     0
 75
     0
 76
     0
 77
     1
 78
     8
170
     0
171
     3
172
     1
173
     0
174
     0
175
     0
176
     0
177
     0
178
     0
270
     2
271
     2
272
     2
273
     2
274
     3
340
11
275
     0
280
     0
281
     0
282
     0
283
     0
284
     8
285
     0
286
     0
287
     3
288
     0
  0
ENDTAB
  0
TABLE
  2
BLOCK_RECORD
  5
1
330
0
100
AcDbSymbolTable
 70
     1
  0
BLOCK_RECORD
  5
1F
330
1
100
AcDbSymbolTableRecord
100
AcDbBlockTableRecord
  2
*MODEL_SPACE
  0
BLOCK_RECORD
  5
1B
330
1
100
AcDbSymbolTableRecord
100
AcDbBlockTableRecord
  2
*PAPER_SPACE
  0
ENDTAB
  0
ENDSEC
  0
SECTION
  2
BLOCKS
  0
BLOCK
  5
20
330
1F
100
AcDbEntity
  8
0
100
AcDbBlockBegin
  2
*MODEL_SPACE
 70
     0
 10
0.0
 20
0.0
 30
0.0
  3
*MODEL_SPACE
  1

  0
ENDBLK
  5
21
330
1F
100
AcDbEntity
  8
0
100
AcDbBlockEnd
  0
BLOCK
  5
1C
330
1B
100
AcDbEntity
 67
     1
  8
0
100
AcDbBlockBegin
  2
*PAPER_SPACE
  1

  0
ENDBLK
  5
1D
330
1B
100
AcDbEntity
 67
     1
  8
0
100
AcDbBlockEnd
  0
ENDSEC
  0
SECTION
  2
ENTITIES
  0
SPLINE
  5
100
100
AcDbEntity
  8
Layer_1
 62
7
100
AcDbSpline
 70
8
 71
3
 72
8
 73
4
 74
0
 40
0
 40
0
 40
0
 40
0
 40
1
 40
1
 40
1
 40
1
 10
834.629981
 20
1738.333497
 30
0.0
 10
758.570998
 20
1739.579525
 30
0.0
 10
689.606393
 20
1693.835192
 30
0.0
 10
661.173517
 20
1623.279546
 30
0.0
  0
SPLINE
  5
101
100
AcDbEntity
  8
Layer_1
 62
7
100
AcDbSpline
 70
8
 71
3
 72
8
 73
4
 74
0
 40
0
 40
0
 40
0
 40
0
 40
1
 40
1
 40
1
 40
1
 10
661.173517
 20
1623.279546
 30
0.0
 10
656.047250
 20
1611.713900
 30
0.0
 10
652.224155
 20
1599.731881
 30
0.0
 10
650.168082
 20
1588.336634
 30
0.0
  0
SPLINE
  5
102
100
AcDbEntity
  8
Layer_1
 62
7
100
AcDbSpline
 70
8
 71
3
 72
8
 73
4
 74
0
 40
0
 40
0
 40
0
 40
0
 40
1
 40
1
 40
1
 40
1
 10
650.168082
 20
1588.336634
 30
0.0
 10
649.721259
 20
1585.860769
 30
0.0
 10
649.343619
 20
1581.825878
 30
0.0
 10
649.048516
 20
1577.023818
 30
0.0
  0
SPLINE
  5
103
100
AcDbEntity
  8
Layer_1
 62
7
100
AcDbSpline
 70
8
 71
3
 72
8
 73
4
 74
0
 40
0
 40
0
 40
0
 40
0
 40
1
 40
1
 40
1
 40
1
 10
649.048516
 20
1577.023818
 30
0.0
 10
648.251240
 20
1570.653746
 30
0.0
 10
647.788317
 20
1564.246227
 30
0.0
 10
647.661617
 20
1557.827711
 30
0.0
  0
SPLINE
  5
104
100
AcDbEntity
  8
Layer_1
 62
7
100
AcDbSpline
 70
8
 71
3
 72
8
 73
4
 74
0
 40
0
 40
0
 40
0
 40
0
 40
1
 40
1
 40
1
 40
1
 10
647.661617
 20
1557.827711
 30
0.0
 10
647.478924
 20
1547.318546
 30
0.0
 10
648.197841
 20
1536.813037
 30
0.0
 10
649.810979
 20
1526.426810
 30
0.0
  0
SPLINE
  5
105
100
AcDbEntity
  8
Layer_1
 62
7
100
AcDbSpline
 70
8
 71
3
 72
8
 73
4
 74
0
 40
0
 40
0
 40
0
 40
0
 40
1
 40
1
 40
1
 40
1
 10
649.810979
 20
1526.426810
 30
0.0
 10
649.917051
 20
1525.283371
 30
0.0
 10
650.040500
 20
1523.995166
 30
0.0
 10
650.080780
 20
1523.388864
 30
0.0
  0
SPLINE
  5
106
100
AcDbEntity
  8
Layer_1
 62
7
100
AcDbSpline
 70
8
 71
3
 72
8
 73
4
 74
0
 40
0
 40
0
 40
0
 40
0
 40
1
 40
1
 40
1
 40
1
 10
650.080780
 20
1523.388864
 30
0.0
 10
650.202897
 20
1521.548158
 30
0.0
 10
650.493848
 20
1519.393119
 30
0.0
 10
650.726838
 20
1518.601034
 30
0.0
  0
SPLINE
  5
107
100
AcDbEntity
  8
Layer_1
 62
7
100
AcDbSpline
 70
8
 71
3
 72
8
 73
4
 74
0
 40
0
 40
0
 40
0
 40
0
 40
1
 40
1
 40
1
 40
1
 10
650.726838
 20
1518.601034
 30
0.0
 10
650.959960
 20
1517.808920
 30
0.0
 10
651.617325
 20
1515.004237
 30
0.0
 10
652.186998
 20
1512.367676
 30
0.0
  0
SPLINE
  5
108
100
AcDbEntity
  8
Layer_1
 62
7
100
AcDbSpline
 70
8
 71
3
 72
8
 73
4
 74
0
 40
0
 40
0
 40
0
 40
0
 40
1
 40
1
 40
1
 40
1
 10
652.186998
 20
1512.367676
 30
0.0
 10
653.882202
 20
1504.522993
 30
0.0
 10
657.056580
 20
1494.158649
 30
0.0
 10
657.873746
 20
1493.802618
 30
0.0
  0
SPLINE
  5
109
100
AcDbEntity
  8
Layer_1
 62
7
100
AcDbSpline
 70
8
 71
3
 72
8
 73
4
 74
0
 40
0
 40
0
 40
0
 40
0
 40
1
 40
1
 40
1
 40
1
 10
657.873746
 20
1493.802618
 30
0.0
 10
657.992007
 20
1493.750461
 30
0.0
 10
658.100064
 20
1493.646712
 30
0.0
 10
658.198273
 20
1493.517821
 30
0.0
  0
SPLINE
  5
10a
100
AcDbEntity
  8
Layer_1
 62
7
100
AcDbSpline
 70
8
 71
3
 72
8
 73
4
 74
0
 40
0
 40
0
 40
0
 40
0
 40
1
 40
1
 40
1
 40
1
 10
658.198273
 20
1493.517821
 30
0.0
 10
658.332266
 20
1493.083638
 30
0.0
 10
658.467791
 20
1492.649853
 30
0.0
 10
658.604920
 20
1492.216577
 30
0.0
  0
SPLINE
  5
10b
100
AcDbEntity
  8
Layer_1
 62
7
100
AcDbSpline
 70
8
 71
3
 72
8
 73
4
 74
0
 40
0
 40
0
 40
0
 40
0
 40
1
 40
1
 40
1
 40
1
 10
658.604920
 20
1492.216577
 30
0.0
 10
658.604937
 20
1492.193900
 30
0.0
 10
658.612290
 20
1492.167254
 30
0.0
 10
658.612006
 20
1492.142309
 30
0.0
  0
SPLINE
  5
10c
100
AcDbEntity
  8
Layer_1
 62
7
100
AcDbSpline
 70
8
 71
3
 72
8
 73
4
 74
0
 40
0
 40
0
 40
0
 40
0
 40
1
 40
1
 40
1
 40
1
 10
658.612006
 20
1492.142309
 30
0.0
 10
658.598967
 20
1491.412190
 30
0.0
 10
660.004175
 20
1487.769670
 30
0.0
 10
661.735074
 20
1484.048262
 30
0.0
  0
SPLINE
  5
10d
100
AcDbEntity
  8
Layer_1
 62
7
100
AcDbSpline
 70
8
 71
3
 72
8
 73
4
 74
0
 40
0
 40
0
 40
0
 40
0
 40
1
 40
1
 40
1
 40
1
 10
661.735074
 20
1484.048262
 30
0.0
 10
663.465855
 20
1480.326769
 30
0.0
 10
664.648651
 20
1477.287037
 30
0.0
 10
664.364010
 20
1477.292054
 30
0.0
  0
SPLINE
  5
10e
100
AcDbEntity
  8
Layer_1
 62
7
100
AcDbSpline
 70
8
 71
3
 72
8
 73
4
 74
0
 40
0
 40
0
 40
0
 40
0
 40
1
 40
1
 40
1
 40
1
 10
664.364010
 20
1477.292054
 30
0.0
 10
664.079414
 20
1477.294747
 30
0.0
 10
664.340199
 20
1476.684845
 30
0.0
 10
664.943128
 20
1475.931793
 30
0.0
  0
SPLINE
  5
10f
100
AcDbEntity
  8
Layer_1
 62
7
100
AcDbSpline
 70
8
 71
3
 72
8
 73
4
 74
0
 40
0
 40
0
 40
0
 40
0
 40
1
 40
1
 40
1
 40
1
 10
664.943128
 20
1475.931793
 30
0.0
 10
666.360564
 20
1474.161613
 30
0.0
 10
664.132941
 20
1463.355717
 30
0.0
 10
664.132941
 20
1463.355717
 30
0.0
  0
SPLINE
  5
110
100
AcDbEntity
  8
Layer_1
 62
7
100
AcDbSpline
 70
8
 71
3
 72
8
 73
4
 74
0
 40
0
 40
0
 40
0
 40
0
 40
1
 40
1
 40
1
 40
1
 10
664.132941
 20
1463.355717
 30
0.0
 10
605.980729
 20
1270.655598
 30
0.0
 10
422.997052
 20
830.395015
 30
0.0
 10
422.997052
 20
830.395015
 30
0.0
  0
SPLINE
  5
111
100
AcDbEntity
  8
Layer_1
 62
7
100
AcDbSpline
 70
8
 71
3
 72
8
 73
4
 74
0
 40
0
 40
0
 40
0
 40
0
 40
1
 40
1
 40
1
 40
1
 10
121.288422
 20
102.860328
 30
0.0
 10
121.288422
 20
102.860328
 30
0.0
 10
119.424756
 20
97.549251
 30
0.0
 10
112.842510
 20
82.989434
 30
0.0
  0
SPLINE
  5
112
100
AcDbEntity
  8
Layer_1
 62
7
100
AcDbSpline
 70
8
 71
3
 72
8
 73
4
 74
0
 40
0
 40
0
 40
0
 40
0
 40
1
 40
1
 40
1
 40
1
 10
112.842510
 20
82.989434
 30
0.0
 10
108.627534
 20
73.600605
 30
0.0
 10
101.388416
 20
57.482442
 30
0.0
 10
101.120145
 20
46.662911
 30
0.0
  0
SPLINE
  5
113
100
AcDbEntity
  8
Layer_1
 62
7
100
AcDbSpline
 70
8
 71
3
 72
8
 73
4
 74
0
 40
0
 40
0
 40
0
 40
0
 40
1
 40
1
 40
1
 40
1
 10
101.120145
 20
46.662911
 30
0.0
 10
107.231868
 20
23.545071
 30
0.0
 10
167.118690
 20
77.366177
 30
0.0
 10
167.118690
 20
77.366177
 30
0.0
  0
LWPOLYLINE
  5
114
100
AcDbEntity
  8
Layer_1
 62
7
100
AcDbPolyline
 90
5
 70
0
 10
422.997052
 20
830.395015
 30
0.0
 10
219.478450
 20
1024.238857
 30
0.0
 10
36.365556
 20
853.589815
 30
0.0
 10
315.322172
 20
574.291270
 30
0.0
 10
121.288422
 20
102.860328
 30
0.0
  0
SPLINE
  5
115
100
AcDbEntity
  8
Layer_1
 62
7
100
AcDbSpline
 70
8
 71
3
 72
8
 73
4
 74
0
 40
0
 40
0
 40
0
 40
0
 40
1
 40
1
 40
1
 40
1
 10
174.873742
 20
85.239547
 30
0.0
 10
260.278863
 20
206.723078
 30
0.0
 10
323.368503
 20
356.613840
 30
0.0
 10
405.494683
 20
483.239333
 30
0.0
  0
LWPOLYLINE
  5
116
100
AcDbEntity
  8
Layer_1
 62
7
100
AcDbPolyline
 90
2
 70
0
 10
167.118690
 20
77.366177
 30
0.0
 10
174.873742
 20
85.239547
 30
0.0
  0
SPLINE
  5
117
100
AcDbEntity
  8
Layer_1
 62
7
100
AcDbSpline
 70
8
 71
3
 72
8
 73
4
 74
0
 40
0
 40
0
 40
0
 40
0
 40
1
 40
1
 40
1
 40
1
 10
1425.845877
 20
100.930303
 30
0.0
 10
1426.898891
 20
98.728209
 30
0.0
 10
1445.447367
 20
74.600385
 30
0.0
 10
1450.326813
 20
71.172334
 30
0.0
  0
SPLINE
  5
118
100
AcDbEntity
  8
Layer_1
 62
7
100
AcDbSpline
 70
8
 71
3
 72
8
 73
4
 74
0
 40
0
 40
0
 40
0
 40
0
 40
1
 40
1
 40
1
 40
1
 10
1450.326813
 20
71.172334
 30
0.0
 10
1468.397395
 20
58.476892
 30
0.0
 10
1486.838608
 20
47.480508
 30
0.0
 10
1504.092359
 20
40.967853
 30
0.0
  0
SPLINE
  5
119
100
AcDbEntity
  8
Layer_1
 62
7
100
AcDbSpline
 70
8
 71
3
 72
8
 73
4
 74
0
 40
0
 40
0
 40
0
 40
0
 40
1
 40
1
 40
1
 40
1
 10
1504.092359
 20
40.967853
 30
0.0
 10
1511.358123
 20
38.225390
 30
0.0
 10
1514.113427
 20
42.175355
 30
0.0
 10
1513.107269
 20
45.934180
 30
0.0
  0
SPLINE
  5
11a
100
AcDbEntity
  8
Layer_1
 62
7
100
AcDbSpline
 70
8
 71
3
 72
8
 73
4
 74
0
 40
0
 40
0
 40
0
 40
0
 40
1
 40
1
 40
1
 40
1
 10
1513.107269
 20
45.934180
 30
0.0
 10
1467.318331
 20
216.984013
 30
0.0
 10
1309.745169
 20
581.246357
 30
0.0
 10
1309.745169
 20
581.246357
 30
0.0
  0
SPLINE
  5
11b
100
AcDbEntity
  8
Layer_1
 62
7
100
AcDbSpline
 70
8
 71
3
 72
8
 73
4
 74
0
 40
0
 40
0
 40
0
 40
0
 40
1
 40
1
 40
1
 40
1
 10
1309.745169
 20
581.246357
 30
0.0
 10
1398.866627
 20
668.511575
 30
0.0
 10
1578.283257
 20
854.014700
 30
0.0
 10
1578.283257
 20
854.014700
 30
0.0
  0
LWPOLYLINE
  5
11c
100
AcDbEntity
  8
Layer_1
 62
7
100
AcDbPolyline
 90
4
 70
0
 10
405.494683
 20
483.239333
 30
0.0
 10
813.184299
 20
75.668621
 30
0.0
 10
1214.492769
 20
484.769531
 30
0.0
 10
1425.845877
 20
100.930303
 30
0.0
  0
SPLINE
  5
11d
100
AcDbEntity
  8
Layer_1
 62
7
100
AcDbSpline
 70
8
 71
3
 72
8
 73
4
 74
0
 40
0
 40
0
 40
0
 40
0
 40
1
 40
1
 40
1
 40
1
 10
991.855729
 20
1456.789062
 30
0.0
 10
992.425606
 20
1461.814350
 30
0.0
 10
992.946671
 20
1465.489610
 30
0.0
 10
993.440778
 20
1468.320287
 30
0.0
  0
SPLINE
  5
11e
100
AcDbEntity
  8
Layer_1
 62
7
100
AcDbSpline
 70
8
 71
3
 72
8
 73
4
 74
0
 40
0
 40
0
 40
0
 40
0
 40
1
 40
1
 40
1
 40
1
 10
993.440778
 20
1468.320287
 30
0.0
 10
1002.787200
 20
1485.912098
 30
0.0
 10
1009.211216
 20
1504.906690
 30
0.0
 10
1012.461137
 20
1524.560281
 30
0.0
  0
SPLINE
  5
11f
100
AcDbEntity
  8
Layer_1
 62
7
100
AcDbSpline
 70
8
 71
3
 72
8
 73
4
 74
0
 40
0
 40
0
 40
0
 40
0
 40
1
 40
1
 40
1
 40
1
 10
1012.461137
 20
1524.560281
 30
0.0
 10
1012.908586
 20
1526.834574
 30
0.0
 10
1013.292850
 20
1529.106656
 30
0.0
 10
1013.613449
 20
1531.371708
 30
0.0
  0
SPLINE
  5
120
100
AcDbEntity
  8
Layer_1
 62
7
100
AcDbSpline
 70
8
 71
3
 72
8
 73
4
 74
0
 40
0
 40
0
 40
0
 40
0
 40
1
 40
1
 40
1
 40
1
 10
1013.613449
 20
1531.371708
 30
0.0
 10
1013.735055
 20
1532.245090
 30
0.0
 10
1013.850142
 20
1533.119409
 30
0.0
 10
1013.958964
 20
1533.994492
 30
0.0
  0
SPLINE
  5
121
100
AcDbEntity
  8
Layer_1
 62
7
100
AcDbSpline
 70
8
 71
3
 72
8
 73
4
 74
0
 40
0
 40
0
 40
0
 40
0
 40
1
 40
1
 40
1
 40
1
 10
1013.958964
 20
1533.994492
 30
0.0
 10
1014.440740
 20
1538.015749
 30
0.0
 10
1014.710825
 20
1541.990461
 30
0.0
 10
1014.762416
 20
1545.869730
 30
0.0
  0
SPLINE
  5
122
100
AcDbEntity
  8
Layer_1
 62
7
100
AcDbSpline
 70
8
 71
3
 72
8
 73
4
 74
0
 40
0
 40
0
 40
0
 40
0
 40
1
 40
1
 40
1
 40
1
 10
1014.762416
 20
1545.869730
 30
0.0
 10
1014.913786
 20
1547.699295
 30
0.0
 10
1015.037943
 20
1549.531100
 30
0.0
 10
1015.134746
 20
1551.364322
 30
0.0
  0
SPLINE
  5
123
100
AcDbEntity
  8
Layer_1
 62
7
100
AcDbSpline
 70
8
 71
3
 72
8
 73
4
 74
0
 40
0
 40
0
 40
0
 40
0
 40
1
 40
1
 40
1
 40
1
 10
1015.134746
 20
1551.364322
 30
0.0
 10
1015.413109
 20
1571.525881
 30
0.0
 10
1012.371165
 20
1591.595768
 30
0.0
 10
1006.131288
 20
1610.769373
 30
0.0
  0
SPLINE
  5
124
100
AcDbEntity
  8
Layer_1
 62
7
100
AcDbSpline
 70
8
 71
3
 72
8
 73
4
 74
0
 40
0
 40
0
 40
0
 40
0
 40
1
 40
1
 40
1
 40
1
 10
1006.131288
 20
1610.769373
 30
0.0
 10
1005.877020
 20
1611.754050
 30
0.0
 10
1005.474954
 20
1613.030403
 30
0.0
 10
1004.953720
 20
1614.534032
 30
0.0
  0
SPLINE
  5
125
100
AcDbEntity
  8
Layer_1
 62
7
100
AcDbSpline
 70
8
 71
3
 72
8
 73
4
 74
0
 40
0
 40
0
 40
0
 40
0
 40
1
 40
1
 40
1
 40
1
 10
1004.953720
 20
1614.534032
 30
0.0
 10
1003.922731
 20
1617.475340
 30
0.0
 10
1002.816935
 20
1620.389948
 30
0.0
 10
1001.637666
 20
1623.275056
 30
0.0
  0
SPLINE
  5
126
100
AcDbEntity
  8
Layer_1
 62
7
100
AcDbSpline
 70
8
 71
3
 72
8
 73
4
 74
0
 40
0
 40
0
 40
0
 40
0
 40
1
 40
1
 40
1
 40
1
 10
1001.637666
 20
1623.275056
 30
0.0
 10
1000.104775
 20
1627.072761
 30
0.0
 10
998.400416
 20
1631.068478
 30
0.0
 10
996.821915
 20
1634.563502
 30
0.0
  0
SPLINE
  5
127
100
AcDbEntity
  8
Layer_1
 62
7
100
AcDbSpline
 70
8
 71
3
 72
8
 73
4
 74
0
 40
0
 40
0
 40
0
 40
0
 40
1
 40
1
 40
1
 40
1
 10
996.821915
 20
1634.563502
 30
0.0
 10
996.721002
 20
1634.784860
 30
0.0
 10
996.619521
 20
1635.005721
 30
0.0
 10
996.517332
 20
1635.226381
 30
0.0
  0
SPLINE
  5
128
100
AcDbEntity
  8
Layer_1
 62
7
100
AcDbSpline
 70
8
 71
3
 72
8
 73
4
 74
0
 40
0
 40
0
 40
0
 40
0
 40
1
 40
1
 40
1
 40
1
 10
996.517332
 20
1635.226381
 30
0.0
 10
994.345625
 20
1639.994499
 30
0.0
 10
992.456787
 20
1643.711261
 30
0.0
 10
991.682702
 20
1644.408227
 30
0.0
  0
SPLINE
  5
129
100
AcDbEntity
  8
Layer_1
 62
7
100
AcDbSpline
 70
8
 71
3
 72
8
 73
4
 74
0
 40
0
 40
0
 40
0
 40
0
 40
1
 40
1
 40
1
 40
1
 10
991.682702
 20
1644.408227
 30
0.0
 10
991.511773
 20
1644.560561
 30
0.0
 10
991.094145
 20
1645.183514
 30
0.0
 10
990.594113
 20
1645.990123
 30
0.0
  0
SPLINE
  5
12a
100
AcDbEntity
  8
Layer_1
 62
7
100
AcDbSpline
 70
8
 71
3
 72
8
 73
4
 74
0
 40
0
 40
0
 40
0
 40
0
 40
1
 40
1
 40
1
 40
1
 10
990.594113
 20
1645.990123
 30
0.0
 10
958.457395
 20
1702.051965
 30
0.0
 10
899.236913
 20
1737.114610
 30
0.0
 10
834.628791
 20
1738.332771
 30
0.0
  0
LWPOLYLINE
  5
12b
100
AcDbEntity
  8
Layer_1
 62
7
100
AcDbPolyline
 90
4
 70
0
 10
1578.283257
 20
854.014700
 30
0.0
 10
1408.951134
 20
1026.154568
 30
0.0
 10
1214.548016
 20
844.542760
 30
0.0
 10
991.855729
 20
1456.789062
 30
0.0
  0
SPLINE
  5
12c
100
AcDbEntity
  8
Layer_1
 62
7
100
AcDbSpline
 70
8
 71
3
 72
8
 73
4
 74
0
 40
0
 40
0
 40
0
 40
0
 40
1
 40
1
 40
1
 40
1
 10
830.768655
 20
1666.263560
 30
0.0
 10
849.185858
 20
1666.783488
 30
0.0
 10
867.438595
 20
1662.667659
 30
0.0
 10
883.850428
 20
1654.294107
 30
0.0
  0
SPLINE
  5
12d
100
AcDbEntity
  8
Layer_1
 62
7
100
AcDbSpline
 70
8
 71
3
 72
8
 73
4
 74
0
 40
0
 40
0
 40
0
 40
0
 40
1
 40
1
 40
1
 40
1
 10
883.850428
 20
1654.294107
 30
0.0
 10
930.938400
 20
1630.194608
 30
0.0
 10
954.197348
 20
1575.985431
 30
0.0
 10
939.216019
 20
1525.254514
 30
0.0
  0
LWPOLYLINE
  5
12e
100
AcDbEntity
  8
Layer_1
 62
7
100
AcDbPolyline
 90
2
 70
0
 10
834.628791
 20
1738.332771
 30
0.0
 10
834.629981
 20
1738.333497
 30
0.0
  0
SPLINE
  5
12f
100
AcDbEntity
  8
Layer_1
 62
7
100
AcDbSpline
 70
8
 71
3
 72
8
 73
4
 74
0
 40
0
 40
0
 40
0
 40
0
 40
1
 40
1
 40
1
 40
1
 10
746.839718
 20
1623.558169
 30
0.0
 10
766.997722
 20
1649.657392
 30
0.0
 10
797.804277
 20
1665.332663
 30
0.0
 10
830.768655
 20
1666.263560
 30
0.0
  0
LWPOLYLINE
  5
130
100
AcDbEntity
  8
Layer_1
 62
7
100
AcDbPolyline
 90
2
 70
0
 10
939.216019
 20
1525.254514
 30
0.0
 10
746.839718
 20
1623.558169
 30
0.0
  0
LWPOLYLINE
  5
131
100
AcDbEntity
  8
Layer_1
 62
7
100
AcDbPolyline
 90
1
 70
1
 10
830.768655
 20
1666.263560
 30
0.0
  0
SPLINE
  5
132
100
AcDbEntity
  8
Layer_1
 62
7
100
AcDbSpline
 70
8
 71
3
 72
8
 73
4
 74
0
 40
0
 40
0
 40
0
 40
0
 40
1
 40
1
 40
1
 40
1
 10
922.486422
 20
1491.555339
 30
0.0
 10
890.642041
 20
1447.967758
 30
0.0
 10
831.869291
 20
1433.937708
 30
0.0
 10
783.770363
 20
1458.441604
 30
0.0
  0
SPLINE
  5
133
100
AcDbEntity
  8
Layer_1
 62
7
100
AcDbSpline
 70
8
 71
3
 72
8
 73
4
 74
0
 40
0
 40
0
 40
0
 40
0
 40
1
 40
1
 40
1
 40
1
 10
783.770363
 20
1458.441604
 30
0.0
 10
735.689225
 20
1483.043465
 30
0.0
 10
712.590245
 20
1538.919377
 30
0.0
 10
729.264280
 20
1590.290867
 30
0.0
  0
LWPOLYLINE
  5
134
100
AcDbEntity
  8
Layer_1
 62
7
100
AcDbPolyline
 90
2
 70
0
 10
729.264280
 20
1590.290867
 30
0.0
 10
922.486422
 20
1491.555339
 30
0.0
  0
SPLINE
  5
135
100
AcDbEntity
  8
Layer_1
 62
7
100
AcDbSpline
 70
8
 71
3
 72
8
 73
4
 74
0
 40
0
 40
0
 40
0
 40
0
 40
1
 40
1
 40
1
 40
1
 10
968.456466
 20
1426.750294
 30
0.0
 10
985.400362
 20
1401.739705
 30
0.0
 10
953.330428
 20
1372.661683
 30
0.0
 10
953.162759
 20
1353.780391
 30
0.0
  0
SPLINE
  5
136
100
AcDbEntity
  8
Layer_1
 62
7
100
AcDbSpline
 70
8
 71
3
 72
8
 73
4
 74
0
 40
0
 40
0
 40
0
 40
0
 40
1
 40
1
 40
1
 40
1
 10
953.162759
 20
1353.780391
 30
0.0
 10
953.412775
 20
1348.758986
 30
0.0
 10
956.204135
 20
1346.409207
 30
0.0
 10
965.369424
 20
1343.502193
 30
0.0
  0
SPLINE
  5
137
100
AcDbEntity
  8
Layer_1
 62
7
100
AcDbSpline
 70
8
 71
3
 72
8
 73
4
 74
0
 40
0
 40
0
 40
0
 40
0
 40
1
 40
1
 40
1
 40
1
 10
965.369424
 20
1343.502193
 30
0.0
 10
982.601065
 20
1338.447906
 30
0.0
 10
989.126192
 20
1335.205809
 30
0.0
 10
1001.168362
 20
1322.384564
 30
0.0
  0
SPLINE
  5
138
100
AcDbEntity
  8
Layer_1
 62
7
100
AcDbSpline
 70
8
 71
3
 72
8
 73
4
 74
0
 40
0
 40
0
 40
0
 40
0
 40
1
 40
1
 40
1
 40
1
 10
1001.168362
 20
1322.384564
 30
0.0
 10
1012.015758
 20
1309.841399
 30
0.0
 10
1020.644872
 20
1293.470101
 30
0.0
 10
1026.238507
 20
1278.952804
 30
0.0
  0
SPLINE
  5
139
100
AcDbEntity
  8
Layer_1
 62
7
100
AcDbSpline
 70
8
 71
3
 72
8
 73
4
 74
0
 40
0
 40
0
 40
0
 40
0
 40
1
 40
1
 40
1
 40
1
 10
1026.238507
 20
1278.952804
 30
0.0
 10
1031.591339
 20
1264.891374
 30
0.0
 10
1032.151380
 20
1261.472083
 30
0.0
 10
1031.802038
 20
1244.948309
 30
0.0
  0
SPLINE
  5
13a
100
AcDbEntity
  8
Layer_1
 62
7
100
AcDbSpline
 70
8
 71
3
 72
8
 73
4
 74
0
 40
0
 40
0
 40
0
 40
0
 40
1
 40
1
 40
1
 40
1
 10
1031.802038
 20
1244.948309
 30
0.0
 10
1031.366353
 20
1224.329465
 30
0.0
 10
1029.292072
 20
1213.372199
 30
0.0
 10
1022.253024
 20
1194.496294
 30
0.0
  0
SPLINE
  5
13b
100
AcDbEntity
  8
Layer_1
 62
7
100
AcDbSpline
 70
8
 71
3
 72
8
 73
4
 74
0
 40
0
 40
0
 40
0
 40
0
 40
1
 40
1
 40
1
 40
1
 10
1022.253024
 20
1194.496294
 30
0.0
 10
1016.954986
 20
1180.288794
 30
0.0
 10
1016.408296
 20
1170.677928
 30
0.0
 10
1020.571597
 20
1164.917135
 30
0.0
  0
SPLINE
  5
13c
100
AcDbEntity
  8
Layer_1
 62
7
100
AcDbSpline
 70
8
 71
3
 72
8
 73
4
 74
0
 40
0
 40
0
 40
0
 40
0
 40
1
 40
1
 40
1
 40
1
 10
1020.571597
 20
1164.917135
 30
0.0
 10
1023.357827
 20
1160.629308
 30
0.0
 10
1032.255383
 20
1150.160338
 30
0.0
 10
1044.106809
 20
1145.580741
 30
0.0
  0
SPLINE
  5
13d
100
AcDbEntity
  8
Layer_1
 62
7
100
AcDbSpline
 70
8
 71
3
 72
8
 73
4
 74
0
 40
0
 40
0
 40
0
 40
0
 40
1
 40
1
 40
1
 40
1
 10
1044.106809
 20
1145.580741
 30
0.0
 10
1064.087603
 20
1137.859818
 30
0.0
 10
1075.412863
 20
1122.501793
 30
0.0
 10
1073.286369
 20
1122.292001
 30
0.0
  0
SPLINE
  5
13e
100
AcDbEntity
  8
Layer_1
 62
7
100
AcDbSpline
 70
8
 71
3
 72
8
 73
4
 74
0
 40
0
 40
0
 40
0
 40
0
 40
1
 40
1
 40
1
 40
1
 10
1073.286369
 20
1122.292001
 30
0.0
 10
1073.286369
 20
1122.292001
 30
0.0
 10
1065.504869
 20
1124.141182
 30
0.0
 10
1055.903187
 20
1128.759216
 30
0.0
  0
SPLINE
  5
13f
100
AcDbEntity
  8
Layer_1
 62
7
100
AcDbSpline
 70
8
 71
3
 72
8
 73
4
 74
0
 40
0
 40
0
 40
0
 40
0
 40
1
 40
1
 40
1
 40
1
 10
1055.903187
 20
1128.759216
 30
0.0
 10
1021.208882
 20
1145.784382
 30
0.0
 10
983.988539
 20
1115.835046
 30
0.0
 10
972.218835
 20
1097.736032
 30
0.0
  0
SPLINE
  5
140
100
AcDbEntity
  8
Layer_1
 62
7
100
AcDbSpline
 70
8
 71
3
 72
8
 73
4
 74
0
 40
0
 40
0
 40
0
 40
0
 40
1
 40
1
 40
1
 40
1
 10
972.218835
 20
1097.736032
 30
0.0
 10
968.874151
 20
1092.523204
 30
0.0
 10
968.941276
 20
1090.332164
 30
0.0
 10
972.677509
 20
1082.845950
 30
0.0
  0
SPLINE
  5
141
100
AcDbEntity
  8
Layer_1
 62
7
100
AcDbSpline
 70
8
 71
3
 72
8
 73
4
 74
0
 40
0
 40
0
 40
0
 40
0
 40
1
 40
1
 40
1
 40
1
 10
972.677509
 20
1082.845950
 30
0.0
 10
977.952586
 20
1072.276095
 30
0.0
 10
986.243301
 20
1062.632347
 30
0.0
 10
993.862630
 20
1058.202193
 30
0.0
  0
SPLINE
  5
142
100
AcDbEntity
  8
Layer_1
 62
7
100
AcDbSpline
 70
8
 71
3
 72
8
 73
4
 74
0
 40
0
 40
0
 40
0
 40
0
 40
1
 40
1
 40
1
 40
1
 10
993.862630
 20
1058.202193
 30
0.0
 10
998.507792
 20
1055.501427
 30
0.0
 10
1008.416750
 20
1052.186054
 30
0.0
 10
1015.589764
 20
1050.933793
 30
0.0
  0
SPLINE
  5
143
100
AcDbEntity
  8
Layer_1
 62
7
100
AcDbSpline
 70
8
 71
3
 72
8
 73
4
 74
0
 40
0
 40
0
 40
0
 40
0
 40
1
 40
1
 40
1
 40
1
 10
1015.589764
 20
1050.933793
 30
0.0
 10
1022.492693
 20
1049.728898
 30
0.0
 10
1022.905474
 20
1049.514032
 30
0.0
 10
1021.097877
 20
1048.066775
 30
0.0
  0
SPLINE
  5
144
100
AcDbEntity
  8
Layer_1
 62
7
100
AcDbSpline
 70
8
 71
3
 72
8
 73
4
 74
0
 40
0
 40
0
 40
0
 40
0
 40
1
 40
1
 40
1
 40
1
 10
1021.097877
 20
1048.066775
 30
0.0
 10
1017.947962
 20
1045.544933
 30
0.0
 10
1007.574718
 20
1044.077635
 30
0.0
 10
997.924734
 20
1044.787771
 30
0.0
  0
SPLINE
  5
145
100
AcDbEntity
  8
Layer_1
 62
7
100
AcDbSpline
 70
8
 71
3
 72
8
 73
4
 74
0
 40
0
 40
0
 40
0
 40
0
 40
1
 40
1
 40
1
 40
1
 10
997.924734
 20
1044.787771
 30
0.0
 10
972.348123
 20
1045.392316
 30
0.0
 10
957.066746
 20
1064.618045
 30
0.0
 10
951.842976
 20
1088.762508
 30
0.0
  0
SPLINE
  5
146
100
AcDbEntity
  8
Layer_1
 62
7
100
AcDbSpline
 70
8
 71
3
 72
8
 73
4
 74
0
 40
0
 40
0
 40
0
 40
0
 40
1
 40
1
 40
1
 40
1
 10
951.842976
 20
1088.762508
 30
0.0
 10
951.741496
 20
1089.289525
 30
0.0
 10
951.176126
 20
1091.628533
 30
0.0
 10
950.587058
 20
1093.959746
 30
0.0
  0
SPLINE
  5
147
100
AcDbEntity
  8
Layer_1
 62
7
100
AcDbSpline
 70
8
 71
3
 72
8
 73
4
 74
0
 40
0
 40
0
 40
0
 40
0
 40
1
 40
1
 40
1
 40
1
 10
950.587058
 20
1093.959746
 30
0.0
 10
937.945361
 20
1152.387235
 30
0.0
 10
1003.912724
 20
1196.270753
 30
0.0
 10
1006.968132
 20
1241.992256
 30
0.0
  0
SPLINE
  5
148
100
AcDbEntity
  8
Layer_1
 62
7
100
AcDbSpline
 70
8
 71
3
 72
8
 73
4
 74
0
 40
0
 40
0
 40
0
 40
0
 40
1
 40
1
 40
1
 40
1
 10
1006.968132
 20
1241.992256
 30
0.0
 10
1007.743181
 20
1268.107535
 30
0.0
 10
1004.645509
 20
1275.609793
 30
0.0
 10
997.201559
 20
1287.912438
 30
0.0
  0
SPLINE
  5
149
100
AcDbEntity
  8
Layer_1
 62
7
100
AcDbSpline
 70
8
 71
3
 72
8
 73
4
 74
0
 40
0
 40
0
 40
0
 40
0
 40
1
 40
1
 40
1
 40
1
 10
997.201559
 20
1287.912438
 30
0.0
 10
985.334655
 20
1303.647103
 30
0.0
 10
954.041046
 20
1327.658933
 30
0.0
 10
937.056019
 20
1328.289868
 30
0.0
  0
SPLINE
  5
14a
100
AcDbEntity
  8
Layer_1
 62
7
100
AcDbSpline
 70
8
 71
3
 72
8
 73
4
 74
0
 40
0
 40
0
 40
0
 40
0
 40
1
 40
1
 40
1
 40
1
 10
937.056019
 20
1328.289868
 30
0.0
 10
933.368088
 20
1328.382561
 30
0.0
 10
932.593890
 20
1329.941786
 30
0.0
 10
930.978255
 20
1340.531031
 30
0.0
  0
SPLINE
  5
14b
100
AcDbEntity
  8
Layer_1
 62
7
100
AcDbSpline
 70
8
 71
3
 72
8
 73
4
 74
0
 40
0
 40
0
 40
0
 40
0
 40
1
 40
1
 40
1
 40
1
 10
930.978255
 20
1340.531031
 30
0.0
 10
930.094044
 20
1346.325840
 30
0.0
 10
928.895301
 20
1352.317346
 30
0.0
 10
928.314879
 20
1353.845276
 30
0.0
  0
SPLINE
  5
14c
100
AcDbEntity
  8
Layer_1
 62
7
100
AcDbSpline
 70
8
 71
3
 72
8
 73
4
 74
0
 40
0
 40
0
 40
0
 40
0
 40
1
 40
1
 40
1
 40
1
 10
928.314879
 20
1353.845276
 30
0.0
 10
925.381474
 20
1361.567872
 30
0.0
 10
920.687868
 20
1370.517472
 30
0.0
 10
917.758828
 20
1373.971941
 30
0.0
  0
SPLINE
  5
14d
100
AcDbEntity
  8
Layer_1
 62
7
100
AcDbSpline
 70
8
 71
3
 72
8
 73
4
 74
0
 40
0
 40
0
 40
0
 40
0
 40
1
 40
1
 40
1
 40
1
 10
917.758828
 20
1373.971941
 30
0.0
 10
915.955342
 20
1376.099286
 30
0.0
 10
914.520586
 20
1378.488750
 30
0.0
 10
914.569994
 20
1379.281544
 30
0.0
  0
SPLINE
  5
14e
100
AcDbEntity
  8
Layer_1
 62
7
100
AcDbSpline
 70
8
 71
3
 72
8
 73
4
 74
0
 40
0
 40
0
 40
0
 40
0
 40
1
 40
1
 40
1
 40
1
 10
914.569994
 20
1379.281544
 30
0.0
 10
923.375735
 20
1390.206467
 30
0.0
 10
956.327499
 20
1412.443723
 30
0.0
 10
968.456466
 20
1426.750294
 30
0.0
  0
LWPOLYLINE
  5
14f
100
AcDbEntity
  8
Layer_1
 62
7
100
AcDbPolyline
 90
1
 70
1
 10
729.264280
 20
1590.290867
 30
0.0
  0
LWPOLYLINE
  5
150
100
AcDbEntity
  8
Layer_1
 62
7
100
AcDbPolyline
 90
1
 70
1
 10
968.456466
 20
1426.750294
 30
0.0
  0
SPLINE
  5
151
100
AcDbEntity
  8
Layer_1
 62
7
100
AcDbSpline
 70
8
 71
3
 72
8
 73
4
 74
0
 40
0
 40
0
 40
0
 40
0
 40
1
 40
1
 40
1
 40
1
 10
718.850163
 20
1409.195305
 30
0.0
 10
718.850163
 20
1409.195305
 30
0.0
 10
673.642466
 20
1371.721317
 30
0.0
 10
675.069129
 20
1347.397166
 30
0.0
  0
SPLINE
  5
152
100
AcDbEntity
  8
Layer_1
 62
7
100
AcDbSpline
 70
8
 71
3
 72
8
 73
4
 74
0
 40
0
 40
0
 40
0
 40
0
 40
1
 40
1
 40
1
 40
1
 10
675.069129
 20
1347.397166
 30
0.0
 10
676.302290
 20
1334.871887
 30
0.0
 10
677.459631
 20
1329.814227
 30
0.0
 10
680.381864
 20
1324.193834
 30
0.0
  0
SPLINE
  5
153
100
AcDbEntity
  8
Layer_1
 62
7
100
AcDbSpline
 70
8
 71
3
 72
8
 73
4
 74
0
 40
0
 40
0
 40
0
 40
0
 40
1
 40
1
 40
1
 40
1
 10
680.381864
 20
1324.193834
 30
0.0
 10
685.063273
 20
1315.189667
 30
0.0
 10
690.440783
 20
1309.284930
 30
0.0
 10
703.088240
 20
1299.258845
 30
0.0
  0
SPLINE
  5
154
100
AcDbEntity
  8
Layer_1
 62
7
100
AcDbSpline
 70
8
 71
3
 72
8
 73
4
 74
0
 40
0
 40
0
 40
0
 40
0
 40
1
 40
1
 40
1
 40
1
 10
703.088240
 20
1299.258845
 30
0.0
 10
714.863438
 20
1289.924328
 30
0.0
 10
722.720492
 20
1281.122101
 30
0.0
 10
730.638876
 20
1268.391991
 30
0.0
  0
SPLINE
  5
155
100
AcDbEntity
  8
Layer_1
 62
7
100
AcDbSpline
 70
8
 71
3
 72
8
 73
4
 74
0
 40
0
 40
0
 40
0
 40
0
 40
1
 40
1
 40
1
 40
1
 10
730.638876
 20
1268.391991
 30
0.0
 10
742.040855
 20
1250.061528
 30
0.0
 10
743.034189
 20
1243.755094
 30
0.0
 10
737.343184
 20
1225.826073
 30
0.0
  0
SPLINE
  5
156
100
AcDbEntity
  8
Layer_1
 62
7
100
AcDbSpline
 70
8
 71
3
 72
8
 73
4
 74
0
 40
0
 40
0
 40
0
 40
0
 40
1
 40
1
 40
1
 40
1
 10
737.343184
 20
1225.826073
 30
0.0
 10
730.790090
 20
1206.416631
 30
0.0
 10
723.271484
 20
1196.206577
 30
0.0
 10
706.701311
 20
1185.293645
 30
0.0
  0
SPLINE
  5
157
100
AcDbEntity
  8
Layer_1
 62
7
100
AcDbSpline
 70
8
 71
3
 72
8
 73
4
 74
0
 40
0
 40
0
 40
0
 40
0
 40
1
 40
1
 40
1
 40
1
 10
706.701311
 20
1185.293645
 30
0.0
 10
672.264669
 20
1165.530297
 30
0.0
 10
631.477089
 20
1161.942712
 30
0.0
 10
599.850479
 20
1135.544083
 30
0.0
  0
SPLINE
  5
158
100
AcDbEntity
  8
Layer_1
 62
7
100
AcDbSpline
 70
8
 71
3
 72
8
 73
4
 74
0
 40
0
 40
0
 40
0
 40
0
 40
1
 40
1
 40
1
 40
1
 10
599.850479
 20
1135.544083
 30
0.0
 10
572.981100
 20
1112.096404
 30
0.0
 10
552.169225
 20
1093.187815
 30
0.0
 10
551.104203
 20
1054.262999
 30
0.0
  0
SPLINE
  5
159
100
AcDbEntity
  8
Layer_1
 62
7
100
AcDbSpline
 70
8
 71
3
 72
8
 73
4
 74
0
 40
0
 40
0
 40
0
 40
0
 40
1
 40
1
 40
1
 40
1
 10
551.104203
 20
1054.262999
 30
0.0
 10
550.603763
 20
1042.362448
 30
0.0
 10
550.385861
 20
1036.825194
 30
0.0
 10
554.846457
 20
1026.404527
 30
0.0
  0
SPLINE
  5
15a
100
AcDbEntity
  8
Layer_1
 62
7
100
AcDbSpline
 70
8
 71
3
 72
8
 73
4
 74
0
 40
0
 40
0
 40
0
 40
0
 40
1
 40
1
 40
1
 40
1
 10
554.846457
 20
1026.404527
 30
0.0
 10
527.297456
 20
1056.977172
 30
0.0
 10
549.287940
 20
1100.333928
 30
0.0
 10
564.264547
 20
1123.827273
 30
0.0
  0
SPLINE
  5
15b
100
AcDbEntity
  8
Layer_1
 62
7
100
AcDbSpline
 70
8
 71
3
 72
8
 73
4
 74
0
 40
0
 40
0
 40
0
 40
0
 40
1
 40
1
 40
1
 40
1
 10
564.264547
 20
1123.827273
 30
0.0
 10
566.599544
 20
1126.775446
 30
0.0
 10
571.077862
 20
1131.774939
 30
0.0
 10
576.066651
 20
1137.004690
 30
0.0
  0
SPLINE
  5
15c
100
AcDbEntity
  8
Layer_1
 62
7
100
AcDbSpline
 70
8
 71
3
 72
8
 73
4
 74
0
 40
0
 40
0
 40
0
 40
0
 40
1
 40
1
 40
1
 40
1
 10
576.066651
 20
1137.004690
 30
0.0
 10
588.440194
 20
1149.505648
 30
0.0
 10
621.216774
 20
1164.762873
 30
0.0
 10
612.187322
 20
1182.229818
 30
0.0
  0
SPLINE
  5
15d
100
AcDbEntity
  8
Layer_1
 62
7
100
AcDbSpline
 70
8
 71
3
 72
8
 73
4
 74
0
 40
0
 40
0
 40
0
 40
0
 40
1
 40
1
 40
1
 40
1
 10
612.187322
 20
1182.229818
 30
0.0
 10
598.634144
 20
1214.223358
 30
0.0
 10
613.603434
 20
1252.696246
 30
0.0
 10
632.730424
 20
1271.595509
 30
0.0
  0
SPLINE
  5
15e
100
AcDbEntity
  8
Layer_1
 62
7
100
AcDbSpline
 70
8
 71
3
 72
8
 73
4
 74
0
 40
0
 40
0
 40
0
 40
0
 40
1
 40
1
 40
1
 40
1
 10
632.730424
 20
1271.595509
 30
0.0
 10
641.441486
 20
1280.020020
 30
0.0
 10
647.539279
 20
1284.730038
 30
0.0
 10
657.941519
 20
1291.069412
 30
0.0
  0
SPLINE
  5
15f
100
AcDbEntity
  8
Layer_1
 62
7
100
AcDbSpline
 70
8
 71
3
 72
8
 73
4
 74
0
 40
0
 40
0
 40
0
 40
0
 40
1
 40
1
 40
1
 40
1
 10
657.941519
 20
1291.069412
 30
0.0
 10
661.392995
 20
1293.172832
 30
0.0
 10
665.062234
 20
1295.410388
 30
0.0
 10
666.096072
 20
1296.042429
 30
0.0
  0
SPLINE
  5
160
100
AcDbEntity
  8
Layer_1
 62
7
100
AcDbSpline
 70
8
 71
3
 72
8
 73
4
 74
0
 40
0
 40
0
 40
0
 40
0
 40
1
 40
1
 40
1
 40
1
 10
666.096072
 20
1296.042429
 30
0.0
 10
674.585549
 20
1301.232665
 30
0.0
 10
676.542572
 20
1306.619342
 30
0.0
 10
671.688884
 20
1311.436029
 30
0.0
  0
SPLINE
  5
161
100
AcDbEntity
  8
Layer_1
 62
7
100
AcDbSpline
 70
8
 71
3
 72
8
 73
4
 74
0
 40
0
 40
0
 40
0
 40
0
 40
1
 40
1
 40
1
 40
1
 10
671.688884
 20
1311.436029
 30
0.0
 10
670.149179
 20
1312.962769
 30
0.0
 10
667.731881
 20
1315.986457
 30
0.0
 10
666.317072
 20
1318.155131
 30
0.0
  0
SPLINE
  5
162
100
AcDbEntity
  8
Layer_1
 62
7
100
AcDbSpline
 70
8
 71
3
 72
8
 73
4
 74
0
 40
0
 40
0
 40
0
 40
0
 40
1
 40
1
 40
1
 40
1
 10
666.317072
 20
1318.155131
 30
0.0
 10
664.902224
 20
1320.323777
 30
0.0
 10
663.533141
 20
1322.317780
 30
0.0
 10
663.273604
 20
1322.584974
 30
0.0
  0
SPLINE
  5
163
100
AcDbEntity
  8
Layer_1
 62
7
100
AcDbSpline
 70
8
 71
3
 72
8
 73
4
 74
0
 40
0
 40
0
 40
0
 40
0
 40
1
 40
1
 40
1
 40
1
 10
663.273604
 20
1322.584974
 30
0.0
 10
631.288715
 20
1367.509771
 30
0.0
 10
683.473742
 20
1395.358435
 30
0.0
 10
698.316072
 20
1429.490517
 30
0.0
  0
LWPOLYLINE
  5
164
100
AcDbEntity
  8
Layer_1
 62
7
100
AcDbPolyline
 90
2
 70
0
 10
698.316284
 20
1429.490744
 30
0.0
 10
718.850163
 20
1409.195305
 30
0.0
  0
SPLINE
  5
165
100
AcDbEntity
  8
Layer_1
 62
7
100
AcDbSpline
 70
8
 71
3
 72
8
 73
4
 74
0
 40
0
 40
0
 40
0
 40
0
 40
1
 40
1
 40
1
 40
1
 10
731.721149
 20
1400.482398
 30
0.0
 10
760.476379
 20
1381.802791
 30
0.0
 10
793.884387
 20
1371.541119
 30
0.0
 10
828.167329
 20
1370.857827
 30
0.0
  0
SPLINE
  5
166
100
AcDbEntity
  8
Layer_1
 62
7
100
AcDbSpline
 70
8
 71
3
 72
8
 73
4
 74
0
 40
0
 40
0
 40
0
 40
0
 40
1
 40
1
 40
1
 40
1
 10
828.167329
 20
1370.857827
 30
0.0
 10
828.835965
 20
1370.866331
 30
0.0
 10
840.322743
 20
1371.981623
 30
0.0
 10
840.322743
 20
1371.981623
 30
0.0
  0
SPLINE
  5
167
100
AcDbEntity
  8
Layer_1
 62
7
100
AcDbSpline
 70
8
 71
3
 72
8
 73
4
 74
0
 40
0
 40
0
 40
0
 40
0
 40
1
 40
1
 40
1
 40
1
 10
840.322743
 20
1371.981623
 30
0.0
 10
836.157883
 20
1357.864322
 30
0.0
 10
837.865587
 20
1342.744775
 30
0.0
 10
832.577017
 20
1326.770952
 30
0.0
  0
SPLINE
  5
168
100
AcDbEntity
  8
Layer_1
 62
7
100
AcDbSpline
 70
8
 71
3
 72
8
 73
4
 74
0
 40
0
 40
0
 40
0
 40
0
 40
1
 40
1
 40
1
 40
1
 10
832.577017
 20
1326.770952
 30
0.0
 10
817.890123
 20
1277.672678
 30
0.0
 10
776.302535
 20
1268.368010
 30
0.0
 10
775.989023
 20
1253.212152
 30
0.0
  0
SPLINE
  5
169
100
AcDbEntity
  8
Layer_1
 62
7
100
AcDbSpline
 70
8
 71
3
 72
8
 73
4
 74
0
 40
0
 40
0
 40
0
 40
0
 40
1
 40
1
 40
1
 40
1
 10
775.989023
 20
1253.212152
 30
0.0
 10
776.222654
 20
1250.477739
 30
0.0
 10
776.839544
 20
1247.428766
 30
0.0
 10
777.359857
 20
1246.436101
 30
0.0
  0
SPLINE
  5
16a
100
AcDbEntity
  8
Layer_1
 62
7
100
AcDbSpline
 70
8
 71
3
 72
8
 73
4
 74
0
 40
0
 40
0
 40
0
 40
0
 40
1
 40
1
 40
1
 40
1
 10
777.359857
 20
1246.436101
 30
0.0
 10
779.723563
 20
1241.926577
 30
0.0
 10
785.709680
 20
1226.918035
 30
0.0
 10
786.595065
 20
1223.281185
 30
0.0
  0
SPLINE
  5
16b
100
AcDbEntity
  8
Layer_1
 62
7
100
AcDbSpline
 70
8
 71
3
 72
8
 73
4
 74
0
 40
0
 40
0
 40
0
 40
0
 40
1
 40
1
 40
1
 40
1
 10
786.595065
 20
1223.281185
 30
0.0
 10
788.101716
 20
1217.092672
 30
0.0
 10
786.113654
 20
1191.017163
 30
0.0
 10
783.337864
 20
1180.550517
 30
0.0
  0
SPLINE
  5
16c
100
AcDbEntity
  8
Layer_1
 62
7
100
AcDbSpline
 70
8
 71
3
 72
8
 73
4
 74
0
 40
0
 40
0
 40
0
 40
0
 40
1
 40
1
 40
1
 40
1
 10
783.337864
 20
1180.550517
 30
0.0
 10
779.013360
 20
1168.756747
 30
0.0
 10
771.522494
 20
1155.420986
 30
0.0
 10
763.796358
 20
1146.152347
 30
0.0
  0
SPLINE
  5
16d
100
AcDbEntity
  8
Layer_1
 62
7
100
AcDbSpline
 70
8
 71
3
 72
8
 73
4
 74
0
 40
0
 40
0
 40
0
 40
0
 40
1
 40
1
 40
1
 40
1
 10
763.796358
 20
1146.152347
 30
0.0
 10
757.029696
 20
1138.109975
 30
0.0
 10
740.413811
 20
1124.754684
 30
0.0
 10
732.159567
 20
1120.725094
 30
0.0
  0
SPLINE
  5
16e
100
AcDbEntity
  8
Layer_1
 62
7
100
AcDbSpline
 70
8
 71
3
 72
8
 73
4
 74
0
 40
0
 40
0
 40
0
 40
0
 40
1
 40
1
 40
1
 40
1
 10
732.159567
 20
1120.725094
 30
0.0
 10
722.136518
 20
1115.430996
 30
0.0
 10
711.215725
 20
1113.088076
 30
0.0
 10
700.735618
 20
1108.831516
 30
0.0
  0
SPLINE
  5
16f
100
AcDbEntity
  8
Layer_1
 62
7
100
AcDbSpline
 70
8
 71
3
 72
8
 73
4
 74
0
 40
0
 40
0
 40
0
 40
0
 40
1
 40
1
 40
1
 40
1
 10
700.735618
 20
1108.831516
 30
0.0
 10
700.735618
 20
1108.831516
 30
0.0
 10
711.394393
 20
1106.011157
 30
0.0
 10
715.853954
 20
1101.031591
 30
0.0
  0
SPLINE
  5
170
100
AcDbEntity
  8
Layer_1
 62
7
100
AcDbSpline
 70
8
 71
3
 72
8
 73
4
 74
0
 40
0
 40
0
 40
0
 40
0
 40
1
 40
1
 40
1
 40
1
 10
715.853954
 20
1101.031591
 30
0.0
 10
723.969326
 20
1095.734574
 30
0.0
 10
734.237113
 20
1080.955015
 30
0.0
 10
734.307780
 20
1071.435594
 30
0.0
  0
SPLINE
  5
171
100
AcDbEntity
  8
Layer_1
 62
7
100
AcDbSpline
 70
8
 71
3
 72
8
 73
4
 74
0
 40
0
 40
0
 40
0
 40
0
 40
1
 40
1
 40
1
 40
1
 10
734.307780
 20
1071.435594
 30
0.0
 10
734.226681
 20
1066.826234
 30
0.0
 10
727.232995
 20
1057.390690
 30
0.0
 10
711.455811
 20
1040.603068
 30
0.0
  0
SPLINE
  5
172
100
AcDbEntity
  8
Layer_1
 62
7
100
AcDbSpline
 70
8
 71
3
 72
8
 73
4
 74
0
 40
0
 40
0
 40
0
 40
0
 40
1
 40
1
 40
1
 40
1
 10
711.455811
 20
1040.603068
 30
0.0
 10
709.926007
 20
1038.974990
 30
0.0
 10
704.444788
 20
1032.775223
 30
0.0
 10
699.276623
 20
1026.825131
 30
0.0
  0
SPLINE
  5
173
100
AcDbEntity
  8
Layer_1
 62
7
100
AcDbSpline
 70
8
 71
3
 72
8
 73
4
 74
0
 40
0
 40
0
 40
0
 40
0
 40
1
 40
1
 40
1
 40
1
 10
699.276623
 20
1026.825131
 30
0.0
 10
684.642535
 20
1010.394590
 30
0.0
 10
670.165931
 20
990.876070
 30
0.0
 10
662.283581
 20
980.603824
 30
0.0
  0
SPLINE
  5
174
100
AcDbEntity
  8
Layer_1
 62
7
100
AcDbSpline
 70
8
 71
3
 72
8
 73
4
 74
0
 40
0
 40
0
 40
0
 40
0
 40
1
 40
1
 40
1
 40
1
 10
662.283581
 20
980.603824
 30
0.0
 10
653.179714
 20
968.736353
 30
0.0
 10
652.002542
 20
968.028146
 30
0.0
 10
642.799942
 20
968.904703
 30
0.0
  0
SPLINE
  5
175
100
AcDbEntity
  8
Layer_1
 62
7
100
AcDbSpline
 70
8
 71
3
 72
8
 73
4
 74
0
 40
0
 40
0
 40
0
 40
0
 40
1
 40
1
 40
1
 40
1
 10
642.799942
 20
968.904703
 30
0.0
 10
633.710786
 20
969.770375
 30
0.0
 10
631.080612
 20
970.769163
 30
0.0
 10
612.153584
 20
980.541009
 30
0.0
  0
SPLINE
  5
176
100
AcDbEntity
  8
Layer_1
 62
7
100
AcDbSpline
 70
8
 71
3
 72
8
 73
4
 74
0
 40
0
 40
0
 40
0
 40
0
 40
1
 40
1
 40
1
 40
1
 10
612.153584
 20
980.541009
 30
0.0
 10
591.041106
 20
991.441213
 30
0.0
 10
588.958376
 20
993.269418
 30
0.0
 10
600.316741
 20
990.927490
 30
0.0
  0
SPLINE
  5
177
100
AcDbEntity
  8
Layer_1
 62
7
100
AcDbSpline
 70
8
 71
3
 72
8
 73
4
 74
0
 40
0
 40
0
 40
0
 40
0
 40
1
 40
1
 40
1
 40
1
 10
600.316741
 20
990.927490
 30
0.0
 10
603.812631
 20
990.206640
 30
0.0
 10
608.872915
 20
989.688410
 30
0.0
 10
611.561886
 20
989.776936
 30
0.0
  0
SPLINE
  5
178
100
AcDbEntity
  8
Layer_1
 62
7
100
AcDbSpline
 70
8
 71
3
 72
8
 73
4
 74
0
 40
0
 40
0
 40
0
 40
0
 40
1
 40
1
 40
1
 40
1
 10
611.561886
 20
989.776936
 30
0.0
 10
647.265246
 20
991.972057
 30
0.0
 10
685.171491
 20
1023.779730
 30
0.0
 10
653.886292
 20
1051.562971
 30
0.0
  0
SPLINE
  5
179
100
AcDbEntity
  8
Layer_1
 62
7
100
AcDbSpline
 70
8
 71
3
 72
8
 73
4
 74
0
 40
0
 40
0
 40
0
 40
0
 40
1
 40
1
 40
1
 40
1
 10
653.886292
 20
1051.562971
 30
0.0
 10
650.180497
 20
1054.795317
 30
0.0
 10
646.526154
 20
1058.699220
 30
0.0
 10
645.764720
 20
1060.237412
 30
0.0
  0
SPLINE
  5
17a
100
AcDbEntity
  8
Layer_1
 62
7
100
AcDbSpline
 70
8
 71
3
 72
8
 73
4
 74
0
 40
0
 40
0
 40
0
 40
0
 40
1
 40
1
 40
1
 40
1
 10
645.764720
 20
1060.237412
 30
0.0
 10
638.589472
 20
1076.447049
 30
0.0
 10
653.968193
 20
1070.494038
 30
0.0
 10
658.846494
 20
1064.876083
 30
0.0
  0
SPLINE
  5
17b
100
AcDbEntity
  8
Layer_1
 62
7
100
AcDbSpline
 70
8
 71
3
 72
8
 73
4
 74
0
 40
0
 40
0
 40
0
 40
0
 40
1
 40
1
 40
1
 40
1
 10
658.846494
 20
1064.876083
 30
0.0
 10
666.820837
 20
1056.808993
 30
0.0
 10
665.380256
 20
1044.623276
 30
0.0
 10
676.989527
 20
1045.691853
 30
0.0
  0
SPLINE
  5
17c
100
AcDbEntity
  8
Layer_1
 62
7
100
AcDbSpline
 70
8
 71
3
 72
8
 73
4
 74
0
 40
0
 40
0
 40
0
 40
0
 40
1
 40
1
 40
1
 40
1
 10
676.989527
 20
1045.691853
 30
0.0
 10
694.281679
 20
1048.625314
 30
0.0
 10
690.169901
 20
1068.999472
 30
0.0
 10
683.459804
 20
1078.678879
 30
0.0
  0
SPLINE
  5
17d
100
AcDbEntity
  8
Layer_1
 62
7
100
AcDbSpline
 70
8
 71
3
 72
8
 73
4
 74
0
 40
0
 40
0
 40
0
 40
0
 40
1
 40
1
 40
1
 40
1
 10
683.459804
 20
1078.678879
 30
0.0
 10
675.159897
 20
1090.434864
 30
0.0
 10
666.947945
 20
1095.387046
 30
0.0
 10
654.388875
 20
1096.209887
 30
0.0
  0
SPLINE
  5
17e
100
AcDbEntity
  8
Layer_1
 62
7
100
AcDbSpline
 70
8
 71
3
 72
8
 73
4
 74
0
 40
0
 40
0
 40
0
 40
0
 40
1
 40
1
 40
1
 40
1
 10
654.388875
 20
1096.209887
 30
0.0
 10
642.171779
 20
1097.010448
 30
0.0
 10
631.959146
 20
1093.317386
 30
0.0
 10
623.426244
 20
1085.013377
 30
0.0
  0
SPLINE
  5
17f
100
AcDbEntity
  8
Layer_1
 62
7
100
AcDbSpline
 70
8
 71
3
 72
8
 73
4
 74
0
 40
0
 40
0
 40
0
 40
0
 40
1
 40
1
 40
1
 40
1
 10
623.426244
 20
1085.013377
 30
0.0
 10
607.838083
 20
1067.932398
 30
0.0
 10
613.475855
 20
1048.980127
 30
0.0
 10
625.818064
 20
1036.610810
 30
0.0
  0
SPLINE
  5
180
100
AcDbEntity
  8
Layer_1
 62
7
100
AcDbSpline
 70
8
 71
3
 72
8
 73
4
 74
0
 40
0
 40
0
 40
0
 40
0
 40
1
 40
1
 40
1
 40
1
 10
625.818064
 20
1036.610810
 30
0.0
 10
633.900637
 20
1028.598542
 30
0.0
 10
634.579549
 20
1026.800980
 30
0.0
 10
631.230727
 20
1022.268750
 30
0.0
  0
SPLINE
  5
181
100
AcDbEntity
  8
Layer_1
 62
7
100
AcDbSpline
 70
8
 71
3
 72
8
 73
4
 74
0
 40
0
 40
0
 40
0
 40
0
 40
1
 40
1
 40
1
 40
1
 10
631.230727
 20
1022.268750
 30
0.0
 10
614.562355
 20
1007.778835
 30
0.0
 10
580.556460
 20
1029.824442
 30
0.0
 10
575.896306
 20
1046.242823
 30
0.0
  0
SPLINE
  5
182
100
AcDbEntity
  8
Layer_1
 62
7
100
AcDbSpline
 70
8
 71
3
 72
8
 73
4
 74
0
 40
0
 40
0
 40
0
 40
0
 40
1
 40
1
 40
1
 40
1
 10
575.896306
 20
1046.242823
 30
0.0
 10
571.374275
 20
1064.457320
 30
0.0
 10
591.443700
 20
1094.565084
 30
0.0
 10
601.646289
 20
1104.472794
 30
0.0
  0
SPLINE
  5
183
100
AcDbEntity
  8
Layer_1
 62
7
100
AcDbSpline
 70
8
 71
3
 72
8
 73
4
 74
0
 40
0
 40
0
 40
0
 40
0
 40
1
 40
1
 40
1
 40
1
 10
601.646289
 20
1104.472794
 30
0.0
 10
619.415501
 20
1119.911635
 30
0.0
 10
644.899878
 20
1136.234546
 30
0.0
 10
666.830409
 20
1144.869273
 30
0.0
  0
SPLINE
  5
184
100
AcDbEntity
  8
Layer_1
 62
7
100
AcDbSpline
 70
8
 71
3
 72
8
 73
4
 74
0
 40
0
 40
0
 40
0
 40
0
 40
1
 40
1
 40
1
 40
1
 10
666.830409
 20
1144.869273
 30
0.0
 10
687.592763
 20
1155.304681
 30
0.0
 10
711.785293
 20
1157.996659
 30
0.0
 10
730.200283
 20
1172.161610
 30
0.0
  0
SPLINE
  5
185
100
AcDbEntity
  8
Layer_1
 62
7
100
AcDbSpline
 70
8
 71
3
 72
8
 73
4
 74
0
 40
0
 40
0
 40
0
 40
0
 40
1
 40
1
 40
1
 40
1
 10
730.200283
 20
1172.161610
 30
0.0
 10
732.515638
 20
1173.987660
 30
0.0
 10
736.290272
 20
1177.427503
 30
0.0
 10
738.587872
 20
1179.805601
 30
0.0
  0
SPLINE
  5
186
100
AcDbEntity
  8
Layer_1
 62
7
100
AcDbSpline
 70
8
 71
3
 72
8
 73
4
 74
0
 40
0
 40
0
 40
0
 40
0
 40
1
 40
1
 40
1
 40
1
 10
738.587872
 20
1179.805601
 30
0.0
 10
740.885431
 20
1182.183755
 30
0.0
 10
744.807487
 20
1186.242117
 30
0.0
 10
747.303216
 20
1188.824649
 30
0.0
  0
SPLINE
  5
187
100
AcDbEntity
  8
Layer_1
 62
7
100
AcDbSpline
 70
8
 71
3
 72
8
 73
4
 74
0
 40
0
 40
0
 40
0
 40
0
 40
1
 40
1
 40
1
 40
1
 10
747.303216
 20
1188.824649
 30
0.0
 10
753.491514
 20
1195.228709
 30
0.0
 10
758.016550
 20
1204.102171
 30
0.0
 10
761.106832
 20
1215.891802
 30
0.0
  0
SPLINE
  5
188
100
AcDbEntity
  8
Layer_1
 62
7
100
AcDbSpline
 70
8
 71
3
 72
8
 73
4
 74
0
 40
0
 40
0
 40
0
 40
0
 40
1
 40
1
 40
1
 40
1
 10
761.106832
 20
1215.891802
 30
0.0
 10
768.135643
 20
1243.003856
 30
0.0
 10
765.028568
 20
1264.409768
 30
0.0
 10
749.832398
 20
1285.621449
 30
0.0
  0
SPLINE
  5
189
100
AcDbEntity
  8
Layer_1
 62
7
100
AcDbSpline
 70
8
 71
3
 72
8
 73
4
 74
0
 40
0
 40
0
 40
0
 40
0
 40
1
 40
1
 40
1
 40
1
 10
749.832398
 20
1285.621449
 30
0.0
 10
741.091796
 20
1297.689755
 30
0.0
 10
728.136422
 20
1310.311723
 30
0.0
 10
720.111719
 20
1314.576108
 30
0.0
  0
SPLINE
  5
18a
100
AcDbEntity
  8
Layer_1
 62
7
100
AcDbSpline
 70
8
 71
3
 72
8
 73
4
 74
0
 40
0
 40
0
 40
0
 40
0
 40
1
 40
1
 40
1
 40
1
 10
720.111719
 20
1314.576108
 30
0.0
 10
702.565733
 20
1325.679585
 30
0.0
 10
695.948006
 20
1337.834177
 30
0.0
 10
698.250044
 20
1348.642001
 30
0.0
  0
SPLINE
  5
18b
100
AcDbEntity
  8
Layer_1
 62
7
100
AcDbSpline
 70
8
 71
3
 72
8
 73
4
 74
0
 40
0
 40
0
 40
0
 40
0
 40
1
 40
1
 40
1
 40
1
 10
698.250044
 20
1348.642001
 30
0.0
 10
703.151127
 20
1372.375100
 30
0.0
 10
721.663070
 20
1380.678316
 30
0.0
 10
731.721090
 20
1400.482341
 30
0.0
  0
LWPOLYLINE
  5
18c
100
AcDbEntity
  8
Layer_1
 62
7
100
AcDbPolyline
 90
2
 70
0
 10
698.316072
 20
1429.490517
 30
0.0
 10
698.316284
 20
1429.490744
 30
0.0
  0
SPLINE
  5
18d
100
AcDbEntity
  8
Layer_1
 62
7
100
AcDbSpline
 70
8
 71
3
 72
8
 73
4
 74
0
 40
0
 40
0
 40
0
 40
0
 40
1
 40
1
 40
1
 40
1
 10
898.794794
 20
1362.224375
 30
0.0
 10
901.661698
 20
1362.175336
 30
0.0
 10
904.301717
 20
1354.091437
 30
0.0
 10
906.309978
 20
1346.829727
 30
0.0
  0
SPLINE
  5
18e
100
AcDbEntity
  8
Layer_1
 62
7
100
AcDbSpline
 70
8
 71
3
 72
8
 73
4
 74
0
 40
0
 40
0
 40
0
 40
0
 40
1
 40
1
 40
1
 40
1
 10
906.309978
 20
1346.829727
 30
0.0
 10
906.712895
 20
1345.372860
 30
0.0
 10
906.443773
 20
1341.723283
 30
0.0
 10
905.677710
 20
1338.244917
 30
0.0
  0
SPLINE
  5
18f
100
AcDbEntity
  8
Layer_1
 62
7
100
AcDbSpline
 70
8
 71
3
 72
8
 73
4
 74
0
 40
0
 40
0
 40
0
 40
0
 40
1
 40
1
 40
1
 40
1
 10
905.677710
 20
1338.244917
 30
0.0
 10
904.944813
 20
1334.917128
 30
0.0
 10
903.499342
 20
1328.400505
 30
0.0
 10
902.465376
 20
1323.763648
 30
0.0
  0
SPLINE
  5
190
100
AcDbEntity
  8
Layer_1
 62
7
100
AcDbSpline
 70
8
 71
3
 72
8
 73
4
 74
0
 40
0
 40
0
 40
0
 40
0
 40
1
 40
1
 40
1
 40
1
 10
902.465376
 20
1323.763648
 30
0.0
 10
900.622545
 20
1315.498501
 30
0.0
 10
900.621269
 20
1315.262999
 30
0.0
 10
902.386290
 20
1311.825283
 30
0.0
  0
SPLINE
  5
191
100
AcDbEntity
  8
Layer_1
 62
7
100
AcDbSpline
 70
8
 71
3
 72
8
 73
4
 74
0
 40
0
 40
0
 40
0
 40
0
 40
1
 40
1
 40
1
 40
1
 10
902.386290
 20
1311.825283
 30
0.0
 10
903.376091
 20
1309.896675
 30
0.0
 10
906.257027
 20
1306.880867
 30
0.0
 10
908.789471
 20
1305.123018
 30
0.0
  0
SPLINE
  5
192
100
AcDbEntity
  8
Layer_1
 62
7
100
AcDbSpline
 70
8
 71
3
 72
8
 73
4
 74
0
 40
0
 40
0
 40
0
 40
0
 40
1
 40
1
 40
1
 40
1
 10
908.789471
 20
1305.123018
 30
0.0
 10
913.355178
 20
1301.953742
 30
0.0
 10
913.471994
 20
1301.929733
 30
0.0
 10
922.587959
 20
1302.223431
 30
0.0
  0
SPLINE
  5
193
100
AcDbEntity
  8
Layer_1
 62
7
100
AcDbSpline
 70
8
 71
3
 72
8
 73
4
 74
0
 40
0
 40
0
 40
0
 40
0
 40
1
 40
1
 40
1
 40
1
 10
922.587959
 20
1302.223431
 30
0.0
 10
933.883143
 20
1302.587342
 30
0.0
 10
941.321509
 20
1301.148448
 30
0.0
 10
949.353534
 20
1297.044845
 30
0.0
  0
SPLINE
  5
194
100
AcDbEntity
  8
Layer_1
 62
7
100
AcDbSpline
 70
8
 71
3
 72
8
 73
4
 74
0
 40
0
 40
0
 40
0
 40
0
 40
1
 40
1
 40
1
 40
1
 10
949.353534
 20
1297.044845
 30
0.0
 10
963.064006
 20
1290.040123
 30
0.0
 10
969.412394
 20
1284.248602
 30
0.0
 10
976.442995
 20
1272.333623
 30
0.0
  0
SPLINE
  5
195
100
AcDbEntity
  8
Layer_1
 62
7
100
AcDbSpline
 70
8
 71
3
 72
8
 73
4
 74
0
 40
0
 40
0
 40
0
 40
0
 40
1
 40
1
 40
1
 40
1
 10
976.442995
 20
1272.333623
 30
0.0
 10
984.759222
 20
1258.239793
 30
0.0
 10
985.469613
 20
1245.539390
 30
0.0
 10
978.729846
 20
1231.482268
 30
0.0
  0
SPLINE
  5
196
100
AcDbEntity
  8
Layer_1
 62
7
100
AcDbSpline
 70
8
 71
3
 72
8
 73
4
 74
0
 40
0
 40
0
 40
0
 40
0
 40
1
 40
1
 40
1
 40
1
 10
978.729846
 20
1231.482268
 30
0.0
 10
977.112992
 20
1228.110174
 30
0.0
 10
975.785698
 20
1225.095443
 30
0.0
 10
975.780227
 20
1224.783604
 30
0.0
  0
SPLINE
  5
197
100
AcDbEntity
  8
Layer_1
 62
7
100
AcDbSpline
 70
8
 71
3
 72
8
 73
4
 74
0
 40
0
 40
0
 40
0
 40
0
 40
1
 40
1
 40
1
 40
1
 10
975.780227
 20
1224.783604
 30
0.0
 10
975.766054
 20
1224.034294
 30
0.0
 10
965.033121
 20
1209.269475
 30
0.0
 10
963.217616
 20
1207.503547
 30
0.0
  0
SPLINE
  5
198
100
AcDbEntity
  8
Layer_1
 62
7
100
AcDbSpline
 70
8
 71
3
 72
8
 73
4
 74
0
 40
0
 40
0
 40
0
 40
0
 40
1
 40
1
 40
1
 40
1
 10
963.217616
 20
1207.503547
 30
0.0
 10
961.588318
 20
1205.917676
 30
0.0
 10
953.417792
 20
1193.997254
 30
0.0
 10
951.555061
 20
1190.485979
 30
0.0
  0
SPLINE
  5
199
100
AcDbEntity
  8
Layer_1
 62
7
100
AcDbSpline
 70
8
 71
3
 72
8
 73
4
 74
0
 40
0
 40
0
 40
0
 40
0
 40
1
 40
1
 40
1
 40
1
 10
951.555061
 20
1190.485979
 30
0.0
 10
931.525200
 20
1159.278287
 30
0.0
 10
924.872598
 20
1124.543333
 30
0.0
 10
929.031109
 20
1088.489276
 30
0.0
  0
SPLINE
  5
19a
100
AcDbEntity
  8
Layer_1
 62
7
100
AcDbSpline
 70
8
 71
3
 72
8
 73
4
 74
0
 40
0
 40
0
 40
0
 40
0
 40
1
 40
1
 40
1
 40
1
 10
929.031109
 20
1088.489276
 30
0.0
 10
931.306450
 20
1070.665591
 30
0.0
 10
939.337710
 20
1052.030517
 30
0.0
 10
950.045414
 20
1039.732634
 30
0.0
  0
SPLINE
  5
19b
100
AcDbEntity
  8
Layer_1
 62
7
100
AcDbSpline
 70
8
 71
3
 72
8
 73
4
 74
0
 40
0
 40
0
 40
0
 40
0
 40
1
 40
1
 40
1
 40
1
 10
950.045414
 20
1039.732634
 30
0.0
 10
971.315093
 20
1020.352842
 30
0.0
 10
1004.453065
 20
1011.200196
 30
0.0
 10
1027.192224
 20
1025.349046
 30
0.0
  0
SPLINE
  5
19c
100
AcDbEntity
  8
Layer_1
 62
7
100
AcDbSpline
 70
8
 71
3
 72
8
 73
4
 74
0
 40
0
 40
0
 40
0
 40
0
 40
1
 40
1
 40
1
 40
1
 10
1027.192224
 20
1025.349046
 30
0.0
 10
1032.939581
 20
1028.990404
 30
0.0
 10
1040.747471
 20
1036.054766
 30
0.0
 10
1044.802772
 20
1041.282646
 30
0.0
  0
SPLINE
  5
19d
100
AcDbEntity
  8
Layer_1
 62
7
100
AcDbSpline
 70
8
 71
3
 72
8
 73
4
 74
0
 40
0
 40
0
 40
0
 40
0
 40
1
 40
1
 40
1
 40
1
 10
1044.802772
 20
1041.282646
 30
0.0
 10
1053.950740
 20
1055.648120
 30
0.0
 10
1055.500724
 20
1072.265777
 30
0.0
 10
1045.529065
 20
1084.329235
 30
0.0
  0
SPLINE
  5
19e
100
AcDbEntity
  8
Layer_1
 62
7
100
AcDbSpline
 70
8
 71
3
 72
8
 73
4
 74
0
 40
0
 40
0
 40
0
 40
0
 40
1
 40
1
 40
1
 40
1
 10
1045.529065
 20
1084.329235
 30
0.0
 10
1042.591295
 20
1087.849695
 30
0.0
 10
1042.005402
 20
1088.126867
 30
0.0
 10
1037.480032
 20
1088.142004
 30
0.0
  0
SPLINE
  5
19f
100
AcDbEntity
  8
Layer_1
 62
7
100
AcDbSpline
 70
8
 71
3
 72
8
 73
4
 74
0
 40
0
 40
0
 40
0
 40
0
 40
1
 40
1
 40
1
 40
1
 10
1037.480032
 20
1088.142004
 30
0.0
 10
1031.694435
 20
1088.008209
 30
0.0
 10
1025.660750
 20
1083.278035
 30
0.0
 10
1021.740860
 20
1079.892816
 30
0.0
  0
SPLINE
  5
1a0
100
AcDbEntity
  8
Layer_1
 62
7
100
AcDbSpline
 70
8
 71
3
 72
8
 73
4
 74
0
 40
0
 40
0
 40
0
 40
0
 40
1
 40
1
 40
1
 40
1
 10
1021.740860
 20
1079.892816
 30
0.0
 10
1015.578992
 20
1074.545654
 30
0.0
 10
1013.435717
 20
1074.544294
 30
0.0
 10
1008.513865
 20
1079.887147
 30
0.0
  0
SPLINE
  5
1a1
100
AcDbEntity
  8
Layer_1
 62
7
100
AcDbSpline
 70
8
 71
3
 72
8
 73
4
 74
0
 40
0
 40
0
 40
0
 40
0
 40
1
 40
1
 40
1
 40
1
 10
1008.513865
 20
1079.887147
 30
0.0
 10
1001.448992
 20
1087.555232
 30
0.0
 10
1000.316183
 20
1094.185242
 30
0.0
 10
1005.005225
 20
1100.424325
 30
0.0
  0
SPLINE
  5
1a2
100
AcDbEntity
  8
Layer_1
 62
7
100
AcDbSpline
 70
8
 71
3
 72
8
 73
4
 74
0
 40
0
 40
0
 40
0
 40
0
 40
1
 40
1
 40
1
 40
1
 10
1005.005225
 20
1100.424325
 30
0.0
 10
1009.890057
 20
1106.923884
 30
0.0
 10
1019.139449
 20
1109.738716
 30
0.0
 10
1035.359745
 20
1109.661613
 30
0.0
  0
SPLINE
  5
1a3
100
AcDbEntity
  8
Layer_1
 62
7
100
AcDbSpline
 70
8
 71
3
 72
8
 73
4
 74
0
 40
0
 40
0
 40
0
 40
0
 40
1
 40
1
 40
1
 40
1
 10
1035.359745
 20
1109.661613
 30
0.0
 10
1043.483187
 20
1109.623346
 30
0.0
 10
1058.260791
 20
1105.612464
 30
0.0
 10
1063.869789
 20
1101.924193
 30
0.0
  0
SPLINE
  5
1a4
100
AcDbEntity
  8
Layer_1
 62
7
100
AcDbSpline
 70
8
 71
3
 72
8
 73
4
 74
0
 40
0
 40
0
 40
0
 40
0
 40
1
 40
1
 40
1
 40
1
 10
1063.869789
 20
1101.924193
 30
0.0
 10
1076.184709
 20
1095.600750
 30
0.0
 10
1081.300280
 20
1087.034876
 30
0.0
 10
1083.925020
 20
1071.422838
 30
0.0
  0
SPLINE
  5
1a5
100
AcDbEntity
  8
Layer_1
 62
7
100
AcDbSpline
 70
8
 71
3
 72
8
 73
4
 74
0
 40
0
 40
0
 40
0
 40
0
 40
1
 40
1
 40
1
 40
1
 10
1083.925020
 20
1071.422838
 30
0.0
 10
1092.993109
 20
1021.242382
 30
0.0
 10
1062.066019
 20
984.329399
 30
0.0
 10
1020.497754
 20
970.544149
 30
0.0
  0
SPLINE
  5
1a6
100
AcDbEntity
  8
Layer_1
 62
7
100
AcDbSpline
 70
8
 71
3
 72
8
 73
4
 74
0
 40
0
 40
0
 40
0
 40
0
 40
1
 40
1
 40
1
 40
1
 10
1020.497754
 20
970.544149
 30
0.0
 10
1018.385235
 20
969.900968
 30
0.0
 10
1015.357748
 20
968.856401
 30
0.0
 10
1013.770715
 20
968.222517
 30
0.0
  0
SPLINE
  5
1a7
100
AcDbEntity
  8
Layer_1
 62
7
100
AcDbSpline
 70
8
 71
3
 72
8
 73
4
 74
0
 40
0
 40
0
 40
0
 40
0
 40
1
 40
1
 40
1
 40
1
 10
1013.770715
 20
968.222517
 30
0.0
 10
1009.097660
 20
966.356158
 30
0.0
 10
1002.224636
 20
965.809213
 30
0.0
 10
998.740375
 20
967.027544
 30
0.0
  0
SPLINE
  5
1a8
100
AcDbEntity
  8
Layer_1
 62
7
100
AcDbSpline
 70
8
 71
3
 72
8
 73
4
 74
0
 40
0
 40
0
 40
0
 40
0
 40
1
 40
1
 40
1
 40
1
 10
998.740375
 20
967.027544
 30
0.0
 10
995.345291
 20
968.214665
 30
0.0
 10
987.731320
 20
975.845957
 30
0.0
 10
981.186888
 20
984.619582
 30
0.0
  0
SPLINE
  5
1a9
100
AcDbEntity
  8
Layer_1
 62
7
100
AcDbSpline
 70
8
 71
3
 72
8
 73
4
 74
0
 40
0
 40
0
 40
0
 40
0
 40
1
 40
1
 40
1
 40
1
 10
981.186888
 20
984.619582
 30
0.0
 10
971.892198
 20
997.078445
 30
0.0
 10
947.836715
 20
1022.659761
 30
0.0
 10
934.231975
 20
1034.552971
 30
0.0
  0
SPLINE
  5
1aa
100
AcDbEntity
  8
Layer_1
 62
7
100
AcDbSpline
 70
8
 71
3
 72
8
 73
4
 74
0
 40
0
 40
0
 40
0
 40
0
 40
1
 40
1
 40
1
 40
1
 10
934.231975
 20
1034.552971
 30
0.0
 10
921.431197
 20
1045.743103
 30
0.0
 10
912.018416
 20
1051.508347
 30
0.0
 10
877.299874
 20
1069.427276
 30
0.0
  0
SPLINE
  5
1ab
100
AcDbEntity
  8
Layer_1
 62
7
100
AcDbSpline
 70
8
 71
3
 72
8
 73
4
 74
0
 40
0
 40
0
 40
0
 40
0
 40
1
 40
1
 40
1
 40
1
 10
877.299874
 20
1069.427276
 30
0.0
 10
867.538970
 20
1074.464980
 30
0.0
 10
859.555049
 20
1078.717742
 30
0.0
 10
859.557883
 20
1078.878070
 30
0.0
  0
SPLINE
  5
1ac
100
AcDbEntity
  8
Layer_1
 62
7
100
AcDbSpline
 70
8
 71
3
 72
8
 73
4
 74
0
 40
0
 40
0
 40
0
 40
0
 40
1
 40
1
 40
1
 40
1
 10
859.557883
 20
1078.878070
 30
0.0
 10
867.120973
 20
1097.111588
 30
0.0
 10
880.357238
 20
1114.207591
 30
0.0
 10
886.694258
 20
1133.366338
 30
0.0
  0
SPLINE
  5
1ad
100
AcDbEntity
  8
Layer_1
 62
7
100
AcDbSpline
 70
8
 71
3
 72
8
 73
4
 74
0
 40
0
 40
0
 40
0
 40
0
 40
1
 40
1
 40
1
 40
1
 10
886.694258
 20
1133.366338
 30
0.0
 10
888.815820
 20
1140.293248
 30
0.0
 10
888.393402
 20
1147.066974
 30
0.0
 10
885.650910
 20
1150.091059
 30
0.0
  0
SPLINE
  5
1ae
100
AcDbEntity
  8
Layer_1
 62
7
100
AcDbSpline
 70
8
 71
3
 72
8
 73
4
 74
0
 40
0
 40
0
 40
0
 40
0
 40
1
 40
1
 40
1
 40
1
 10
885.650910
 20
1150.091059
 30
0.0
 10
884.489272
 20
1151.372064
 30
0.0
 10
877.018932
 20
1155.810495
 30
0.0
 10
869.049439
 20
1159.954095
 30
0.0
  0
SPLINE
  5
1af
100
AcDbEntity
  8
Layer_1
 62
7
100
AcDbSpline
 70
8
 71
3
 72
8
 73
4
 74
0
 40
0
 40
0
 40
0
 40
0
 40
1
 40
1
 40
1
 40
1
 10
869.049439
 20
1159.954095
 30
0.0
 10
853.843238
 20
1167.860489
 30
0.0
 10
845.027660
 20
1174.013654
 30
0.0
 10
835.917506
 20
1183.081544
 30
0.0
  0
SPLINE
  5
1b0
100
AcDbEntity
  8
Layer_1
 62
7
100
AcDbSpline
 70
8
 71
3
 72
8
 73
4
 74
0
 40
0
 40
0
 40
0
 40
0
 40
1
 40
1
 40
1
 40
1
 10
835.917506
 20
1183.081544
 30
0.0
 10
818.294315
 20
1201.705931
 30
0.0
 10
815.752715
 20
1218.794820
 30
0.0
 10
825.149225
 20
1240.943635
 30
0.0
  0
SPLINE
  5
1b1
100
AcDbEntity
  8
Layer_1
 62
7
100
AcDbSpline
 70
8
 71
3
 72
8
 73
4
 74
0
 40
0
 40
0
 40
0
 40
0
 40
1
 40
1
 40
1
 40
1
 10
825.149225
 20
1240.943635
 30
0.0
 10
826.502769
 20
1244.073424
 30
0.0
 10
828.936170
 20
1250.394316
 30
0.0
 10
828.984444
 20
1250.904779
 30
0.0
  0
SPLINE
  5
1b2
100
AcDbEntity
  8
Layer_1
 62
7
100
AcDbSpline
 70
8
 71
3
 72
8
 73
4
 74
0
 40
0
 40
0
 40
0
 40
0
 40
1
 40
1
 40
1
 40
1
 10
828.984444
 20
1250.904779
 30
0.0
 10
829.095846
 20
1252.100659
 30
0.0
 10
831.413849
 20
1257.087963
 30
0.0
 10
837.480671
 20
1269.182659
 30
0.0
  0
SPLINE
  5
1b3
100
AcDbEntity
  8
Layer_1
 62
7
100
AcDbSpline
 70
8
 71
3
 72
8
 73
4
 74
0
 40
0
 40
0
 40
0
 40
0
 40
1
 40
1
 40
1
 40
1
 10
837.480671
 20
1269.182659
 30
0.0
 10
841.083732
 20
1276.365453
 30
0.0
 10
844.036044
 20
1282.426775
 30
0.0
 10
844.039984
 20
1282.650883
 30
0.0
  0
SPLINE
  5
1b4
100
AcDbEntity
  8
Layer_1
 62
7
100
AcDbSpline
 70
8
 71
3
 72
8
 73
4
 74
0
 40
0
 40
0
 40
0
 40
0
 40
1
 40
1
 40
1
 40
1
 10
844.039984
 20
1282.650883
 30
0.0
 10
854.578488
 20
1300.443953
 30
0.0
 10
864.162652
 20
1317.303405
 30
0.0
 10
875.400605
 20
1333.182467
 30
0.0
  0
SPLINE
  5
1b5
100
AcDbEntity
  8
Layer_1
 62
7
100
AcDbSpline
 70
8
 71
3
 72
8
 73
4
 74
0
 40
0
 40
0
 40
0
 40
0
 40
1
 40
1
 40
1
 40
1
 10
875.400605
 20
1333.182467
 30
0.0
 10
879.268649
 20
1338.630174
 30
0.0
 10
883.456838
 20
1344.573207
 30
0.0
 10
884.707200
 20
1346.389761
 30
0.0
  0
SPLINE
  5
1b6
100
AcDbEntity
  8
Layer_1
 62
7
100
AcDbSpline
 70
8
 71
3
 72
8
 73
4
 74
0
 40
0
 40
0
 40
0
 40
0
 40
1
 40
1
 40
1
 40
1
 10
884.707200
 20
1346.389761
 30
0.0
 10
888.603222
 20
1352.049585
 30
0.0
 10
897.063789
 20
1362.256294
 30
0.0
 10
898.795984
 20
1362.225764
 30
0.0
  0
LWPOLYLINE
  5
1b7
100
AcDbEntity
  8
Layer_1
 62
7
100
AcDbPolyline
 90
1
 70
1
 10
731.721090
 20
1400.482341
 30
0.0
  0
LWPOLYLINE
  5
1b8
100
AcDbEntity
  8
Layer_1
 62
7
100
AcDbPolyline
 90
2
 70
0
 10
898.795984
 20
1362.225764
 30
0.0
 10
898.794794
 20
1362.224375
 30
0.0
  0
SPLINE
  5
1b9
100
AcDbEntity
  8
Layer_1
 62
7
100
AcDbSpline
 70
8
 71
3
 72
8
 73
4
 74
0
 40
0
 40
0
 40
0
 40
0
 40
1
 40
1
 40
1
 40
1
 10
1528.427934
 20
845.380709
 30
0.0
 10
1528.427934
 20
845.380709
 30
0.0
 10
1521.704750
 20
850.511276
 30
0.0
 10
1515.635745
 20
857.255975
 30
0.0
  0
SPLINE
  5
1ba
100
AcDbEntity
  8
Layer_1
 62
7
100
AcDbSpline
 70
8
 71
3
 72
8
 73
4
 74
0
 40
0
 40
0
 40
0
 40
0
 40
1
 40
1
 40
1
 40
1
 10
1515.635745
 20
857.255975
 30
0.0
 10
1512.606444
 20
860.704832
 30
0.0
 10
1506.737424
 20
864.582712
 30
0.0
 10
1504.488699
 20
864.622256
 30
0.0
  0
SPLINE
  5
1bb
100
AcDbEntity
  8
Layer_1
 62
7
100
AcDbSpline
 70
8
 71
3
 72
8
 73
4
 74
0
 40
0
 40
0
 40
0
 40
0
 40
1
 40
1
 40
1
 40
1
 10
1504.488699
 20
864.622256
 30
0.0
 10
1502.618655
 20
864.653720
 30
0.0
 10
1498.509780
 20
861.004057
 30
0.0
 10
1498.479534
 20
859.282747
 30
0.0
  0
SPLINE
  5
1bc
100
AcDbEntity
  8
Layer_1
 62
7
100
AcDbSpline
 70
8
 71
3
 72
8
 73
4
 74
0
 40
0
 40
0
 40
0
 40
0
 40
1
 40
1
 40
1
 40
1
 10
1498.479534
 20
859.282747
 30
0.0
 10
1498.456857
 20
858.069831
 30
0.0
 10
1504.121131
 20
851.474687
 30
0.0
 10
1512.329329
 20
843.152593
 30
0.0
  0
SPLINE
  5
1bd
100
AcDbEntity
  8
Layer_1
 62
7
100
AcDbSpline
 70
8
 71
3
 72
8
 73
4
 74
0
 40
0
 40
0
 40
0
 40
0
 40
1
 40
1
 40
1
 40
1
 10
1512.329329
 20
843.152593
 30
0.0
 10
1519.195805
 20
836.191298
 30
0.0
 10
1519.585965
 20
836.334930
 30
0.0
 10
1519.585965
 20
836.334930
 30
0.0
  0
LWPOLYLINE
  5
1be
100
AcDbEntity
  8
Layer_1
 62
7
100
AcDbPolyline
 90
3
 70
0
 10
1408.990904
 20
997.568583
 30
0.0
 10
1545.158268
 20
862.510076
 30
0.0
 10
1528.427934
 20
845.380709
 30
0.0
  0
SPLINE
  5
1bf
100
AcDbEntity
  8
Layer_1
 62
7
100
AcDbSpline
 70
8
 71
3
 72
8
 73
4
 74
0
 40
0
 40
0
 40
0
 40
0
 40
1
 40
1
 40
1
 40
1
 10
1496.856813
 20
813.278460
 30
0.0
 10
1495.813124
 20
811.742139
 30
0.0
 10
1460.496558
 20
846.191560
 30
0.0
 10
1441.207106
 20
861.918457
 30
0.0
  0
SPLINE
  5
1c0
100
AcDbEntity
  8
Layer_1
 62
7
100
AcDbSpline
 70
8
 71
3
 72
8
 73
4
 74
0
 40
0
 40
0
 40
0
 40
0
 40
1
 40
1
 40
1
 40
1
 10
1441.207106
 20
861.918457
 30
0.0
 10
1438.768630
 20
862.664451
 30
0.0
 10
1437.977197
 20
862.395415
 30
0.0
 10
1435.451811
 20
859.957421
 30
0.0
  0
SPLINE
  5
1c1
100
AcDbEntity
  8
Layer_1
 62
7
100
AcDbSpline
 70
8
 71
3
 72
8
 73
4
 74
0
 40
0
 40
0
 40
0
 40
0
 40
1
 40
1
 40
1
 40
1
 10
1435.451811
 20
859.957421
 30
0.0
 10
1433.877761
 20
857.235821
 30
0.0
 10
1433.414211
 20
857.231342
 30
0.0
 10
1434.350891
 20
854.468527
 30
0.0
  0
SPLINE
  5
1c2
100
AcDbEntity
  8
Layer_1
 62
7
100
AcDbSpline
 70
8
 71
3
 72
8
 73
4
 74
0
 40
0
 40
0
 40
0
 40
0
 40
1
 40
1
 40
1
 40
1
 10
1434.350891
 20
854.468527
 30
0.0
 10
1435.355008
 20
853.004347
 30
0.0
 10
1437.994800
 20
850.163295
 30
0.0
 10
1440.216765
 20
848.156366
 30
0.0
  0
SPLINE
  5
1c3
100
AcDbEntity
  8
Layer_1
 62
7
100
AcDbSpline
 70
8
 71
3
 72
8
 73
4
 74
0
 40
0
 40
0
 40
0
 40
0
 40
1
 40
1
 40
1
 40
1
 10
1440.216765
 20
848.156366
 30
0.0
 10
1458.493937
 20
831.646823
 30
0.0
 10
1486.208863
 20
802.265352
 30
0.0
 10
1486.208863
 20
802.265352
 30
0.0
  0
LWPOLYLINE
  5
1c4
100
AcDbEntity
  8
Layer_1
 62
7
100
AcDbPolyline
 90
2
 70
0
 10
1519.585965
 20
836.334930
 30
0.0
 10
1496.856813
 20
813.278460
 30
0.0
  0
SPLINE
  5
1c5
100
AcDbEntity
  8
Layer_1
 62
7
100
AcDbSpline
 70
8
 71
3
 72
8
 73
4
 74
0
 40
0
 40
0
 40
0
 40
0
 40
1
 40
1
 40
1
 40
1
 10
1462.428992
 20
793.376725
 30
0.0
 10
1456.765115
 20
798.968517
 30
0.0
 10
1450.857373
 20
804.406020
 30
0.0
 10
1449.299962
 20
805.459260
 30
0.0
  0
SPLINE
  5
1c6
100
AcDbEntity
  8
Layer_1
 62
7
100
AcDbSpline
 70
8
 71
3
 72
8
 73
4
 74
0
 40
0
 40
0
 40
0
 40
0
 40
1
 40
1
 40
1
 40
1
 10
1449.299962
 20
805.459260
 30
0.0
 10
1445.224649
 20
808.215301
 30
0.0
 10
1440.701348
 20
808.071613
 30
0.0
 10
1438.693143
 20
805.121087
 30
0.0
  0
SPLINE
  5
1c7
100
AcDbEntity
  8
Layer_1
 62
7
100
AcDbSpline
 70
8
 71
3
 72
8
 73
4
 74
0
 40
0
 40
0
 40
0
 40
0
 40
1
 40
1
 40
1
 40
1
 10
1438.693143
 20
805.121087
 30
0.0
 10
1437.164050
 20
802.874602
 30
0.0
 10
1436.385061
 20
801.762883
 30
0.0
 10
1438.406476
 20
798.698829
 30
0.0
  0
SPLINE
  5
1c8
100
AcDbEntity
  8
Layer_1
 62
7
100
AcDbSpline
 70
8
 71
3
 72
8
 73
4
 74
0
 40
0
 40
0
 40
0
 40
0
 40
1
 40
1
 40
1
 40
1
 10
1438.406476
 20
798.698829
 30
0.0
 10
1439.578885
 20
796.921478
 30
0.0
 10
1445.912901
 20
791.525191
 30
0.0
 10
1451.496189
 20
785.703509
 30
0.0
  0
SPLINE
  5
1c9
100
AcDbEntity
  8
Layer_1
 62
7
100
AcDbSpline
 70
8
 71
3
 72
8
 73
4
 74
0
 40
0
 40
0
 40
0
 40
0
 40
1
 40
1
 40
1
 40
1
 10
1451.496189
 20
785.703509
 30
0.0
 10
1459.158775
 20
777.713720
 30
0.0
 10
1460.933150
 20
776.854879
 30
0.0
 10
1460.933150
 20
776.854879
 30
0.0
  0
LWPOLYLINE
  5
1ca
100
AcDbEntity
  8
Layer_1
 62
7
100
AcDbPolyline
 90
3
 70
0
 10
1486.208863
 20
802.265352
 30
0.0
 10
1470.141609
 20
786.257229
 30
0.0
 10
1462.428992
 20
793.376725
 30
0.0
  0
SPLINE
  5
1cb
100
AcDbEntity
  8
Layer_1
 62
7
100
AcDbSpline
 70
8
 71
3
 72
8
 73
4
 74
0
 40
0
 40
0
 40
0
 40
0
 40
1
 40
1
 40
1
 40
1
 10
1437.641972
 20
753.177112
 30
0.0
 10
1437.641972
 20
753.177112
 30
0.0
 10
1431.793814
 20
757.789251
 30
0.0
 10
1423.955452
 20
765.872753
 30
0.0
  0
SPLINE
  5
1cc
100
AcDbEntity
  8
Layer_1
 62
7
100
AcDbSpline
 70
8
 71
3
 72
8
 73
4
 74
0
 40
0
 40
0
 40
0
 40
0
 40
1
 40
1
 40
1
 40
1
 10
1423.955452
 20
765.872753
 30
0.0
 10
1416.116920
 20
773.955887
 30
0.0
 10
1406.741074
 20
783.185692
 30
0.0
 10
1403.120154
 20
786.383087
 30
0.0
  0
SPLINE
  5
1cd
100
AcDbEntity
  8
Layer_1
 62
7
100
AcDbSpline
 70
8
 71
3
 72
8
 73
4
 74
0
 40
0
 40
0
 40
0
 40
0
 40
1
 40
1
 40
1
 40
1
 10
1403.120154
 20
786.383087
 30
0.0
 10
1399.499263
 20
789.580341
 30
0.0
 10
1395.271304
 20
793.582775
 30
0.0
 10
1393.725146
 20
795.277185
 30
0.0
  0
SPLINE
  5
1ce
100
AcDbEntity
  8
Layer_1
 62
7
100
AcDbSpline
 70
8
 71
3
 72
8
 73
4
 74
0
 40
0
 40
0
 40
0
 40
0
 40
1
 40
1
 40
1
 40
1
 10
1393.725146
 20
795.277185
 30
0.0
 10
1390.109386
 20
799.239906
 30
0.0
 10
1384.227695
 20
803.956643
 30
0.0
 10
1380.257320
 20
806.077043
 30
0.0
  0
SPLINE
  5
1cf
100
AcDbEntity
  8
Layer_1
 62
7
100
AcDbSpline
 70
8
 71
3
 72
8
 73
4
 74
0
 40
0
 40
0
 40
0
 40
0
 40
1
 40
1
 40
1
 40
1
 10
1380.257320
 20
806.077043
 30
0.0
 10
1377.214101
 20
807.702372
 30
0.0
 10
1373.527276
 20
807.524867
 30
0.0
 10
1373.256000
 20
805.739947
 30
0.0
  0
SPLINE
  5
1d0
100
AcDbEntity
  8
Layer_1
 62
7
100
AcDbSpline
 70
8
 71
3
 72
8
 73
4
 74
0
 40
0
 40
0
 40
0
 40
0
 40
1
 40
1
 40
1
 40
1
 10
1373.256000
 20
805.739947
 30
0.0
 10
1372.308548
 20
799.505796
 30
0.0
 10
1372.989827
 20
798.685761
 30
0.0
 10
1408.955358
 20
762.887900
 30
0.0
  0
SPLINE
  5
1d1
100
AcDbEntity
  8
Layer_1
 62
7
100
AcDbSpline
 70
8
 71
3
 72
8
 73
4
 74
0
 40
0
 40
0
 40
0
 40
0
 40
1
 40
1
 40
1
 40
1
 10
1408.955358
 20
762.887900
 30
0.0
 10
1415.902564
 20
755.415831
 30
0.0
 10
1428.389490
 20
743.593884
 30
0.0
 10
1428.389490
 20
743.593884
 30
0.0
  0
LWPOLYLINE
  5
1d2
100
AcDbEntity
  8
Layer_1
 62
7
100
AcDbPolyline
 90
2
 70
0
 10
1460.933150
 20
776.854879
 30
0.0
 10
1437.641972
 20
753.177112
 30
0.0
  0
SPLINE
  5
1d3
100
AcDbEntity
  8
Layer_1
 62
7
100
AcDbSpline
 70
8
 71
3
 72
8
 73
4
 74
0
 40
0
 40
0
 40
0
 40
0
 40
1
 40
1
 40
1
 40
1
 10
1410.322025
 20
725.608964
 30
0.0
 10
1405.399295
 20
731.246536
 30
0.0
 10
1387.776161
 20
747.107456
 30
0.0
 10
1382.329276
 20
747.367648
 30
0.0
  0
SPLINE
  5
1d4
100
AcDbEntity
  8
Layer_1
 62
7
100
AcDbSpline
 70
8
 71
3
 72
8
 73
4
 74
0
 40
0
 40
0
 40
0
 40
0
 40
1
 40
1
 40
1
 40
1
 10
1382.329276
 20
747.367648
 30
0.0
 10
1378.765814
 20
747.450136
 30
0.0
 10
1377.098872
 20
745.976602
 30
0.0
 10
1377.041131
 20
742.695415
 30
0.0
  0
SPLINE
  5
1d5
100
AcDbEntity
  8
Layer_1
 62
7
100
AcDbSpline
 70
8
 71
3
 72
8
 73
4
 74
0
 40
0
 40
0
 40
0
 40
0
 40
1
 40
1
 40
1
 40
1
 10
1377.041131
 20
742.695415
 30
0.0
 10
1376.985572
 20
739.577758
 30
0.0
 10
1379.737786
 20
735.703535
 30
0.0
 10
1386.361843
 20
729.571884
 30
0.0
  0
SPLINE
  5
1d6
100
AcDbEntity
  8
Layer_1
 62
7
100
AcDbSpline
 70
8
 71
3
 72
8
 73
4
 74
0
 40
0
 40
0
 40
0
 40
0
 40
1
 40
1
 40
1
 40
1
 10
1386.361843
 20
729.571884
 30
0.0
 10
1394.774504
 20
721.784517
 30
0.0
 10
1400.846060
 20
715.277957
 30
0.0
 10
1400.846060
 20
715.277957
 30
0.0
  0
LWPOLYLINE
  5
1d7
100
AcDbEntity
  8
Layer_1
 62
7
100
AcDbPolyline
 90
2
 70
0
 10
1428.389490
 20
743.593884
 30
0.0
 10
1410.322025
 20
725.608964
 30
0.0
  0
SPLINE
  5
1d8
100
AcDbEntity
  8
Layer_1
 62
7
100
AcDbSpline
 70
8
 71
3
 72
8
 73
4
 74
0
 40
0
 40
0
 40
0
 40
0
 40
1
 40
1
 40
1
 40
1
 10
1380.117458
 20
694.308892
 30
0.0
 10
1380.117458
 20
694.308892
 30
0.0
 10
1372.846989
 20
699.801840
 30
0.0
 10
1356.607701
 20
715.886243
 30
0.0
  0
SPLINE
  5
1d9
100
AcDbEntity
  8
Layer_1
 62
7
100
AcDbSpline
 70
8
 71
3
 72
8
 73
4
 74
0
 40
0
 40
0
 40
0
 40
0
 40
1
 40
1
 40
1
 40
1
 10
1356.607701
 20
715.886243
 30
0.0
 10
1326.340176
 20
745.866760
 30
0.0
 10
1320.146107
 20
750.809163
 30
0.0
 10
1315.982154
 20
748.309374
 30
0.0
  0
SPLINE
  5
1da
100
AcDbEntity
  8
Layer_1
 62
7
100
AcDbSpline
 70
8
 71
3
 72
8
 73
4
 74
0
 40
0
 40
0
 40
0
 40
0
 40
1
 40
1
 40
1
 40
1
 10
1315.982154
 20
748.309374
 30
0.0
 10
1310.840476
 20
745.222785
 30
0.0
 10
1313.657802
 20
741.428186
 30
0.0
 10
1345.263874
 20
708.876249
 30
0.0
  0
SPLINE
  5
1db
100
AcDbEntity
  8
Layer_1
 62
7
100
AcDbSpline
 70
8
 71
3
 72
8
 73
4
 74
0
 40
0
 40
0
 40
0
 40
0
 40
1
 40
1
 40
1
 40
1
 10
1345.263874
 20
708.876249
 30
0.0
 10
1358.495972
 20
695.248322
 30
0.0
 10
1369.304872
 20
683.142712
 30
0.0
 10
1369.304872
 20
683.142712
 30
0.0
  0
LWPOLYLINE
  5
1dc
100
AcDbEntity
  8
Layer_1
 62
7
100
AcDbPolyline
 90
2
 70
0
 10
1400.846060
 20
715.277957
 30
0.0
 10
1380.117458
 20
694.308892
 30
0.0
  0
SPLINE
  5
1dd
100
AcDbEntity
  8
Layer_1
 62
7
100
AcDbSpline
 70
8
 71
3
 72
8
 73
4
 74
0
 40
0
 40
0
 40
0
 40
0
 40
1
 40
1
 40
1
 40
1
 10
1338.718252
 20
672.984051
 30
0.0
 10
1328.465140
 20
683.447975
 30
0.0
 10
1323.217502
 20
686.949613
 30
0.0
 10
1319.186778
 20
686.012990
 30
0.0
  0
SPLINE
  5
1de
100
AcDbEntity
  8
Layer_1
 62
7
100
AcDbSpline
 70
8
 71
3
 72
8
 73
4
 74
0
 40
0
 40
0
 40
0
 40
0
 40
1
 40
1
 40
1
 40
1
 10
1319.186778
 20
686.012990
 30
0.0
 10
1313.274104
 20
684.639037
 30
0.0
 10
1315.667197
 20
679.556120
 30
0.0
 10
1328.906948
 20
665.372177
 30
0.0
  0
SPLINE
  5
1df
100
AcDbEntity
  8
Layer_1
 62
7
100
AcDbSpline
 70
8
 71
3
 72
8
 73
4
 74
0
 40
0
 40
0
 40
0
 40
0
 40
1
 40
1
 40
1
 40
1
 10
1328.906948
 20
665.372177
 30
0.0
 10
1334.565156
 20
659.310429
 30
0.0
 10
1340.178463
 20
654.025034
 30
0.0
 10
1340.178463
 20
654.025034
 30
0.0
  0
LWPOLYLINE
  5
1e0
100
AcDbEntity
  8
Layer_1
 62
7
100
AcDbPolyline
 90
3
 70
0
 10
1369.304872
 20
683.142712
 30
0.0
 10
1348.867417
 20
662.622344
 30
0.0
 10
1338.718252
 20
672.984051
 30
0.0
  0
SPLINE
  5
1e1
100
AcDbEntity
  8
Layer_1
 62
7
100
AcDbSpline
 70
8
 71
3
 72
8
 73
4
 74
0
 40
0
 40
0
 40
0
 40
0
 40
1
 40
1
 40
1
 40
1
 10
514.430815
 20
1001.383676
 30
0.0
 10
515.786152
 20
1001.349094
 30
0.0
 10
517.176241
 20
1001.031443
 30
0.0
 10
518.545890
 20
1000.369752
 30
0.0
  0
LWPOLYLINE
  5
1e2
100
AcDbEntity
  8
Layer_1
 62
7
100
AcDbPolyline
 90
5
 70
0
 10
1340.178463
 20
654.025034
 30
0.0
 10
1321.322457
 20
634.849563
 30
0.0
 10
1268.997222
 20
681.564438
 30
0.0
 10
1221.504293
 20
820.629859
 30
0.0
 10
1408.990904
 20
997.568583
 30
0.0
  0
SPLINE
  5
1e3
100
AcDbEntity
  8
Layer_1
 62
7
100
AcDbSpline
 70
8
 71
3
 72
8
 73
4
 74
0
 40
0
 40
0
 40
0
 40
0
 40
1
 40
1
 40
1
 40
1
 10
628.044724
 20
947.472826
 30
0.0
 10
640.055512
 20
941.670618
 30
0.0
 10
634.590743
 20
921.316558
 30
0.0
 10
618.647777
 20
929.054120
 30
0.0
  0
LWPOLYLINE
  5
1e4
100
AcDbEntity
  8
Layer_1
 62
7
100
AcDbPolyline
 90
2
 70
0
 10
518.545890
 20
1000.369752
 30
0.0
 10
628.044724
 20
947.472826
 30
0.0
  0
SPLINE
  5
1e5
100
AcDbEntity
  8
Layer_1
 62
7
100
AcDbSpline
 70
8
 71
3
 72
8
 73
4
 74
0
 40
0
 40
0
 40
0
 40
0
 40
1
 40
1
 40
1
 40
1
 10
510.340695
 20
981.618060
 30
0.0
 10
497.176515
 20
988.007068
 30
0.0
 10
504.943329
 20
1001.625046
 30
0.0
 10
514.430815
 20
1001.383676
 30
0.0
  0
LWPOLYLINE
  5
1e6
100
AcDbEntity
  8
Layer_1
 62
7
100
AcDbPolyline
 90
2
 70
0
 10
618.647777
 20
929.054120
 30
0.0
 10
510.340695
 20
981.618060
 30
0.0
  0
SPLINE
  5
1e7
100
AcDbEntity
  8
Layer_1
 62
7
100
AcDbSpline
 70
8
 71
3
 72
8
 73
4
 74
0
 40
0
 40
0
 40
0
 40
0
 40
1
 40
1
 40
1
 40
1
 10
1133.059266
 20
988.892272
 30
0.0
 10
1140.196110
 20
988.852303
 30
0.0
 10
1145.848110
 20
981.711037
 30
0.0
 10
1143.237487
 20
974.490231
 30
0.0
  0
SPLINE
  5
1e8
100
AcDbEntity
  8
Layer_1
 62
7
100
AcDbSpline
 70
8
 71
3
 72
8
 73
4
 74
0
 40
0
 40
0
 40
0
 40
0
 40
1
 40
1
 40
1
 40
1
 10
1143.237487
 20
974.490231
 30
0.0
 10
1141.878501
 20
970.731179
 30
0.0
 10
1131.524277
 20
966.602602
 30
0.0
 10
1131.524277
 20
966.602602
 30
0.0
  0
LWPOLYLINE
  5
1e9
100
AcDbEntity
  8
Layer_1
 62
7
100
AcDbPolyline
 90
1
 70
1
 10
514.430815
 20
1001.383676
 30
0.0
  0
SPLINE
  5
1ea
100
AcDbEntity
  8
Layer_1
 62
7
100
AcDbSpline
 70
8
 71
3
 72
8
 73
4
 74
0
 40
0
 40
0
 40
0
 40
0
 40
1
 40
1
 40
1
 40
1
 10
1022.335058
 20
923.986029
 30
0.0
 10
1007.885452
 20
918.352681
 30
0.0
 10
1002.105411
 20
933.470527
 30
0.0
 10
1012.615030
 20
940.415692
 30
0.0
  0
SPLINE
  5
1eb
100
AcDbEntity
  8
Layer_1
 62
7
100
AcDbSpline
 70
8
 71
3
 72
8
 73
4
 74
0
 40
0
 40
0
 40
0
 40
0
 40
1
 40
1
 40
1
 40
1
 10
1012.615030
 20
940.415692
 30
0.0
 10
1045.746992
 20
956.762980
 30
0.0
 10
1083.211540
 20
972.585575
 30
0.0
 10
1127.963764
 20
987.698942
 30
0.0
  0
SPLINE
  5
1ec
100
AcDbEntity
  8
Layer_1
 62
7
100
AcDbSpline
 70
8
 71
3
 72
8
 73
4
 74
0
 40
0
 40
0
 40
0
 40
0
 40
1
 40
1
 40
1
 40
1
 10
1127.963764
 20
987.698942
 30
0.0
 10
1129.685641
 20
988.532442
 30
0.0
 10
1131.412309
 20
988.901512
 30
0.0
 10
1133.059266
 20
988.892272
 30
0.0
  0
LWPOLYLINE
  5
1ed
100
AcDbEntity
  8
Layer_1
 62
7
100
AcDbPolyline
 90
2
 70
0
 10
1131.524277
 20
966.602602
 30
0.0
 10
1022.335058
 20
923.986029
 30
0.0
  0
LWPOLYLINE
  5
1ee
100
AcDbEntity
  8
Layer_1
 62
7
100
AcDbPolyline
 90
1
 70
1
 10
1133.059266
 20
988.892272
 30
0.0
  0
SPLINE
  5
1ef
100
AcDbEntity
  8
Layer_1
 62
7
100
AcDbSpline
 70
8
 71
3
 72
8
 73
4
 74
0
 40
0
 40
0
 40
0
 40
0
 40
1
 40
1
 40
1
 40
1
 10
411.456991
 20
802.796536
 30
0.0
 10
399.414317
 20
768.979979
 30
0.0
 10
365.552921
 20
689.811216
 30
0.0
 10
365.552921
 20
689.811216
 30
0.0
  0
LWPOLYLINE
  5
1f0
100
AcDbEntity
  8
Layer_1
 62
7
100
AcDbPolyline
 90
4
 70
0
 10
216.143858
 20
996.633150
 30
0.0
 10
404.735173
 20
814.457049
 30
0.0
 10
412.399500
 20
806.667925
 30
0.0
 10
411.456991
 20
802.796536
 30
0.0
  0
SPLINE
  5
1f1
100
AcDbEntity
  8
Layer_1
 62
7
100
AcDbSpline
 70
8
 71
3
 72
8
 73
4
 74
0
 40
0
 40
0
 40
0
 40
0
 40
1
 40
1
 40
1
 40
1
 10
277.251406
 20
646.218476
 30
0.0
 10
277.251406
 20
646.218476
 30
0.0
 10
296.507696
 20
666.361100
 30
0.0
 10
298.205881
 20
669.223213
 30
0.0
  0
SPLINE
  5
1f2
100
AcDbEntity
  8
Layer_1
 62
7
100
AcDbSpline
 70
8
 71
3
 72
8
 73
4
 74
0
 40
0
 40
0
 40
0
 40
0
 40
1
 40
1
 40
1
 40
1
 10
298.205881
 20
669.223213
 30
0.0
 10
300.689597
 20
673.409333
 30
0.0
 10
300.807133
 20
677.339512
 30
0.0
 10
298.494145
 20
678.843831
 30
0.0
  0
SPLINE
  5
1f3
100
AcDbEntity
  8
Layer_1
 62
7
100
AcDbSpline
 70
8
 71
3
 72
8
 73
4
 74
0
 40
0
 40
0
 40
0
 40
0
 40
1
 40
1
 40
1
 40
1
 10
298.494145
 20
678.843831
 30
0.0
 10
295.822862
 20
680.581043
 30
0.0
 10
290.353014
 20
676.993090
 30
0.0
 10
278.034503
 20
665.426971
 30
0.0
  0
SPLINE
  5
1f4
100
AcDbEntity
  8
Layer_1
 62
7
100
AcDbSpline
 70
8
 71
3
 72
8
 73
4
 74
0
 40
0
 40
0
 40
0
 40
0
 40
1
 40
1
 40
1
 40
1
 10
278.034503
 20
665.426971
 30
0.0
 10
271.489099
 20
659.281175
 30
0.0
 10
267.465121
 20
655.376961
 30
0.0
 10
267.465121
 20
655.376961
 30
0.0
  0
LWPOLYLINE
  5
1f5
100
AcDbEntity
  8
Layer_1
 62
7
100
AcDbPolyline
 90
3
 70
0
 10
365.552921
 20
689.811216
 30
0.0
 10
300.459830
 20
622.974523
 30
0.0
 10
277.251406
 20
646.218476
 30
0.0
  0
SPLINE
  5
1f6
100
AcDbEntity
  8
Layer_1
 62
7
100
AcDbSpline
 70
8
 71
3
 72
8
 73
4
 74
0
 40
0
 40
0
 40
0
 40
0
 40
1
 40
1
 40
1
 40
1
 10
250.397257
 20
673.389575
 30
0.0
 10
250.397257
 20
673.389575
 30
0.0
 10
277.739878
 20
700.809443
 30
0.0
 10
288.918541
 20
712.718810
 30
0.0
  0
SPLINE
  5
1f7
100
AcDbEntity
  8
Layer_1
 62
7
100
AcDbSpline
 70
8
 71
3
 72
8
 73
4
 74
0
 40
0
 40
0
 40
0
 40
0
 40
1
 40
1
 40
1
 40
1
 10
288.918541
 20
712.718810
 30
0.0
 10
303.611165
 20
728.371270
 30
0.0
 10
305.379760
 20
730.885969
 30
0.0
 10
303.682711
 20
733.702700
 30
0.0
  0
SPLINE
  5
1f8
100
AcDbEntity
  8
Layer_1
 62
7
100
AcDbSpline
 70
8
 71
3
 72
8
 73
4
 74
0
 40
0
 40
0
 40
0
 40
0
 40
1
 40
1
 40
1
 40
1
 10
303.682711
 20
733.702700
 30
0.0
 10
302.155498
 20
736.237582
 30
0.0
 10
299.064042
 20
736.214196
 30
0.0
 10
294.475552
 20
733.632684
 30
0.0
  0
SPLINE
  5
1f9
100
AcDbEntity
  8
Layer_1
 62
7
100
AcDbSpline
 70
8
 71
3
 72
8
 73
4
 74
0
 40
0
 40
0
 40
0
 40
0
 40
1
 40
1
 40
1
 40
1
 10
294.475552
 20
733.632684
 30
0.0
 10
290.576367
 20
731.438810
 30
0.0
 10
286.267292
 20
727.440883
 30
0.0
 10
263.037291
 20
704.457972
 30
0.0
  0
SPLINE
  5
1fa
100
AcDbEntity
  8
Layer_1
 62
7
100
AcDbSpline
 70
8
 71
3
 72
8
 73
4
 74
0
 40
0
 40
0
 40
0
 40
0
 40
1
 40
1
 40
1
 40
1
 10
263.037291
 20
704.457972
 30
0.0
 10
249.572611
 20
691.136442
 30
0.0
 10
241.308422
 20
682.487484
 30
0.0
 10
241.308422
 20
682.487484
 30
0.0
  0
LWPOLYLINE
  5
1fb
100
AcDbEntity
  8
Layer_1
 62
7
100
AcDbPolyline
 90
2
 70
0
 10
267.465121
 20
655.376961
 30
0.0
 10
250.397257
 20
673.389575
 30
0.0
  0
SPLINE
  5
1fc
100
AcDbEntity
  8
Layer_1
 62
7
100
AcDbSpline
 70
8
 71
3
 72
8
 73
4
 74
0
 40
0
 40
0
 40
0
 40
0
 40
1
 40
1
 40
1
 40
1
 10
219.481852
 20
704.213994
 30
0.0
 10
219.481852
 20
704.213994
 30
0.0
 10
234.272733
 20
719.738385
 30
0.0
 10
240.194100
 20
727.095056
 30
0.0
  0
SPLINE
  5
1fd
100
AcDbEntity
  8
Layer_1
 62
7
100
AcDbSpline
 70
8
 71
3
 72
8
 73
4
 74
0
 40
0
 40
0
 40
0
 40
0
 40
1
 40
1
 40
1
 40
1
 10
240.194100
 20
727.095056
 30
0.0
 10
242.622760
 20
730.073248
 30
0.0
 10
242.734637
 20
733.137075
 30
0.0
 10
240.518205
 20
735.974895
 30
0.0
  0
SPLINE
  5
1fe
100
AcDbEntity
  8
Layer_1
 62
7
100
AcDbSpline
 70
8
 71
3
 72
8
 73
4
 74
0
 40
0
 40
0
 40
0
 40
0
 40
1
 40
1
 40
1
 40
1
 10
240.518205
 20
735.974895
 30
0.0
 10
237.964757
 20
739.244092
 30
0.0
 10
235.289169
 20
737.869742
 30
0.0
 10
224.286321
 20
727.635056
 30
0.0
  0
SPLINE
  5
1ff
100
AcDbEntity
  8
Layer_1
 62
7
100
AcDbSpline
 70
8
 71
3
 72
8
 73
4
 74
0
 40
0
 40
0
 40
0
 40
0
 40
1
 40
1
 40
1
 40
1
 10
224.286321
 20
727.635056
 30
0.0
 10
213.422287
 20
717.529402
 30
0.0
 10
209.869115
 20
713.907944
 30
0.0
 10
209.869115
 20
713.907944
 30
0.0
  0
LWPOLYLINE
  5
200
100
AcDbEntity
  8
Layer_1
 62
7
100
AcDbPolyline
 90
2
 70
0
 10
241.308422
 20
682.487484
 30
0.0
 10
219.481852
 20
704.213994
 30
0.0
  0
SPLINE
  5
201
100
AcDbEntity
  8
Layer_1
 62
7
100
AcDbSpline
 70
8
 71
3
 72
8
 73
4
 74
0
 40
0
 40
0
 40
0
 40
0
 40
1
 40
1
 40
1
 40
1
 10
189.248797
 20
734.353931
 30
0.0
 10
189.248797
 20
734.353931
 30
0.0
 10
200.434961
 20
746.724835
 30
0.0
 10
211.289329
 20
757.087535
 30
0.0
  0
SPLINE
  5
202
100
AcDbEntity
  8
Layer_1
 62
7
100
AcDbSpline
 70
8
 71
3
 72
8
 73
4
 74
0
 40
0
 40
0
 40
0
 40
0
 40
1
 40
1
 40
1
 40
1
 10
211.289329
 20
757.087535
 30
0.0
 10
215.096769
 20
761.166391
 30
0.0
 10
246.336222
 20
787.438171
 30
0.0
 10
241.468835
 20
794.313405
 30
0.0
  0
SPLINE
  5
203
100
AcDbEntity
  8
Layer_1
 62
7
100
AcDbSpline
 70
8
 71
3
 72
8
 73
4
 74
0
 40
0
 40
0
 40
0
 40
0
 40
1
 40
1
 40
1
 40
1
 10
241.468835
 20
794.313405
 30
0.0
 10
239.594077
 20
797.540508
 30
0.0
 10
238.351799
 20
795.666382
 30
0.0
 10
235.540998
 20
794.078980
 30
0.0
  0
SPLINE
  5
204
100
AcDbEntity
  8
Layer_1
 62
7
100
AcDbSpline
 70
8
 71
3
 72
8
 73
4
 74
0
 40
0
 40
0
 40
0
 40
0
 40
1
 40
1
 40
1
 40
1
 10
235.540998
 20
794.078980
 30
0.0
 10
233.209168
 20
792.762372
 30
0.0
 10
230.381855
 20
790.908429
 30
0.0
 10
229.258035
 20
789.958738
 30
0.0
  0
SPLINE
  5
205
100
AcDbEntity
  8
Layer_1
 62
7
100
AcDbSpline
 70
8
 71
3
 72
8
 73
4
 74
0
 40
0
 40
0
 40
0
 40
0
 40
1
 40
1
 40
1
 40
1
 10
229.258035
 20
789.958738
 30
0.0
 10
228.134103
 20
789.009046
 30
0.0
 10
224.426665
 20
785.949613
 30
0.0
 10
221.019647
 20
783.159953
 30
0.0
  0
SPLINE
  5
206
100
AcDbEntity
  8
Layer_1
 62
7
100
AcDbSpline
 70
8
 71
3
 72
8
 73
4
 74
0
 40
0
 40
0
 40
0
 40
0
 40
1
 40
1
 40
1
 40
1
 10
221.019647
 20
783.159953
 30
0.0
 10
217.612630
 20
780.370209
 30
0.0
 10
208.484844
 20
771.892265
 30
0.0
 10
200.734668
 20
764.320048
 30
0.0
  0
SPLINE
  5
207
100
AcDbEntity
  8
Layer_1
 62
7
100
AcDbSpline
 70
8
 71
3
 72
8
 73
4
 74
0
 40
0
 40
0
 40
0
 40
0
 40
1
 40
1
 40
1
 40
1
 10
200.734668
 20
764.320048
 30
0.0
 10
185.422337
 20
749.359100
 30
0.0
 10
178.695071
 20
744.412700
 30
0.0
 10
178.695071
 20
744.412700
 30
0.0
  0
LWPOLYLINE
  5
208
100
AcDbEntity
  8
Layer_1
 62
7
100
AcDbPolyline
 90
2
 70
0
 10
209.869115
 20
713.907944
 30
0.0
 10
189.248797
 20
734.353931
 30
0.0
  0
SPLINE
  5
209
100
AcDbEntity
  8
Layer_1
 62
7
100
AcDbSpline
 70
8
 71
3
 72
8
 73
4
 74
0
 40
0
 40
0
 40
0
 40
0
 40
1
 40
1
 40
1
 40
1
 10
158.638394
 20
764.997982
 30
0.0
 10
158.638394
 20
764.997982
 30
0.0
 10
158.125068
 20
764.606347
 30
0.0
 10
165.945855
 20
772.867383
 30
0.0
  0
SPLINE
  5
20a
100
AcDbEntity
  8
Layer_1
 62
7
100
AcDbSpline
 70
8
 71
3
 72
8
 73
4
 74
0
 40
0
 40
0
 40
0
 40
0
 40
1
 40
1
 40
1
 40
1
 10
165.945855
 20
772.867383
 30
0.0
 10
171.432057
 20
778.662249
 30
0.0
 10
176.675131
 20
784.004281
 30
0.0
 10
177.597780
 20
784.737746
 30
0.0
  0
SPLINE
  5
20b
100
AcDbEntity
  8
Layer_1
 62
7
100
AcDbSpline
 70
8
 71
3
 72
8
 73
4
 74
0
 40
0
 40
0
 40
0
 40
0
 40
1
 40
1
 40
1
 40
1
 10
177.597780
 20
784.737746
 30
0.0
 10
178.520400
 20
785.471182
 30
0.0
 10
179.921282
 20
787.266561
 30
0.0
 10
180.709540
 20
788.727793
 30
0.0
  0
SPLINE
  5
20c
100
AcDbEntity
  8
Layer_1
 62
7
100
AcDbSpline
 70
8
 71
3
 72
8
 73
4
 74
0
 40
0
 40
0
 40
0
 40
0
 40
1
 40
1
 40
1
 40
1
 10
180.709540
 20
788.727793
 30
0.0
 10
181.878775
 20
790.894369
 30
0.0
 10
181.927587
 20
791.742552
 30
0.0
 10
180.975146
 20
793.328905
 30
0.0
  0
SPLINE
  5
20d
100
AcDbEntity
  8
Layer_1
 62
7
100
AcDbSpline
 70
8
 71
3
 72
8
 73
4
 74
0
 40
0
 40
0
 40
0
 40
0
 40
1
 40
1
 40
1
 40
1
 10
180.975146
 20
793.328905
 30
0.0
 10
178.016173
 20
798.257701
 30
0.0
 10
170.859543
 20
794.481415
 30
0.0
 10
155.500753
 20
779.885456
 30
0.0
  0
SPLINE
  5
20e
100
AcDbEntity
  8
Layer_1
 62
7
100
AcDbSpline
 70
8
 71
3
 72
8
 73
4
 74
0
 40
0
 40
0
 40
0
 40
0
 40
1
 40
1
 40
1
 40
1
 10
155.500753
 20
779.885456
 30
0.0
 10
150.920192
 20
775.532687
 30
0.0
 10
148.864309
 20
774.548612
 30
0.0
 10
148.864309
 20
774.548612
 30
0.0
  0
LWPOLYLINE
  5
20f
100
AcDbEntity
  8
Layer_1
 62
7
100
AcDbPolyline
 90
2
 70
0
 10
178.695071
 20
744.412700
 30
0.0
 10
158.638394
 20
764.997982
 30
0.0
  0
SPLINE
  5
210
100
AcDbEntity
  8
Layer_1
 62
7
100
AcDbSpline
 70
8
 71
3
 72
8
 73
4
 74
0
 40
0
 40
0
 40
0
 40
0
 40
1
 40
1
 40
1
 40
1
 10
127.383335
 20
796.346612
 30
0.0
 10
127.383335
 20
796.346612
 30
0.0
 10
131.724340
 20
801.538917
 30
0.0
 10
139.113694
 20
808.545481
 30
0.0
  0
SPLINE
  5
211
100
AcDbEntity
  8
Layer_1
 62
7
100
AcDbSpline
 70
8
 71
3
 72
8
 73
4
 74
0
 40
0
 40
0
 40
0
 40
0
 40
1
 40
1
 40
1
 40
1
 10
139.113694
 20
808.545481
 30
0.0
 10
151.718797
 20
820.497141
 30
0.0
 10
155.337846
 20
823.731812
 30
0.0
 10
163.665978
 20
830.494766
 30
0.0
  0
SPLINE
  5
212
100
AcDbEntity
  8
Layer_1
 62
7
100
AcDbSpline
 70
8
 71
3
 72
8
 73
4
 74
0
 40
0
 40
0
 40
0
 40
0
 40
1
 40
1
 40
1
 40
1
 10
163.665978
 20
830.494766
 30
0.0
 10
173.297027
 20
838.315837
 30
0.0
 10
182.124992
 20
847.932117
 30
0.0
 10
184.020746
 20
852.666146
 30
0.0
  0
SPLINE
  5
213
100
AcDbEntity
  8
Layer_1
 62
7
100
AcDbSpline
 70
8
 71
3
 72
8
 73
4
 74
0
 40
0
 40
0
 40
0
 40
0
 40
1
 40
1
 40
1
 40
1
 10
184.020746
 20
852.666146
 30
0.0
 10
184.836501
 20
854.703207
 30
0.0
 10
184.687710
 20
855.599210
 30
0.0
 10
183.243628
 20
857.324687
 30
0.0
  0
SPLINE
  5
214
100
AcDbEntity
  8
Layer_1
 62
7
100
AcDbSpline
 70
8
 71
3
 72
8
 73
4
 74
0
 40
0
 40
0
 40
0
 40
0
 40
1
 40
1
 40
1
 40
1
 10
183.243628
 20
857.324687
 30
0.0
 10
179.744202
 20
861.505931
 30
0.0
 10
176.653417
 20
859.715314
 30
0.0
 10
159.145257
 20
843.363179
 30
0.0
  0
SPLINE
  5
215
100
AcDbEntity
  8
Layer_1
 62
7
100
AcDbSpline
 70
8
 71
3
 72
8
 73
4
 74
0
 40
0
 40
0
 40
0
 40
0
 40
1
 40
1
 40
1
 40
1
 10
159.145257
 20
843.363179
 30
0.0
 10
150.332910
 20
835.132672
 30
0.0
 10
143.073468
 20
828.397327
 30
0.0
 10
143.012324
 20
828.398432
 30
0.0
  0
SPLINE
  5
216
100
AcDbEntity
  8
Layer_1
 62
7
100
AcDbSpline
 70
8
 71
3
 72
8
 73
4
 74
0
 40
0
 40
0
 40
0
 40
0
 40
1
 40
1
 40
1
 40
1
 10
143.012324
 20
828.398432
 30
0.0
 10
142.951380
 20
828.399226
 30
0.0
 10
136.696025
 20
822.488706
 30
0.0
 10
129.110967
 20
815.267730
 30
0.0
  0
SPLINE
  5
217
100
AcDbEntity
  8
Layer_1
 62
7
100
AcDbSpline
 70
8
 71
3
 72
8
 73
4
 74
0
 40
0
 40
0
 40
0
 40
0
 40
1
 40
1
 40
1
 40
1
 10
129.110967
 20
815.267730
 30
0.0
 10
121.525937
 20
808.046668
 30
0.0
 10
118.167789
 20
805.418867
 30
0.0
 10
118.167789
 20
805.418867
 30
0.0
  0
LWPOLYLINE
  5
218
100
AcDbEntity
  8
Layer_1
 62
7
100
AcDbPolyline
 90
2
 70
0
 10
148.864309
 20
774.548612
 30
0.0
 10
127.383335
 20
796.346612
 30
0.0
  0
SPLINE
  5
219
100
AcDbEntity
  8
Layer_1
 62
7
100
AcDbSpline
 70
8
 71
3
 72
8
 73
4
 74
0
 40
0
 40
0
 40
0
 40
0
 40
1
 40
1
 40
1
 40
1
 10
97.953931
 20
825.253279
 30
0.0
 10
97.953931
 20
825.253279
 30
0.0
 10
99.747298
 20
828.027065
 30
0.0
 10
103.158595
 20
831.122357
 30
0.0
  0
SPLINE
  5
21a
100
AcDbEntity
  8
Layer_1
 62
7
100
AcDbSpline
 70
8
 71
3
 72
8
 73
4
 74
0
 40
0
 40
0
 40
0
 40
0
 40
1
 40
1
 40
1
 40
1
 10
103.158595
 20
831.122357
 30
0.0
 10
117.525033
 20
844.024331
 30
0.0
 10
121.932935
 20
850.701849
 30
0.0
 10
118.317175
 20
854.091632
 30
0.0
  0
SPLINE
  5
21b
100
AcDbEntity
  8
Layer_1
 62
7
100
AcDbSpline
 70
8
 71
3
 72
8
 73
4
 74
0
 40
0
 40
0
 40
0
 40
0
 40
1
 40
1
 40
1
 40
1
 10
118.317175
 20
854.091632
 30
0.0
 10
114.511124
 20
857.659941
 30
0.0
 10
111.052035
 20
855.967742
 30
0.0
 10
98.251058
 20
844.274631
 30
0.0
  0
SPLINE
  5
21c
100
AcDbEntity
  8
Layer_1
 62
7
100
AcDbSpline
 70
8
 71
3
 72
8
 73
4
 74
0
 40
0
 40
0
 40
0
 40
0
 40
1
 40
1
 40
1
 40
1
 10
98.251058
 20
844.274631
 30
0.0
 10
84.570435
 20
831.777982
 30
0.0
 10
88.208731
 20
835.534993
 30
0.0
 10
88.208731
 20
835.534993
 30
0.0
  0
SPLINE
  5
21d
100
AcDbEntity
  8
Layer_1
 62
7
100
AcDbSpline
 70
8
 71
3
 72
8
 73
4
 74
0
 40
0
 40
0
 40
0
 40
0
 40
1
 40
1
 40
1
 40
1
 10
88.208731
 20
835.534993
 30
0.0
 10
88.208731
 20
835.534993
 30
0.0
 10
71.435112
 20
851.797780
 30
0.0
 10
67.139291
 20
856.966416
 30
0.0
  0
LWPOLYLINE
  5
21e
100
AcDbEntity
  8
Layer_1
 62
7
100
AcDbPolyline
 90
2
 70
0
 10
118.167789
 20
805.418867
 30
0.0
 10
97.953931
 20
825.253279
 30
0.0
  0
SPLINE
  5
21f
100
AcDbEntity
  8
Layer_1
 62
7
100
AcDbSpline
 70
8
 71
3
 72
8
 73
4
 74
0
 40
0
 40
0
 40
0
 40
0
 40
1
 40
1
 40
1
 40
1
 10
803.352387
 20
978.609736
 30
0.0
 10
818.718095
 20
977.648196
 30
0.0
 10
839.253458
 20
971.731837
 30
0.0
 10
854.171093
 20
962.782265
 30
0.0
  0
SPLINE
  5
220
100
AcDbEntity
  8
Layer_1
 62
7
100
AcDbSpline
 70
8
 71
3
 72
8
 73
4
 74
0
 40
0
 40
0
 40
0
 40
0
 40
1
 40
1
 40
1
 40
1
 10
854.171093
 20
962.782265
 30
0.0
 10
860.958085
 20
958.664772
 30
0.0
 10
870.403266
 20
954.092546
 30
0.0
 10
872.187591
 20
954.061194
 30
0.0
  0
SPLINE
  5
221
100
AcDbEntity
  8
Layer_1
 62
7
100
AcDbSpline
 70
8
 71
3
 72
8
 73
4
 74
0
 40
0
 40
0
 40
0
 40
0
 40
1
 40
1
 40
1
 40
1
 10
872.187591
 20
954.061194
 30
0.0
 10
873.321931
 20
954.038517
 30
0.0
 10
876.936898
 20
956.767657
 30
0.0
 10
880.901915
 20
960.633292
 30
0.0
  0
SPLINE
  5
222
100
AcDbEntity
  8
Layer_1
 62
7
100
AcDbSpline
 70
8
 71
3
 72
8
 73
4
 74
0
 40
0
 40
0
 40
0
 40
0
 40
1
 40
1
 40
1
 40
1
 10
880.901915
 20
960.633292
 30
0.0
 10
890.576929
 20
970.065802
 30
0.0
 10
894.071367
 20
971.828498
 30
0.0
 10
902.730898
 20
971.647648
 30
0.0
  0
SPLINE
  5
223
100
AcDbEntity
  8
Layer_1
 62
7
100
AcDbSpline
 70
8
 71
3
 72
8
 73
4
 74
0
 40
0
 40
0
 40
0
 40
0
 40
1
 40
1
 40
1
 40
1
 10
902.730898
 20
971.647648
 30
0.0
 10
915.710882
 20
971.377223
 30
0.0
 10
919.670202
 20
969.317371
 30
0.0
 10
921.390378
 20
961.940035
 30
0.0
  0
SPLINE
  5
224
100
AcDbEntity
  8
Layer_1
 62
7
100
AcDbSpline
 70
8
 71
3
 72
8
 73
4
 74
0
 40
0
 40
0
 40
0
 40
0
 40
1
 40
1
 40
1
 40
1
 10
921.390378
 20
961.940035
 30
0.0
 10
922.208882
 20
958.430262
 30
0.0
 10
922.452746
 20
905.933673
 30
0.0
 10
921.819175
 20
869.138725
 30
0.0
  0
SPLINE
  5
225
100
AcDbEntity
  8
Layer_1
 62
7
100
AcDbSpline
 70
8
 71
3
 72
8
 73
4
 74
0
 40
0
 40
0
 40
0
 40
0
 40
1
 40
1
 40
1
 40
1
 10
921.819175
 20
869.138725
 30
0.0
 10
921.491461
 20
850.048719
 30
0.0
 10
920.407266
 20
840.541005
 30
0.0
 10
918.278646
 20
838.065963
 30
0.0
  0
SPLINE
  5
226
100
AcDbEntity
  8
Layer_1
 62
7
100
AcDbSpline
 70
8
 71
3
 72
8
 73
4
 74
0
 40
0
 40
0
 40
0
 40
0
 40
1
 40
1
 40
1
 40
1
 10
918.278646
 20
838.065963
 30
0.0
 10
915.973909
 20
835.386599
 30
0.0
 10
910.498677
 20
834.677087
 30
0.0
 10
898.803978
 20
835.544546
 30
0.0
  0
SPLINE
  5
227
100
AcDbEntity
  8
Layer_1
 62
7
100
AcDbSpline
 70
8
 71
3
 72
8
 73
4
 74
0
 40
0
 40
0
 40
0
 40
0
 40
1
 40
1
 40
1
 40
1
 10
898.803978
 20
835.544546
 30
0.0
 10
883.327805
 20
836.047497
 30
0.0
 10
881.361043
 20
842.661320
 30
0.0
 10
878.670907
 20
854.616892
 30
0.0
  0
SPLINE
  5
228
100
AcDbEntity
  8
Layer_1
 62
7
100
AcDbSpline
 70
8
 71
3
 72
8
 73
4
 74
0
 40
0
 40
0
 40
0
 40
0
 40
1
 40
1
 40
1
 40
1
 10
878.670907
 20
854.616892
 30
0.0
 10
875.724095
 20
871.209434
 30
0.0
 10
869.302800
 20
885.064133
 30
0.0
 10
863.508869
 20
900.031742
 30
0.0
  0
SPLINE
  5
229
100
AcDbEntity
  8
Layer_1
 62
7
100
AcDbSpline
 70
8
 71
3
 72
8
 73
4
 74
0
 40
0
 40
0
 40
0
 40
0
 40
1
 40
1
 40
1
 40
1
 10
863.508869
 20
900.031742
 30
0.0
 10
861.115975
 20
906.255604
 30
0.0
 10
851.945556
 20
917.363531
 30
0.0
 10
843.934479
 20
923.741994
 30
0.0
  0
SPLINE
  5
22a
100
AcDbEntity
  8
Layer_1
 62
7
100
AcDbSpline
 70
8
 71
3
 72
8
 73
4
 74
0
 40
0
 40
0
 40
0
 40
0
 40
1
 40
1
 40
1
 40
1
 10
843.934479
 20
923.741994
 30
0.0
 10
836.699641
 20
929.502505
 30
0.0
 10
833.342854
 20
931.282860
 30
0.0
 10
825.482126
 20
933.531245
 30
0.0
  0
SPLINE
  5
22b
100
AcDbEntity
  8
Layer_1
 62
7
100
AcDbSpline
 70
8
 71
3
 72
8
 73
4
 74
0
 40
0
 40
0
 40
0
 40
0
 40
1
 40
1
 40
1
 40
1
 10
825.482126
 20
933.531245
 30
0.0
 10
809.425162
 20
938.123938
 30
0.0
 10
787.745347
 20
928.256621
 30
0.0
 10
780.755179
 20
913.173613
 30
0.0
  0
SPLINE
  5
22c
100
AcDbEntity
  8
Layer_1
 62
7
100
AcDbSpline
 70
8
 71
3
 72
8
 73
4
 74
0
 40
0
 40
0
 40
0
 40
0
 40
1
 40
1
 40
1
 40
1
 10
780.755179
 20
913.173613
 30
0.0
 10
774.008512
 20
902.322448
 30
0.0
 10
771.029833
 20
878.612111
 30
0.0
 10
770.753846
 20
861.902668
 30
0.0
  0
SPLINE
  5
22d
100
AcDbEntity
  8
Layer_1
 62
7
100
AcDbSpline
 70
8
 71
3
 72
8
 73
4
 74
0
 40
0
 40
0
 40
0
 40
0
 40
1
 40
1
 40
1
 40
1
 10
770.753846
 20
861.902668
 30
0.0
 10
770.760082
 20
860.252111
 30
0.0
 10
770.264354
 20
831.404177
 30
0.0
 10
769.651648
 20
797.795342
 30
0.0
  0
SPLINE
  5
22e
100
AcDbEntity
  8
Layer_1
 62
7
100
AcDbSpline
 70
8
 71
3
 72
8
 73
4
 74
0
 40
0
 40
0
 40
0
 40
0
 40
1
 40
1
 40
1
 40
1
 10
769.651648
 20
797.795342
 30
0.0
 10
769.038355
 20
764.186423
 30
0.0
 10
768.669608
 20
731.313490
 30
0.0
 10
768.832807
 20
724.744341
 30
0.0
  0
SPLINE
  5
22f
100
AcDbEntity
  8
Layer_1
 62
7
100
AcDbSpline
 70
8
 71
3
 72
8
 73
4
 74
0
 40
0
 40
0
 40
0
 40
0
 40
1
 40
1
 40
1
 40
1
 10
768.832807
 20
724.744341
 30
0.0
 10
769.138929
 20
712.417260
 30
0.0
 10
770.367923
 20
684.997563
 30
0.0
 10
770.803109
 20
680.774451
 30
0.0
  0
SPLINE
  5
230
100
AcDbEntity
  8
Layer_1
 62
7
100
AcDbSpline
 70
8
 71
3
 72
8
 73
4
 74
0
 40
0
 40
0
 40
0
 40
0
 40
1
 40
1
 40
1
 40
1
 10
770.803109
 20
680.774451
 30
0.0
 10
772.775376
 20
666.971286
 30
0.0
 10
773.974939
 20
641.207475
 30
0.0
 10
793.265556
 20
634.489676
 30
0.0
  0
SPLINE
  5
231
100
AcDbEntity
  8
Layer_1
 62
7
100
AcDbSpline
 70
8
 71
3
 72
8
 73
4
 74
0
 40
0
 40
0
 40
0
 40
0
 40
1
 40
1
 40
1
 40
1
 10
793.265556
 20
634.489676
 30
0.0
 10
803.981424
 20
631.039090
 30
0.0
 10
817.340825
 20
632.232221
 30
0.0
 10
826.962066
 20
637.499701
 30
0.0
  0
SPLINE
  5
232
100
AcDbEntity
  8
Layer_1
 62
7
100
AcDbSpline
 70
8
 71
3
 72
8
 73
4
 74
0
 40
0
 40
0
 40
0
 40
0
 40
1
 40
1
 40
1
 40
1
 10
826.962066
 20
637.499701
 30
0.0
 10
853.092142
 20
653.711352
 30
0.0
 10
849.855458
 20
689.670901
 30
0.0
 10
849.818324
 20
705.649686
 30
0.0
  0
SPLINE
  5
233
100
AcDbEntity
  8
Layer_1
 62
7
100
AcDbSpline
 70
8
 71
3
 72
8
 73
4
 74
0
 40
0
 40
0
 40
0
 40
0
 40
1
 40
1
 40
1
 40
1
 10
849.818324
 20
705.649686
 30
0.0
 10
849.753411
 20
732.696174
 30
0.0
 10
848.972665
 20
738.171065
 30
0.0
 10
844.526580
 20
742.776316
 30
0.0
  0
SPLINE
  5
234
100
AcDbEntity
  8
Layer_1
 62
7
100
AcDbSpline
 70
8
 71
3
 72
8
 73
4
 74
0
 40
0
 40
0
 40
0
 40
0
 40
1
 40
1
 40
1
 40
1
 10
844.526580
 20
742.776316
 30
0.0
 10
841.795540
 20
745.605065
 30
0.0
 10
827.755739
 20
750.798505
 30
0.0
 10
818.370283
 20
752.450678
 30
0.0
  0
SPLINE
  5
235
100
AcDbEntity
  8
Layer_1
 62
7
100
AcDbSpline
 70
8
 71
3
 72
8
 73
4
 74
0
 40
0
 40
0
 40
0
 40
0
 40
1
 40
1
 40
1
 40
1
 10
818.370283
 20
752.450678
 30
0.0
 10
803.214709
 20
753.102845
 30
0.0
 10
806.576230
 20
779.831342
 30
0.0
 10
814.946910
 20
783.987075
 30
0.0
  0
SPLINE
  5
236
100
AcDbEntity
  8
Layer_1
 62
7
100
AcDbSpline
 70
8
 71
3
 72
8
 73
4
 74
0
 40
0
 40
0
 40
0
 40
0
 40
1
 40
1
 40
1
 40
1
 10
814.946910
 20
783.987075
 30
0.0
 10
819.969420
 20
785.796117
 30
0.0
 10
942.645685
 20
785.826731
 30
0.0
 10
947.015263
 20
783.938886
 30
0.0
  0
SPLINE
  5
237
100
AcDbEntity
  8
Layer_1
 62
7
100
AcDbSpline
 70
8
 71
3
 72
8
 73
4
 74
0
 40
0
 40
0
 40
0
 40
0
 40
1
 40
1
 40
1
 40
1
 10
947.015263
 20
783.938886
 30
0.0
 10
950.135329
 20
782.590388
 30
0.0
 10
952.261795
 20
780.051623
 30
0.0
 10
954.057317
 20
775.532546
 30
0.0
  0
SPLINE
  5
238
100
AcDbEntity
  8
Layer_1
 62
7
100
AcDbSpline
 70
8
 71
3
 72
8
 73
4
 74
0
 40
0
 40
0
 40
0
 40
0
 40
1
 40
1
 40
1
 40
1
 10
954.057317
 20
775.532546
 30
0.0
 10
959.282079
 20
754.021355
 30
0.0
 10
940.419524
 20
754.382460
 30
0.0
 10
930.250545
 20
744.027075
 30
0.0
  0
LWPOLYLINE
  5
239
100
AcDbEntity
  8
Layer_1
 62
7
100
AcDbPolyline
 90
2
 70
0
 10
67.139291
 20
856.966416
 30
0.0
 10
216.143858
 20
996.633150
 30
0.0
  0
SPLINE
  5
23a
100
AcDbEntity
  8
Layer_1
 62
7
100
AcDbSpline
 70
8
 71
3
 72
8
 73
4
 74
0
 40
0
 40
0
 40
0
 40
0
 40
1
 40
1
 40
1
 40
1
 10
925.899222
 20
695.720744
 30
0.0
 10
925.815317
 20
671.555815
 30
0.0
 10
925.781301
 20
645.337809
 30
0.0
 10
925.824671
 20
637.457465
 30
0.0
  0
SPLINE
  5
23b
100
AcDbEntity
  8
Layer_1
 62
7
100
AcDbSpline
 70
8
 71
3
 72
8
 73
4
 74
0
 40
0
 40
0
 40
0
 40
0
 40
1
 40
1
 40
1
 40
1
 10
925.824671
 20
637.457465
 30
0.0
 10
925.910844
 20
621.824168
 30
0.0
 10
924.503783
 20
607.453478
 30
0.0
 10
922.598334
 20
604.518372
 30
0.0
  0
SPLINE
  5
23c
100
AcDbEntity
  8
Layer_1
 62
7
100
AcDbSpline
 70
8
 71
3
 72
8
 73
4
 74
0
 40
0
 40
0
 40
0
 40
0
 40
1
 40
1
 40
1
 40
1
 10
922.598334
 20
604.518372
 30
0.0
 10
920.842753
 20
601.814319
 30
0.0
 10
918.787890
 20
601.459591
 30
0.0
 10
906.562346
 20
601.748952
 30
0.0
  0
SPLINE
  5
23d
100
AcDbEntity
  8
Layer_1
 62
7
100
AcDbSpline
 70
8
 71
3
 72
8
 73
4
 74
0
 40
0
 40
0
 40
0
 40
0
 40
1
 40
1
 40
1
 40
1
 10
906.562346
 20
601.748952
 30
0.0
 10
891.702992
 20
602.099654
 30
0.0
 10
889.152690
 20
603.151988
 30
0.0
 10
883.804989
 20
611.136873
 30
0.0
  0
SPLINE
  5
23e
100
AcDbEntity
  8
Layer_1
 62
7
100
AcDbSpline
 70
8
 71
3
 72
8
 73
4
 74
0
 40
0
 40
0
 40
0
 40
0
 40
1
 40
1
 40
1
 40
1
 10
883.804989
 20
611.136873
 30
0.0
 10
875.937061
 20
622.884637
 30
0.0
 10
872.082312
 20
625.875330
 30
0.0
 10
867.703039
 20
623.629752
 30
0.0
  0
SPLINE
  5
23f
100
AcDbEntity
  8
Layer_1
 62
7
100
AcDbSpline
 70
8
 71
3
 72
8
 73
4
 74
0
 40
0
 40
0
 40
0
 40
0
 40
1
 40
1
 40
1
 40
1
 10
867.703039
 20
623.629752
 30
0.0
 10
853.475159
 20
612.084410
 30
0.0
 10
842.471235
 20
601.106111
 30
0.0
 10
823.349537
 20
594.992857
 30
0.0
  0
SPLINE
  5
240
100
AcDbEntity
  8
Layer_1
 62
7
100
AcDbSpline
 70
8
 71
3
 72
8
 73
4
 74
0
 40
0
 40
0
 40
0
 40
0
 40
1
 40
1
 40
1
 40
1
 10
823.349537
 20
594.992857
 30
0.0
 10
800.269087
 20
589.342331
 30
0.0
 10
779.644236
 20
586.652083
 30
0.0
 10
758.369103
 20
593.145802
 30
0.0
  0
SPLINE
  5
241
100
AcDbEntity
  8
Layer_1
 62
7
100
AcDbSpline
 70
8
 71
3
 72
8
 73
4
 74
0
 40
0
 40
0
 40
0
 40
0
 40
1
 40
1
 40
1
 40
1
 10
758.369103
 20
593.145802
 30
0.0
 10
743.125402
 20
597.896838
 30
0.0
 10
731.713110
 20
605.097632
 30
0.0
 10
721.528872
 20
616.390209
 30
0.0
  0
SPLINE
  5
242
100
AcDbEntity
  8
Layer_1
 62
7
100
AcDbSpline
 70
8
 71
3
 72
8
 73
4
 74
0
 40
0
 40
0
 40
0
 40
0
 40
1
 40
1
 40
1
 40
1
 10
721.528872
 20
616.390209
 30
0.0
 10
708.652590
 20
630.667837
 30
0.0
 10
708.252528
 20
631.204605
 30
0.0
 10
702.863949
 20
641.378602
 30
0.0
  0
SPLINE
  5
243
100
AcDbEntity
  8
Layer_1
 62
7
100
AcDbSpline
 70
8
 71
3
 72
8
 73
4
 74
0
 40
0
 40
0
 40
0
 40
0
 40
1
 40
1
 40
1
 40
1
 10
702.863949
 20
641.378602
 30
0.0
 10
699.323032
 20
648.063831
 30
0.0
 10
699.068489
 20
648.589856
 30
0.0
 10
696.565976
 20
654.383248
 30
0.0
  0
SPLINE
  5
244
100
AcDbEntity
  8
Layer_1
 62
7
100
AcDbSpline
 70
8
 71
3
 72
8
 73
4
 74
0
 40
0
 40
0
 40
0
 40
0
 40
1
 40
1
 40
1
 40
1
 10
696.565976
 20
654.383248
 30
0.0
 10
690.506541
 20
668.410974
 30
0.0
 10
689.554582
 20
671.873550
 30
0.0
 10
687.332409
 20
687.973799
 30
0.0
  0
LWPOLYLINE
  5
245
100
AcDbEntity
  8
Layer_1
 62
7
100
AcDbPolyline
 90
3
 70
0
 10
930.250545
 20
744.027075
 30
0.0
 10
926.052009
 20
739.657440
 30
0.0
 10
925.899222
 20
695.720744
 30
0.0
  0
SPLINE
  5
246
100
AcDbEntity
  8
Layer_1
 62
7
100
AcDbSpline
 70
8
 71
3
 72
8
 73
4
 74
0
 40
0
 40
0
 40
0
 40
0
 40
1
 40
1
 40
1
 40
1
 10
687.331001
 20
687.973771
 30
0.0
 10
685.684043
 20
699.906807
 30
0.0
 10
685.601683
 20
705.777046
 30
0.0
 10
686.249700
 20
764.434256
 30
0.0
  0
SPLINE
  5
247
100
AcDbEntity
  8
Layer_1
 62
7
100
AcDbSpline
 70
8
 71
3
 72
8
 73
4
 74
0
 40
0
 40
0
 40
0
 40
0
 40
1
 40
1
 40
1
 40
1
 10
686.249700
 20
764.434256
 30
0.0
 10
686.969589
 20
811.097654
 30
0.0
 10
685.357138
 20
865.354615
 30
0.0
 10
704.025720
 20
907.353462
 30
0.0
  0
SPLINE
  5
248
100
AcDbEntity
  8
Layer_1
 62
7
100
AcDbSpline
 70
8
 71
3
 72
8
 73
4
 74
0
 40
0
 40
0
 40
0
 40
0
 40
1
 40
1
 40
1
 40
1
 10
704.025720
 20
907.353462
 30
0.0
 10
704.856243
 20
909.177415
 30
0.0
 10
706.319623
 20
912.591037
 30
0.0
 10
707.279023
 20
914.938038
 30
0.0
  0
SPLINE
  5
249
100
AcDbEntity
  8
Layer_1
 62
7
100
AcDbSpline
 70
8
 71
3
 72
8
 73
4
 74
0
 40
0
 40
0
 40
0
 40
0
 40
1
 40
1
 40
1
 40
1
 10
707.279023
 20
914.938038
 30
0.0
 10
708.238443
 20
917.285068
 30
0.0
 10
709.739427
 20
920.266294
 30
0.0
 10
710.613445
 20
921.564136
 30
0.0
  0
SPLINE
  5
24a
100
AcDbEntity
  8
Layer_1
 62
7
100
AcDbSpline
 70
8
 71
3
 72
8
 73
4
 74
0
 40
0
 40
0
 40
0
 40
0
 40
1
 40
1
 40
1
 40
1
 10
710.613445
 20
921.564136
 30
0.0
 10
711.487463
 20
922.862035
 30
0.0
 10
712.832332
 20
925.202687
 30
0.0
 10
713.602397
 20
926.765144
 30
0.0
  0
SPLINE
  5
24b
100
AcDbEntity
  8
Layer_1
 62
7
100
AcDbSpline
 70
8
 71
3
 72
8
 73
4
 74
0
 40
0
 40
0
 40
0
 40
0
 40
1
 40
1
 40
1
 40
1
 10
713.602397
 20
926.765144
 30
0.0
 10
715.588237
 20
930.793969
 30
0.0
 10
724.191242
 20
943.092023
 30
0.0
 10
727.417216
 20
946.513610
 30
0.0
  0
SPLINE
  5
24c
100
AcDbEntity
  8
Layer_1
 62
7
100
AcDbSpline
 70
8
 71
3
 72
8
 73
4
 74
0
 40
0
 40
0
 40
0
 40
0
 40
1
 40
1
 40
1
 40
1
 10
727.417216
 20
946.513610
 30
0.0
 10
728.912344
 20
948.099368
 30
0.0
 10
731.147533
 20
950.467346
 30
0.0
 10
732.384043
 20
951.776442
 30
0.0
  0
SPLINE
  5
24d
100
AcDbEntity
  8
Layer_1
 62
7
100
AcDbSpline
 70
8
 71
3
 72
8
 73
4
 74
0
 40
0
 40
0
 40
0
 40
0
 40
1
 40
1
 40
1
 40
1
 10
732.384043
 20
951.776442
 30
0.0
 10
753.540936
 20
971.565415
 30
0.0
 10
778.910562
 20
979.123374
 30
0.0
 10
803.352643
 20
978.610615
 30
0.0
  0
LWPOLYLINE
  5
24e
100
AcDbEntity
  8
Layer_1
 62
7
100
AcDbPolyline
 90
2
 70
0
 10
687.332409
 20
687.973799
 30
0.0
 10
687.331001
 20
687.973771
 30
0.0
  0
LWPOLYLINE
  5
24f
100
AcDbEntity
  8
Layer_1
 62
7
100
AcDbPolyline
 90
2
 70
0
 10
803.352643
 20
978.610615
 30
0.0
 10
803.352387
 20
978.609736
 30
0.0
  0
SPLINE
  5
250
100
AcDbEntity
  8
Layer_1
 62
7
100
AcDbSpline
 70
8
 71
3
 72
8
 73
4
 74
0
 40
0
 40
0
 40
0
 40
0
 40
1
 40
1
 40
1
 40
1
 10
1470.074315
 20
113.083620
 30
0.0
 10
1470.074315
 20
113.083620
 30
0.0
 10
1224.914173
 20
657.040927
 30
0.0
 10
1105.050416
 20
930.619468
 30
0.0
  0
LWPOLYLINE
  5
251
100
AcDbEntity
  8
Layer_1
 62
7
100
AcDbPolyline
 90
2
 70
0
 10
1150.052400
 20
949.671122
 30
0.0
 10
1470.074315
 20
113.083620
 30
0.0
  0
LWPOLYLINE
  5
252
100
AcDbEntity
  8
Layer_1
 62
7
100
AcDbPolyline
 90
2
 70
0
 10
1105.050416
 20
930.619468
 30
0.0
 10
1150.052400
 20
949.671122
 30
0.0
  0
SPLINE
  5
253
100
AcDbEntity
  8
Layer_1
 62
7
100
AcDbSpline
 70
8
 71
3
 72
8
 73
4
 74
0
 40
0
 40
0
 40
0
 40
0
 40
1
 40
1
 40
1
 40
1
 10
536.690303
 20
938.547264
 30
0.0
 10
536.690303
 20
938.547264
 30
0.0
 10
263.480664
 20
353.963815
 30
0.0
 10
142.092425
 20
110.823982
 30
0.0
  0
LWPOLYLINE
  5
254
100
AcDbEntity
  8
Layer_1
 62
7
100
AcDbPolyline
 90
2
 70
0
 10
495.552635
 20
958.398854
 30
0.0
 10
536.690303
 20
938.547264
 30
0.0
  0
SPLINE
  5
255
100
AcDbEntity
  8
Layer_1
 62
7
100
AcDbSpline
 70
8
 71
3
 72
8
 73
4
 74
0
 40
0
 40
0
 40
0
 40
0
 40
1
 40
1
 40
1
 40
1
 10
1077.274403
 20
919.550120
 30
0.0
 10
1188.064035
 20
670.037522
 30
0.0
 10
1307.017616
 20
420.272385
 30
0.0
 10
1407.552009
 20
172.885629
 30
0.0
  0
SPLINE
  5
256
100
AcDbEntity
  8
Layer_1
 62
7
100
AcDbSpline
 70
8
 71
3
 72
8
 73
4
 74
0
 40
0
 40
0
 40
0
 40
0
 40
1
 40
1
 40
1
 40
1
 10
1407.552009
 20
172.885629
 30
0.0
 10
1292.277203
 20
401.136401
 30
0.0
 10
1141.989591
 20
653.101931
 30
0.0
 10
1026.523559
 20
898.351279
 30
0.0
  0
LWPOLYLINE
  5
257
100
AcDbEntity
  8
Layer_1
 62
7
100
AcDbPolyline
 90
2
 70
0
 10
142.092425
 20
110.823982
 30
0.0
 10
495.552635
 20
958.398854
 30
0.0
  0
LWPOLYLINE
  5
258
100
AcDbEntity
  8
Layer_1
 62
7
100
AcDbPolyline
 90
2
 70
0
 10
1026.523559
 20
898.351279
 30
0.0
 10
1077.274403
 20
919.550120
 30
0.0
  0
SPLINE
  5
259
100
AcDbEntity
  8
Layer_1
 62
7
100
AcDbSpline
 70
8
 71
3
 72
8
 73
4
 74
0
 40
0
 40
0
 40
0
 40
0
 40
1
 40
1
 40
1
 40
1
 10
608.554412
 20
905.480923
 30
0.0
 10
485.683492
 20
671.012527
 30
0.0
 10
341.128882
 20
420.394105
 30
0.0
 10
202.664381
 20
173.195172
 30
0.0
  0
LWPOLYLINE
  5
25a
100
AcDbEntity
  8
Layer_1
 62
7
100
AcDbPolyline
 90
2
 70
0
 10
566.204613
 20
925.384700
 30
0.0
 10
608.554412
 20
905.480923
 30
0.0
  0
LWPOLYLINE
  5
25b
100
AcDbEntity
  8
Layer_1
 62
7
100
AcDbPolyline
 90
2
 70
0
 10
202.664381
 20
173.195172
 30
0.0
 10
566.204613
 20
925.384700
 30
0.0
  0
SPLINE
  5
25c
100
AcDbEntity
  8
Layer_1
 62
7
100
AcDbSpline
 70
8
 71
3
 72
8
 73
4
 74
0
 40
0
 40
0
 40
0
 40
0
 40
1
 40
1
 40
1
 40
1
 10
1194.263150
 20
505.386646
 30
0.0
 10
1194.263150
 20
505.386646
 30
0.0
 10
1188.477411
 20
510.027245
 30
0.0
 10
1183.693266
 20
514.684369
 30
0.0
  0
SPLINE
  5
25d
100
AcDbEntity
  8
Layer_1
 62
7
100
AcDbSpline
 70
8
 71
3
 72
8
 73
4
 74
0
 40
0
 40
0
 40
0
 40
0
 40
1
 40
1
 40
1
 40
1
 10
1183.693266
 20
514.684369
 30
0.0
 10
1178.909376
 20
519.341550
 30
0.0
 10
1172.670888
 20
525.390060
 30
0.0
 10
1169.829780
 20
528.124218
 30
0.0
  0
SPLINE
  5
25e
100
AcDbEntity
  8
Layer_1
 62
7
100
AcDbSpline
 70
8
 71
3
 72
8
 73
4
 74
0
 40
0
 40
0
 40
0
 40
0
 40
1
 40
1
 40
1
 40
1
 10
1169.829780
 20
528.124218
 30
0.0
 10
1166.988586
 20
530.858262
 30
0.0
 10
1160.855518
 20
536.787065
 30
0.0
 10
1156.199556
 20
541.299878
 30
0.0
  0
SPLINE
  5
25f
100
AcDbEntity
  8
Layer_1
 62
7
100
AcDbSpline
 70
8
 71
3
 72
8
 73
4
 74
0
 40
0
 40
0
 40
0
 40
0
 40
1
 40
1
 40
1
 40
1
 10
1156.199556
 20
541.299878
 30
0.0
 10
1141.868353
 20
555.189783
 30
0.0
 10
1129.909975
 20
564.621783
 30
0.0
 10
1126.558573
 20
564.680716
 30
0.0
  0
SPLINE
  5
260
100
AcDbEntity
  8
Layer_1
 62
7
100
AcDbSpline
 70
8
 71
3
 72
8
 73
4
 74
0
 40
0
 40
0
 40
0
 40
0
 40
1
 40
1
 40
1
 40
1
 10
1126.558573
 20
564.680716
 30
0.0
 10
1123.791987
 20
564.730322
 30
0.0
 10
1122.389093
 20
562.282180
 30
0.0
 10
1123.026661
 20
558.519698
 30
0.0
  0
SPLINE
  5
261
100
AcDbEntity
  8
Layer_1
 62
7
100
AcDbSpline
 70
8
 71
3
 72
8
 73
4
 74
0
 40
0
 40
0
 40
0
 40
0
 40
1
 40
1
 40
1
 40
1
 10
1123.026661
 20
558.519698
 30
0.0
 10
1123.626671
 20
554.979509
 30
0.0
 10
1132.289688
 20
545.275497
 30
0.0
 10
1151.213981
 20
526.944949
 30
0.0
  0
SPLINE
  5
262
100
AcDbEntity
  8
Layer_1
 62
7
100
AcDbSpline
 70
8
 71
3
 72
8
 73
4
 74
0
 40
0
 40
0
 40
0
 40
0
 40
1
 40
1
 40
1
 40
1
 10
1151.213981
 20
526.944949
 30
0.0
 10
1155.878079
 20
522.426864
 30
0.0
 10
1165.332643
 20
513.260130
 30
0.0
 10
1172.223893
 20
506.574221
 30
0.0
  0
LWPOLYLINE
  5
263
100
AcDbEntity
  8
Layer_1
 62
7
100
AcDbPolyline
 90
3
 70
0
 10
1097.157232
 20
697.019153
 30
0.0
 10
1201.257043
 20
512.706750
 30
0.0
 10
1194.263150
 20
505.386646
 30
0.0
  0
SPLINE
  5
264
100
AcDbEntity
  8
Layer_1
 62
7
100
AcDbSpline
 70
8
 71
3
 72
8
 73
4
 74
0
 40
0
 40
0
 40
0
 40
0
 40
1
 40
1
 40
1
 40
1
 10
1165.608312
 20
476.112779
 30
0.0
 10
1165.608312
 20
476.112779
 30
0.0
 10
1159.637726
 20
481.168709
 30
0.0
 10
1154.697250
 20
486.111509
 30
0.0
  0
SPLINE
  5
265
100
AcDbEntity
  8
Layer_1
 62
7
100
AcDbSpline
 70
8
 71
3
 72
8
 73
4
 74
0
 40
0
 40
0
 40
0
 40
0
 40
1
 40
1
 40
1
 40
1
 10
1154.697250
 20
486.111509
 30
0.0
 10
1142.446224
 20
498.369906
 30
0.0
 10
1138.866888
 20
501.480788
 30
0.0
 10
1135.110217
 20
503.137185
 30
0.0
  0
SPLINE
  5
266
100
AcDbEntity
  8
Layer_1
 62
7
100
AcDbSpline
 70
8
 71
3
 72
8
 73
4
 74
0
 40
0
 40
0
 40
0
 40
0
 40
1
 40
1
 40
1
 40
1
 10
1135.110217
 20
503.137185
 30
0.0
 10
1129.088976
 20
505.792312
 30
0.0
 10
1125.221641
 20
502.684407
 30
0.0
 10
1126.689052
 20
496.369723
 30
0.0
  0
SPLINE
  5
267
100
AcDbEntity
  8
Layer_1
 62
7
100
AcDbSpline
 70
8
 71
3
 72
8
 73
4
 74
0
 40
0
 40
0
 40
0
 40
0
 40
1
 40
1
 40
1
 40
1
 10
1126.689052
 20
496.369723
 30
0.0
 10
1127.409619
 20
493.268649
 30
0.0
 10
1129.007083
 20
491.381569
 30
0.0
 10
1142.908554
 20
477.196860
 30
0.0
  0
SPLINE
  5
268
100
AcDbEntity
  8
Layer_1
 62
7
100
AcDbSpline
 70
8
 71
3
 72
8
 73
4
 74
0
 40
0
 40
0
 40
0
 40
0
 40
1
 40
1
 40
1
 40
1
 10
1142.908554
 20
477.196860
 30
0.0
 10
1149.230183
 20
470.746709
 30
0.0
 10
1154.382208
 20
464.379613
 30
0.0
 10
1154.382208
 20
464.379613
 30
0.0
  0
LWPOLYLINE
  5
269
100
AcDbEntity
  8
Layer_1
 62
7
100
AcDbPolyline
 90
3
 70
0
 10
1172.223893
 20
506.574221
 30
0.0
 10
1184.298208
 20
494.685490
 30
0.0
 10
1165.608312
 20
476.112779
 30
0.0
  0
SPLINE
  5
26a
100
AcDbEntity
  8
Layer_1
 62
7
100
AcDbSpline
 70
8
 71
3
 72
8
 73
4
 74
0
 40
0
 40
0
 40
0
 40
0
 40
1
 40
1
 40
1
 40
1
 10
1132.781358
 20
442.406801
 30
0.0
 10
1132.781358
 20
442.406801
 30
0.0
 10
1127.490378
 20
447.586407
 30
0.0
 10
1124.584838
 20
450.546202
 30
0.0
  0
SPLINE
  5
26b
100
AcDbEntity
  8
Layer_1
 62
7
100
AcDbSpline
 70
8
 71
3
 72
8
 73
4
 74
0
 40
0
 40
0
 40
0
 40
0
 40
1
 40
1
 40
1
 40
1
 10
1124.584838
 20
450.546202
 30
0.0
 10
1092.040838
 20
483.696646
 30
0.0
 10
1072.691518
 20
501.636665
 30
0.0
 10
1069.417758
 20
501.694265
 30
0.0
  0
SPLINE
  5
26c
100
AcDbEntity
  8
Layer_1
 62
7
100
AcDbSpline
 70
8
 71
3
 72
8
 73
4
 74
0
 40
0
 40
0
 40
0
 40
0
 40
1
 40
1
 40
1
 40
1
 10
1069.417758
 20
501.694265
 30
0.0
 10
1067.369669
 20
501.731399
 30
0.0
 10
1063.273124
 20
497.403519
 30
0.0
 10
1063.233808
 20
495.162930
 30
0.0
  0
SPLINE
  5
26d
100
AcDbEntity
  8
Layer_1
 62
7
100
AcDbSpline
 70
8
 71
3
 72
8
 73
4
 74
0
 40
0
 40
0
 40
0
 40
0
 40
1
 40
1
 40
1
 40
1
 10
1063.233808
 20
495.162930
 30
0.0
 10
1063.208296
 20
493.875405
 30
0.0
 10
1073.077767
 20
483.027188
 30
0.0
 10
1092.280762
 20
463.224523
 30
0.0
  0
SPLINE
  5
26e
100
AcDbEntity
  8
Layer_1
 62
7
100
AcDbSpline
 70
8
 71
3
 72
8
 73
4
 74
0
 40
0
 40
0
 40
0
 40
0
 40
1
 40
1
 40
1
 40
1
 10
1092.280762
 20
463.224523
 30
0.0
 10
1101.725490
 20
453.474845
 30
0.0
 10
1122.205436
 20
431.595774
 30
0.0
 10
1122.205436
 20
431.595774
 30
0.0
  0
LWPOLYLINE
  5
26f
100
AcDbEntity
  8
Layer_1
 62
7
100
AcDbPolyline
 90
2
 70
0
 10
1154.382208
 20
464.379613
 30
0.0
 10
1132.781358
 20
442.406801
 30
0.0
  0
SPLINE
  5
270
100
AcDbEntity
  8
Layer_1
 62
7
100
AcDbSpline
 70
8
 71
3
 72
8
 73
4
 74
0
 40
0
 40
0
 40
0
 40
0
 40
1
 40
1
 40
1
 40
1
 10
1102.999691
 20
412.216123
 30
0.0
 10
1096.274721
 20
417.023059
 30
0.0
 10
1090.681965
 20
423.217440
 30
0.0
 10
1085.134224
 20
429.179323
 30
0.0
  0
SPLINE
  5
271
100
AcDbEntity
  8
Layer_1
 62
7
100
AcDbSpline
 70
8
 71
3
 72
8
 73
4
 74
0
 40
0
 40
0
 40
0
 40
0
 40
1
 40
1
 40
1
 40
1
 10
1085.134224
 20
429.179323
 30
0.0
 10
1082.224318
 20
432.312089
 30
0.0
 10
1078.006507
 20
436.114596
 30
0.0
 10
1075.762148
 20
437.628042
 30
0.0
  0
SPLINE
  5
272
100
AcDbEntity
  8
Layer_1
 62
7
100
AcDbSpline
 70
8
 71
3
 72
8
 73
4
 74
0
 40
0
 40
0
 40
0
 40
0
 40
1
 40
1
 40
1
 40
1
 10
1075.762148
 20
437.628042
 30
0.0
 10
1072.265272
 20
439.985730
 30
0.0
 10
1071.278532
 20
440.246177
 30
0.0
 10
1068.864491
 20
439.452079
 30
0.0
  0
SPLINE
  5
273
100
AcDbEntity
  8
Layer_1
 62
7
100
AcDbSpline
 70
8
 71
3
 72
8
 73
4
 74
0
 40
0
 40
0
 40
0
 40
0
 40
1
 40
1
 40
1
 40
1
 10
1068.864491
 20
439.452079
 30
0.0
 10
1065.349106
 20
438.295374
 30
0.0
 10
1064.386828
 20
435.145799
 30
0.0
 10
1066.342309
 20
431.195692
 30
0.0
  0
SPLINE
  5
274
100
AcDbEntity
  8
Layer_1
 62
7
100
AcDbSpline
 70
8
 71
3
 72
8
 73
4
 74
0
 40
0
 40
0
 40
0
 40
0
 40
1
 40
1
 40
1
 40
1
 10
1066.342309
 20
431.195692
 30
0.0
 10
1067.151232
 20
429.561575
 30
0.0
 10
1071.536769
 20
424.173339
 30
0.0
 10
1076.087565
 20
419.221667
 30
0.0
  0
SPLINE
  5
275
100
AcDbEntity
  8
Layer_1
 62
7
100
AcDbSpline
 70
8
 71
3
 72
8
 73
4
 74
0
 40
0
 40
0
 40
0
 40
0
 40
1
 40
1
 40
1
 40
1
 10
1076.087565
 20
419.221667
 30
0.0
 10
1081.580230
 20
413.300092
 30
0.0
 10
1087.014558
 20
407.877160
 30
0.0
 10
1092.560570
 20
401.601736
 30
0.0
  0
SPLINE
  5
276
100
AcDbEntity
  8
Layer_1
 62
7
100
AcDbSpline
 70
8
 71
3
 72
8
 73
4
 74
0
 40
0
 40
0
 40
0
 40
0
 40
1
 40
1
 40
1
 40
1
 10
1092.560570
 20
401.601736
 30
0.0
 10
1092.560570
 20
401.601736
 30
0.0
 10
1077.300652
 20
385.968438
 30
0.0
 10
1070.212932
 20
378.896281
 30
0.0
  0
SPLINE
  5
277
100
AcDbEntity
  8
Layer_1
 62
7
100
AcDbSpline
 70
8
 71
3
 72
8
 73
4
 74
0
 40
0
 40
0
 40
0
 40
0
 40
1
 40
1
 40
1
 40
1
 10
1070.212932
 20
378.896281
 30
0.0
 10
1070.212932
 20
378.896281
 30
0.0
 10
1063.737043
 20
383.122936
 30
0.0
 10
1033.326113
 20
414.125626
 30
0.0
  0
SPLINE
  5
278
100
AcDbEntity
  8
Layer_1
 62
7
100
AcDbSpline
 70
8
 71
3
 72
8
 73
4
 74
0
 40
0
 40
0
 40
0
 40
0
 40
1
 40
1
 40
1
 40
1
 10
1033.326113
 20
414.125626
 30
0.0
 10
1011.803244
 20
436.067399
 30
0.0
 10
1007.217666
 20
439.592536
 30
0.0
 10
1002.397805
 20
437.898382
 30
0.0
  0
SPLINE
  5
279
100
AcDbEntity
  8
Layer_1
 62
7
100
AcDbSpline
 70
8
 71
3
 72
8
 73
4
 74
0
 40
0
 40
0
 40
0
 40
0
 40
1
 40
1
 40
1
 40
1
 10
1002.397805
 20
437.898382
 30
0.0
 10
998.259534
 20
436.443953
 30
0.0
 10
997.147559
 20
434.593015
 30
0.0
 10
998.451751
 20
431.331897
 30
0.0
  0
SPLINE
  5
27a
100
AcDbEntity
  8
Layer_1
 62
7
100
AcDbSpline
 70
8
 71
3
 72
8
 73
4
 74
0
 40
0
 40
0
 40
0
 40
0
 40
1
 40
1
 40
1
 40
1
 10
998.451751
 20
431.331897
 30
0.0
 10
999.047509
 20
429.841950
 30
0.0
 10
1012.504422
 20
415.014344
 30
0.0
 10
1028.356668
 20
398.381040
 30
0.0
  0
SPLINE
  5
27b
100
AcDbEntity
  8
Layer_1
 62
7
100
AcDbSpline
 70
8
 71
3
 72
8
 73
4
 74
0
 40
0
 40
0
 40
0
 40
0
 40
1
 40
1
 40
1
 40
1
 10
1028.356668
 20
398.381040
 30
0.0
 10
1044.208942
 20
381.747623
 30
0.0
 10
1057.716113
 20
366.403601
 30
0.0
 10
1057.716113
 20
366.403601
 30
0.0
  0
LWPOLYLINE
  5
27c
100
AcDbEntity
  8
Layer_1
 62
7
100
AcDbPolyline
 90
2
 70
0
 10
1122.205436
 20
431.595774
 30
0.0
 10
1102.999691
 20
412.216123
 30
0.0
  0
SPLINE
  5
27d
100
AcDbEntity
  8
Layer_1
 62
7
100
AcDbSpline
 70
8
 71
3
 72
8
 73
4
 74
0
 40
0
 40
0
 40
0
 40
0
 40
1
 40
1
 40
1
 40
1
 10
1037.337080
 20
346.113717
 30
0.0
 10
1037.337080
 20
346.113717
 30
0.0
 10
1030.360876
 20
351.423320
 30
0.0
 10
1022.027074
 20
360.026130
 30
0.0
  0
SPLINE
  5
27e
100
AcDbEntity
  8
Layer_1
 62
7
100
AcDbSpline
 70
8
 71
3
 72
8
 73
4
 74
0
 40
0
 40
0
 40
0
 40
0
 40
1
 40
1
 40
1
 40
1
 10
1022.027074
 20
360.026130
 30
0.0
 10
1008.842258
 20
373.636312
 30
0.0
 10
1005.156142
 20
376.065405
 30
0.0
 10
1001.036495
 20
373.858634
 30
0.0
  0
SPLINE
  5
27f
100
AcDbEntity
  8
Layer_1
 62
7
100
AcDbSpline
 70
8
 71
3
 72
8
 73
4
 74
0
 40
0
 40
0
 40
0
 40
0
 40
1
 40
1
 40
1
 40
1
 10
1001.036495
 20
373.858634
 30
0.0
 10
999.267222
 20
372.910757
 30
0.0
 10
998.411443
 20
371.579182
 30
0.0
 10
998.159698
 20
369.384627
 30
0.0
  0
SPLINE
  5
280
100
AcDbEntity
  8
Layer_1
 62
7
100
AcDbSpline
 70
8
 71
3
 72
8
 73
4
 74
0
 40
0
 40
0
 40
0
 40
0
 40
1
 40
1
 40
1
 40
1
 10
998.159698
 20
369.384627
 30
0.0
 10
997.839609
 20
366.594287
 30
0.0
 10
998.646775
 20
365.355972
 30
0.0
 10
1005.704419
 20
357.820067
 30
0.0
  0
SPLINE
  5
281
100
AcDbEntity
  8
Layer_1
 62
7
100
AcDbSpline
 70
8
 71
3
 72
8
 73
4
 74
0
 40
0
 40
0
 40
0
 40
0
 40
1
 40
1
 40
1
 40
1
 10
1005.704419
 20
357.820067
 30
0.0
 10
1020.738529
 20
341.767185
 30
0.0
 10
1026.894898
 20
335.387928
 30
0.0
 10
1026.894898
 20
335.387928
 30
0.0
  0
LWPOLYLINE
  5
282
100
AcDbEntity
  8
Layer_1
 62
7
100
AcDbPolyline
 90
2
 70
0
 10
1057.716113
 20
366.403601
 30
0.0
 10
1037.337080
 20
346.113717
 30
0.0
  0
SPLINE
  5
283
100
AcDbEntity
  8
Layer_1
 62
7
100
AcDbSpline
 70
8
 71
3
 72
8
 73
4
 74
0
 40
0
 40
0
 40
0
 40
0
 40
1
 40
1
 40
1
 40
1
 10
1004.550888
 20
312.438155
 30
0.0
 10
1004.550888
 20
312.438155
 30
0.0
 10
994.174895
 20
322.052990
 30
0.0
 10
983.728035
 20
332.776823
 30
0.0
  0
SPLINE
  5
284
100
AcDbEntity
  8
Layer_1
 62
7
100
AcDbSpline
 70
8
 71
3
 72
8
 73
4
 74
0
 40
0
 40
0
 40
0
 40
0
 40
1
 40
1
 40
1
 40
1
 10
983.728035
 20
332.776823
 30
0.0
 10
954.880157
 20
362.389799
 30
0.0
 10
944.056375
 20
372.739941
 30
0.0
 10
941.345065
 20
373.307749
 30
0.0
  0
SPLINE
  5
285
100
AcDbEntity
  8
Layer_1
 62
7
100
AcDbSpline
 70
8
 71
3
 72
8
 73
4
 74
0
 40
0
 40
0
 40
0
 40
0
 40
1
 40
1
 40
1
 40
1
 10
941.345065
 20
373.307749
 30
0.0
 10
937.638369
 20
374.084130
 30
0.0
 10
933.060728
 20
371.028580
 30
0.0
 10
933.040658
 20
367.765166
 30
0.0
  0
SPLINE
  5
286
100
AcDbEntity
  8
Layer_1
 62
7
100
AcDbSpline
 70
8
 71
3
 72
8
 73
4
 74
0
 40
0
 40
0
 40
0
 40
0
 40
1
 40
1
 40
1
 40
1
 10
933.040658
 20
367.765166
 30
0.0
 10
933.032154
 20
366.313005
 30
0.0
 10
933.639704
 20
364.254089
 30
0.0
 10
934.392841
 20
363.190218
 30
0.0
  0
SPLINE
  5
287
100
AcDbEntity
  8
Layer_1
 62
7
100
AcDbSpline
 70
8
 71
3
 72
8
 73
4
 74
0
 40
0
 40
0
 40
0
 40
0
 40
1
 40
1
 40
1
 40
1
 10
934.392841
 20
363.190218
 30
0.0
 10
935.146006
 20
362.126319
 30
0.0
 10
947.085052
 20
349.452760
 30
0.0
 10
960.923480
 20
335.026057
 30
0.0
  0
SPLINE
  5
288
100
AcDbEntity
  8
Layer_1
 62
7
100
AcDbSpline
 70
8
 71
3
 72
8
 73
4
 74
0
 40
0
 40
0
 40
0
 40
0
 40
1
 40
1
 40
1
 40
1
 10
960.923480
 20
335.026057
 30
0.0
 10
964.818028
 20
330.260309
 30
0.0
 10
994.239099
 20
301.718092
 30
0.0
 10
994.239099
 20
301.718092
 30
0.0
  0
LWPOLYLINE
  5
289
100
AcDbEntity
  8
Layer_1
 62
7
100
AcDbPolyline
 90
2
 70
0
 10
1026.894898
 20
335.387928
 30
0.0
 10
1004.550888
 20
312.438155
 30
0.0
  0
SPLINE
  5
28a
100
AcDbEntity
  8
Layer_1
 62
7
100
AcDbSpline
 70
8
 71
3
 72
8
 73
4
 74
0
 40
0
 40
0
 40
0
 40
0
 40
1
 40
1
 40
1
 40
1
 10
975.692665
 20
282.797116
 30
0.0
 10
975.692665
 20
282.797116
 30
0.0
 10
968.623087
 20
287.283566
 30
0.0
 10
954.955191
 20
300.663434
 30
0.0
  0
SPLINE
  5
28b
100
AcDbEntity
  8
Layer_1
 62
7
100
AcDbSpline
 70
8
 71
3
 72
8
 73
4
 74
0
 40
0
 40
0
 40
0
 40
0
 40
1
 40
1
 40
1
 40
1
 10
954.955191
 20
300.663434
 30
0.0
 10
945.866495
 20
309.560423
 30
0.0
 10
942.577540
 20
310.829352
 30
0.0
 10
938.764460
 20
306.910993
 30
0.0
  0
SPLINE
  5
28c
100
AcDbEntity
  8
Layer_1
 62
7
100
AcDbSpline
 70
8
 71
3
 72
8
 73
4
 74
0
 40
0
 40
0
 40
0
 40
0
 40
1
 40
1
 40
1
 40
1
 10
938.764460
 20
306.910993
 30
0.0
 10
935.341200
 20
303.392007
 30
0.0
 10
937.003748
 20
300.502483
 30
0.0
 10
950.980110
 20
285.687632
 30
0.0
  0
SPLINE
  5
28d
100
AcDbEntity
  8
Layer_1
 62
7
100
AcDbSpline
 70
8
 71
3
 72
8
 73
4
 74
0
 40
0
 40
0
 40
0
 40
0
 40
1
 40
1
 40
1
 40
1
 10
950.980110
 20
285.687632
 30
0.0
 10
960.352469
 20
275.752908
 30
0.0
 10
964.150838
 20
271.829305
 30
0.0
 10
964.150838
 20
271.829305
 30
0.0
  0
LWPOLYLINE
  5
28e
100
AcDbEntity
  8
Layer_1
 62
7
100
AcDbPolyline
 90
2
 70
0
 10
994.239099
 20
301.718092
 30
0.0
 10
975.692665
 20
282.797116
 30
0.0
  0
SPLINE
  5
28f
100
AcDbEntity
  8
Layer_1
 62
7
100
AcDbSpline
 70
8
 71
3
 72
8
 73
4
 74
0
 40
0
 40
0
 40
0
 40
0
 40
1
 40
1
 40
1
 40
1
 10
942.279704
 20
248.558423
 30
0.0
 10
942.279704
 20
248.558423
 30
0.0
 10
927.005896
 20
262.061881
 30
0.0
 10
898.580693
 20
291.826341
 30
0.0
  0
SPLINE
  5
290
100
AcDbEntity
  8
Layer_1
 62
7
100
AcDbSpline
 70
8
 71
3
 72
8
 73
4
 74
0
 40
0
 40
0
 40
0
 40
0
 40
1
 40
1
 40
1
 40
1
 10
898.580693
 20
291.826341
 30
0.0
 10
883.686756
 20
307.421909
 30
0.0
 10
878.105707
 20
311.610155
 30
0.0
 10
874.838381
 20
309.644243
 30
0.0
  0
SPLINE
  5
291
100
AcDbEntity
  8
Layer_1
 62
7
100
AcDbSpline
 70
8
 71
3
 72
8
 73
4
 74
0
 40
0
 40
0
 40
0
 40
0
 40
1
 40
1
 40
1
 40
1
 10
874.838381
 20
309.644243
 30
0.0
 10
873.092608
 20
308.594120
 30
0.0
 10
872.223534
 20
304.642341
 30
0.0
 10
873.001417
 20
301.294709
 30
0.0
  0
SPLINE
  5
292
100
AcDbEntity
  8
Layer_1
 62
7
100
AcDbSpline
 70
8
 71
3
 72
8
 73
4
 74
0
 40
0
 40
0
 40
0
 40
0
 40
1
 40
1
 40
1
 40
1
 10
873.001417
 20
301.294709
 30
0.0
 10
873.664271
 20
298.441950
 30
0.0
 10
874.317175
 20
297.702760
 30
0.0
 10
899.207943
 20
271.642020
 30
0.0
  0
SPLINE
  5
293
100
AcDbEntity
  8
Layer_1
 62
7
100
AcDbSpline
 70
8
 71
3
 72
8
 73
4
 74
0
 40
0
 40
0
 40
0
 40
0
 40
1
 40
1
 40
1
 40
1
 10
899.207943
 20
271.642020
 30
0.0
 10
918.484498
 20
251.459172
 30
0.0
 10
931.965392
 20
238.760498
 30
0.0
 10
931.965392
 20
238.760498
 30
0.0
  0
LWPOLYLINE
  5
294
100
AcDbEntity
  8
Layer_1
 62
7
100
AcDbPolyline
 90
2
 70
0
 10
964.150838
 20
271.829305
 30
0.0
 10
942.279704
 20
248.558423
 30
0.0
  0
SPLINE
  5
295
100
AcDbEntity
  8
Layer_1
 62
7
100
AcDbSpline
 70
8
 71
3
 72
8
 73
4
 74
0
 40
0
 40
0
 40
0
 40
0
 40
1
 40
1
 40
1
 40
1
 10
909.286583
 20
215.627522
 30
0.0
 10
909.286583
 20
215.627522
 30
0.0
 10
906.233244
 20
218.073254
 30
0.0
 10
902.832888
 20
221.684366
 30
0.0
  0
SPLINE
  5
296
100
AcDbEntity
  8
Layer_1
 62
7
100
AcDbSpline
 70
8
 71
3
 72
8
 73
4
 74
0
 40
0
 40
0
 40
0
 40
0
 40
1
 40
1
 40
1
 40
1
 10
902.832888
 20
221.684366
 30
0.0
 10
884.874501
 20
240.755579
 30
0.0
 10
880.695723
 20
243.330883
 30
0.0
 10
876.355597
 20
238.008467
 30
0.0
  0
SPLINE
  5
297
100
AcDbEntity
  8
Layer_1
 62
7
100
AcDbSpline
 70
8
 71
3
 72
8
 73
4
 74
0
 40
0
 40
0
 40
0
 40
0
 40
1
 40
1
 40
1
 40
1
 10
876.355597
 20
238.008467
 30
0.0
 10
873.962872
 20
234.189859
 30
0.0
 10
882.615997
 20
225.778842
 30
0.0
 10
885.754233
 20
220.918842
 30
0.0
  0
SPLINE
  5
298
100
AcDbEntity
  8
Layer_1
 62
7
100
AcDbSpline
 70
8
 71
3
 72
8
 73
4
 74
0
 40
0
 40
0
 40
0
 40
0
 40
1
 40
1
 40
1
 40
1
 10
885.754233
 20
220.918842
 30
0.0
 10
894.942765
 20
211.199749
 30
0.0
 10
899.844548
 20
205.796744
 30
0.0
 10
899.844548
 20
205.796744
 30
0.0
  0
LWPOLYLINE
  5
299
100
AcDbEntity
  8
Layer_1
 62
7
100
AcDbPolyline
 90
2
 70
0
 10
931.965392
 20
238.760498
 30
0.0
 10
909.286583
 20
215.627522
 30
0.0
  0
SPLINE
  5
29a
100
AcDbEntity
  8
Layer_1
 62
7
100
AcDbSpline
 70
8
 71
3
 72
8
 73
4
 74
0
 40
0
 40
0
 40
0
 40
0
 40
1
 40
1
 40
1
 40
1
 10
877.631244
 20
182.861853
 30
0.0
 10
877.631244
 20
182.861853
 30
0.0
 10
818.260044
 20
240.019279
 30
0.0
 10
817.129502
 20
238.701736
 30
0.0
  0
SPLINE
  5
29b
100
AcDbEntity
  8
Layer_1
 62
7
100
AcDbSpline
 70
8
 71
3
 72
8
 73
4
 74
0
 40
0
 40
0
 40
0
 40
0
 40
1
 40
1
 40
1
 40
1
 10
817.129502
 20
238.701736
 30
0.0
 10
816.862479
 20
238.965358
 30
0.0
 10
809.650261
 20
236.737270
 30
0.0
 10
812.649770
 20
231.149985
 30
0.0
  0
SPLINE
  5
29c
100
AcDbEntity
  8
Layer_1
 62
7
100
AcDbSpline
 70
8
 71
3
 72
8
 73
4
 74
0
 40
0
 40
0
 40
0
 40
0
 40
1
 40
1
 40
1
 40
1
 10
812.649770
 20
231.149985
 30
0.0
 10
829.806576
 20
211.441090
 30
0.0
 10
848.744504
 20
189.458413
 30
0.0
 10
866.912343
 20
171.777623
 30
0.0
  0
SPLINE
  5
29d
100
AcDbEntity
  8
Layer_1
 62
7
100
AcDbSpline
 70
8
 71
3
 72
8
 73
4
 74
0
 40
0
 40
0
 40
0
 40
0
 40
1
 40
1
 40
1
 40
1
 10
866.912343
 20
171.777623
 30
0.0
 10
848.390287
 20
152.439897
 30
0.0
 10
809.125030
 20
113.516867
 30
0.0
 10
809.125030
 20
113.516867
 30
0.0
  0
LWPOLYLINE
  5
29e
100
AcDbEntity
  8
Layer_1
 62
7
100
AcDbPolyline
 90
2
 70
0
 10
899.844548
 20
205.796744
 30
0.0
 10
877.631244
 20
182.861853
 30
0.0
  0
SPLINE
  5
29f
100
AcDbEntity
  8
Layer_1
 62
7
100
AcDbSpline
 70
8
 71
3
 72
8
 73
4
 74
0
 40
0
 40
0
 40
0
 40
0
 40
1
 40
1
 40
1
 40
1
 10
790.004580
 20
132.495160
 30
0.0
 10
790.004580
 20
132.495160
 30
0.0
 10
814.720110
 20
156.312420
 30
0.0
 10
815.049666
 20
163.882114
 30
0.0
  0
SPLINE
  5
2a0
100
AcDbEntity
  8
Layer_1
 62
7
100
AcDbSpline
 70
8
 71
3
 72
8
 73
4
 74
0
 40
0
 40
0
 40
0
 40
0
 40
1
 40
1
 40
1
 40
1
 10
815.049666
 20
163.882114
 30
0.0
 10
815.098706
 20
166.663638
 30
0.0
 10
812.414580
 20
170.017166
 30
0.0
 10
810.106243
 20
170.057758
 30
0.0
  0
SPLINE
  5
2a1
100
AcDbEntity
  8
Layer_1
 62
7
100
AcDbSpline
 70
8
 71
3
 72
8
 73
4
 74
0
 40
0
 40
0
 40
0
 40
0
 40
1
 40
1
 40
1
 40
1
 10
810.106243
 20
170.057758
 30
0.0
 10
800.942655
 20
167.407138
 30
0.0
 10
778.668721
 20
143.981881
 30
0.0
 10
778.668721
 20
143.981881
 30
0.0
  0
LWPOLYLINE
  5
2a2
100
AcDbEntity
  8
Layer_1
 62
7
100
AcDbPolyline
 90
2
 70
0
 10
809.125030
 20
113.516867
 30
0.0
 10
790.004580
 20
132.495160
 30
0.0
  0
SPLINE
  5
2a3
100
AcDbEntity
  8
Layer_1
 62
7
100
AcDbSpline
 70
8
 71
3
 72
8
 73
4
 74
0
 40
0
 40
0
 40
0
 40
0
 40
1
 40
1
 40
1
 40
1
 10
755.885945
 20
166.698221
 30
0.0
 10
755.885945
 20
166.698221
 30
0.0
 10
772.790868
 20
185.971374
 30
0.0
 10
778.776860
 20
192.105519
 30
0.0
  0
SPLINE
  5
2a4
100
AcDbEntity
  8
Layer_1
 62
7
100
AcDbSpline
 70
8
 71
3
 72
8
 73
4
 74
0
 40
0
 40
0
 40
0
 40
0
 40
1
 40
1
 40
1
 40
1
 10
778.776860
 20
192.105519
 30
0.0
 10
781.850656
 20
195.257191
 30
0.0
 10
785.964643
 20
199.717223
 30
0.0
 10
787.916435
 20
202.018105
 30
0.0
  0
SPLINE
  5
2a5
100
AcDbEntity
  8
Layer_1
 62
7
100
AcDbSpline
 70
8
 71
3
 72
8
 73
4
 74
0
 40
0
 40
0
 40
0
 40
0
 40
1
 40
1
 40
1
 40
1
 10
787.916435
 20
202.018105
 30
0.0
 10
793.855899
 20
209.206284
 30
0.0
 10
810.827206
 20
223.391730
 30
0.0
 10
807.927676
 20
229.654709
 30
0.0
  0
SPLINE
  5
2a6
100
AcDbEntity
  8
Layer_1
 62
7
100
AcDbSpline
 70
8
 71
3
 72
8
 73
4
 74
0
 40
0
 40
0
 40
0
 40
0
 40
1
 40
1
 40
1
 40
1
 10
807.927676
 20
229.654709
 30
0.0
 10
805.219682
 20
234.935853
 30
0.0
 10
798.301276
 20
232.875320
 30
0.0
 10
774.531938
 20
206.022609
 30
0.0
  0
SPLINE
  5
2a7
100
AcDbEntity
  8
Layer_1
 62
7
100
AcDbSpline
 70
8
 71
3
 72
8
 73
4
 74
0
 40
0
 40
0
 40
0
 40
0
 40
1
 40
1
 40
1
 40
1
 10
774.531938
 20
206.022609
 30
0.0
 10
756.546080
 20
185.703670
 30
0.0
 10
746.221745
 20
176.131780
 30
0.0
 10
746.221745
 20
176.131780
 30
0.0
  0
LWPOLYLINE
  5
2a8
100
AcDbEntity
  8
Layer_1
 62
7
100
AcDbPolyline
 90
2
 70
0
 10
778.668721
 20
143.981881
 30
0.0
 10
755.885945
 20
166.698221
 30
0.0
  0
SPLINE
  5
2a9
100
AcDbEntity
  8
Layer_1
 62
7
100
AcDbSpline
 70
8
 71
3
 72
8
 73
4
 74
0
 40
0
 40
0
 40
0
 40
0
 40
1
 40
1
 40
1
 40
1
 10
729.030234
 20
204.852977
 30
0.0
 10
740.121834
 20
215.562183
 30
0.0
 10
745.178927
 20
221.341742
 30
0.0
 10
748.086707
 20
226.628867
 30
0.0
  0
SPLINE
  5
2aa
100
AcDbEntity
  8
Layer_1
 62
7
100
AcDbSpline
 70
8
 71
3
 72
8
 73
4
 74
0
 40
0
 40
0
 40
0
 40
0
 40
1
 40
1
 40
1
 40
1
 10
748.086707
 20
226.628867
 30
0.0
 10
749.920533
 20
229.963119
 30
0.0
 10
749.922134
 20
230.076590
 30
0.0
 10
748.170612
 20
233.074341
 30
0.0
  0
SPLINE
  5
2ab
100
AcDbEntity
  8
Layer_1
 62
7
100
AcDbSpline
 70
8
 71
3
 72
8
 73
4
 74
0
 40
0
 40
0
 40
0
 40
0
 40
1
 40
1
 40
1
 40
1
 10
748.170612
 20
233.074341
 30
0.0
 10
745.271371
 20
238.036275
 30
0.0
 10
742.591933
 20
237.321916
 30
0.0
 10
734.424650
 20
229.411213
 30
0.0
  0
SPLINE
  5
2ac
100
AcDbEntity
  8
Layer_1
 62
7
100
AcDbSpline
 70
8
 71
3
 72
8
 73
4
 74
0
 40
0
 40
0
 40
0
 40
0
 40
1
 40
1
 40
1
 40
1
 10
734.424650
 20
229.411213
 30
0.0
 10
730.562885
 20
225.670501
 30
0.0
 10
726.543352
 20
221.424712
 30
0.0
 10
725.493407
 20
219.974905
 30
0.0
  0
SPLINE
  5
2ad
100
AcDbEntity
  8
Layer_1
 62
7
100
AcDbSpline
 70
8
 71
3
 72
8
 73
4
 74
0
 40
0
 40
0
 40
0
 40
0
 40
1
 40
1
 40
1
 40
1
 10
725.493407
 20
219.974905
 30
0.0
 10
722.627762
 20
216.019157
 30
0.0
 10
714.215259
 20
208.370829
 30
0.0
 10
714.215259
 20
208.370829
 30
0.0
  0
LWPOLYLINE
  5
2ae
100
AcDbEntity
  8
Layer_1
 62
7
100
AcDbPolyline
 90
3
 70
0
 10
746.221745
 20
176.131780
 30
0.0
 10
723.497927
 20
199.250782
 30
0.0
 10
729.030234
 20
204.852977
 30
0.0
  0
SPLINE
  5
2af
100
AcDbEntity
  8
Layer_1
 62
7
100
AcDbSpline
 70
8
 71
3
 72
8
 73
4
 74
0
 40
0
 40
0
 40
0
 40
0
 40
1
 40
1
 40
1
 40
1
 10
690.611009
 20
232.186190
 30
0.0
 10
701.176337
 20
241.738095
 30
0.0
 10
710.689017
 20
252.744486
 30
0.0
 10
719.340800
 20
261.042231
 30
0.0
  0
SPLINE
  5
2b0
100
AcDbEntity
  8
Layer_1
 62
7
100
AcDbSpline
 70
8
 71
3
 72
8
 73
4
 74
0
 40
0
 40
0
 40
0
 40
0
 40
1
 40
1
 40
1
 40
1
 10
719.340800
 20
261.042231
 30
0.0
 10
746.526943
 20
287.061812
 30
0.0
 10
748.795793
 20
289.719802
 30
0.0
 10
747.846652
 20
294.434895
 30
0.0
  0
SPLINE
  5
2b1
100
AcDbEntity
  8
Layer_1
 62
7
100
AcDbSpline
 70
8
 71
3
 72
8
 73
4
 74
0
 40
0
 40
0
 40
0
 40
0
 40
1
 40
1
 40
1
 40
1
 10
747.846652
 20
294.434895
 30
0.0
 10
747.068607
 20
298.300643
 30
0.0
 10
744.871717
 20
299.365449
 30
0.0
 10
741.262742
 20
297.625856
 30
0.0
  0
SPLINE
  5
2b2
100
AcDbEntity
  8
Layer_1
 62
7
100
AcDbSpline
 70
8
 71
3
 72
8
 73
4
 74
0
 40
0
 40
0
 40
0
 40
0
 40
1
 40
1
 40
1
 40
1
 10
741.262742
 20
297.625856
 30
0.0
 10
738.314354
 20
296.204763
 30
0.0
 10
734.527814
 20
292.742867
 30
0.0
 10
701.850730
 20
261.587701
 30
0.0
  0
SPLINE
  5
2b3
100
AcDbEntity
  8
Layer_1
 62
7
100
AcDbSpline
 70
8
 71
3
 72
8
 73
4
 74
0
 40
0
 40
0
 40
0
 40
0
 40
1
 40
1
 40
1
 40
1
 10
701.850730
 20
261.587701
 30
0.0
 10
691.929479
 20
252.128460
 30
0.0
 10
681.281286
 20
241.571928
 30
0.0
 10
681.281286
 20
241.571928
 30
0.0
  0
LWPOLYLINE
  5
2b4
100
AcDbEntity
  8
Layer_1
 62
7
100
AcDbPolyline
 90
2
 70
0
 10
714.215259
 20
208.370829
 30
0.0
 10
690.611009
 20
232.186190
 30
0.0
  0
SPLINE
  5
2b5
100
AcDbEntity
  8
Layer_1
 62
7
100
AcDbSpline
 70
8
 71
3
 72
8
 73
4
 74
0
 40
0
 40
0
 40
0
 40
0
 40
1
 40
1
 40
1
 40
1
 10
657.335965
 20
265.142659
 30
0.0
 10
657.335965
 20
265.142659
 30
0.0
 10
666.824346
 20
276.198741
 30
0.0
 10
670.768328
 20
280.252312
 30
0.0
  0
SPLINE
  5
2b6
100
AcDbEntity
  8
Layer_1
 62
7
100
AcDbSpline
 70
8
 71
3
 72
8
 73
4
 74
0
 40
0
 40
0
 40
0
 40
0
 40
1
 40
1
 40
1
 40
1
 10
670.768328
 20
280.252312
 30
0.0
 10
675.091899
 20
285.646586
 30
0.0
 10
684.972499
 20
294.114042
 30
0.0
 10
680.967040
 20
299.773525
 30
0.0
  0
SPLINE
  5
2b7
100
AcDbEntity
  8
Layer_1
 62
7
100
AcDbSpline
 70
8
 71
3
 72
8
 73
4
 74
0
 40
0
 40
0
 40
0
 40
0
 40
1
 40
1
 40
1
 40
1
 10
680.967040
 20
299.773525
 30
0.0
 10
678.067291
 20
302.776946
 30
0.0
 10
673.405571
 20
301.005490
 30
0.0
 10
666.015897
 20
293.713875
 30
0.0
  0
SPLINE
  5
2b8
100
AcDbEntity
  8
Layer_1
 62
7
100
AcDbSpline
 70
8
 71
3
 72
8
 73
4
 74
0
 40
0
 40
0
 40
0
 40
0
 40
1
 40
1
 40
1
 40
1
 10
666.015897
 20
293.713875
 30
0.0
 10
662.281617
 20
290.174423
 30
0.0
 10
647.787773
 20
274.812032
 30
0.0
 10
647.787773
 20
274.812032
 30
0.0
  0
LWPOLYLINE
  5
2b9
100
AcDbEntity
  8
Layer_1
 62
7
100
AcDbPolyline
 90
2
 70
0
 10
681.281286
 20
241.571928
 30
0.0
 10
657.335965
 20
265.142659
 30
0.0
  0
SPLINE
  5
2ba
100
AcDbEntity
  8
Layer_1
 62
7
100
AcDbSpline
 70
8
 71
3
 72
8
 73
4
 74
0
 40
0
 40
0
 40
0
 40
0
 40
1
 40
1
 40
1
 40
1
 10
623.687598
 20
299.194180
 30
0.0
 10
623.687598
 20
299.194180
 30
0.0
 10
632.049965
 20
308.609172
 30
0.0
 10
642.721173
 20
319.169786
 30
0.0
  0
SPLINE
  5
2bb
100
AcDbEntity
  8
Layer_1
 62
7
100
AcDbSpline
 70
8
 71
3
 72
8
 73
4
 74
0
 40
0
 40
0
 40
0
 40
0
 40
1
 40
1
 40
1
 40
1
 10
642.721173
 20
319.169786
 30
0.0
 10
653.392380
 20
329.730401
 30
0.0
 10
662.252825
 20
338.660697
 30
0.0
 10
662.411007
 20
339.015027
 30
0.0
  0
SPLINE
  5
2bc
100
AcDbEntity
  8
Layer_1
 62
7
100
AcDbSpline
 70
8
 71
3
 72
8
 73
4
 74
0
 40
0
 40
0
 40
0
 40
0
 40
1
 40
1
 40
1
 40
1
 10
662.411007
 20
339.015027
 30
0.0
 10
662.569123
 20
339.369415
 30
0.0
 10
664.898074
 20
341.907386
 30
0.0
 10
667.586013
 20
344.654640
 30
0.0
  0
SPLINE
  5
2bd
100
AcDbEntity
  8
Layer_1
 62
7
100
AcDbSpline
 70
8
 71
3
 72
8
 73
4
 74
0
 40
0
 40
0
 40
0
 40
0
 40
1
 40
1
 40
1
 40
1
 10
667.586013
 20
344.654640
 30
0.0
 10
680.187492
 20
357.535100
 30
0.0
 10
685.000179
 20
367.098797
 30
0.0
 10
678.934587
 20
367.205465
 30
0.0
  0
SPLINE
  5
2be
100
AcDbEntity
  8
Layer_1
 62
7
100
AcDbSpline
 70
8
 71
3
 72
8
 73
4
 74
0
 40
0
 40
0
 40
0
 40
0
 40
1
 40
1
 40
1
 40
1
 10
678.934587
 20
367.205465
 30
0.0
 10
675.255997
 20
367.269245
 30
0.0
 10
667.193434
 20
360.931119
 30
0.0
 10
649.523650
 20
344.081134
 30
0.0
  0
SPLINE
  5
2bf
100
AcDbEntity
  8
Layer_1
 62
7
100
AcDbSpline
 70
8
 71
3
 72
8
 73
4
 74
0
 40
0
 40
0
 40
0
 40
0
 40
1
 40
1
 40
1
 40
1
 10
649.523650
 20
344.081134
 30
0.0
 10
637.790621
 20
332.145179
 30
0.0
 10
624.864237
 20
321.537084
 30
0.0
 10
613.693939
 20
309.071475
 30
0.0
  0
LWPOLYLINE
  5
2c0
100
AcDbEntity
  8
Layer_1
 62
7
100
AcDbPolyline
 90
2
 70
0
 10
647.787773
 20
274.812032
 30
0.0
 10
623.687598
 20
299.194180
 30
0.0
  0
SPLINE
  5
2c1
100
AcDbEntity
  8
Layer_1
 62
7
100
AcDbSpline
 70
8
 71
3
 72
8
 73
4
 74
0
 40
0
 40
0
 40
0
 40
0
 40
1
 40
1
 40
1
 40
1
 10
592.884428
 20
330.096552
 30
0.0
 10
592.884428
 20
330.096552
 30
0.0
 10
597.949132
 20
335.625330
 30
0.0
 10
600.838693
 20
338.602416
 30
0.0
  0
SPLINE
  5
2c2
100
AcDbEntity
  8
Layer_1
 62
7
100
AcDbSpline
 70
8
 71
3
 72
8
 73
4
 74
0
 40
0
 40
0
 40
0
 40
0
 40
1
 40
1
 40
1
 40
1
 10
600.838693
 20
338.602416
 30
0.0
 10
609.504043
 20
347.500029
 30
0.0
 10
611.152566
 20
349.453242
 30
0.0
 10
613.848484
 20
354.023626
 30
0.0
  0
SPLINE
  5
2c3
100
AcDbEntity
  8
Layer_1
 62
7
100
AcDbSpline
 70
8
 71
3
 72
8
 73
4
 74
0
 40
0
 40
0
 40
0
 40
0
 40
1
 40
1
 40
1
 40
1
 10
613.848484
 20
354.023626
 30
0.0
 10
616.746433
 20
358.936038
 30
0.0
 10
617.329695
 20
362.826420
 30
0.0
 10
615.415961
 20
364.472357
 30
0.0
  0
SPLINE
  5
2c4
100
AcDbEntity
  8
Layer_1
 62
7
100
AcDbSpline
 70
8
 71
3
 72
8
 73
4
 74
0
 40
0
 40
0
 40
0
 40
0
 40
1
 40
1
 40
1
 40
1
 10
615.415961
 20
364.472357
 30
0.0
 10
612.940357
 20
366.601601
 30
0.0
 10
607.158839
 20
362.749034
 30
0.0
 10
594.227650
 20
350.353327
 30
0.0
  0
SPLINE
  5
2c5
100
AcDbEntity
  8
Layer_1
 62
7
100
AcDbSpline
 70
8
 71
3
 72
8
 73
4
 74
0
 40
0
 40
0
 40
0
 40
0
 40
1
 40
1
 40
1
 40
1
 10
594.227650
 20
350.353327
 30
0.0
 10
587.342064
 20
343.753024
 30
0.0
 10
583.426162
 20
339.262860
 30
0.0
 10
583.426162
 20
339.262860
 30
0.0
  0
LWPOLYLINE
  5
2c6
100
AcDbEntity
  8
Layer_1
 62
7
100
AcDbPolyline
 90
2
 70
0
 10
613.693939
 20
309.071475
 30
0.0
 10
592.884428
 20
330.096552
 30
0.0
  0
SPLINE
  5
2c7
100
AcDbEntity
  8
Layer_1
 62
7
100
AcDbSpline
 70
8
 71
3
 72
8
 73
4
 74
0
 40
0
 40
0
 40
0
 40
0
 40
1
 40
1
 40
1
 40
1
 10
562.023476
 20
360.725352
 30
0.0
 10
562.023476
 20
360.725352
 30
0.0
 10
566.461885
 20
365.408583
 30
0.0
 10
569.787917
 20
369.112076
 30
0.0
  0
SPLINE
  5
2c8
100
AcDbEntity
  8
Layer_1
 62
7
100
AcDbSpline
 70
8
 71
3
 72
8
 73
4
 74
0
 40
0
 40
0
 40
0
 40
0
 40
1
 40
1
 40
1
 40
1
 10
569.787917
 20
369.112076
 30
0.0
 10
570.955473
 20
370.412016
 30
0.0
 10
601.083184
 20
399.803550
 30
0.0
 10
602.289638
 20
401.045607
 30
0.0
  0
SPLINE
  5
2c9
100
AcDbEntity
  8
Layer_1
 62
7
100
AcDbSpline
 70
8
 71
3
 72
8
 73
4
 74
0
 40
0
 40
0
 40
0
 40
0
 40
1
 40
1
 40
1
 40
1
 10
602.289638
 20
401.045607
 30
0.0
 10
611.851791
 20
410.889736
 30
0.0
 10
620.501593
 20
416.941138
 30
0.0
 10
615.626935
 20
424.620221
 30
0.0
  0
SPLINE
  5
2ca
100
AcDbEntity
  8
Layer_1
 62
7
100
AcDbSpline
 70
8
 71
3
 72
8
 73
4
 74
0
 40
0
 40
0
 40
0
 40
0
 40
1
 40
1
 40
1
 40
1
 10
615.626935
 20
424.620221
 30
0.0
 10
611.464297
 20
428.931746
 30
0.0
 10
601.879946
 20
421.418999
 30
0.0
 10
570.017823
 20
388.867147
 30
0.0
  0
SPLINE
  5
2cb
100
AcDbEntity
  8
Layer_1
 62
7
100
AcDbSpline
 70
8
 71
3
 72
8
 73
4
 74
0
 40
0
 40
0
 40
0
 40
0
 40
1
 40
1
 40
1
 40
1
 10
570.017823
 20
388.867147
 30
0.0
 10
553.831172
 20
372.330136
 30
0.0
 10
552.111627
 20
370.809831
 30
0.0
 10
552.111627
 20
370.809831
 30
0.0
  0
LWPOLYLINE
  5
2cc
100
AcDbEntity
  8
Layer_1
 62
7
100
AcDbPolyline
 90
2
 70
0
 10
583.426162
 20
339.262860
 30
0.0
 10
562.023476
 20
360.725352
 30
0.0
  0
SPLINE
  5
2cd
100
AcDbEntity
  8
Layer_1
 62
7
100
AcDbSpline
 70
8
 71
3
 72
8
 73
4
 74
0
 40
0
 40
0
 40
0
 40
0
 40
1
 40
1
 40
1
 40
1
 10
528.069586
 20
395.055944
 30
0.0
 10
528.069586
 20
395.055944
 30
0.0
 10
530.610653
 20
398.007859
 30
0.0
 10
534.601715
 20
401.997878
 30
0.0
  0
SPLINE
  5
2ce
100
AcDbEntity
  8
Layer_1
 62
7
100
AcDbSpline
 70
8
 71
3
 72
8
 73
4
 74
0
 40
0
 40
0
 40
0
 40
0
 40
1
 40
1
 40
1
 40
1
 10
534.601715
 20
401.997878
 30
0.0
 10
536.630958
 20
405.473550
 30
0.0
 10
557.269597
 20
421.832999
 30
0.0
 10
555.337457
 20
427.853305
 30
0.0
  0
SPLINE
  5
2cf
100
AcDbEntity
  8
Layer_1
 62
7
100
AcDbSpline
 70
8
 71
3
 72
8
 73
4
 74
0
 40
0
 40
0
 40
0
 40
0
 40
1
 40
1
 40
1
 40
1
 10
555.337457
 20
427.853305
 30
0.0
 10
555.181438
 20
431.401714
 30
0.0
 10
551.257240
 20
432.911106
 30
0.0
 10
548.748910
 20
431.575960
 30
0.0
  0
SPLINE
  5
2d0
100
AcDbEntity
  8
Layer_1
 62
7
100
AcDbSpline
 70
8
 71
3
 72
8
 73
4
 74
0
 40
0
 40
0
 40
0
 40
0
 40
1
 40
1
 40
1
 40
1
 10
548.748910
 20
431.575960
 30
0.0
 10
548.011783
 20
431.587298
 30
0.0
 10
542.177790
 20
426.641890
 30
0.0
 10
535.783387
 20
420.582042
 30
0.0
  0
SPLINE
  5
2d1
100
AcDbEntity
  8
Layer_1
 62
7
100
AcDbSpline
 70
8
 71
3
 72
8
 73
4
 74
0
 40
0
 40
0
 40
0
 40
0
 40
1
 40
1
 40
1
 40
1
 10
535.783387
 20
420.582042
 30
0.0
 10
517.494764
 20
403.250253
 30
0.0
 10
518.528170
 20
404.165021
 30
0.0
 10
518.528170
 20
404.165021
 30
0.0
  0
LWPOLYLINE
  5
2d2
100
AcDbEntity
  8
Layer_1
 62
7
100
AcDbPolyline
 90
2
 70
0
 10
552.111627
 20
370.809831
 30
0.0
 10
528.069586
 20
395.055944
 30
0.0
  0
SPLINE
  5
2d3
100
AcDbEntity
  8
Layer_1
 62
7
100
AcDbSpline
 70
8
 71
3
 72
8
 73
4
 74
0
 40
0
 40
0
 40
0
 40
0
 40
1
 40
1
 40
1
 40
1
 10
496.592870
 20
426.427223
 30
0.0
 10
496.592870
 20
426.427223
 30
0.0
 10
527.890967
 20
456.817997
 30
0.0
 10
542.284784
 20
475.149226
 30
0.0
  0
SPLINE
  5
2d4
100
AcDbEntity
  8
Layer_1
 62
7
100
AcDbSpline
 70
8
 71
3
 72
8
 73
4
 74
0
 40
0
 40
0
 40
0
 40
0
 40
1
 40
1
 40
1
 40
1
 10
542.284784
 20
475.149226
 30
0.0
 10
545.598337
 20
479.792574
 30
0.0
 10
552.179191
 20
484.471950
 30
0.0
 10
552.443244
 20
490.489138
 30
0.0
  0
SPLINE
  5
2d5
100
AcDbEntity
  8
Layer_1
 62
7
100
AcDbSpline
 70
8
 71
3
 72
8
 73
4
 74
0
 40
0
 40
0
 40
0
 40
0
 40
1
 40
1
 40
1
 40
1
 10
552.443244
 20
490.489138
 30
0.0
 10
552.418016
 20
492.989040
 30
0.0
 10
552.168652
 20
493.389859
 30
0.0
 10
550.309660
 20
493.911037
 30
0.0
  0
SPLINE
  5
2d6
100
AcDbEntity
  8
Layer_1
 62
7
100
AcDbSpline
 70
8
 71
3
 72
8
 73
4
 74
0
 40
0
 40
0
 40
0
 40
0
 40
1
 40
1
 40
1
 40
1
 10
550.309660
 20
493.911037
 30
0.0
 10
547.679472
 20
494.648498
 30
0.0
 10
539.224580
 20
488.471607
 30
0.0
 10
529.519505
 20
478.723119
 30
0.0
  0
SPLINE
  5
2d7
100
AcDbEntity
  8
Layer_1
 62
7
100
AcDbSpline
 70
8
 71
3
 72
8
 73
4
 74
0
 40
0
 40
0
 40
0
 40
0
 40
1
 40
1
 40
1
 40
1
 10
529.519505
 20
478.723119
 30
0.0
 10
517.333426
 20
466.383339
 30
0.0
 10
506.388502
 20
455.773856
 30
0.0
 10
494.192692
 20
443.405163
 30
0.0
  0
SPLINE
  5
2d8
100
AcDbEntity
  8
Layer_1
 62
7
100
AcDbSpline
 70
8
 71
3
 72
8
 73
4
 74
0
 40
0
 40
0
 40
0
 40
0
 40
1
 40
1
 40
1
 40
1
 10
494.192692
 20
443.405163
 30
0.0
 10
490.976298
 20
440.127831
 30
0.0
 10
486.461410
 20
436.593679
 30
0.0
 10
486.461410
 20
436.593679
 30
0.0
  0
LWPOLYLINE
  5
2d9
100
AcDbEntity
  8
Layer_1
 62
7
100
AcDbPolyline
 90
2
 70
0
 10
518.528170
 20
404.165021
 30
0.0
 10
496.592870
 20
426.427223
 30
0.0
  0
SPLINE
  5
2da
100
AcDbEntity
  8
Layer_1
 62
7
100
AcDbSpline
 70
8
 71
3
 72
8
 73
4
 74
0
 40
0
 40
0
 40
0
 40
0
 40
1
 40
1
 40
1
 40
1
 10
465.315897
 20
457.643815
 30
0.0
 10
465.315897
 20
457.643815
 30
0.0
 10
467.442672
 20
460.161377
 30
0.0
 10
470.773372
 20
463.524372
 30
0.0
  0
SPLINE
  5
2db
100
AcDbEntity
  8
Layer_1
 62
7
100
AcDbSpline
 70
8
 71
3
 72
8
 73
4
 74
0
 40
0
 40
0
 40
0
 40
0
 40
1
 40
1
 40
1
 40
1
 10
470.773372
 20
463.524372
 30
0.0
 10
474.593165
 20
468.339301
 30
0.0
 10
492.091993
 20
483.733780
 30
0.0
 10
491.211828
 20
490.379040
 30
0.0
  0
SPLINE
  5
2dc
100
AcDbEntity
  8
Layer_1
 62
7
100
AcDbSpline
 70
8
 71
3
 72
8
 73
4
 74
0
 40
0
 40
0
 40
0
 40
0
 40
1
 40
1
 40
1
 40
1
 10
491.211828
 20
490.379040
 30
0.0
 10
490.125538
 20
496.789478
 30
0.0
 10
484.444922
 20
494.611478
 30
0.0
 10
467.437448
 20
478.690237
 30
0.0
  0
SPLINE
  5
2dd
100
AcDbEntity
  8
Layer_1
 62
7
100
AcDbSpline
 70
8
 71
3
 72
8
 73
4
 74
0
 40
0
 40
0
 40
0
 40
0
 40
1
 40
1
 40
1
 40
1
 10
467.437448
 20
478.690237
 30
0.0
 10
457.622929
 20
469.502697
 30
0.0
 10
455.744815
 20
467.720498
 30
0.0
 10
455.744815
 20
467.720498
 30
0.0
  0
LWPOLYLINE
  5
2de
100
AcDbEntity
  8
Layer_1
 62
7
100
AcDbPolyline
 90
2
 70
0
 10
486.461410
 20
436.593679
 30
0.0
 10
465.315897
 20
457.643815
 30
0.0
  0
SPLINE
  5
2df
100
AcDbEntity
  8
Layer_1
 62
7
100
AcDbSpline
 70
8
 71
3
 72
8
 73
4
 74
0
 40
0
 40
0
 40
0
 40
0
 40
1
 40
1
 40
1
 40
1
 10
433.794421
 20
489.399415
 30
0.0
 10
433.794421
 20
489.399415
 30
0.0
 10
434.647278
 20
490.554278
 30
0.0
 10
440.646877
 20
496.130820
 30
0.0
  0
SPLINE
  5
2e0
100
AcDbEntity
  8
Layer_1
 62
7
100
AcDbSpline
 70
8
 71
3
 72
8
 73
4
 74
0
 40
0
 40
0
 40
0
 40
0
 40
1
 40
1
 40
1
 40
1
 10
440.646877
 20
496.130820
 30
0.0
 10
458.844744
 20
513.045519
 30
0.0
 10
478.532387
 20
533.120111
 30
0.0
 10
483.798724
 20
540.129708
 30
0.0
  0
SPLINE
  5
2e1
100
AcDbEntity
  8
Layer_1
 62
7
100
AcDbSpline
 70
8
 71
3
 72
8
 73
4
 74
0
 40
0
 40
0
 40
0
 40
0
 40
1
 40
1
 40
1
 40
1
 10
483.798724
 20
540.129708
 30
0.0
 10
485.972454
 20
542.830303
 30
0.0
 10
493.242027
 20
551.220117
 30
0.0
 10
488.785241
 20
553.593623
 30
0.0
  0
SPLINE
  5
2e2
100
AcDbEntity
  8
Layer_1
 62
7
100
AcDbSpline
 70
8
 71
3
 72
8
 73
4
 74
0
 40
0
 40
0
 40
0
 40
0
 40
1
 40
1
 40
1
 40
1
 10
488.785241
 20
553.593623
 30
0.0
 10
486.148131
 20
554.659166
 30
0.0
 10
479.420433
 20
549.151818
 30
0.0
 10
455.535998
 20
526.375865
 30
0.0
  0
SPLINE
  5
2e3
100
AcDbEntity
  8
Layer_1
 62
7
100
AcDbSpline
 70
8
 71
3
 72
8
 73
4
 74
0
 40
0
 40
0
 40
0
 40
0
 40
1
 40
1
 40
1
 40
1
 10
455.535998
 20
526.375865
 30
0.0
 10
428.085496
 20
500.201201
 30
0.0
 10
425.622515
 20
498.019459
 30
0.0
 10
425.622515
 20
498.019459
 30
0.0
  0
LWPOLYLINE
  5
2e4
100
AcDbEntity
  8
Layer_1
 62
7
100
AcDbPolyline
 90
2
 70
0
 10
455.744815
 20
467.720498
 30
0.0
 10
433.794421
 20
489.399415
 30
0.0
  0
LWPOLYLINE
  5
2e5
100
AcDbEntity
  8
Layer_1
 62
7
100
AcDbPolyline
 90
5
 70
0
 10
425.622515
 20
498.019459
 30
0.0
 10
415.057065
 20
508.337229
 30
0.0
 10
521.423852
 20
696.899645
 30
0.0
 10
810.903855
 20
425.056416
 30
0.0
 10
1097.157232
 20
697.019153
 30
0.0
  0
LWPOLYLINE
  5
2e6
100
AcDbEntity
  8
Layer_1
 62
7
100
AcDbPolyline
 90
3
 70
1
 10
1275.630123
 20
656.797374
 30
0.0
 10
1309.399597
 20
623.238287
 30
0.0
 10
1297.043263
 20
611.167572
 30
0.0
  0
LWPOLYLINE
  5
2e7
100
AcDbEntity
  8
Layer_1
 62
7
100
AcDbPolyline
 90
3
 70
1
 10
352.483634
 20
656.927768
 30
0.0
 10
328.961228
 20
594.571119
 30
0.0
 10
310.607603
 20
612.846561
 30
0.0
  0
ENDSEC
  0
SECTION
  2
OBJECTS
  0
DICTIONARY
  5
C
330
0
100
AcDbDictionary
  3
ACAD_GROUP
350
D
  3
ACAD_MLINESTYLE
350
17
  0
DICTIONARY
  5
D
330
C
100
AcDbDictionary
  0
DICTIONARY
  5
1A
330
C
100
AcDbDictionary
  0
DICTIONARY
  5
17
330
C
100
AcDbDictionary
  3
STANDARD
350
18
  0
DICTIONARY
  5
19
330
C
100
AcDbDictionary
  0
ENDSEC
  0
EOF
