0
SECTION
2
HEADER
9
$INSUNITS
70
1
9
$ACADVER
1
AC1014
9
$HANDSEED
5
FFFF
0
ENDSEC
0
SECTION
2
TABLES
0
TABLE
2
VPORT
5
8
100
AcDbSymbolTable
0
ENDTAB
0
TABLE
2
LTYPE
5
5
100
AcDbSymbolTable
0
LTYPE
5
14
100
AcDbSymbolTableRecord
100
AcDbLinetypeTableRecord
2
BYBLOCK
70
0
0
LTYPE
5
15
100
AcDbSymbolTableRecord
100
AcDbLinetypeTableRecord
2
BYLAYER
70
0
0
ENDTAB
0
TABLE
2
LAYER
5
2
100
AcDbSymbolTable
70
2
0
LAYER
5
50
100
AcDbSymbolTableRecord
100
AcDbLayerTableRecord
2
0
70
0
6
CONTINUOUS
0
ENDTAB
0
TABLE
2
STYLE
5
3
100
AcDbSymbolTable
70
1
0
STYLE
5
11
100
AcDbSymbolTableRecord
100
AcDbTextStyleTableRecord
2
STANDARD
70
0
0
ENDTAB
0
TABLE
2
VIEW
5
6
100
AcDbSymbolTable
70
0
0
ENDTAB
0
TABLE
2
UCS
5
7
100
AcDbSymbolTable
70
0
0
ENDTAB
0
TABLE
2
APPID
5
9
100
AcDbSymbolTable
70
2
0
APPID
5
12
100
AcDbSymbolTableRecord
100
AcDbRegAppTableRecord
2
ACAD
70
0
0
ENDTAB
0
TABLE
2
DIMSTYLE
5
A
100
AcDbSymbolTable
70
1
0
ENDTAB
0
TABLE
2
BLOCK_RECORD
5
1
100
AcDbSymbolTable
70
1
0
BLOCK_RECORD
5
1F
100
AcDbSymbolTableRecord
100
AcDbBlockTableRecord
2
*MODEL_SPACE
0
BLOCK_RECORD
5
1B
100
AcDbSymbolTableRecord
100
AcDbBlockTableRecord
2
*PAPER_SPACE
0
ENDTAB
0
ENDSEC
0
SECTION
2
BLOCKS
0
BLOCK
5
20
100
AcDbEntity
100
AcDbBlockBegin
2
*MODEL_SPACE
0
ENDBLK
5
21
100
AcDbEntity
100
AcDbBlockEnd
0
BLOCK
5
1C
100
AcDbEntity
100
AcDbBlockBegin
2
*PAPER_SPACE
0
ENDBLK
5
1D
100
AcDbEntity
100
AcDbBlockEnd
0
ENDSEC
0
SECTION
2
ENTITIES
0
SPLINE
5
100
100
AcDbEntity
8
0
100
AcDbSpline
70
0
71
2
72
6
73
3
74
0
42
0.000000001
43
0.0000000001
44
0.0000000001
40
0
40
0
40
0
40
1
40
1
40
1
10
15.714286682070492
20
4.3693771109386415
30
0
10
15.476197007969391
20
4.3693771109386415
30
0
10
15.250428505666395
20
4.1977574103040682
30
0
0
SPLINE
5
101
100
AcDbEntity
8
0
100
AcDbSpline
70
0
71
2
72
6
73
3
74
0
42
0.000000001
43
0.0000000001
44
0.0000000001
40
0
40
0
40
0
40
1
40
1
40
1
10
15.250428505666395
20
4.1977574103040682
30
0
10
15.024660003363399
20
4.0261377096694941
30
0
10
14.921033902327627
20
3.7214560368448453
30
0
0
SPLINE
5
102
100
AcDbEntity
8
0
100
AcDbSpline
70
0
71
2
72
6
73
3
74
0
42
0.000000001
43
0.0000000001
44
0.0000000001
40
0
40
0
40
0
40
1
40
1
40
1
10
14.921033902327627
20
3.7214560368448453
30
0
10
14.809444620749865
20
3.3933920720010953
30
0
10
14.908052667754625
20
3.1799545035167665
30
0
0
SPLINE
5
103
100
AcDbEntity
8
0
100
AcDbSpline
70
0
71
2
72
6
73
3
74
0
42
0.000000001
43
0.0000000001
44
0.0000000001
40
0
40
0
40
0
40
1
40
1
40
1
10
14.908052667754625
20
3.1799545035167665
30
0
10
15.006661090221712
20
2.9665169350324376
30
0
10
15.247046341004117
20
2.9665169350324376
30
0
0
SPLINE
5
104
100
AcDbEntity
8
0
100
AcDbSpline
70
0
71
2
72
6
73
3
74
0
42
0.000000001
43
0.0000000001
44
0.0000000001
40
0
40
0
40
0
40
1
40
1
40
1
10
15.247046341004117
20
2.9665169350324376
30
0
10
15.404546780745596
20
2.9665169350324376
30
0
10
15.537995103672516
20
3.0538096738192699
30
0
0
SPLINE
5
105
100
AcDbEntity
8
0
100
AcDbSpline
70
0
71
2
72
6
73
3
74
0
42
0.000000001
43
0.0000000001
44
0.0000000001
40
0
40
0
40
0
40
1
40
1
40
1
10
15.537995103672516
20
3.0538096738192699
30
0
10
15.671443426599435
20
3.1411024126061027
30
0
10
15.71245893145149
20
3.2616506008231454
30
0
0
SPLINE
5
106
100
AcDbEntity
8
0
100
AcDbSpline
70
0
71
2
72
6
73
3
74
0
42
0.000000001
43
0.0000000001
44
0.0000000001
40
0
40
0
40
0
40
1
40
1
40
1
10
15.71245893145149
20
3.2616506008231454
30
0
10
15.768608571872718
20
3.4267693589571615
30
0
10
15.55325163996104
20
3.4267693589571615
30
0
0
LINE
5
107
100
AcDbEntity
8
0
100
AcDbLine
10
15.55325163996104
20
3.4267693589571615
30
0
11
15.481276262360078
21
3.4267693589571615
31
0
0
LINE
5
108
100
AcDbEntity
8
0
100
AcDbLine
10
15.481276262360078
20
3.4267693589571615
30
0
11
15.519752140016788
21
3.5398822666671994
31
0
0
LINE
5
109
100
AcDbEntity
8
0
100
AcDbLine
10
15.519752140016788
20
3.5398822666671994
30
0
11
16.210131245231786
21
3.5398822666671994
31
0
0
LINE
5
110
100
AcDbEntity
8
0
100
AcDbLine
10
16.210131245231786
20
3.5398822666671994
30
0
11
16.171858117232894
21
3.4273381843860418
31
0
0
SPLINE
5
111
100
AcDbEntity
8
0
100
AcDbSpline
70
0
71
2
72
6
73
3
74
0
42
0.000000001
43
0.0000000001
44
0.0000000001
40
0
40
0
40
0
40
1
40
1
40
1
10
16.171858117232894
20
3.4273381843860418
30
0
10
16.099070239151338
20
3.4258348332195494
30
0
10
16.056764645735832
20
3.3844230278789249
30
0
0
SPLINE
5
112
100
AcDbEntity
8
0
100
AcDbSpline
70
0
71
2
72
6
73
3
74
0
42
0.000000001
43
0.0000000001
44
0.0000000001
40
0
40
0
40
0
40
1
40
1
40
1
10
16.056764645735832
20
3.3844230278789249
30
0
10
16.014459052320323
20
3.3430114102694652
30
0
10
15.992965335817569
20
3.2798526390849796
30
0
0
LINE
5
113
100
AcDbEntity
8
0
100
AcDbLine
10
15.992965335817567
20
3.2798526390849796
30
0
11
15.805459448568246
21
2.7285894606575916
31
0
0
LINE
5
114
100
AcDbEntity
8
0
100
AcDbLine
10
15.805459448568246
20
2.7285894606575916
30
0
11
15.689157739295517
21
2.7285894606575916
31
0
0
SPLINE
5
115
100
AcDbEntity
8
0
100
AcDbSpline
70
0
71
2
72
6
73
3
74
0
42
0.000000001
43
0.0000000001
44
0.0000000001
40
0
40
0
40
0
40
1
40
1
40
1
10
15.689157739295517
20
2.7285894606575916
30
0
10
15.758857815180958
20
2.9522151994473074
30
0
10
15.620981289542348
20
2.9522151994473074
30
0
0
SPLINE
5
116
100
AcDbEntity
8
0
100
AcDbSpline
70
0
71
2
72
6
73
3
74
0
42
0.000000001
43
0.0000000001
44
0.0000000001
40
0
40
0
40
0
40
1
40
1
40
1
10
15.620981289542348
20
2.9522151994473074
30
0
10
15.555892641985292
20
2.9522151994473074
30
0
10
15.441174632817523
20
2.8883047526795753
30
0
0
SPLINE
5
117
100
AcDbEntity
8
0
100
AcDbSpline
70
0
71
2
72
6
73
3
74
0
42
0.000000001
43
0.0000000001
44
0.0000000001
40
0
40
0
40
0
40
1
40
1
40
1
10
15.441174632817523
20
2.8883047526795753
30
0
10
15.39971232779361
20
2.8662835116041649
30
0
10
15.372063281864413
20
2.8516772760699776
30
0
0
SPLINE
5
118
100
AcDbEntity
8
0
100
AcDbSpline
70
0
71
2
72
6
73
3
74
0
42
0.000000001
43
0.0000000001
44
0.0000000001
40
0
40
0
40
0
40
1
40
1
40
1
10
15.372063281864413
20
2.8516772760699776
30
0
10
15.159611301994481
20
2.7506921770584589
30
0
10
15.000404010504031
20
2.7506921770584589
30
0
0
SPLINE
5
119
100
AcDbEntity
8
0
100
AcDbSpline
70
0
71
2
72
6
73
3
74
0
42
0.000000001
43
0.0000000001
44
0.0000000001
40
0
40
0
40
0
40
1
40
1
40
1
10
15.000404010504031
20
2.7506921770584589
30
0
10
14.828093459183558
20
2.7506921770584589
30
0
10
14.697377751089238
20
2.8572941925162127
30
0
0
SPLINE
5
120
100
AcDbEntity
8
0
100
AcDbSpline
70
0
71
2
72
6
73
3
74
0
42
0.000000001
43
0.0000000001
44
0.0000000001
40
0
40
0
40
0
40
1
40
1
40
1
10
14.697377751089238
20
2.8572941925162127
30
0
10
14.566662042994921
20
2.963896207973967
30
0
10
14.539745148607848
20
3.1401273369369265
30
0
0
SPLINE
5
121
100
AcDbEntity
8
0
100
AcDbSpline
70
0
71
2
72
6
73
3
74
0
42
0.000000001
43
0.0000000001
44
0.0000000001
40
0
40
0
40
0
40
1
40
1
40
1
10
14.539745148607848
20
3.1401273369369265
30
0
10
14.512827878758445
20
3.3163584658998864
30
0
10
14.587931983949414
20
3.5372007147113829
30
0
0
SPLINE
5
122
100
AcDbEntity
8
0
100
AcDbSpline
70
0
71
2
72
6
73
3
74
0
42
0.000000001
43
0.0000000001
44
0.0000000001
40
0
40
0
40
0
40
1
40
1
40
1
10
14.587931983949414
20
3.5372007147113829
30
0
10
14.681461152025816
20
3.8121821909019049
30
0
10
14.888266178463169
20
4.0356147543231993
30
0
0
SPLINE
5
123
100
AcDbEntity
8
0
100
AcDbSpline
70
0
71
2
72
6
73
3
74
0
42
0.000000001
43
0.0000000001
44
0.0000000001
40
0
40
0
40
0
40
1
40
1
40
1
10
14.888266178463169
20
4.0356147543231993
30
0
10
15.095071204900524
20
4.2590473177444936
30
0
10
15.352612080433019
20
4.3824700455546104
30
0
0
SPLINE
5
124
100
AcDbEntity
8
0
100
AcDbSpline
70
0
71
2
72
6
73
3
74
0
42
0.000000001
43
0.0000000001
44
0.0000000001
40
0
40
0
40
0
40
1
40
1
40
1
10
15.352612080433019
20
4.3824700455546104
30
0
10
15.610152955965516
20
4.5058927733647263
30
0
10
15.879466828295348
20
4.5058927733647263
30
0
0
SPLINE
5
125
100
AcDbEntity
8
0
100
AcDbSpline
70
0
71
2
72
6
73
3
74
0
42
0.000000001
43
0.0000000001
44
0.0000000001
40
0
40
0
40
0
40
1
40
1
40
1
10
15.879466828295348
20
4.5058927733647263
30
0
10
16.087206380470313
20
4.5058927733647263
30
0
10
16.340247715448552
20
4.4193517101611395
30
0
0
LINE
5
126
100
AcDbEntity
8
0
100
AcDbLine
10
16.340247715448552
20
4.4193517101611395
30
0
11
16.193676233188157
21
3.9884334070994818
31
0
0
LINE
5
127
100
AcDbEntity
8
0
100
AcDbLine
10
16.193676233188157
20
3.9884334070994818
30
0
11
16.049461903431066
21
3.9884334070994818
31
0
0
SPLINE
5
128
100
AcDbEntity
8
0
100
AcDbSpline
70
0
71
2
72
6
73
3
74
0
42
0.000000001
43
0.0000000001
44
0.0000000001
40
0
40
0
40
0
40
1
40
1
40
1
10
16.049461903431066
20
3.9884334070994818
30
0
10
16.092426808696814
20
4.1822369239980501
30
0
10
15.993067461571137
20
4.2758070174683454
30
0
0
SPLINE
5
129
100
AcDbEntity
8
0
100
AcDbSpline
70
0
71
2
72
6
73
3
74
0
42
0.000000001
43
0.0000000001
44
0.0000000001
40
0
40
0
40
0
40
1
40
1
40
1
10
15.993067461571137
20
4.2758070174683454
30
0
10
15.893708114445461
20
4.3693771109386415
30
0
10
15.714286682070492
20
4.3693771109386415
30
0
0
LINE
5
130
100
AcDbEntity
8
0
100
AcDbLine
10
14.012266382354234
20
2.898949485177384
30
0
11
13.974217029903599
21
2.7870962535821269
31
0
0
LINE
5
131
100
AcDbEntity
8
0
100
AcDbLine
10
13.974217029903599
20
2.7870962535821269
30
0
11
13.298139660273732
21
2.7870962535821269
31
0
0
LINE
5
132
100
AcDbEntity
8
0
100
AcDbLine
10
13.298139660273732
20
2.7870962535821269
30
0
11
13.336371862878732
21
2.8995183106062643
31
0
0
SPLINE
5
133
100
AcDbEntity
8
0
100
AcDbSpline
70
0
71
2
72
6
73
3
74
0
42
0.000000001
43
0.0000000001
44
0.0000000001
40
0
40
0
40
0
40
1
40
1
40
1
10
13.336371862878732
20
2.8995183106062643
30
0
10
13.465919883128947
20
2.9009405619096289
30
0
10
13.510073877591569
20
2.9356888495611115
30
0
0
SPLINE
5
134
100
AcDbEntity
8
0
100
AcDbSpline
70
0
71
2
72
6
73
3
74
0
42
0.000000001
43
0.0000000001
44
0.0000000001
40
0
40
0
40
0
40
1
40
1
40
1
10
13.510073877591569
20
2.9356888495611115
30
0
10
13.554228247516519
20
2.9704375126749234
30
0
10
13.590043223645525
20
3.0757291646034419
30
0
0
LINE
5
135
100
AcDbEntity
8
0
100
AcDbLine
10
13.590043223645525
20
3.0757291646034419
30
0
11
13.96592832352211
21
4.180855598088578
31
0
0
SPLINE
5
136
100
AcDbEntity
8
0
100
AcDbSpline
70
0
71
2
72
6
73
3
74
0
42
0.000000001
43
0.0000000001
44
0.0000000001
40
0
40
0
40
0
40
1
40
1
40
1
10
13.96592832352211
20
4.180855598088578
30
0
10
14.003876301143833
20
4.2924246047005603
30
0
10
13.978869008163549
20
4.3232320397437745
30
0
0
SPLINE
5
137
100
AcDbEntity
8
0
100
AcDbSpline
70
0
71
2
72
6
73
3
74
0
42
0.000000001
43
0.0000000001
44
0.0000000001
40
0
40
0
40
0
40
1
40
1
40
1
10
13.978869008163549
20
4.3232320397437745
30
0
10
13.953861339720936
20
4.3540394747869895
30
0
10
13.832114675748787
20
4.3569849767602991
30
0
0
LINE
5
138
100
AcDbEntity
8
0
100
AcDbLine
10
13.832114675748791
20
4.3569849767602991
30
0
11
13.870387803747681
21
4.469488509109893
31
0
0
LINE
5
139
100
AcDbEntity
8
0
100
AcDbLine
10
13.870387803747681
20
4.469488509109893
30
0
11
14.546465173377548
21
4.469488509109893
31
0
0
LINE
5
140
100
AcDbEntity
8
0
100
AcDbLine
10
14.546465173377548
20
4.469488509109893
30
0
11
14.508192045378655
21
4.3569849767602991
31
0
0
SPLINE
5
141
100
AcDbEntity
8
0
100
AcDbSpline
70
0
71
2
72
6
73
3
74
0
42
0.000000001
43
0.0000000001
44
0.0000000001
40
0
40
0
40
0
40
1
40
1
40
1
10
14.508192045378655
20
4.3569849767602991
30
0
10
14.377709874853156
20
4.3540800247185532
30
0
10
14.334134467839977
20
4.3203777751164836
30
0
0
SPLINE
5
142
100
AcDbEntity
8
0
100
AcDbSpline
70
0
71
2
72
6
73
3
74
0
42
0.000000001
43
0.0000000001
44
0.0000000001
40
0
40
0
40
0
40
1
40
1
40
1
10
14.334134467839977
20
4.3203777751164836
30
0
10
14.290559060826798
20
4.2866755255144131
30
0
10
14.254561234543425
20
4.180855598088578
30
0
0
LINE
5
143
100
AcDbEntity
8
0
100
AcDbLine
10
14.254561234543425
20
4.180855598088578
30
0
11
13.878676134666842
21
3.0757291646034419
31
0
0
SPLINE
5
144
100
AcDbEntity
8
0
100
AcDbSpline
70
0
71
2
72
6
73
3
74
0
42
0.000000001
43
0.0000000001
44
0.0000000001
40
0
40
0
40
0
40
1
40
1
40
1
10
13.878676134666842
20
3.0757291646034419
30
0
10
13.820657067308058
20
2.9051457399977196
30
0
10
14.012266382354234
20
2.898949485177384
30
0
0
LINE
5
145
100
AcDbEntity
8
0
100
AcDbLine
10
18.272801134426544
20
4.180855598088578
30
0
11
17.896915283625301
21
3.0757291646034419
31
0
0
SPLINE
5
146
100
AcDbEntity
8
0
100
AcDbSpline
70
0
71
2
72
6
73
3
74
0
42
0.000000001
43
0.0000000001
44
0.0000000001
40
0
40
0
40
0
40
1
40
1
40
1
10
17.896915283625301
20
3.0757291646034419
30
0
10
17.858398856037027
20
2.9625351570302767
30
0
10
17.883548824702444
20
2.931737859469953
30
0
0
SPLINE
5
147
100
AcDbEntity
8
0
100
AcDbSpline
70
0
71
2
72
6
73
3
74
0
42
0.000000001
43
0.0000000001
44
0.0000000001
40
0
40
0
40
0
40
1
40
1
40
1
10
17.883548824702444
20
2.931737859469953
30
0
10
17.908698042443199
20
2.9009405619096289
30
0
10
18.030688006004731
20
2.8994777606747002
30
0
0
LINE
5
148
100
AcDbEntity
8
0
100
AcDbLine
10
18.030688006004731
20
2.8994777606747002
30
0
11
17.992455427937401
21
2.7870962535821269
31
0
0
LINE
5
149
100
AcDbEntity
8
0
100
AcDbLine
10
17.992455427937401
20
2.7870962535821269
30
0
11
17.316378433769863
21
2.7870962535821269
31
0
0
LINE
5
150
100
AcDbEntity
8
0
100
AcDbLine
10
17.316378433769863
20
2.7870962535821269
30
0
11
17.354611011837193
21
2.8995183106062643
31
0
0
SPLINE
5
151
100
AcDbEntity
8
0
100
AcDbSpline
70
0
71
2
72
6
73
3
74
0
42
0.000000001
43
0.0000000001
44
0.0000000001
40
0
40
0
40
0
40
1
40
1
40
1
10
17.354611011837193
20
2.8995183106062643
30
0
10
17.48145720516581
20
2.9009405619096289
30
0
10
17.52707437632569
20
2.9360139999382802
30
0
0
SPLINE
5
152
100
AcDbEntity
8
0
100
AcDbSpline
70
0
71
2
72
6
73
3
74
0
42
0.000000001
43
0.0000000001
44
0.0000000001
40
0
40
0
40
0
40
1
40
1
40
1
10
17.52707437632569
20
2.9360139999382802
30
0
10
17.572690796560909
20
2.971087437966931
30
0
10
17.608282372603988
20
3.0757291646034419
30
0
0
LINE
5
153
100
AcDbEntity
8
0
100
AcDbLine
10
17.608282372603991
20
3.0757291646034419
30
0
11
17.799750138352017
21
3.6386936265232714
31
0
0
LINE
5
154
100
AcDbEntity
8
0
100
AcDbLine
10
17.799750138352017
20
3.6386936265232714
30
0
11
17.075567408706043
21
3.6386936265232714
31
0
0
LINE
5
155
100
AcDbEntity
8
0
100
AcDbLine
10
17.075567408706043
20
3.6386936265232714
30
0
11
16.884099642958009
21
3.0757291646034419
31
0
0
SPLINE
5
156
100
AcDbEntity
8
0
100
AcDbSpline
70
0
71
2
72
6
73
3
74
0
42
0.000000001
43
0.0000000001
44
0.0000000001
40
0
40
0
40
0
40
1
40
1
40
1
10
16.884099642958009
20
3.0757291646034419
30
0
10
16.825694224862385
20
2.9040283641057414
30
0
10
17.017731191501625
20
2.8991120603659684
30
0
0
LINE
5
157
100
AcDbEntity
8
0
100
AcDbLine
10
17.017731191501625
20
2.8991120603659679
30
0
11
16.979640538194769
21
2.7870962535821269
31
0
0
LINE
5
158
100
AcDbEntity
8
0
100
AcDbLine
10
16.979640538194769
20
2.7870962535821269
30
0
11
16.303562793102572
21
2.7870962535821269
31
0
0
LINE
5
159
100
AcDbEntity
8
0
100
AcDbLine
10
16.303562793102572
20
2.7870962535821269
30
0
11
16.341795371169901
21
2.8995183106062643
31
0
0
SPLINE
5
160
100
AcDbEntity
8
0
100
AcDbSpline
70
0
71
2
72
6
73
3
74
0
42
0.000000001
43
0.0000000001
44
0.0000000001
40
0
40
0
40
0
40
1
40
1
40
1
10
16.341795371169901
20
2.8995183106062643
30
0
10
16.470205740562356
20
2.9009405619096289
30
0
10
16.514949586344297
20
2.9357500499207863
30
0
0
SPLINE
5
161
100
AcDbEntity
8
0
100
AcDbSpline
70
0
71
2
72
6
73
3
74
0
42
0.000000001
43
0.0000000001
44
0.0000000001
40
0
40
0
40
0
40
1
40
1
40
1
10
16.514949586344297
20
2.9357500499207863
30
0
10
16.559692681201582
20
2.970559537931944
30
0
10
16.595466731936696
20
3.0757291646034419
30
0
0
LINE
5
162
100
AcDbEntity
8
0
100
AcDbLine
10
16.595466731936693
20
3.0757291646034419
30
0
11
16.97135183181328
21
4.180855598088578
31
0
0
SPLINE
5
163
100
AcDbEntity
8
0
100
AcDbSpline
70
0
71
2
72
6
73
3
74
0
42
0.000000001
43
0.0000000001
44
0.0000000001
40
0
40
0
40
0
40
1
40
1
40
1
10
16.97135183181328
20
4.180855598088578
30
0
10
17.009259259503441
20
4.2923025794435397
30
0
10
16.983693278577167
20
4.3231710271152641
30
0
0
SPLINE
5
164
100
AcDbEntity
8
0
100
AcDbSpline
70
0
71
2
72
6
73
3
74
0
42
0.000000001
43
0.0000000001
44
0.0000000001
40
0
40
0
40
0
40
1
40
1
40
1
10
16.983693278577167
20
4.3231710271152641
30
0
10
16.958127297650893
20
4.3540394747869895
30
0
10
16.837537808577629
20
4.3569849767602991
30
0
0
LINE
5
165
100
AcDbEntity
8
0
100
AcDbLine
10
16.837537808577629
20
4.3569849767602991
30
0
11
16.875810936576521
21
4.469488509109893
31
0
0
LINE
5
166
100
AcDbEntity
8
0
100
AcDbLine
10
16.875810936576521
20
4.469488509109893
30
0
11
17.551888681668718
21
4.469488509109893
31
0
0
LINE
5
167
100
AcDbEntity
8
0
100
AcDbLine
10
17.551888681668718
20
4.469488509109893
30
0
11
17.513615553669823
21
4.3569849767602991
31
0
0
SPLINE
5
168
100
AcDbEntity
8
0
100
AcDbSpline
70
0
71
2
72
6
73
3
74
0
42
0.000000001
43
0.0000000001
44
0.0000000001
40
0
40
0
40
0
40
1
40
1
40
1
10
17.513615553669823
20
4.3569849767602991
30
0
10
17.382869808589163
20
4.3540800247185532
30
0
10
17.339304163596545
20
4.3200222122906418
30
0
0
SPLINE
5
169
100
AcDbEntity
8
0
100
AcDbSpline
70
0
71
2
72
6
73
3
74
0
42
0.000000001
43
0.0000000001
44
0.0000000001
40
0
40
0
40
0
40
1
40
1
40
1
10
17.339304163596545
20
4.3200222122906418
30
0
10
17.295738518603926
20
4.2859643998627313
30
0
10
17.259985493759253
20
4.180855598088578
30
0
0
LINE
5
170
100
AcDbEntity
8
0
100
AcDbLine
10
17.259985493759253
20
4.180855598088578
30
0
11
17.120239165720758
21
3.7700085724951435
31
0
0
LINE
5
171
100
AcDbEntity
8
0
100
AcDbLine
10
17.120239165720758
20
3.7700085724951435
30
0
11
17.844421895366736
21
3.7700085724951435
31
0
0
LINE
5
172
100
AcDbEntity
8
0
100
AcDbLine
10
17.844421895366736
20
3.7700085724951435
30
0
11
17.984168223405231
21
4.180855598088578
31
0
0
SPLINE
5
173
100
AcDbEntity
8
0
100
AcDbSpline
70
0
71
2
72
6
73
3
74
0
42
0.000000001
43
0.0000000001
44
0.0000000001
40
0
40
0
40
0
40
1
40
1
40
1
10
17.984168223405231
20
4.180855598088578
30
0
10
18.022074900170733
20
4.2923025794435397
30
0
10
17.996508919244459
20
4.3231710271152641
30
0
0
SPLINE
5
174
100
AcDbEntity
8
0
100
AcDbSpline
70
0
71
2
72
6
73
3
74
0
42
0.000000001
43
0.0000000001
44
0.0000000001
40
0
40
0
40
0
40
1
40
1
40
1
10
17.996508919244459
20
4.3231710271152641
30
0
10
17.970942938318185
20
4.3540394747869895
30
0
10
17.850353449244921
20
4.3569849767602991
30
0
0
LINE
5
175
100
AcDbEntity
8
0
100
AcDbLine
10
17.850353449244921
20
4.3569849767602991
30
0
11
17.888626577243812
21
4.469488509109893
31
0
0
LINE
5
176
100
AcDbEntity
8
0
100
AcDbLine
10
17.888626577243812
20
4.469488509109893
30
0
11
18.56470357141135
21
4.469488509109893
31
0
0
LINE
5
177
100
AcDbEntity
8
0
100
AcDbLine
10
18.56470357141135
20
4.469488509109893
30
0
11
18.526430443412458
21
4.3569849767602991
31
0
0
SPLINE
5
178
100
AcDbEntity
8
0
100
AcDbSpline
70
0
71
2
72
6
73
3
74
0
42
0.000000001
43
0.0000000001
44
0.0000000001
40
0
40
0
40
0
40
1
40
1
40
1
10
18.526430443412458
20
4.3569849767602991
30
0
10
18.395685449256455
20
4.3540800247185532
30
0
10
18.352119804263836
20
4.3200222122906418
30
0
0
SPLINE
5
179
100
AcDbEntity
8
0
100
AcDbSpline
70
0
71
2
72
6
73
3
74
0
42
0.000000001
43
0.0000000001
44
0.0000000001
40
0
40
0
40
0
40
1
40
1
40
1
10
18.352119804263836
20
4.3200222122906418
30
0
10
18.308554159271218
20
4.2859643998627313
30
0
10
18.272801134426544
20
4.180855598088578
30
0
0
SPLINE
5
180
100
AcDbEntity
8
0
100
AcDbSpline
70
0
71
2
72
6
73
3
74
0
42
0.000000001
43
0.0000000001
44
0.0000000001
40
0
40
0
40
0
40
1
40
1
40
1
10
12.4782699805449
20
2.9002091612921648
30
0
10
12.843246022443854
20
2.9002091612921648
30
0
10
13.053971626523694
20
3.3058556581625509
30
0
0
LINE
5
181
100
AcDbEntity
8
0
100
AcDbLine
10
13.05397162652369
20
3.3058556581625509
30
0
11
13.19532192963293
21
3.3058556581625509
31
0
0
LINE
5
182
100
AcDbEntity
8
0
100
AcDbLine
10
13.19532192963293
20
3.3058556581625509
30
0
11
12.884159777004671
21
2.7272892346112467
31
0
0
LINE
5
183
100
AcDbEntity
8
0
100
AcDbLine
10
12.884159777004671
20
2.7272892346112467
30
0
11
12.778055624595559
21
2.7272892346112467
31
0
0
SPLINE
5
184
100
AcDbEntity
8
0
100
AcDbSpline
70
0
71
2
72
6
73
3
74
0
42
0.000000001
43
0.0000000001
44
0.0000000001
40
0
40
0
40
0
40
1
40
1
40
1
10
12.778055624595559
20
2.7272892346112467
30
0
10
12.797111088731878
20
2.7870962535821269
30
0
10
12.768954417733479
20
2.7870962535821269
30
0
0
LINE
5
185
100
AcDbEntity
8
0
100
AcDbLine
10
12.768954417733479
20
2.7870962535821269
30
0
11
11.81883047311303
21
2.7870962535821269
31
0
0
LINE
5
186
100
AcDbEntity
8
0
100
AcDbLine
10
11.81883047311303
20
2.7870962535821269
30
0
11
11.857062863449194
21
2.8995183106062643
31
0
0
SPLINE
5
187
100
AcDbEntity
8
0
100
AcDbSpline
70
0
71
2
72
6
73
3
74
0
42
0.000000001
43
0.0000000001
44
0.0000000001
40
0
40
0
40
0
40
1
40
1
40
1
10
11.857062863449194
20
2.8995183106062643
30
0
10
11.985472857379319
20
2.9009405619096289
30
0
10
12.030216327698932
20
2.9357500499207863
30
0
0
SPLINE
5
188
100
AcDbEntity
8
0
100
AcDbSpline
70
0
71
2
72
6
73
3
74
0
42
0.000000001
43
0.0000000001
44
0.0000000001
40
0
40
0
40
0
40
1
40
1
40
1
10
12.030216327698932
20
2.9357500499207863
30
0
10
12.07495961028738
20
2.970559537931944
30
0
10
12.110734036484823
20
3.0757291646034419
30
0
0
LINE
5
189
100
AcDbEntity
8
0
100
AcDbLine
10
12.110734036484823
20
3.0757291646034419
30
0
11
12.486619136361407
21
4.180855598088578
31
0
0
SPLINE
5
190
100
AcDbEntity
8
0
100
AcDbSpline
70
0
71
2
72
6
73
3
74
0
42
0.000000001
43
0.0000000001
44
0.0000000001
40
0
40
0
40
0
40
1
40
1
40
1
10
12.486619136361407
20
4.180855598088578
30
0
10
12.52422206410251
20
4.2913885164028738
30
0
10
12.49915357076255
20
4.322734176695131
30
0
0
SPLINE
5
191
100
AcDbEntity
8
0
100
AcDbSpline
70
0
71
2
72
6
73
3
74
0
42
0.000000001
43
0.0000000001
44
0.0000000001
40
0
40
0
40
0
40
1
40
1
40
1
10
12.49915357076255
20
4.322734176695131
30
0
10
12.474085077422592
20
4.3540800247185532
30
0
10
12.352805488588084
20
4.3569647017945172
30
0
0
LINE
5
192
100
AcDbEntity
8
0
100
AcDbLine
10
12.352805488588084
20
4.3569647017945172
30
0
11
12.391078616586977
21
4.469488509109893
31
0
0
LINE
5
193
100
AcDbEntity
8
0
100
AcDbLine
10
12.391078616586977
20
4.469488509109893
30
0
11
13.067155986216846
21
4.469488509109893
31
0
0
LINE
5
194
100
AcDbEntity
8
0
100
AcDbLine
10
13.067155986216846
20
4.469488509109893
30
0
11
13.028882858217953
21
4.3569647017945172
31
0
0
SPLINE
5
195
100
AcDbEntity
8
0
100
AcDbSpline
70
0
71
2
72
6
73
3
74
0
42
0.000000001
43
0.0000000001
44
0.0000000001
40
0
40
0
40
0
40
1
40
1
40
1
10
13.028882858217953
20
4.3569647017945172
30
0
10
12.89732386173204
20
4.3540800247185532
30
0
10
12.854642430524908
20
4.3214442758628424
30
0
0
SPLINE
5
196
100
AcDbEntity
8
0
100
AcDbSpline
70
0
71
2
72
6
73
3
74
0
42
0.000000001
43
0.0000000001
44
0.0000000001
40
0
40
0
40
0
40
1
40
1
40
1
10
12.854642430524908
20
4.3214442758628424
30
0
10
12.811960999317778
20
4.2888085270071317
30
0
10
12.775252047382724
20
4.180855598088578
30
0
0
LINE
5
197
100
AcDbEntity
8
0
100
AcDbLine
10
12.775252047382725
20
4.180855598088578
30
0
11
12.339661678826497
21
2.9002091612921648
31
0
0
LINE
5
198
100
AcDbEntity
8
0
100
AcDbLine
10
12.339661678826497
20
2.9002091612921648
30
0
11
12.4782699805449
21
2.9002091612921648
31
0
0
SPLINE
5
199
100
AcDbEntity
8
0
100
AcDbSpline
70
0
71
2
72
6
73
3
74
0
42
0.000000001
43
0.0000000001
44
0.0000000001
40
0
40
0
40
0
40
1
40
1
40
1
10
19.947843714858386
20
3.9910338591921706
30
0
10
20.068289026397203
20
4.356375601399856
30
0
10
19.710321739799177
20
4.356375601399856
30
0
0
LINE
5
200
100
AcDbEntity
8
0
100
AcDbLine
10
19.710321739799177
20
4.356375601399856
30
0
11
19.668798609877918
21
4.356375601399856
31
0
0
LINE
5
201
100
AcDbEntity
8
0
100
AcDbLine
10
19.668798609877918
20
4.356375601399856
30
0
11
19.233208241321691
21
3.0757291646034415
31
0
0
SPLINE
5
202
100
AcDbEntity
8
0
100
AcDbSpline
70
0
71
2
72
6
73
3
74
0
42
0.000000001
43
0.0000000001
44
0.0000000001
40
0
40
0
40
0
40
1
40
1
40
1
10
19.233208241321691
20
3.0757291646034415
30
0
10
19.174802823226063
20
2.9040283641057405
30
0
10
19.366839789865306
20
2.8991120603659675
30
0
0
LINE
5
203
100
AcDbEntity
8
0
100
AcDbLine
10
19.366839789865306
20
2.899112060365967
30
0
11
19.328748385633791
21
2.7870962535821264
31
0
0
LINE
5
204
100
AcDbEntity
8
0
100
AcDbLine
10
19.328748385633791
20
2.7870962535821264
30
0
11
18.652671391466253
21
2.7870962535821264
31
0
0
LINE
5
205
100
AcDbEntity
8
0
100
AcDbLine
10
18.652671391466253
20
2.7870962535821264
30
0
11
18.690903969533583
21
2.8995183106062634
31
0
0
SPLINE
5
206
100
AcDbEntity
8
0
100
AcDbSpline
70
0
71
2
72
6
73
3
74
0
42
0.000000001
43
0.0000000001
44
0.0000000001
40
0
40
0
40
0
40
1
40
1
40
1
10
18.690903969533583
20
2.8995183106062634
30
0
10
18.820451989783798
20
2.9009405619096285
30
0
10
18.864606359708748
20
2.9356888495611111
30
0
0
SPLINE
5
207
100
AcDbEntity
8
0
100
AcDbSpline
70
0
71
2
72
6
73
3
74
0
42
0.000000001
43
0.0000000001
44
0.0000000001
40
0
40
0
40
0
40
1
40
1
40
1
10
18.864606359708748
20
2.9356888495611111
30
0
10
18.908760729633698
20
2.9704375126749225
30
0
10
18.944575330300374
20
3.0757291646034415
30
0
0
LINE
5
208
100
AcDbEntity
8
0
100
AcDbLine
10
18.944575330300374
20
3.0757291646034415
30
0
11
19.380165698856601
21
4.3563756013998551
31
0
0
LINE
5
209
100
AcDbEntity
8
0
100
AcDbLine
10
19.380165698856601
20
4.3563756013998551
30
0
11
19.318226429317662
21
4.356375601399856
31
0
0
SPLINE
5
210
100
AcDbEntity
8
0
100
AcDbSpline
70
0
71
2
72
6
73
3
74
0
42
0.000000001
43
0.0000000001
44
0.0000000001
40
0
40
0
40
0
40
1
40
1
40
1
10
19.318226429317662
20
4.356375601399856
30
0
10
18.991299364407013
20
4.356375601399856
30
0
10
18.85555621572345
20
3.9910338591921706
30
0
0
LINE
5
211
100
AcDbEntity
8
0
100
AcDbLine
10
18.85555621572345
20
3.9910338591921706
30
0
11
18.713738086551913
21
3.9910338591921706
31
0
0
LINE
5
212
100
AcDbEntity
8
0
100
AcDbLine
10
18.713738086551913
20
3.9910338591921706
30
0
11
18.895921419821168
21
4.5266950759880844
31
0
0
LINE
5
213
100
AcDbEntity
8
0
100
AcDbLine
10
18.895921419821168
20
4.5266950759880844
30
0
11
18.998328019211392
21
4.5266950759880844
31
0
0
SPLINE
5
214
100
AcDbEntity
8
0
100
AcDbSpline
70
0
71
2
72
6
73
3
74
0
42
0.000000001
43
0.0000000001
44
0.0000000001
40
0
40
0
40
0
40
1
40
1
40
1
10
18.998328019211392
20
4.5266950759880844
30
0
10
18.99546399256354
20
4.469488509109893
30
0
10
19.008141102649816
20
4.469488509109893
30
0
0
LINE
5
215
100
AcDbEntity
8
0
100
AcDbLine
10
19.008141102649816
20
4.469488509109893
30
0
11
20.122855717638128
21
4.469488509109893
31
0
0
SPLINE
5
216
100
AcDbEntity
8
0
100
AcDbSpline
70
0
71
2
72
6
73
3
74
0
42
0.000000001
43
0.0000000001
44
0.0000000001
40
0
40
0
40
0
40
1
40
1
40
1
10
20.122855717638128
20
4.469488509109893
30
0
10
20.140224604991261
20
4.469488509109893
30
0
10
20.159666044402091
20
4.5266950759880844
30
0
0
LINE
5
217
100
AcDbEntity
8
0
100
AcDbLine
10
20.159666044402091
20
4.5266950759880844
30
0
11
20.274078427233814
21
4.5266950759880844
31
0
0
LINE
5
218
100
AcDbEntity
8
0
100
AcDbLine
10
20.274078427233814
20
4.5266950759880844
30
0
11
20.09189509396456
21
3.9910338591921706
31
0
0
LINE
5
219
100
AcDbEntity
8
0
100
AcDbLine
10
20.09189509396456
20
3.9910338591921706
30
0
11
19.947843714858386
21
3.9910338591921706
31
0
0
SPLINE
5
220
100
AcDbEntity
8
0
100
AcDbSpline
70
0
71
2
72
6
73
3
74
0
42
0.000000001
43
0.0000000001
44
0.0000000001
40
0
40
0
40
0
40
1
40
1
40
1
10
15.99219509450446
20
6.213627395837138
30
0
10
15.889848059010296
20
6.3384845437795008
30
0
10
15.51634459066763
20
6.5854406565815493
30
0
0
SPLINE
5
221
100
AcDbEntity
8
0
100
AcDbSpline
70
0
71
2
72
6
73
3
74
0
42
0.000000001
43
0.0000000001
44
0.0000000001
40
0
40
0
40
0
40
1
40
1
40
1
10
15.51634459066763
20
6.5854406565815493
30
0
10
15.30903110097184
20
6.7215389841957531
30
0
10
15.127508714887362
20
6.8668061184512217
30
0
0
SPLINE
5
222
100
AcDbEntity
8
0
100
AcDbSpline
70
0
71
2
72
6
73
3
74
0
42
0.000000001
43
0.0000000001
44
0.0000000001
40
0
40
0
40
0
40
1
40
1
40
1
10
15.127508714887362
20
6.8668061184512217
30
0
10
15.031171798172952
20
6.958432673163113
30
0
10
14.980146645396669
20
7.0663838423287473
30
0
0
SPLINE
5
223
100
AcDbEntity
8
0
100
AcDbSpline
70
0
71
2
72
6
73
3
74
0
42
0.000000001
43
0.0000000001
44
0.0000000001
40
0
40
0
40
0
40
1
40
1
40
1
10
14.980146645396669
20
7.0663838423287473
30
0
10
14.929120366233434
20
7.1743350111985134
30
0
10
14.929088879384327
20
7.294206987625163
30
0
0
SPLINE
5
224
100
AcDbEntity
8
0
100
AcDbSpline
70
0
71
2
72
6
73
3
74
0
42
0.000000001
43
0.0000000001
44
0.0000000001
40
0
40
0
40
0
40
1
40
1
40
1
10
14.929088879384327
20
7.294206987625163
30
0
10
14.929008112088137
20
7.6016920393238863
30
0
10
15.20747959671521
20
7.8286760398755924
30
0
0
SPLINE
5
225
100
AcDbEntity
8
0
100
AcDbSpline
70
0
71
2
72
6
73
3
74
0
42
0.000000001
43
0.0000000001
44
0.0000000001
40
0
40
0
40
0
40
1
40
1
40
1
10
15.20747959671521
20
7.8286760398755924
30
0
10
15.485950705929278
20
8.0556598525975165
30
0
10
15.856133271178015
20
8.0557570886898979
30
0
0
SPLINE
5
226
100
AcDbEntity
8
0
100
AcDbSpline
70
0
71
2
72
6
73
3
74
0
42
0.000000001
43
0.0000000001
44
0.0000000001
40
0
40
0
40
0
40
1
40
1
40
1
10
15.856133271178015
20
8.0557570886898979
30
0
10
16.041000402799529
20
8.0558056478582003
30
0
10
16.375427065701849
20
7.9410654683331456
30
0
0
LINE
5
227
100
AcDbEntity
8
0
100
AcDbLine
10
16.375427065701853
20
7.9410654683331456
30
0
11
16.37560995773034
21
7.2447865598269727
31
0
0
LINE
5
228
100
AcDbEntity
8
0
100
AcDbLine
10
16.37560995773034
20
7.2447865598269727
30
0
11
16.147103592005134
21
7.2447265379129959
31
0
0
SPLINE
5
229
100
AcDbEntity
8
0
100
AcDbSpline
70
0
71
2
72
6
73
3
74
0
42
0.000000001
43
0.0000000001
44
0.0000000001
40
0
40
0
40
0
40
1
40
1
40
1
10
16.147103592005134
20
7.2447265379129959
30
0
10
16.129502998574758
20
7.5293499666587875
30
0
10
15.994825532587548
20
7.6832487069593123
30
0
0
SPLINE
5
230
100
AcDbEntity
8
0
100
AcDbSpline
70
0
71
2
72
6
73
3
74
0
42
0.000000001
43
0.0000000001
44
0.0000000001
40
0
40
0
40
0
40
1
40
1
40
1
10
15.994825532587548
20
7.6832487069593123
30
0
10
15.860148817524969
20
7.8371474474570837
30
0
10
15.670524578355419
20
7.8370976387362834
30
0
0
SPLINE
5
231
100
AcDbEntity
8
0
100
AcDbSpline
70
0
71
2
72
6
73
3
74
0
42
0.000000001
43
0.0000000001
44
0.0000000001
40
0
40
0
40
0
40
1
40
1
40
1
10
15.670524578355419
20
7.8370976387362834
30
0
10
15.516781770909319
20
7.8370572550142192
30
0
10
15.418003926503355
20
7.7444697041273356
30
0
0
SPLINE
5
232
100
AcDbEntity
8
0
100
AcDbSpline
70
0
71
2
72
6
73
3
74
0
42
0.000000001
43
0.0000000001
44
0.0000000001
40
0
40
0
40
0
40
1
40
1
40
1
10
15.418003926503355
20
7.7444697041273356
30
0
10
15.319225331123443
20
7.6518823407743621
30
0
10
15.319262771542846
20
7.509344830697148
30
0
0
SPLINE
5
233
100
AcDbEntity
8
0
100
AcDbSpline
70
0
71
2
72
6
73
3
74
0
42
0.000000001
43
0.0000000001
44
0.0000000001
40
0
40
0
40
0
40
1
40
1
40
1
10
15.319262771542846
20
7.509344830697148
30
0
10
15.319299331506055
20
7.3701592604490695
30
0
10
15.392016884803535
20
7.2633949937689311
30
0
0
SPLINE
5
234
100
AcDbEntity
8
0
100
AcDbSpline
70
0
71
2
72
6
73
3
74
0
42
0.000000001
43
0.0000000001
44
0.0000000001
40
0
40
0
40
0
40
1
40
1
40
1
10
15.392016884803535
20
7.2633949937689311
30
0
10
15.527568915186691
20
7.1190734011544796
30
0
10
15.937217427326942
20
6.8433958409721081
30
0
0
SPLINE
5
235
100
AcDbEntity
8
0
100
AcDbSpline
70
0
71
2
72
6
73
3
74
0
42
0.000000001
43
0.0000000001
44
0.0000000001
40
0
40
0
40
0
40
1
40
1
40
1
10
15.937217427326942
20
6.8433958409721081
30
0
10
16.257400507127482
20
6.6287637308135015
30
0
10
16.375680780812651
20
6.4891624195304445
30
0
0
SPLINE
5
236
100
AcDbEntity
8
0
100
AcDbSpline
70
0
71
2
72
6
73
3
74
0
42
0.000000001
43
0.0000000001
44
0.0000000001
40
0
40
0
40
0
40
1
40
1
40
1
10
16.375680780812651
20
6.4891624195304445
30
0
10
16.490258312246972
20
6.3493046335218004
30
0
10
16.490312296859788
20
6.1437825689537293
30
0
0
SPLINE
5
237
100
AcDbEntity
8
0
100
AcDbSpline
70
0
71
2
72
6
73
3
74
0
42
0.000000001
43
0.0000000001
44
0.0000000001
40
0
40
0
40
0
40
1
40
1
40
1
10
16.490312296859788
20
6.1437825689537293
30
0
10
16.490399680225796
20
5.8111098154944205
30
0
10
16.187276025393285
20
5.5543509954674786
30
0
0
SPLINE
5
238
100
AcDbEntity
8
0
100
AcDbSpline
70
0
71
2
72
6
73
3
74
0
42
0.000000001
43
0.0000000001
44
0.0000000001
40
0
40
0
40
0
40
1
40
1
40
1
10
16.187276025393285
20
5.5543509954674786
30
0
10
15.884151619636146
20
5.2975921752432908
30
0
10
15.500912727798962
20
5.2974915096372124
30
0
0
SPLINE
5
239
100
AcDbEntity
8
0
100
AcDbSpline
70
0
71
2
72
6
73
3
74
0
42
0.000000001
43
0.0000000001
44
0.0000000001
40
0
40
0
40
0
40
1
40
1
40
1
10
15.500912727798962
20
5.2974915096372124
30
0
10
15.230171357033171
20
5.2974203938273101
30
0
10
14.870327910282395
20
5.4345002893328962
30
0
0
LINE
5
240
100
AcDbEntity
8
0
100
AcDbLine
10
14.870327910282395
20
5.4345002893328962
30
0
11
14.870119761711027
21
6.2269320933554999
31
0
0
LINE
5
241
100
AcDbEntity
8
0
100
AcDbLine
10
14.870119761711027
20
6.2269320933554999
30
0
11
15.096903130866547
21
6.2269916626888611
31
0
0
SPLINE
5
242
100
AcDbEntity
8
0
100
AcDbSpline
70
0
71
2
72
6
73
3
74
0
42
0.000000001
43
0.0000000001
44
0.0000000001
40
0
40
0
40
0
40
1
40
1
40
1
10
15.096903130866547
20
6.2269916626888611
30
0
10
15.096990220681407
20
5.8954364728141408
30
0
10
15.261780421595772
20
5.7047381301787796
30
0
0
SPLINE
5
243
100
AcDbEntity
8
0
100
AcDbSpline
70
0
71
2
72
6
73
3
74
0
42
0.000000001
43
0.0000000001
44
0.0000000001
40
0
40
0
40
0
40
1
40
1
40
1
10
15.261780421595772
20
5.7047381301787796
30
0
10
15.426570622608757
20
5.514039412081102
30
0
10
15.649682345772778
20
5.5140980169808493
30
0
0
SPLINE
5
244
100
AcDbEntity
8
0
100
AcDbSpline
70
0
71
2
72
6
73
3
74
0
42
0.000000001
43
0.0000000001
44
0.0000000001
40
0
40
0
40
0
40
1
40
1
40
1
10
15.649682345772778
20
5.5140980169808493
30
0
10
15.854949095965734
20
5.5141519345300765
30
0
10
15.972459518574766
20
5.6324267810496629
30
0
0
SPLINE
5
245
100
AcDbEntity
8
0
100
AcDbSpline
70
0
71
2
72
6
73
3
74
0
42
0.000000001
43
0.0000000001
44
0.0000000001
40
0
40
0
40
0
40
1
40
1
40
1
10
15.972459518574766
20
5.6324267810496629
30
0
10
16.089969941183796
20
5.7507016275692493
30
0
10
16.089921884992428
20
5.9336539013774221
30
0
0
SPLINE
5
246
100
AcDbEntity
8
0
100
AcDbSpline
70
0
71
2
72
6
73
3
74
0
42
0.000000001
43
0.0000000001
44
0.0000000001
40
0
40
0
40
0
40
1
40
1
40
1
10
16.089921884992428
20
5.9336539013774221
30
0
10
16.089880117738616
20
6.0926638819283125
30
0
10
15.99219509450446
20
6.213627395837138
30
0
0
SPLINE
5
247
100
AcDbEntity
8
0
100
AcDbSpline
70
0
71
2
72
6
73
3
74
0
42
0.000000001
43
0.0000000001
44
0.0000000001
40
0
40
0
40
0
40
1
40
1
40
1
10
20.187589282378724
20
7.7697609474476481
30
0
10
20.130896749662622
20
7.8182533500966542
30
0
10
19.939834775797976
20
7.8228320512115426
30
0
0
LINE
5
248
100
AcDbEntity
8
0
100
AcDbLine
10
19.939834775797976
20
7.8228320512115426
30
0
11
19.93978833791023
21
7.9996233638708754
31
0
0
LINE
5
249
100
AcDbEntity
8
0
100
AcDbLine
10
19.93978833791023
20
7.9996233638708754
30
0
11
21.002195757304445
21
7.9999024271106824
31
0
0
LINE
5
250
100
AcDbEntity
8
0
100
AcDbLine
10
21.002195757304445
20
7.9999024271106824
30
0
11
21.002242195192192
21
7.8231111144513514
31
0
0
SPLINE
5
251
100
AcDbEntity
8
0
100
AcDbSpline
70
0
71
2
72
6
73
3
74
0
42
0.000000001
43
0.0000000001
44
0.0000000001
40
0
40
0
40
0
40
1
40
1
40
1
10
21.002242195192192
20
7.8231111144513514
30
0
10
20.798349334285337
20
7.8184926866254738
30
0
10
20.748099501080144
20
7.7649599588186442
30
0
0
SPLINE
5
252
100
AcDbEntity
8
0
100
AcDbSpline
70
0
71
2
72
6
73
3
74
0
42
0.000000001
43
0.0000000001
44
0.0000000001
40
0
40
0
40
0
40
1
40
1
40
1
10
20.748099501080144
20
7.7649599588186442
30
0
10
20.697850418750271
20
7.7114274189402199
30
0
10
20.697893804357015
20
7.546256289509329
30
0
0
LINE
5
253
100
AcDbEntity
8
0
100
AcDbLine
10
20.697893804357015
20
7.546256289509329
30
0
11
20.698063388848649
21
6.9006398254651717
31
0
0
LINE
5
254
100
AcDbEntity
8
0
100
AcDbLine
10
20.698063388848649
20
6.9006398254651717
30
0
11
21.836064889165723
21
6.9009387450508104
31
0
0
LINE
5
255
100
AcDbEntity
8
0
100
AcDbLine
10
21.836064889165723
20
6.9009387450508104
30
0
11
21.835895304674086
21
7.5465552090949677
31
0
0
SPLINE
5
256
100
AcDbEntity
8
0
100
AcDbSpline
70
0
71
2
72
6
73
3
74
0
42
0.000000001
43
0.0000000001
44
0.0000000001
40
0
40
0
40
0
40
1
40
1
40
1
10
21.835895304674086
20
7.5465552090949677
30
0
10
21.83584930284762
20
7.7216864151225968
30
0
10
21.779156770082203
20
7.7701790055027615
30
0
0
SPLINE
5
257
100
AcDbEntity
8
0
100
AcDbSpline
70
0
71
2
72
6
73
3
74
0
42
0.000000001
43
0.0000000001
44
0.0000000001
40
0
40
0
40
0
40
1
40
1
40
1
10
21.779156770082203
20
7.7701790055027615
30
0
10
21.722464237366101
20
7.8186714081517694
30
0
10
21.531402263501459
20
7.8232501092666578
30
0
0
LINE
5
258
100
AcDbEntity
8
0
100
AcDbLine
10
21.531402263501459
20
7.8232501092666578
30
0
11
21.531355825613712
21
8.0000414219259888
31
0
0
LINE
5
259
100
AcDbEntity
8
0
100
AcDbLine
10
21.531355825613712
20
8.0000414219259888
30
0
11
22.593762494083293
21
8.000320484968551
31
0
0
LINE
5
260
100
AcDbEntity
8
0
100
AcDbLine
10
22.593762494083293
20
8.000320484968551
30
0
11
22.59380893197104
21
7.82352917230922
31
0
0
SPLINE
5
261
100
AcDbEntity
8
0
100
AcDbSpline
70
0
71
2
72
6
73
3
74
0
42
0.000000001
43
0.0000000001
44
0.0000000001
40
0
40
0
40
0
40
1
40
1
40
1
10
22.59380893197104
20
7.82352917230922
30
0
10
22.389916071064182
20
7.8189107444833423
30
0
10
22.339667739708251
20
7.7653780170710043
30
0
0
SPLINE
5
262
100
AcDbEntity
8
0
100
AcDbSpline
70
0
71
2
72
6
73
3
74
0
42
0.000000001
43
0.0000000001
44
0.0000000001
40
0
40
0
40
0
40
1
40
1
40
1
10
22.339667739708251
20
7.7653780170710043
30
0
10
22.28941790645375
20
7.7118454769953333
30
0
10
22.289461292060494
20
7.5466743475644442
30
0
0
LINE
5
263
100
AcDbEntity
8
0
100
AcDbLine
10
22.289461292060494
20
7.5466743475644442
30
0
11
22.289917452985215
21
5.8100473694048862
31
0
0
SPLINE
5
264
100
AcDbEntity
8
0
100
AcDbSpline
70
0
71
2
72
6
73
3
74
0
42
0.000000001
43
0.0000000001
44
0.0000000001
40
0
40
0
40
0
40
1
40
1
40
1
10
22.289917452985215
20
5.8100473694048862
30
0
10
22.289964175893218
20
5.6321709706513285
30
0
10
22.345953813812816
20
5.5837900834193128
30
0
0
SPLINE
5
265
100
AcDbEntity
8
0
100
AcDbSpline
70
0
71
2
72
6
73
3
74
0
42
0.000000001
43
0.0000000001
44
0.0000000001
40
0
40
0
40
0
40
1
40
1
40
1
10
22.345953813812816
20
5.5837900834193128
30
0
10
22.401944953680296
20
5.5354088211194705
30
0
10
22.594410544406227
20
5.5331611711830213
30
0
0
LINE
5
266
100
AcDbEntity
8
0
100
AcDbLine
10
22.594410544406227
20
5.5331611711830213
30
0
11
22.594456931996277
21
5.3565613443050237
31
0
0
LINE
5
267
100
AcDbEntity
8
0
100
AcDbLine
10
22.594456931996277
20
5.3565613443050237
30
0
11
21.532050263526695
21
5.3562822812624615
31
0
0
LINE
5
268
100
AcDbEntity
8
0
100
AcDbLine
10
21.532050263526695
20
5.3562822812624615
30
0
11
21.53200385917075
21
5.5329459367342366
31
0
0
SPLINE
5
269
100
AcDbEntity
8
0
100
AcDbSpline
70
0
71
2
72
6
73
3
74
0
42
0.000000001
43
0.0000000001
44
0.0000000001
40
0
40
0
40
0
40
1
40
1
40
1
10
21.53200385917075
20
5.5329459367342366
30
0
10
21.730565767338071
20
5.5352324695170072
30
0
10
21.783480963743223
20
5.5903619878533917
30
0
0
SPLINE
5
270
100
AcDbEntity
8
0
100
AcDbSpline
70
0
71
2
72
6
73
3
74
0
42
0.000000001
43
0.0000000001
44
0.0000000001
40
0
40
0
40
0
40
1
40
1
40
1
10
21.783480963743223
20
5.5903619878533917
30
0
10
21.836394658299106
20
5.6454915057952837
30
0
10
21.836351465598803
20
5.8099282309354106
30
0
0
LINE
5
271
100
AcDbEntity
8
0
100
AcDbLine
10
21.836351465598803
20
5.8099282309354106
30
0
11
21.836119091833829
21
6.694586533301309
31
0
0
LINE
5
272
100
AcDbEntity
8
0
100
AcDbLine
10
21.836119091833829
20
6.694586533301309
30
0
11
20.698117591516763
21
6.6942876137156713
31
0
0
LINE
5
273
100
AcDbEntity
8
0
100
AcDbLine
10
20.698117591516763
20
6.6942876137156713
30
0
11
20.698349965281736
21
5.8096293113497719
31
0
0
SPLINE
5
274
100
AcDbEntity
8
0
100
AcDbSpline
70
0
71
2
72
6
73
3
74
0
42
0.000000001
43
0.0000000001
44
0.0000000001
40
0
40
0
40
0
40
1
40
1
40
1
10
20.698349965281736
20
5.8096293113497719
30
0
10
20.698420837887497
20
5.5398138306560796
30
0
10
21.002843958619081
20
5.5321682805188335
30
0
0
LINE
5
275
100
AcDbEntity
8
0
100
AcDbLine
10
21.002843958619081
20
5.5321682805188335
30
0
11
21.002890195217432
21
5.3561432864471543
31
0
0
LINE
5
276
100
AcDbEntity
8
0
100
AcDbLine
10
21.002890195217432
20
5.3561432864471543
30
0
11
19.940482775823217
21
5.3558642232073472
31
0
0
LINE
5
277
100
AcDbEntity
8
0
100
AcDbLine
10
19.940482775823217
20
5.3558642232073472
30
0
11
19.940436371467268
21
5.5325278786791223
31
0
0
SPLINE
5
278
100
AcDbEntity
8
0
100
AcDbSpline
70
0
71
2
72
6
73
3
74
0
42
0.000000001
43
0.0000000001
44
0.0000000001
40
0
40
0
40
0
40
1
40
1
40
1
10
19.940436371467268
20
5.5325278786791223
30
0
10
20.141456806881994
20
5.5348150572448249
30
0
10
20.193142097717146
20
5.5895293666329406
30
0
0
SPLINE
5
279
100
AcDbEntity
8
0
100
AcDbSpline
70
0
71
2
72
6
73
3
74
0
42
0.000000001
43
0.0000000001
44
0.0000000001
40
0
40
0
40
0
40
1
40
1
40
1
10
20.193142097717146
20
5.5895293666329406
30
0
10
20.244827388650918
20
5.6442433005587391
30
0
10
20.244783977895327
20
5.8095101728802963
30
0
0
LINE
5
280
100
AcDbEntity
8
0
100
AcDbLine
10
20.244783977895327
20
5.8095101728802954
30
0
11
20.244327816970607
21
7.5461371510398543
31
0
0
SPLINE
5
281
100
AcDbEntity
8
0
100
AcDbSpline
70
0
71
2
72
6
73
3
74
0
42
0.000000001
43
0.0000000001
44
0.0000000001
40
0
40
0
40
0
40
1
40
1
40
1
10
20.244327816970607
20
7.5461371510398543
30
0
10
20.244281815144138
20
7.7212683570674825
30
0
10
20.187589282378724
20
7.7697609474476481
30
0
0
LINE
5
282
100
AcDbEntity
8
0
100
AcDbLine
10
10.014517113690831
20
5.3532569634260927
30
0
11
10.014452814989784
21
5.5980469314451708
31
0
0
SPLINE
5
283
100
AcDbEntity
8
0
100
AcDbSpline
70
0
71
2
72
6
73
3
74
0
42
0.000000001
43
0.0000000001
44
0.0000000001
40
0.53486021427362018
40
0.53486021427362018
40
0.53486021427362018
40
1
40
1
40
1
10
10.014452814989784
20
5.5980469314451708
30
0
10
10.105340895184197
20
5.5678053594954502
30
0
10
10.203031085407583
20
5.567831019840515
30
0
0
SPLINE
5
284
100
AcDbEntity
8
0
100
AcDbSpline
70
0
71
2
72
6
73
3
74
0
42
0.000000001
43
0.0000000001
44
0.0000000001
40
0
40
0
40
0
40
1
40
1
40
1
10
10.203031085407583
20
5.567831019840515
30
0
10
10.399359391966566
20
5.5678825895230064
30
0
10
10.518558385918308
20
5.6985759210881728
30
0
0
SPLINE
5
285
100
AcDbEntity
8
0
100
AcDbSpline
70
0
71
2
72
6
73
3
74
0
42
0.000000001
43
0.0000000001
44
0.0000000001
40
0
40
0
40
0
40
1
40
1
40
1
10
10.518558385918308
20
5.6985759210881728
30
0
10
10.637757755332368
20
5.8292692527519616
30
0
10
10.637699007823866
20
6.05292389442541
30
0
0
SPLINE
5
286
100
AcDbEntity
8
0
100
AcDbSpline
70
0
71
2
72
6
73
3
74
0
42
0.000000001
43
0.0000000001
44
0.0000000001
40
0
40
0
40
0
40
1
40
1
40
1
10
10.637699007823866
20
6.05292389442541
30
0
10
10.637627279910761
20
6.3259955720575718
30
0
10
10.466852008914877
20
6.513883133346039
30
0
0
SPLINE
5
287
100
AcDbEntity
8
0
100
AcDbSpline
70
0
71
2
72
6
73
3
74
0
42
0.000000001
43
0.0000000001
44
0.0000000001
40
0
40
0
40
0
40
0.93899542342476494
40
0.93899542342476494
40
0.93899542342476494
10
10.466852008914877
20
6.513883133346039
30
0
10
10.306494987294315
20
6.6903086935606524
30
0
10
10.014452809953957
20
6.7009973188309058
30
0
0
LINE
5
288
100
AcDbEntity
8
0
100
AcDbLine
10
10.014452809953957
20
6.7009973188309058
30
0
11
10.014407014728071
21
6.8753594931576814
31
0
0
LINE
5
289
100
AcDbEntity
8
0
100
AcDbLine
10
10.014407014728071
20
6.8753594931576814
30
0
11
10.162751573794761
21
6.8753984589183723
31
0
0
SPLINE
5
290
100
AcDbEntity
8
0
100
AcDbSpline
70
0
71
2
72
6
73
3
74
0
42
0.000000001
43
0.0000000001
44
0.0000000001
40
0
40
0
40
0
40
1
40
1
40
1
10
10.162751573794761
20
6.8753984589183723
30
0
10
10.334881897259034
20
6.8754436725010875
30
0
10
10.440189897889285
20
6.9625898610927583
30
0
0
SPLINE
5
291
100
AcDbEntity
8
0
100
AcDbSpline
70
0
71
2
72
6
73
3
74
0
42
0.000000001
43
0.0000000001
44
0.0000000001
40
0
40
0
40
0
40
1
40
1
40
1
10
10.440189897889285
20
6.9625898610927583
30
0
10
10.545497898470222
20
7.0497362374155879
30
0
10
10.545449364302833
20
7.2345081893399072
30
0
0
SPLINE
5
292
100
AcDbEntity
8
0
100
AcDbSpline
70
0
71
2
72
6
73
3
74
0
42
0.000000001
43
0.0000000001
44
0.0000000001
40
0
40
0
40
0
40
1
40
1
40
1
10
10.545449364302833
20
7.2345081893399072
30
0
10
10.545380915010346
20
7.4950979977276244
30
0
10
10.412266216707261
20
7.6572175210424858
30
0
0
SPLINE
5
293
100
AcDbEntity
8
0
100
AcDbSpline
70
0
71
2
72
6
73
3
74
0
42
0.000000001
43
0.0000000001
44
0.0000000001
40
0
40
0
40
0
40
1
40
1
40
1
10
10.412266216707261
20
7.6572175210424858
30
0
10
10.279151330722328
20
7.8193368565768768
30
0
10
10.088218229918009
20
7.8192867040565508
30
0
0
SPLINE
5
294
100
AcDbEntity
8
0
100
AcDbSpline
70
0
71
2
72
6
73
3
74
0
42
0.000000001
43
0.0000000001
44
0.0000000001
40
0
40
0
40
0
40
1
40
1
40
1
10
10.088218229918009
20
7.8192867040565508
30
0
10
9.9052019397849023
20
7.8192386310499709
30
0
10
9.8138888543658904
20
7.7452164623303075
30
0
0
LINE
5
295
100
AcDbEntity
8
0
100
AcDbLine
10
9.8138888543658904
20
7.7452164623303075
30
0
11
9.8145171657042756
21
5.3532044293111873
31
0
0
LINE
5
296
100
AcDbEntity
8
0
100
AcDbLine
10
9.8145171657042756
20
5.3532044293111873
30
0
11
9.056530603112332
21
5.3530053284935297
31
0
0
LINE
5
297
100
AcDbEntity
8
0
100
AcDbLine
10
9.056530603112332
20
5.3530053284935297
30
0
11
9.0564841987563849
21
5.5296689839653057
31
0
0
SPLINE
5
298
100
AcDbEntity
8
0
100
AcDbSpline
70
0
71
2
72
6
73
3
74
0
42
0.000000001
43
0.0000000001
44
0.0000000001
40
0
40
0
40
0
40
1
40
1
40
1
10
9.0564841987563849
20
5.5296689839653057
30
0
10
9.2558764887690899
20
5.5319557348650088
30
0
10
9.3083761407597301
20
5.5858401109231854
30
0
0
SPLINE
5
299
100
AcDbEntity
8
0
100
AcDbSpline
70
0
71
2
72
6
73
3
74
0
42
0.000000001
43
0.0000000001
44
0.0000000001
40
0
40
0
40
0
40
1
40
1
40
1
10
9.3083761407597301
20
5.5858401109231854
30
0
10
9.3608757927503721
20
5.6397244869813621
30
0
10
9.3608319459828149
20
5.8066512782034625
30
0
0
LINE
5
300
100
AcDbEntity
8
0
100
AcDbLine
10
9.3608319459828149
20
5.8066512782034625
30
0
11
9.3603757850580944
21
7.5432782563630187
31
0
0
SPLINE
5
301
100
AcDbEntity
8
0
100
AcDbSpline
70
0
71
2
72
6
73
3
74
0
42
0.000000001
43
0.0000000001
44
0.0000000001
40
0
40
0
40
0
40
1
40
1
40
1
10
9.3603757850580944
20
7.5432782563630187
30
0
10
9.3603297329339323
20
7.7186009481719822
30
0
10
9.3045470643754378
20
7.7669980346494905
30
0
0
SPLINE
5
302
100
AcDbEntity
8
0
100
AcDbSpline
70
0
71
2
72
6
73
3
74
0
42
0.000000001
43
0.0000000001
44
0.0000000001
40
0
40
0
40
0
40
1
40
1
40
1
10
9.3045470643754378
20
7.7669980346494905
30
0
10
9.2487643020006747
20
7.8153949333711852
30
0
10
9.0558826030870936
20
7.819973156497726
30
0
0
LINE
5
303
100
AcDbEntity
8
0
100
AcDbLine
10
9.0558826030870936
20
7.819973156497726
30
0
11
9.0558361651993504
21
7.996764469157057
31
0
0
LINE
5
304
100
AcDbEntity
8
0
100
AcDbLine
10
9.0558361651993504
20
7.996764469157057
30
0
11
10.309974402021743
21
7.9970938944539309
31
0
0
SPLINE
5
305
100
AcDbEntity
8
0
100
AcDbSpline
70
0
71
2
72
6
73
3
74
0
42
0.000000001
43
0.0000000001
44
0.0000000001
40
0
40
0
40
0
40
1
40
1
40
1
10
10.309974402021743
20
7.9970938944539309
30
0
10
10.72136996388598
20
7.9972019559906249
30
0
10
10.855022441405989
20
7.8539334117517452
30
0
0
SPLINE
5
306
100
AcDbEntity
8
0
100
AcDbSpline
70
0
71
2
72
6
73
3
74
0
42
0.000000001
43
0.0000000001
44
0.0000000001
40
0
40
0
40
0
40
1
40
1
40
1
10
10.855022441405989
20
7.8539334117517452
30
0
10
10.988675106657157
20
7.7106648675621772
30
0
10
10.988729409969967
20
7.5039294965188494
30
0
0
SPLINE
5
307
100
AcDbEntity
8
0
100
AcDbSpline
70
0
71
2
72
6
73
3
74
0
42
0.000000001
43
0.0000000001
44
0.0000000001
40
0
40
0
40
0
40
1
40
1
40
1
10
10.988729409969967
20
7.5039294965188494
30
0
10
10.988786564225066
20
7.2863404485658911
30
0
10
10.84060214418496
20
7.0903084926358222
30
0
0
SPLINE
5
308
100
AcDbEntity
8
0
100
AcDbSpline
70
0
71
2
72
6
73
3
74
0
42
0.000000001
43
0.0000000001
44
0.0000000001
40
0
40
0
40
0
40
1
40
1
40
1
10
10.84060214418496
20
7.0903084926358222
30
0
10
10.69241791187601
20
6.894276536755064
30
0
10
10.420521264039044
20
6.7954983204852466
30
0
0
SPLINE
5
309
100
AcDbEntity
8
0
100
AcDbSpline
70
0
71
2
72
6
73
3
74
0
42
0.000000001
43
0.0000000001
44
0.0000000001
40
0
40
0
40
0
40
1
40
1
40
1
10
10.420521264039044
20
6.7954983204852466
30
0
10
10.739116336552085
20
6.7930919398039702
30
0
10
10.922272690037346
20
6.6851595204762191
30
0
0
SPLINE
5
310
100
AcDbEntity
8
0
100
AcDbSpline
70
0
71
2
72
6
73
3
74
0
42
0.000000001
43
0.0000000001
44
0.0000000001
40
0
40
0
40
0
40
1
40
1
40
1
10
10.922272690037346
20
6.6851595204762191
30
0
10
11.10542904352261
20
6.577227101148468
30
0
10
11.105502859431034
20
6.2962063230858902
30
0
0
SPLINE
5
311
100
AcDbEntity
8
0
100
AcDbSpline
70
0
71
2
72
6
73
3
74
0
42
0.000000001
43
0.0000000001
44
0.0000000001
40
0
40
0
40
0
40
1
40
1
40
1
10
11.105502859431034
20
6.2962063230858902
30
0
10
11.105601915116436
20
5.9190964781006601
30
0
10
10.782277170208829
20
5.6362350908178778
30
0
0
SPLINE
5
312
100
AcDbEntity
8
0
100
AcDbSpline
70
0
71
2
72
6
73
3
74
0
42
0.000000001
43
0.0000000001
44
0.0000000001
40
0
40
0
40
0
40
1
40
1
40
1
10
10.782277170208829
20
5.6362350908178778
30
0
10
10.458952613032382
20
5.3533737035844045
30
0
10
10.037054431524293
20
5.3532628833178562
30
0
0
LINE
5
313
100
AcDbEntity
8
0
100
AcDbLine
10
10.037054431524293
20
5.3532628833178562
30
0
11
10.014517113690831
21
5.3532569634260927
31
0
0
SPLINE
5
314
100
AcDbEntity
8
0
100
AcDbSpline
70
0
71
2
72
6
73
3
74
0
42
0.000000001
43
0.0000000001
44
0.0000000001
40
0
40
0
40
0
40
1
40
1
40
1
10
18.443159289310319
20
5.6701068612377847
30
0
10
18.87045267657307
20
5.6702190986664975
30
0
10
19.395203906341038
20
6.0483286802202274
30
0
0
LINE
5
315
100
AcDbEntity
8
0
100
AcDbLine
10
19.395203906341038
20
6.0483286802202274
30
0
11
19.395251568435185
21
5.8668767538281541
31
0
0
SPLINE
5
316
100
AcDbEntity
8
0
100
AcDbSpline
70
0
71
2
72
6
73
3
74
0
42
0.000000001
43
0.0000000001
44
0.0000000001
40
0
40
0
40
0
40
1
40
1
40
1
10
19.395251568435185
20
5.8668767538281541
30
0
10
18.734940118336695
20
5.2983409936908377
30
0
10
18.196681096253222
20
5.2981996088474945
30
0
0
SPLINE
5
317
100
AcDbEntity
8
0
100
AcDbSpline
70
0
71
2
72
6
73
3
74
0
42
0.000000001
43
0.0000000001
44
0.0000000001
40
0
40
0
40
0
40
1
40
1
40
1
10
18.196681096253222
20
5.2981996088474945
30
0
10
17.753299148735248
20
5.2980831454263173
30
0
10
17.402549218096869
20
5.6345423161243211
30
0
0
SPLINE
5
318
100
AcDbEntity
8
0
100
AcDbSpline
70
0
71
2
72
6
73
3
74
0
42
0.000000001
43
0.0000000001
44
0.0000000001
40
0
40
0
40
0
40
1
40
1
40
1
10
17.402549218096869
20
5.6345423161243211
30
0
10
17.05179928745849
20
5.9710014868223258
30
0
10
17.051644603609173
20
6.5598904758774514
30
0
0
SPLINE
5
319
100
AcDbEntity
8
0
100
AcDbSpline
70
0
71
2
72
6
73
3
74
0
42
0.000000001
43
0.0000000001
44
0.0000000001
40
0
40
0
40
0
40
1
40
1
40
1
10
17.051644603609173
20
6.5598904758774514
30
0
10
17.051537171040202
20
6.9688915268192222
30
0
10
17.232505434221487
20
7.2922421755308386
30
0
0
SPLINE
5
320
100
AcDbEntity
8
0
100
AcDbSpline
70
0
71
2
72
6
73
3
74
0
42
0.000000001
43
0.0000000001
44
0.0000000001
40
0
40
0
40
0
40
1
40
1
40
1
10
17.232505434221487
20
7.2922421755308386
30
0
10
17.413472946478134
20
7.6155928240452102
30
0
10
17.745688720634334
20
7.8359668472709112
30
0
0
SPLINE
5
321
100
AcDbEntity
8
0
100
AcDbSpline
70
0
71
2
72
6
73
3
74
0
42
0.000000001
43
0.0000000001
44
0.0000000001
40
0
40
0
40
0
40
1
40
1
40
1
10
17.745688720634334
20
7.8359668472709112
30
0
10
18.077904494839849
20
8.0563406827654553
30
0
10
18.544367612792573
20
8.0564632089325077
30
0
0
SPLINE
5
322
100
AcDbEntity
8
0
100
AcDbSpline
70
0
71
2
72
6
73
3
74
0
42
0.000000001
43
0.0000000001
44
0.0000000001
40
0
40
0
40
0
40
1
40
1
40
1
10
18.544367612792573
20
8.0564632089325077
30
0
10
18.947335547504217
20
8.0565690567789616
30
0
10
19.335463004687931
20
7.9192731905589415
30
0
0
LINE
5
323
100
AcDbEntity
8
0
100
AcDbLine
10
19.335463004687931
20
7.9192731905589415
30
0
11
19.335639968294974
21
7.2455640728126669
31
0
0
LINE
5
324
100
AcDbEntity
8
0
100
AcDbLine
10
19.335639968294974
20
7.2455640728126669
30
0
11
19.112240640996639
21
7.2455053923677566
31
0
0
SPLINE
5
325
100
AcDbEntity
8
0
100
AcDbSpline
70
0
71
2
72
6
73
3
74
0
42
0.000000001
43
0.0000000001
44
0.0000000001
40
0
40
0
40
0
40
1
40
1
40
1
10
19.112240640996639
20
7.2455053923677566
30
0
10
19.084579879352574
20
7.5473966954213481
30
0
10
18.873128054557707
20
7.6977478006462858
30
0
0
SPLINE
5
326
100
AcDbEntity
8
0
100
AcDbSpline
70
0
71
2
72
6
73
3
74
0
42
0.000000001
43
0.0000000001
44
0.0000000001
40
0
40
0
40
0
40
1
40
1
40
1
10
18.873128054557707
20
7.6977478006462858
30
0
10
18.661676980687471
20
7.8480989060684703
30
0
10
18.366417920664606
20
7.8480213501813694
30
0
0
SPLINE
5
327
100
AcDbEntity
8
0
100
AcDbSpline
70
0
71
2
72
6
73
3
74
0
42
0.000000001
43
0.0000000001
44
0.0000000001
40
0
40
0
40
0
40
1
40
1
40
1
10
18.366417920664606
20
7.8480213501813694
30
0
10
17.954480191215573
20
7.847913146233167
30
0
10
17.717497786093233
20
7.543302691439604
30
0
0
SPLINE
5
328
100
AcDbEntity
8
0
100
AcDbSpline
70
0
71
2
72
6
73
3
74
0
42
0.000000001
43
0.0000000001
44
0.0000000001
40
0
40
0
40
0
40
1
40
1
40
1
10
17.717497786093233
20
7.543302691439604
30
0
10
17.480515380970889
20
7.23869223664604
30
0
10
17.480633278468062
20
6.7898506915861541
30
0
0
SPLINE
5
329
100
AcDbEntity
8
0
100
AcDbSpline
70
0
71
2
72
6
73
3
74
0
42
0.000000001
43
0.0000000001
44
0.0000000001
40
0
40
0
40
0
40
1
40
1
40
1
10
17.480633278468062
20
6.7898506915861541
30
0
10
17.480761137669948
20
6.303084448877283
30
0
10
17.75097892684246
20
5.9865402364673441
30
0
0
SPLINE
5
330
100
AcDbEntity
8
0
100
AcDbSpline
70
0
71
2
72
6
73
3
74
0
42
0.000000001
43
0.0000000001
44
0.0000000001
40
0
40
0
40
0
40
1
40
1
40
1
10
17.75097892684246
20
5.9865402364673441
30
0
10
18.021197466939608
20
5.6699960242546501
30
0
10
18.443159289310319
20
5.6701068612377847
30
0
0
SPLINE
5
331
100
AcDbEntity
8
0
100
AcDbSpline
70
0
71
2
72
6
73
3
74
0
42
0.000000001
43
0.0000000001
44
0.0000000001
40
0
40
0
40
0
40
1
40
1
40
1
10
13.639158634296606
20
7.4760543163402398
30
0
10
13.560333320661703
20
7.8048117167806677
30
0
10
13.352092500682357
20
7.8234640537707065
30
0
0
LINE
5
332
100
AcDbEntity
8
0
100
AcDbLine
10
13.352092500682357
20
7.8234640537707065
30
0
11
13.352046683379386
21
7.9978927698044613
31
0
0
LINE
5
333
100
AcDbEntity
8
0
100
AcDbLine
10
13.352046683379386
20
7.9978927698044613
30
0
11
14.316385598519197
21
7.9981460733272147
31
0
0
LINE
5
334
100
AcDbEntity
8
0
100
AcDbLine
10
14.316385598519197
20
7.9981460733272147
30
0
11
14.316430837250762
21
7.8259200069722743
31
0
0
SPLINE
5
335
100
AcDbEntity
8
0
100
AcDbSpline
70
0
71
2
72
6
73
3
74
0
42
0.000000001
43
0.0000000001
44
0.0000000001
40
0
40
0
40
0
40
1
40
1
40
1
10
14.316430837250762
20
7.8259200069722743
30
0
10
13.942560204004561
20
7.7697006949124372
30
0
10
13.942865152607032
20
6.6087464322727998
30
0
0
SPLINE
5
336
100
AcDbEntity
8
0
100
AcDbSpline
70
0
71
2
72
6
73
3
74
0
42
0.000000001
43
0.0000000001
44
0.0000000001
40
0
40
0
40
0
40
1
40
1
40
1
10
13.942865152607032
20
6.6087464322727998
30
0
10
13.942973314739113
20
6.1969678988458945
30
0
10
13.925177085558476
20
6.0113932144176694
30
0
0
SPLINE
5
337
100
AcDbEntity
8
0
100
AcDbSpline
70
0
71
2
72
6
73
3
74
0
42
0.000000001
43
0.0000000001
44
0.0000000001
40
0
40
0
40
0
40
1
40
1
40
1
10
13.925177085558476
20
6.0113932144176694
30
0
10
13.907380480915524
20
5.8258185298908218
30
0
10
13.797208495753027
20
5.6617039117490755
30
0
0
SPLINE
5
338
100
AcDbEntity
8
0
100
AcDbSpline
70
0
71
2
72
6
73
3
74
0
42
0.000000001
43
0.0000000001
44
0.0000000001
40
0
40
0
40
0
40
1
40
1
40
1
10
13.797208495753027
20
5.6617039117490755
30
0
10
13.687036135128215
20
5.4975892935087067
30
0
10
13.463264409329861
20
5.3972433972445826
30
0
0
SPLINE
5
339
100
AcDbEntity
8
0
100
AcDbSpline
70
0
71
2
72
6
73
3
74
0
42
0.000000001
43
0.0000000001
44
0.0000000001
40
0
40
0
40
0
40
1
40
1
40
1
10
13.463264409329861
20
5.3972433972445826
30
0
10
13.239492683531505
20
5.2968975009804584
30
0
10
12.928623402244442
20
5.2968158447465044
30
0
0
SPLINE
5
340
100
AcDbEntity
8
0
100
AcDbSpline
70
0
71
2
72
6
73
3
74
0
42
0.000000001
43
0.0000000001
44
0.0000000001
40
0
40
0
40
0
40
1
40
1
40
1
10
12.928623402244442
20
5.2968158447465044
30
0
10
12.604250994212487
20
5.2967306416375681
30
0
10
12.374090696004819
20
5.3925200893244734
30
0
0
SPLINE
5
341
100
AcDbEntity
8
0
100
AcDbSpline
70
0
71
2
72
6
73
3
74
0
42
0.000000001
43
0.0000000001
44
0.0000000001
40
0
40
0
40
0
40
1
40
1
40
1
10
12.374090696004819
20
5.3925200893244734
30
0
10
12.143930773358086
20
5.4883091616476847
30
0
10
12.01990833049339
20
5.6716437569121974
30
0
0
SPLINE
5
342
100
AcDbEntity
8
0
100
AcDbSpline
70
0
71
2
72
6
73
3
74
0
42
0.000000001
43
0.0000000001
44
0.0000000001
40
0
40
0
40
0
40
1
40
1
40
1
10
12.01990833049339
20
5.6716437569121974
30
0
10
11.895886262992384
20
5.8549787277376488
30
0
10
11.895816379821149
20
6.1210273827426489
30
0
0
LINE
5
343
100
AcDbEntity
8
0
100
AcDbLine
10
11.895816379821149
20
6.1210273827426489
30
0
11
11.895442621360766
21
7.5439441439985462
31
0
0
SPLINE
5
344
100
AcDbEntity
8
0
100
AcDbSpline
70
0
71
2
72
6
73
3
74
0
42
0.000000001
43
0.0000000001
44
0.0000000001
40
0
40
0
40
0
40
1
40
1
40
1
10
11.895442621360766
20
7.5439441439985462
30
0
10
11.895396435060112
20
7.7197776522888919
30
0
10
11.83873590466186
20
7.7679349632035137
30
0
0
SPLINE
5
345
100
AcDbEntity
8
0
100
AcDbSpline
70
0
71
2
72
6
73
3
74
0
42
0.000000001
43
0.0000000001
44
0.0000000001
40
0
40
0
40
0
40
1
40
1
40
1
10
11.83873590466186
20
7.7679349632035137
30
0
10
11.782075374263608
20
7.8160922741181347
30
0
10
11.590949392456977
20
7.8206390441209255
30
0
0
LINE
5
346
100
AcDbEntity
8
0
100
AcDbLine
10
11.590949392456976
20
7.8206390441209255
30
0
11
11.590902954618544
21
7.9974301690490988
31
0
0
LINE
5
347
100
AcDbEntity
8
0
100
AcDbLine
10
11.590902954618544
20
7.9974301690490988
30
0
11
12.653309810819286
21
7.9977092321409717
31
0
0
LINE
5
348
100
AcDbEntity
8
0
100
AcDbLine
10
12.653309810819286
20
7.9977092321409717
30
0
11
12.653356248657719
21
7.8209181072127985
31
0
0
SPLINE
5
349
100
AcDbEntity
8
0
100
AcDbSpline
70
0
71
2
72
6
73
3
74
0
42
0.000000001
43
0.0000000001
44
0.0000000001
40
0
40
0
40
0
40
1
40
1
40
1
10
12.653356248657719
20
7.8209181072127985
30
0
10
12.450932187998749
20
7.8163317917655473
30
0
10
12.39994838691891
20
7.7639962205763275
30
0
0
SPLINE
5
350
100
AcDbEntity
8
0
100
AcDbSpline
70
0
71
2
72
6
73
3
74
0
42
0.000000001
43
0.0000000001
44
0.0000000001
40
0
40
0
40
0
40
1
40
1
40
1
10
12.39994838691891
20
7.7639962205763275
30
0
10
12.348964585888378
20
7.711660461655951
30
0
10
12.349008608747175
20
7.5440632824680227
30
0
0
LINE
5
351
100
AcDbEntity
8
0
100
AcDbLine
10
12.349008608747175
20
7.5440632824680227
30
0
11
12.349378082287892
21
6.1374594202013562
31
0
0
SPLINE
5
352
100
AcDbEntity
8
0
100
AcDbSpline
70
0
71
2
72
6
73
3
74
0
42
0.000000001
43
0.0000000001
44
0.0000000001
40
0
40
0
40
0
40
1
40
1
40
1
10
12.349378082287892
20
6.1374594202013562
30
0
10
12.349428796663039
20
5.9443873105808409
30
0
10
12.406667116769816
20
5.8235087276766055
30
0
0
SPLINE
5
353
100
AcDbEntity
8
0
100
AcDbSpline
70
0
71
2
72
6
73
3
74
0
42
0.000000001
43
0.0000000001
44
0.0000000001
40
0
40
0
40
0
40
1
40
1
40
1
10
12.406667116769816
20
5.8235087276766055
30
0
10
12.463905436777969
20
5.7026305202346856
30
0
10
12.621009795682994
20
5.6039007858745631
30
0
0
SPLINE
5
354
100
AcDbEntity
8
0
100
AcDbSpline
70
0
71
2
72
6
73
3
74
0
42
0.000000001
43
0.0000000001
44
0.0000000001
40
0
40
0
40
0
40
1
40
1
40
1
10
12.621009795682994
20
5.6039007858745631
30
0
10
12.778114529951711
20
5.5051714270753802
30
0
10
13.013931522438401
20
5.5052333692763895
30
0
0
SPLINE
5
355
100
AcDbEntity
8
0
100
AcDbSpline
70
0
71
2
72
6
73
3
74
0
42
0.000000001
43
0.0000000001
44
0.0000000001
40
0
40
0
40
0
40
1
40
1
40
1
10
13.013931522438401
20
5.5052333692763895
30
0
10
13.252909532166363
20
5.5052961417838286
30
0
10
13.412886944127642
20
5.5894721402663992
30
0
0
SPLINE
5
356
100
AcDbEntity
8
0
100
AcDbSpline
70
0
71
2
72
6
73
3
74
0
42
0.000000001
43
0.0000000001
44
0.0000000001
40
0
40
0
40
0
40
1
40
1
40
1
10
13.412886944127642
20
5.5894721402663992
30
0
10
13.572864356088923
20
5.6736481387489706
30
0
10
13.645573309893598
20
5.8426211611817545
30
0
0
SPLINE
5
357
100
AcDbEntity
8
0
100
AcDbSpline
70
0
71
2
72
6
73
3
74
0
42
0.000000001
43
0.0000000001
44
0.0000000001
40
0
40
0
40
0
40
1
40
1
40
1
10
13.645573309893598
20
5.8426211611817545
30
0
10
13.718281888235955
20
6.0115941835159159
30
0
10
13.718189473719901
20
6.3634207715810511
30
0
0
SPLINE
5
358
100
AcDbEntity
8
0
100
AcDbSpline
70
0
71
2
72
6
73
3
74
0
42
0.000000001
43
0.0000000001
44
0.0000000001
40
0
40
0
40
0
40
1
40
1
40
1
10
13.718189473719901
20
6.3634207715810511
30
0
10
13.717983572419884
20
7.1472971035323489
30
0
10
13.639158634296606
20
7.4760543163402398
30
0
0
LWPOLYLINE
5
359
100
AcDbEntity
8
0
100
AcDbPolyline
90
16
70
1
43
0.0
10
22.899265216946436
20
5.3247416869194408
42
-0.41421356237309642
10
22.749658917733836
20
5.1751353877068409
10
22.418260041956906
20
5.17513538770684
42
0.3428970408820084
10
22.273284825879085
20
5.0624645929212653
42
-0.77717280121239218
10
9.3769940950594162
20
5.0624645929212697
42
0.34289704088198042
10
9.2320188789815969
20
5.1751353877068391
10
8.9006200032046703
20
5.17513538770684
42
-0.41421356237310047
10
8.7510137039920686
20
5.3247416869194408
10
8.7510137039920686
20
8.0857904886419387
42
-0.41421356237310603
10
8.9006200032046703
20
8.2353967878545387
10
9.2320188789815969
20
8.2353967878545387
42
0.34289704088200224
10
9.3769940950594179
20
8.3480675826401107
42
-0.77717280121239218
10
22.273284825879081
20
8.3480675826401107
42
0.34289704088199957
10
22.418260041956906
20
8.2353967878545369
10
22.749658917733836
20
8.2353967878545369
42
-0.41421356237308959
10
22.899265216946436
20
8.0857904886419405
0
LWPOLYLINE
5
360
100
AcDbEntity
8
0
100
AcDbPolyline
90
11
70
1
43
0.0
10
10.960312330403603
20
9.4873086610039721
10
9.9645285972012765
20
8.4853967878545404
42
-0.74136799069156745
10
21.685750323737224
20
8.4853967878545387
10
18.91822079388416
20
11.421004300310365
10
18.203675379980268
20
10.506806491345094
10
17.873072686213156
20
10.997701400272016
10
17.051575083519126
20
10.316459485842818
10
15.19865613704297
20
12.567714971237763
10
12.676918382124571
20
9.3753022815006393
10
12.448888904286203
20
9.7642937436954984
10
11.610329896516985
20
8.4853967878545387
0
ENDSEC
0
SECTION
2
OBJECTS
0
DICTIONARY
5
C
100
AcDbDictionary
3
ACAD_GROUP
350
D
3
ACAD_MLINESTYLE
350
17
0
DICTIONARY
5
D
100
AcDbDictionary
0
DICTIONARY
5
1A
330
C
100
AcDbDictionary
0
DICTIONARY
5
17
100
AcDbDictionary
0
ENDSEC
0
EOF
