999
dxflib 3.17.0.0
  0
SECTION
  2
HEADER
  9
$ACADVER
  1
AC1015
  9
$HANDSEED
  5
FFFF
  9
$DIMADEC
 70
0
  9
$DIMASZ
 40
0.125
  9
$DIMAUNIT
 70
0
  9
$DIMAZIN
 70
2
  9
$DIMDEC
 70
4
  9
$DIMDLI
 40
0.25
  9
$DIMDSEP
 70
46
  9
$DIMEXE
 40
0.0625
  9
$DIMEXO
 40
0.03125
  9
$DIMGAP
 40
0.03125
  9
$DIMLUNIT
 70
3
  9
$DIMSCALE
 40
1.0
  9
$DIMTSZ
 40
0.0
  9
$DIMTXT
 40
0.125
  9
$DIMZIN
 70
8
  9
$DWGCODEPAGE
  3
ANSI_1252
  9
$INSUNITS
 70
1
  9
$LTSCALE
 40
1.0
  9
$MAXACTVP
 70
64
  9
$MEASUREMENT
 70
0
  9
$MIRRTEXT
 70
0
  9
$PDMODE
 70
0
  9
$PDSIZE
 40
0.0
  0
ENDSEC
  0
SECTION
  2
TABLES
  0
TABLE
  2
VPORT
  5
8
100
AcDbSymbolTable
 70
1
  0
VPORT
  5
30
100
AcDbSymbolTableRecord
100
AcDbViewportTableRecord
  2
*Active
 70
0
 10
0.0
 20
0.0
 11
1.0
 21
1.0
 12
286.3055555555554861
 22
148.5
 13
0.0
 23
0.0
 14
10.0
 24
10.0
 15
10.0
 25
10.0
 16
0.0
 26
0.0
 36
1.0
 17
0.0
 27
0.0
 37
0.0
 40
297.0
 41
1.92798353909465
 42
50.0
 43
0.0
 44
0.0
 50
0.0
 51
0.0
 71
0
 72
100
 73
1
 74
3
 75
1
 76
1
 77
0
 78
0
281
0
 65
1
110
0.0
120
0.0
130
0.0
111
1.0
121
0.0
131
0.0
112
0.0
122
1.0
132
0.0
 79
0
146
0.0
  0
ENDTAB
  0
TABLE
  2
LTYPE
  5
5
100
AcDbSymbolTable
 70
41
  0
LTYPE
  5
16
100
AcDbSymbolTableRecord
100
AcDbLinetypeTableRecord
  2
Continuous
 70
0
  3
Solid line
 72
65
 73
0
 40
0.0
  0
LTYPE
  5
31
100
AcDbSymbolTableRecord
100
AcDbLinetypeTableRecord
  2
PHANTOM
 70
0
  3
Phantom ______  __  __  ______  __  __  ______ 
 72
65
 73
6
 40
2.5
 49
1.25
 74
0
 49
-0.25
 74
0
 49
0.25
 74
0
 49
-0.25
 74
0
 49
0.25
 74
0
 49
-0.25
 74
0
  0
LTYPE
  5
32
100
AcDbSymbolTableRecord
100
AcDbLinetypeTableRecord
  2
PHANTOMX2
 70
0
  3
Phantom (2x) ____________    ____    ____   _
 72
65
 73
6
 40
5.0
 49
2.5
 74
0
 49
-0.5
 74
0
 49
0.5
 74
0
 49
-0.5
 74
0
 49
0.5
 74
0
 49
-0.5
 74
0
  0
LTYPE
  5
33
100
AcDbSymbolTableRecord
100
AcDbLinetypeTableRecord
  2
ACAD_ISO09W100
 70
0
  3
ISO long-dash double-short-dash ____ __ __ ____
 72
65
 73
6
 40
45.0
 49
24.0
 74
0
 49
-3.0
 74
0
 49
6.0
 74
0
 49
-3.0
 74
0
 49
6.0
 74
0
 49
-3.0
 74
0
  0
LTYPE
  5
34
100
AcDbSymbolTableRecord
100
AcDbLinetypeTableRecord
  2
BORDER2
 70
0
  3
Border (.5x) __.__.__.__.__.__.__.__.__.__.__.
 72
65
 73
6
 40
0.8749999999999999
 49
0.25
 74
0
 49
-0.125
 74
0
 49
0.25
 74
0
 49
-0.075
 74
0
 49
0.1
 74
0
 49
-0.075
 74
0
  0
LTYPE
  5
35
100
AcDbSymbolTableRecord
100
AcDbLinetypeTableRecord
  2
DIVIDE2
 70
0
  3
Divide (.5x) __..__..__..__..__..__..__..__.._
 72
65
 73
6
 40
0.625
 49
0.25
 74
0
 49
-0.075
 74
0
 49
0.1
 74
0
 49
-0.025
 74
0
 49
0.1
 74
0
 49
-0.075
 74
0
  0
LTYPE
  5
36
100
AcDbSymbolTableRecord
100
AcDbLinetypeTableRecord
  2
CENTERX2
 70
0
  3
Center (2x) ________  __  ________  __  _____
 72
65
 73
4
 40
4.0
 49
2.5
 74
0
 49
-0.5
 74
0
 49
0.5
 74
0
 49
-0.5
 74
0
  0
LTYPE
  5
37
100
AcDbSymbolTableRecord
100
AcDbLinetypeTableRecord
  2
ACAD_ISO08W100
 70
0
  3
ISO long-dash short-dash ____ __ ____ __ ____ _
 72
65
 73
4
 40
36.0
 49
24.0
 74
0
 49
-3.0
 74
0
 49
6.0
 74
0
 49
-3.0
 74
0
  0
LTYPE
  5
38
100
AcDbSymbolTableRecord
100
AcDbLinetypeTableRecord
  2
HIDDEN2
 70
0
  3
Hidden (.5x) _ _ _ _ _ _ _ _ _ _ _ _ _ _ _ _ _ 
 72
65
 73
2
 40
0.1875
 49
0.125
 74
0
 49
-0.0625
 74
0
  0
LTYPE
  5
39
100
AcDbSymbolTableRecord
100
AcDbLinetypeTableRecord
  2
ACAD_ISO15W100
 70
0
  3
ISO double-dash triple-dot __ __ . . . __ __ . .
 72
65
 73
10
 40
39.0000000000000071
 49
12.0
 74
0
 49
-3.0
 74
0
 49
12.0
 74
0
 49
-2.9500000000000002
 74
0
 49
0.1
 74
0
 49
-2.9000000000000004
 74
0
 49
0.1
 74
0
 49
-2.9000000000000004
 74
0
 49
0.1
 74
0
 49
-2.9500000000000002
 74
0
  0
LTYPE
  5
3A
100
AcDbSymbolTableRecord
100
AcDbLinetypeTableRecord
  2
DIVIDEX2
 70
0
  3
Divide (2x) ________  .  .  ________  .  .  _
 72
65
 73
6
 40
2.5000000000000004
 49
1.0
 74
0
 49
-0.45
 74
0
 49
0.1
 74
0
 49
-0.4
 74
0
 49
0.1
 74
0
 49
-0.45
 74
0
  0
LTYPE
  5
3B
100
AcDbSymbolTableRecord
100
AcDbLinetypeTableRecord
  2
ACAD_ISO07W100
 70
0
  3
ISO dot . . . . . . . . . . . . . . . . . . . . 
 72
65
 73
2
 40
3.0
 49
0.1
 74
0
 49
-2.8999999999999999
 74
0
  0
LTYPE
  5
3C
100
AcDbSymbolTableRecord
100
AcDbLinetypeTableRecord
  2
CENTER
 70
0
  3
Center ____ _ ____ _ ____ _ ____ _ ____ _ ____
 72
65
 73
4
 40
2.0
 49
1.25
 74
0
 49
-0.25
 74
0
 49
0.25
 74
0
 49
-0.25
 74
0
  0
LTYPE
  5
3D
100
AcDbSymbolTableRecord
100
AcDbLinetypeTableRecord
  2
BORDERX2
 70
0
  3
Border (2x) ____  ____  .  ____  ____  .  ___
 72
65
 73
6
 40
3.5000000000000004
 49
1.0
 74
0
 49
-0.5
 74
0
 49
1.0
 74
0
 49
-0.45
 74
0
 49
0.1
 74
0
 49
-0.45
 74
0
  0
LTYPE
  5
3E
100
AcDbSymbolTableRecord
100
AcDbLinetypeTableRecord
  2
DOT2
 70
0
  3
Dot (.5x) ........................................
 72
65
 73
2
 40
0.125
 49
0.1
 74
0
 49
-0.025
 74
0
  0
LTYPE
  5
3F
100
AcDbSymbolTableRecord
100
AcDbLinetypeTableRecord
  2
DIVIDE
 70
0
  3
Divide ____ . . ____ . . ____ . . ____ . . ____
 72
65
 73
6
 40
1.25
 49
0.5
 74
0
 49
-0.2
 74
0
 49
0.1
 74
0
 49
-0.15
 74
0
 49
0.1
 74
0
 49
-0.2
 74
0
  0
LTYPE
  5
40
100
AcDbSymbolTableRecord
100
AcDbLinetypeTableRecord
  2
DASHED
 70
0
  3
Dashed __ __ __ __ __ __ __ __ __ __ __ __ __ _
 72
65
 73
2
 40
0.75
 49
0.5
 74
0
 49
-0.25
 74
0
  0
LTYPE
  5
41
100
AcDbSymbolTableRecord
100
AcDbLinetypeTableRecord
  2
ACAD_ISO14W100
 70
0
  3
ISO dash triple-dot __ . . . __ . . . __ . . . _
 72
65
 73
8
 40
24.0000000000000036
 49
12.0
 74
0
 49
-2.9500000000000002
 74
0
 49
0.1
 74
0
 49
-2.9000000000000004
 74
0
 49
0.1
 74
0
 49
-2.9000000000000004
 74
0
 49
0.1
 74
0
 49
-2.9500000000000002
 74
0
  0
LTYPE
  5
14
100
AcDbSymbolTableRecord
100
AcDbLinetypeTableRecord
  2
BYBLOCK
 70
0
  3

 72
65
 73
0
 40
0.0
  0
LTYPE
  5
42
100
AcDbSymbolTableRecord
100
AcDbLinetypeTableRecord
  2
ACAD_ISO06W100
 70
0
  3
ISO long-dash triple-dot ____ ... ____ ... ____
 72
65
 73
8
 40
36.0000000000000071
 49
24.0
 74
0
 49
-2.9500000000000002
 74
0
 49
0.1
 74
0
 49
-2.9000000000000004
 74
0
 49
0.1
 74
0
 49
-2.9000000000000004
 74
0
 49
0.1
 74
0
 49
-2.9500000000000002
 74
0
  0
LTYPE
  5
43
100
AcDbSymbolTableRecord
100
AcDbLinetypeTableRecord
  2
PHANTOM2
 70
0
  3
Phantom (.5x) ___ _ _ ___ _ _ ___ _ _ ___ _ _
 72
65
 73
6
 40
1.25
 49
0.625
 74
0
 49
-0.125
 74
0
 49
0.125
 74
0
 49
-0.125
 74
0
 49
0.125
 74
0
 49
-0.125
 74
0
  0
LTYPE
  5
44
100
AcDbSymbolTableRecord
100
AcDbLinetypeTableRecord
  2
ACAD_ISO13W100
 70
0
  3
ISO double-dash double-dot __ __ . . __ __ . . _
 72
65
 73
8
 40
36.0000000000000071
 49
12.0
 74
0
 49
-3.0
 74
0
 49
12.0
 74
0
 49
-2.9500000000000002
 74
0
 49
0.1
 74
0
 49
-2.9000000000000004
 74
0
 49
0.1
 74
0
 49
-2.9500000000000002
 74
0
  0
LTYPE
  5
45
100
AcDbSymbolTableRecord
100
AcDbLinetypeTableRecord
  2
DOT
 70
0
  3
Dot . . . . . . . . . . . . . . . . . . . . . . . .
 72
65
 73
2
 40
0.25
 49
0.1
 74
0
 49
-0.15
 74
0
  0
LTYPE
  5
46
100
AcDbSymbolTableRecord
100
AcDbLinetypeTableRecord
  2
ACAD_ISO05W100
 70
0
  3
ISO long-dash double-dot ____ .. ____ .. ____ . 
 72
65
 73
6
 40
33.0000000000000071
 49
24.0
 74
0
 49
-2.9500000000000002
 74
0
 49
0.1
 74
0
 49
-2.9000000000000004
 74
0
 49
0.1
 74
0
 49
-2.9500000000000002
 74
0
  0
LTYPE
  5
47
100
AcDbSymbolTableRecord
100
AcDbLinetypeTableRecord
  2
HIDDENX2
 70
0
  3
Hidden (2x) ____ ____ ____ ____ ____ ____ ____ 
 72
65
 73
2
 40
0.75
 49
0.5
 74
0
 49
-0.25
 74
0
  0
LTYPE
  5
48
100
AcDbSymbolTableRecord
100
AcDbLinetypeTableRecord
  2
BORDER
 70
0
  3
Border __ __ . __ __ . __ __ . __ __ . __ __ .
 72
65
 73
6
 40
1.75
 49
0.5
 74
0
 49
-0.25
 74
0
 49
0.5
 74
0
 49
-0.2
 74
0
 49
0.1
 74
0
 49
-0.2
 74
0
  0
LTYPE
  5
49
100
AcDbSymbolTableRecord
100
AcDbLinetypeTableRecord
  2
ACAD_ISO12W100
 70
0
  3
ISO dash double-dot __ . . __ . . __ . . __ . . 
 72
65
 73
6
 40
21.0
 49
12.0
 74
0
 49
-2.9500000000000002
 74
0
 49
0.1
 74
0
 49
-2.9000000000000004
 74
0
 49
0.1
 74
0
 49
-2.9500000000000002
 74
0
  0
LTYPE
  5
4A
100
AcDbSymbolTableRecord
100
AcDbLinetypeTableRecord
  2
DASHEDX2
 70
0
  3
Dashed (2x) ____  ____  ____  ____  ____  ___
 72
65
 73
2
 40
1.5
 49
1.0
 74
0
 49
-0.5
 74
0
  0
LTYPE
  5
4B
100
AcDbSymbolTableRecord
100
AcDbLinetypeTableRecord
  2
ACAD_ISO04W100
 70
0
  3
ISO long-dash dot ____ . ____ . ____ . ____ . _
 72
65
 73
4
 40
30.0
 49
24.0
 74
0
 49
-2.9500000000000002
 74
0
 49
0.1
 74
0
 49
-2.9500000000000002
 74
0
  0
LTYPE
  5
4C
100
AcDbSymbolTableRecord
100
AcDbLinetypeTableRecord
  2
DOTX2
 70
0
  3
Dot (2x) .  .  .  .  .  .  .  .  .  .  .  .  .  .
 72
65
 73
2
 40
0.5
 49
0.1
 74
0
 49
-0.4
 74
0
  0
LTYPE
  5
4D
100
AcDbSymbolTableRecord
100
AcDbLinetypeTableRecord
  2
DASHED2
 70
0
  3
Dashed (.5x) _ _ _ _ _ _ _ _ _ _ _ _ _ _ _ _ _ 
 72
65
 73
2
 40
0.375
 49
0.25
 74
0
 49
-0.125
 74
0
  0
LTYPE
  5
4E
100
AcDbSymbolTableRecord
100
AcDbLinetypeTableRecord
  2
ACAD_ISO11W100
 70
0
  3
ISO double-dash dot __ __ . __ __ . __ __ . __ _
 72
65
 73
6
 40
33.0
 49
12.0
 74
0
 49
-3.0
 74
0
 49
12.0
 74
0
 49
-2.9500000000000002
 74
0
 49
0.1
 74
0
 49
-2.9500000000000002
 74
0
  0
LTYPE
  5
4F
100
AcDbSymbolTableRecord
100
AcDbLinetypeTableRecord
  2
ACAD_ISO03W100
 70
0
  3
ISO dash space __    __    __    __    __    __
 72
65
 73
2
 40
30.0
 49
12.0
 74
0
 49
-18.0
 74
0
  0
LTYPE
  5
50
100
AcDbSymbolTableRecord
100
AcDbLinetypeTableRecord
  2
HIDDEN
 70
0
  3
Hidden __ __ __ __ __ __ __ __ __ __ __ __ __ __
 72
65
 73
2
 40
0.375
 49
0.25
 74
0
 49
-0.125
 74
0
  0
LTYPE
  5
15
100
AcDbSymbolTableRecord
100
AcDbLinetypeTableRecord
  2
BYLAYER
 70
0
  3

 72
65
 73
0
 40
0.0
  0
LTYPE
  5
51
100
AcDbSymbolTableRecord
100
AcDbLinetypeTableRecord
  2
CENTER2
 70
0
  3
Center (.5x) ___ _ ___ _ ___ _ ___ _ ___ _ ___
 72
65
 73
4
 40
1.125
 49
0.75
 74
0
 49
-0.125
 74
0
 49
0.125
 74
0
 49
-0.125
 74
0
  0
LTYPE
  5
52
100
AcDbSymbolTableRecord
100
AcDbLinetypeTableRecord
  2
ACAD_ISO10W100
 70
0
  3
ISO dash dot __ . __ . __ . __ . __ . __ . __ . 
 72
65
 73
4
 40
18.0
 49
12.0
 74
0
 49
-2.9500000000000002
 74
0
 49
0.1
 74
0
 49
-2.9500000000000002
 74
0
  0
LTYPE
  5
53
100
AcDbSymbolTableRecord
100
AcDbLinetypeTableRecord
  2
ACAD_ISO02W100
 70
0
  3
ISO dash __ __ __ __ __ __ __ __ __ __ __ __ __
 72
65
 73
2
 40
15.0
 49
12.0
 74
0
 49
-3.0
 74
0
  0
LTYPE
  5
54
100
AcDbSymbolTableRecord
100
AcDbLinetypeTableRecord
  2
DASHDOTX2
 70
0
  3
Dash dot (2x) ____  .  ____  .  ____  .  ___
 72
65
 73
4
 40
2.0
 49
1.0
 74
0
 49
-0.45
 74
0
 49
0.1
 74
0
 49
-0.45
 74
0
  0
LTYPE
  5
55
100
AcDbSymbolTableRecord
100
AcDbLinetypeTableRecord
  2
DASHDOT
 70
0
  3
Dash dot __ . __ . __ . __ . __ . __ . __ . __
 72
65
 73
4
 40
1.0
 49
0.5
 74
0
 49
-0.2
 74
0
 49
0.1
 74
0
 49
-0.2
 74
0
  0
LTYPE
  5
56
100
AcDbSymbolTableRecord
100
AcDbLinetypeTableRecord
  2
DASHDOT2
 70
0
  3
Dash dot (.5x) _._._._._._._._._._._._._._._.
 72
65
 73
4
 40
0.5
 49
0.25
 74
0
 49
-0.075
 74
0
 49
0.1
 74
0
 49
-0.075
 74
0
  0
ENDTAB
  0
TABLE
  2
LAYER
  5
2
100
AcDbSymbolTable
 70
1
  0
LAYER
  5
10
100
AcDbSymbolTableRecord
100
AcDbLayerTableRecord
  2
0
 70
0
 62
7
420
16777215
  6
Continuous
370
25
390
F
  0
ENDTAB
  0
TABLE
  2
STYLE
  5
3
100
AcDbSymbolTable
 70
1
  0
STYLE
  5
57
100
AcDbSymbolTableRecord
100
AcDbTextStyleTableRecord
  2
Standard
 70
0
 40
0.0
 41
1.0
 50
0.0
 71
0
 42
2.5
  3

  4

1001
ACAD
1000
txt
1071
0
  0
ENDTAB
  0
TABLE
  2
VIEW
  5
6
100
AcDbSymbolTable
 70
0
  0
ENDTAB
  0
TABLE
  2
UCS
  5
7
100
AcDbSymbolTable
 70
0
  0
ENDTAB
  0
TABLE
  2
APPID
  5
9
100
AcDbSymbolTable
 70
1
  0
APPID
  5
12
100
AcDbSymbolTableRecord
100
AcDbRegAppTableRecord
  2
ACAD
 70
0
  0
APPID
  5
58
100
AcDbSymbolTableRecord
100
AcDbRegAppTableRecord
  2
QCAD
 70
0
  0
ENDTAB
  0
TABLE
  2
DIMSTYLE
  5
A
100
AcDbSymbolTable
 70
1
100
AcDbDimStyleTable
 71
0
  0
DIMSTYLE
105
27
100
AcDbSymbolTableRecord
100
AcDbDimStyleTableRecord
  2
Standard
 41
0.125
 42
0.03125
 43
3.75
 44
0.0625
 70
0
 73
0
 74
0
 77
1
 78
8
140
0.125
141
2.5
143
0.03937007874016
147
0.03125
171
3
172
1
271
2
272
2
274
3
278
44
283
0
284
8
340
57
  0
ENDTAB
  0
TABLE
  2
BLOCK_RECORD
  5
1
100
AcDbSymbolTable
 70
1
  0
BLOCK_RECORD
  5
1F
100
AcDbSymbolTableRecord
100
AcDbBlockTableRecord
  2
*Model_Space
340
22
  0
BLOCK_RECORD
  5
1B
100
AcDbSymbolTableRecord
100
AcDbBlockTableRecord
  2
*Paper_Space
340
1E
  0
BLOCK_RECORD
  5
23
100
AcDbSymbolTableRecord
100
AcDbBlockTableRecord
  2
*Paper_Space0
340
26
  0
ENDTAB
  0
ENDSEC
  0
SECTION
  2
BLOCKS
  0
BLOCK
  5
20
100
AcDbEntity
  8
0
100
AcDbBlockBegin
  2
*Model_Space
 70
0
 10
0.0
 20
0.0
 30
0.0
  3
*Model_Space
  1

  0
ENDBLK
  5
21
100
AcDbEntity
  8
0
100
AcDbBlockEnd
  0
BLOCK
  5
1C
100
AcDbEntity
 67
1
  8
0
100
AcDbBlockBegin
  2
*Paper_Space
 70
0
 10
0.0
 20
0.0
 30
0.0
  3
*Paper_Space
  1

  0
ENDBLK
  5
1D
100
AcDbEntity
 67
1
  8
0
100
AcDbBlockEnd
  0
BLOCK
  5
24
100
AcDbEntity
  8
0
100
AcDbBlockBegin
  2
*Paper_Space0
 70
0
 10
0.0
 20
0.0
 30
0.0
  3
*Paper_Space0
  1

  0
ENDBLK
  5
25
100
AcDbEntity
  8
0
100
AcDbBlockEnd
  0
ENDSEC
  0
SECTION
  2
ENTITIES
  0
ARC
  5
59
100
AcDbEntity
  8
0
 62
256
370
-1
 48
1.0
  6
BYLAYER
100
AcDbCircle
 10
-3.5227803320766728
 20
-4.697233830644219
 30
0.0
 40
3.3212438233086017
100
AcDbArc
 50
212.080386523133626
 51
267.6353119162063763
  0
ARC
  5
5A
100
AcDbEntity
  8
0
 62
256
370
-1
 48
1.0
  6
BYLAYER
100
AcDbCircle
 10
-3.4696003092159815
 20
-4.648663573079495
 30
0.0
 40
3.392124102058157
100
AcDbArc
 50
186.923980958385954
 51
212.2984374400604963
  0
ARC
  5
5B
100
AcDbEntity
  8
0
 62
256
370
-1
 48
1.0
  6
BYLAYER
100
AcDbCircle
 10
-3.9307448228193458
 20
-4.6770630392059092
 30
0.0
 40
2.931047176358585
100
AcDbArc
 50
179.1343788011875233
 51
187.459595078492697
  0
ARC
  5
5C
100
AcDbEntity
  8
0
 62
256
370
-1
 48
1.0
  6
BYLAYER
100
AcDbCircle
 10
-4.4064243204712072
 20
-4.5853556413126277
 30
0.0
 40
2.4554912406046889
100
AcDbArc
 50
175.1825871746179644
 51
181.1067177657583329
  0
ARC
  5
5D
100
AcDbEntity
  8
0
 62
256
370
-1
 48
1.0
  6
BYLAYER
100
AcDbCircle
 10
-3.4654781412393798
 20
-4.6289640209064649
 30
0.0
 40
3.3969618809109789
100
AcDbArc
 50
153.3876963081210079
 51
175.7824981990928848
  0
ARC
  5
5E
100
AcDbEntity
  8
0
 62
256
370
-1
 48
1.0
  6
BYLAYER
100
AcDbCircle
 10
-3.4944370749531566
 20
-4.6098058563005253
 30
0.0
 40
3.3624915607910126
100
AcDbArc
 50
111.908520852852547
 51
153.4585187851787396
  0
ARC
  5
5F
100
AcDbEntity
  8
0
 62
256
370
-1
 48
1.0
  6
BYLAYER
100
AcDbCircle
 10
-3.5368795003946318
 20
-4.529180043306348
 30
0.0
 40
3.2718653185614595
100
AcDbArc
 50
94.3095671126453112
 51
111.7457725875432288
  0
ARC
  5
60
100
AcDbEntity
  8
0
 62
256
370
-1
 48
1.0
  6
BYLAYER
100
AcDbCircle
 10
-3.5820458720106312
 20
-3.6156351092481267
 30
0.0
 40
2.3576275246646152
100
AcDbArc
 50
88.7889284762100743
 51
94.8833511484433529
  0
ARC
  5
61
100
AcDbEntity
  8
0
 62
256
370
-1
 48
1.0
  6
BYLAYER
100
AcDbCircle
 10
-3.4816606745976197
 20
-3.5980632629452303
 30
0.0
 40
2.3400751922785097
100
AcDbArc
 50
85.0977565831221909
 51
91.2379219988553558
  0
ARC
  5
62
100
AcDbEntity
  8
0
 62
256
370
-1
 48
1.0
  6
BYLAYER
100
AcDbCircle
 10
-3.5242506197608559
 20
-4.5131044388517507
 30
0.0
 40
3.2556050854993104
100
AcDbArc
 50
78.3918903537149987
 51
85.7271409980987045
  0
ARC
  5
63
100
AcDbEntity
  8
0
 62
256
370
-1
 48
1.0
  6
BYLAYER
100
AcDbCircle
 10
0.1510327880823086
 20
-4.3788653119110492
 30
0.0
 40
0.3625809905408274
100
AcDbArc
 50
192.1487501658027668
 51
193.6980139927331095
  0
ARC
  5
64
100
AcDbEntity
  8
0
 62
256
370
-1
 48
1.0
  6
BYLAYER
100
AcDbCircle
 10
-0.6479103536042936
 20
-4.549666097411686
 30
0.0
 40
0.4546793245281091
100
AcDbArc
 50
355.0103107316492128
 51
10.7668497695411496
  0
ARC
  5
65
100
AcDbEntity
  8
0
 62
256
370
-1
 48
1.0
  6
BYLAYER
100
AcDbCircle
 10
-3.5500541841613429
 20
-4.6268978351920724
 30
0.0
 40
3.3553117258859029
100
AcDbArc
 50
343.6836347453647136
 51
0.6435336658894736
  0
ARC
  5
66
100
AcDbEntity
  8
0
 62
256
370
-1
 48
1.0
  6
BYLAYER
100
AcDbCircle
 10
-3.5939173897543761
 20
-4.6482455728621215
 30
0.0
 40
3.3915696076513102
100
AcDbArc
 50
314.0674191109815752
 51
344.2379376464372172
  0
ARC
  5
67
100
AcDbEntity
  8
0
 62
256
370
-1
 48
1.0
  6
BYLAYER
100
AcDbCircle
 10
-3.5281524684654815
 20
-4.7299560915667342
 30
0.0
 40
3.2871329723059977
100
AcDbArc
 50
270.7700070137198054
 51
314.2343405015078588
  0
ARC
  5
68
100
AcDbEntity
  8
0
 62
256
370
-1
 48
1.0
  6
BYLAYER
100
AcDbCircle
 10
-3.5433051410097014
 20
-3.6127255644595255
 30
0.0
 40
4.4044662440532827
100
AcDbArc
 50
268.4842044982327138
 51
270.7717907345829644
  0
LWPOLYLINE
  5
69
100
AcDbEntity
  8
0
 62
256
370
-1
 48
1.0
  6
BYLAYER
100
AcDbPolyline
 90
2
 70
128
 10
-3.6598144444444443
 20
-8.0156505555555562
 10
-3.6598144444444443
 20
-8.0156494444444437
  0
ARC
  5
6A
100
AcDbEntity
  8
0
 62
256
370
-1
 48
1.0
  6
BYLAYER
100
AcDbCircle
 10
-1.833635909941157
 20
-6.113200710158563
 30
0.0
 40
0.1686992230264675
100
AcDbArc
 50
359.8556612694541172
 51
40.6864346489949753
  0
ARC
  5
6B
100
AcDbEntity
  8
0
 62
256
370
-1
 48
1.0
  6
BYLAYER
100
AcDbCircle
 10
-1.7837526408309885
 20
-6.1280305657066823
 30
0.0
 40
0.1471978548001351
100
AcDbArc
 50
57.9832603642787205
 51
72.0836418639122485
  0
ARC
  5
6C
100
AcDbEntity
  8
0
 62
256
370
-1
 48
1.0
  6
BYLAYER
100
AcDbCircle
 10
-1.7410751594252067
 20
-5.9337673608833956
 30
0.0
 40
0.0542660216937784
100
AcDbArc
 50
188.4050576258191825
 51
272.7512268066867023
  0
ARC
  5
6D
100
AcDbEntity
  8
0
 62
256
370
-1
 48
1.0
  6
BYLAYER
100
AcDbCircle
 10
-1.7454899365248058
 20
-5.976990717622261
 30
0.0
 40
0.0606040335835304
100
AcDbArc
 50
92.3972474428699257
 51
144.3857284442828757
  0
ARC
  5
6E
100
AcDbEntity
  8
0
 62
256
370
-1
 48
1.0
  6
BYLAYER
100
AcDbCircle
 10
-1.5945236700428069
 20
-6.4118981361272258
 30
0.0
 40
0.5186922551654781
100
AcDbArc
 50
84.0959892713719341
 51
107.2138436419138685
  0
ARC
  5
6F
100
AcDbEntity
  8
0
 62
256
370
-1
 48
1.0
  6
BYLAYER
100
AcDbCircle
 10
-1.5610828211434709
 20
-5.9548732780352269
 30
0.0
 40
0.0621902533345167
100
AcDbArc
 50
23.7091558609164643
 51
71.3253287455500669
  0
ARC
  5
70
100
AcDbEntity
  8
0
 62
256
370
-1
 48
1.0
  6
BYLAYER
100
AcDbCircle
 10
-1.4554287206588001
 20
-5.899396229523953
 30
0.0
 40
0.0574578284063765
100
AcDbArc
 50
212.0267013515174028
 51
267.1457484587854765
  0
SPLINE
  5
71
100
AcDbEntity
  8
0
 62
256
370
-1
 48
1.0
  6
BYLAYER
100
AcDbSpline
 70
8
 71
3
 72
8
 73
4
 74
0
 40
0.0
 40
0.0
 40
0.0
 40
0.0
 40
1.0
 40
1.0
 40
1.0
 40
1.0
 10
-1.4582898611111108
 20
-5.9567827777777795
 30
0.0
 10
-1.4202355555555555
 20
-5.9573550000000015
 30
0.0
 10
-1.400585833333333
 20
-5.9173608333333352
 30
0.0
 10
-1.3804178472222219
 20
-5.7982855555555579
 30
0.0
  0
SPLINE
  5
72
100
AcDbEntity
  8
0
 62
256
370
-1
 48
1.0
  6
BYLAYER
100
AcDbSpline
 70
8
 71
3
 72
8
 73
4
 74
0
 40
0.0
 40
0.0
 40
0.0
 40
0.0
 40
1.0
 40
1.0
 40
1.0
 40
1.0
 10
-1.3804178472222219
 20
-5.7982855555555579
 30
0.0
 10
-1.3528206666666664
 20
-5.6353425000000019
 30
0.0
 10
-1.3710519444444442
 20
-5.5426558333333356
 30
0.0
 10
-1.4325133333333329
 20
-5.5334390277777805
 30
0.0
  0
ARC
  5
73
100
AcDbEntity
  8
0
 62
256
370
-1
 48
1.0
  6
BYLAYER
100
AcDbCircle
 10
-1.4464179911962221
 20
-5.9907545645592792
 30
0.0
 40
0.4575268731911104
100
AcDbArc
 50
88.2584609885933276
 51
100.9917027835092824
  0
ARC
  5
74
100
AcDbEntity
  8
0
 62
256
370
-1
 48
1.0
  6
BYLAYER
100
AcDbCircle
 10
-1.4802275838854202
 20
-5.6401046807280917
 30
0.0
 40
0.1120415518819086
100
AcDbArc
 50
118.4790553322903293
 51
185.324468232023861
  0
ARC
  5
75
100
AcDbEntity
  8
0
 62
256
370
-1
 48
1.0
  6
BYLAYER
100
AcDbCircle
 10
-1.6084450660710021
 20
-5.6556668875115186
 30
0.0
 40
0.0174417364206611
100
AcDbArc
 50
277.3614746390119876
 51
17.2259954055181659
  0
ARC
  5
76
100
AcDbEntity
  8
0
 62
256
370
-1
 48
1.0
  6
BYLAYER
100
AcDbCircle
 10
-1.6175722116109894
 20
-5.1476845996243386
 30
0.0
 40
0.5254031277486314
100
AcDbArc
 50
259.6984494097611673
 51
271.239127769052061
  0
ARC
  5
77
100
AcDbEntity
  8
0
 62
256
370
-1
 48
1.0
  6
BYLAYER
100
AcDbCircle
 10
-1.6827881947328136
 20
-5.5874755288599625
 30
0.0
 40
0.0823229719884041
100
AcDbArc
 50
200.4395759450317485
 51
249.5660146250328069
  0
ARC
  5
78
100
AcDbEntity
  8
0
 62
256
370
-1
 48
1.0
  6
BYLAYER
100
AcDbCircle
 10
-2.7031289577665225
 20
-6.0940531092883177
 30
0.0
 40
1.0573306226569026
100
AcDbArc
 50
26.866932927692833
 51
29.5463596606551953
  0
ARC
  5
79
100
AcDbEntity
  8
0
 62
256
370
-1
 48
1.0
  6
BYLAYER
100
AcDbCircle
 10
-1.6374306211585972
 20
-5.4907492538282821
 30
0.0
 40
0.1672882497295939
100
AcDbArc
 50
178.7938623297579852
 51
209.3145242161449744
  0
ARC
  5
7A
100
AcDbEntity
  8
0
 62
256
370
-1
 48
1.0
  6
BYLAYER
100
AcDbCircle
 10
-1.3845278629609203
 20
-5.4173408913754404
 30
0.0
 40
0.4259266741845039
100
AcDbArc
 50
180.7584285227492273
 51
189.4439271536512024
  0
ARC
  5
7B
100
AcDbEntity
  8
0
 62
256
370
-1
 48
1.0
  6
BYLAYER
100
AcDbCircle
 10
-1.7357084606576938
 20
-5.571051377274407
 30
0.0
 40
0.1658520485325713
100
AcDbArc
 50
107.7589692418910516
 51
116.7728324473607273
  0
ARC
  5
7C
100
AcDbEntity
  8
0
 62
256
370
-1
 48
1.0
  6
BYLAYER
100
AcDbCircle
 10
-1.6894308867430625
 20
-5.625128360063032
 30
0.0
 40
0.2331045460724041
100
AcDbArc
 50
78.1544187229401359
 51
114.5534370994400177
  0
ARC
  5
7D
100
AcDbEntity
  8
0
 62
256
370
-1
 48
1.0
  6
BYLAYER
100
AcDbCircle
 10
-1.7712269315903804
 20
-5.5636006895364618
 30
0.0
 40
0.2111114277229596
100
AcDbArc
 50
39.4183994907895752
 51
52.1124190065417423
  0
ARC
  5
7E
100
AcDbEntity
  8
0
 62
256
370
-1
 48
1.0
  6
BYLAYER
100
AcDbCircle
 10
-1.4360803714669734
 20
-5.289907216014881
 30
0.0
 40
0.2215930144635394
100
AcDbArc
 50
219.0629851280316984
 51
229.9817536815658059
  0
ARC
  5
7F
100
AcDbEntity
  8
0
 62
256
370
-1
 48
1.0
  6
BYLAYER
100
AcDbCircle
 10
-1.5607883640960536
 20
-5.4161509208800247
 30
0.0
 40
0.0469585606634737
100
AcDbArc
 50
247.7466930159743015
 51
305.828854367039412
  0
ARC
  5
80
100
AcDbEntity
  8
0
 62
256
370
-1
 48
1.0
  6
BYLAYER
100
AcDbCircle
 10
-1.552669981054037
 20
-5.3940492782933456
 30
0.0
 40
0.0632148213597635
100
AcDbArc
 50
287.8429282404500213
 51
335.148408549845044
  0
ARC
  5
81
100
AcDbEntity
  8
0
 62
256
370
-1
 48
1.0
  6
BYLAYER
100
AcDbCircle
 10
-1.6398387285412206
 20
-5.4536273358812695
 30
0.0
 40
0.1482517723387284
100
AcDbArc
 50
12.8657393705622436
 51
25.7391188232729888
  0
ARC
  5
82
100
AcDbEntity
  8
0
 62
256
370
-1
 48
1.0
  6
BYLAYER
100
AcDbCircle
 10
-1.4058550602895843
 20
-5.3325085916701722
 30
0.0
 40
0.1153582584884002
100
AcDbArc
 50
172.579069409929275
 51
209.4610318193933267
  0
ARC
  5
83
100
AcDbEntity
  8
0
 62
256
370
-1
 48
1.0
  6
BYLAYER
100
AcDbCircle
 10
-1.4684891301451137
 20
-5.3356035195315723
 30
0.0
 40
0.0547967376151224
100
AcDbArc
 50
106.2039448785760953
 51
160.8293008664676051
  0
ARC
  5
84
100
AcDbEntity
  8
0
 62
256
370
-1
 48
1.0
  6
BYLAYER
100
AcDbCircle
 10
-1.5111684913871037
 20
-5.2108385405195365
 30
0.0
 40
0.0771687128295964
100
AcDbArc
 50
290.7879190299368588
 51
4.9468446550192846
  0
ARC
  5
85
100
AcDbEntity
  8
0
 62
256
370
-1
 48
1.0
  6
BYLAYER
100
AcDbCircle
 10
-1.4791406606153601
 20
-5.2383383141305027
 30
0.0
 40
0.0563767392163501
100
AcDbArc
 50
37.2878604688556266
 51
128.7107478152703663
  0
ARC
  5
86
100
AcDbEntity
  8
0
 62
256
370
-1
 48
1.0
  6
BYLAYER
100
AcDbCircle
 10
-1.5106323988281332
 20
-5.1790391724306728
 30
0.0
 40
0.0157640033771528
100
AcDbArc
 50
166.1665751746207604
 51
256.1797346649870519
  0
ARC
  5
87
100
AcDbEntity
  8
0
 62
256
370
-1
 48
1.0
  6
BYLAYER
100
AcDbCircle
 10
-1.6194087059086228
 20
-5.1956982000749408
 30
0.0
 40
0.0956758387703257
100
AcDbArc
 50
12.328403862955696
 51
50.9764251620754436
  0
ARC
  5
88
100
AcDbEntity
  8
0
 62
256
370
-1
 48
1.0
  6
BYLAYER
100
AcDbCircle
 10
-1.5549498561752269
 20
-5.2072137980317246
 30
0.0
 40
0.0859484483491442
100
AcDbArc
 50
92.8126431400381477
 51
163.1683581451471809
  0
ARC
  5
89
100
AcDbEntity
  8
0
 62
256
370
-1
 48
1.0
  6
BYLAYER
100
AcDbCircle
 10
-1.6721676089392163
 20
-5.1630909614003233
 30
0.0
 40
0.039894918292428
100
AcDbArc
 50
248.6917159260897279
 51
331.1737041665197125
  0
ARC
  5
8A
100
AcDbEntity
  8
0
 62
256
370
-1
 48
1.0
  6
BYLAYER
100
AcDbCircle
 10
-1.698157197743196
 20
-5.2273476136828361
 30
0.0
 40
0.0294259725683955
100
AcDbArc
 50
67.0112249230714525
 51
136.3980607370210407
  0
ARC
  5
8B
100
AcDbEntity
  8
0
 62
256
370
-1
 48
1.0
  6
BYLAYER
100
AcDbCircle
 10
-1.6954556461329873
 20
-5.2334153083760233
 30
0.0
 40
0.0356567742670604
100
AcDbArc
 50
132.3279684233144735
 51
227.7926656543307331
  0
ARC
  5
8C
100
AcDbEntity
  8
0
 62
256
370
-1
 48
1.0
  6
BYLAYER
100
AcDbCircle
 10
-1.7452007291448159
 20
-5.2843880566966002
 30
0.0
 40
0.0356144416323423
100
AcDbArc
 50
354.9770835100240447
 51
43.6015490206865977
  0
ARC
  5
8D
100
AcDbEntity
  8
0
 62
256
370
-1
 48
1.0
  6
BYLAYER
100
AcDbCircle
 10
-1.7968593573959852
 20
-5.119425374428177
 30
0.0
 40
0.18932489490666
100
AcDbArc
 50
273.6716474188650636
 51
297.4030767429694038
  0
ARC
  5
8E
100
AcDbEntity
  8
0
 62
256
370
-1
 48
1.0
  6
BYLAYER
100
AcDbCircle
 10
-1.8405113277343677
 20
-5.2092071826125705
 30
0.0
 40
0.1137654581004044
100
AcDbArc
 50
233.84301135215523
 51
299.3584789886517683
  0
ARC
  5
8F
100
AcDbEntity
  8
0
 62
256
370
-1
 48
1.0
  6
BYLAYER
100
AcDbCircle
 10
-1.4913499560588617
 20
-5.256451199742874
 30
0.0
 40
0.4186664656303076
100
AcDbArc
 50
180.2566261974804149
 51
186.1167091885149034
  0
LWPOLYLINE
  5
90
100
AcDbEntity
  8
0
 62
256
370
-1
 48
1.0
  6
BYLAYER
100
AcDbPolyline
 90
3
 70
128
 10
-1.9100122222222218
 20
-5.2583263888888911
 10
-1.9107788888888886
 20
-5.2225365277777804
 10
-1.9434563888888885
 20
-5.2227448611111136
  0
ARC
  5
91
100
AcDbEntity
  8
0
 62
256
370
-1
 48
1.0
  6
BYLAYER
100
AcDbCircle
 10
-1.893897907404096
 20
-9.8255117719912466
 30
0.0
 40
4.6030337038718407
100
AcDbArc
 50
90.6168859216172109
 51
91.6125448314284796
  0
ARC
  5
92
100
AcDbEntity
  8
0
 62
256
370
-1
 48
1.0
  6
BYLAYER
100
AcDbCircle
 10
-2.043187542994362
 20
-5.116572580051141
 30
0.0
 40
0.1095252639792927
100
AcDbArc
 50
253.2348750609486103
 51
280.3928478770703805
  0
ARC
  5
93
100
AcDbEntity
  8
0
 62
256
370
-1
 48
1.0
  6
BYLAYER
100
AcDbCircle
 10
-1.9173412670204859
 20
-5.3711386926499074
 30
0.0
 40
0.2172461846294935
100
AcDbArc
 50
92.7846120912474959
 51
136.4440589835217281
  0
ARC
  5
94
100
AcDbEntity
  8
0
 62
256
370
-1
 48
1.0
  6
BYLAYER
100
AcDbCircle
 10
-2.0368741065590501
 20
-4.6974006081761939
 30
0.0
 40
0.4695694556284588
100
AcDbArc
 50
283.4196878105526594
 51
302.8311795595986382
  0
ARC
  5
95
100
AcDbEntity
  8
0
 62
256
370
-1
 48
1.0
  6
BYLAYER
100
AcDbCircle
 10
-1.8353139334597508
 20
-5.0610470170166462
 30
0.0
 40
0.0613806412728803
100
AcDbArc
 50
329.7526571371194564
 51
356.5860277241480958
  0
LWPOLYLINE
  5
96
100
AcDbEntity
  8
0
 62
256
370
-1
 48
1.0
  6
BYLAYER
100
AcDbPolyline
 90
3
 70
128
 10
-1.7740422222222219
 20
-5.0647022222222242
 10
-1.7718565277777774
 20
-5.0451443055555583
 10
-1.7460002777777774
 20
-5.0202470833333361
  0
ARC
  5
97
100
AcDbEntity
  8
0
 62
256
370
-1
 48
1.0
  6
BYLAYER
100
AcDbCircle
 10
-1.8068198290416482
 20
-4.9372698046092047
 30
0.0
 40
0.1028797676921977
100
AcDbArc
 50
306.240161146357309
 51
350.3217721258817505
  0
ARC
  5
98
100
AcDbEntity
  8
0
 62
256
370
-1
 48
1.0
  6
BYLAYER
100
AcDbCircle
 10
-1.7436953200824326
 20
-4.9471496707439462
 30
0.0
 40
0.0390025009593982
100
AcDbArc
 50
349.0393291686588668
 51
38.3204162588536121
  0
ARC
  5
99
100
AcDbEntity
  8
0
 62
256
370
-1
 48
1.0
  6
BYLAYER
100
AcDbCircle
 10
-1.7959707922232029
 20
-4.9727797081894041
 30
0.0
 40
0.0966938672306302
100
AcDbArc
 50
31.0088845673672324
 51
96.151706310841476
  0
LWPOLYLINE
  5
9A
100
AcDbEntity
  8
0
 62
256
370
-1
 48
1.0
  6
BYLAYER
100
AcDbPolyline
 90
3
 70
128
 10
-1.8063326388888887
 20
-4.8766426388888915
 10
-1.8267504166666664
 20
-4.8785375000000029
 10
-1.8372716666666664
 20
-4.8582326388888921
  0
ARC
  5
9B
100
AcDbEntity
  8
0
 62
256
370
-1
 48
1.0
  6
BYLAYER
100
AcDbCircle
 10
-3.4460069081980942
 20
-5.7404242261863923
 30
0.0
 40
1.8347455066149265
100
AcDbArc
 50
28.7393007509021743
 51
33.8019055554029322
  0
LWPOLYLINE
  5
9C
100
AcDbEntity
  8
0
 62
256
370
-1
 48
1.0
  6
BYLAYER
100
AcDbPolyline
 90
3
 70
128
 10
-1.9213958333333332
 20
-4.7197126388888924
 10
-1.93630875
 20
-4.6992720833333363
 10
-1.9178097222222221
 20
-4.6776986111111141
  0
ARC
  5
9D
100
AcDbEntity
  8
0
 62
256
370
-1
 48
1.0
  6
BYLAYER
100
AcDbCircle
 10
-2.2589686786577214
 20
-4.3755729841107547
 30
0.0
 40
0.4557075027323111
100
AcDbArc
 50
318.4723455182714815
 51
328.1498525887438404
  0
ARC
  5
9E
100
AcDbEntity
  8
0
 62
256
370
-1
 48
1.0
  6
BYLAYER
100
AcDbCircle
 10
-1.9175241154262941
 20
-5.0937903996780065
 30
0.0
 40
0.4799166488670719
100
AcDbArc
 50
84.5420233516247919
 51
91.8005082429059058
  0
LWPOLYLINE
  5
9F
100
AcDbEntity
  8
0
 62
256
370
-1
 48
1.0
  6
BYLAYER
100
AcDbPolyline
 90
3
 70
128
 10
-1.9326029166666667
 20
-4.6141106944444479
 10
-1.9933288888888887
 20
-4.6141106944444479
 10
-1.9820594444444444
 20
-4.5915475000000034
  0
ARC
  5
A0
100
AcDbEntity
  8
0
 62
256
370
-1
 48
1.0
  6
BYLAYER
100
AcDbCircle
 10
-1.7161215034230108
 20
-4.7106108875658261
 30
0.0
 40
0.2913744647929338
100
AcDbArc
 50
125.859917800067592
 51
155.8814042700966809
  0
SPLINE
  5
A1
100
AcDbEntity
  8
0
 62
256
370
-1
 48
1.0
  6
BYLAYER
100
AcDbSpline
 70
8
 71
3
 72
8
 73
4
 74
0
 40
0.0
 40
0.0
 40
0.0
 40
0.0
 40
1.0
 40
1.0
 40
1.0
 40
1.0
 10
-1.8868102777777775
 20
-4.4744659722222258
 30
0.0
 10
-1.8697301388888885
 20
-4.4660115277777814
 30
0.0
 10
-1.874029722222222
 20
-4.4661387500000034
 30
0.0
 10
-1.9300388888888886
 20
-4.4757465277777806
 30
0.0
  0
ARC
  5
A2
100
AcDbEntity
  8
0
 62
256
370
-1
 48
1.0
  6
BYLAYER
100
AcDbCircle
 10
-1.6945936497896372
 20
-5.8835745267730175
 30
0.0
 40
1.4273801649768838
100
AcDbArc
 50
99.4942843344533259
 51
105.7476770836489948
  0
ARC
  5
A3
100
AcDbEntity
  8
0
 62
256
370
-1
 48
1.0
  6
BYLAYER
100
AcDbCircle
 10
-2.1263363273122429
 20
-4.3871101746166081
 30
0.0
 40
0.1304306513135486
100
AcDbArc
 50
278.1922102300193274
 51
289.8783871375736112
  0
ARC
  5
A4
100
AcDbEntity
  8
0
 62
256
370
-1
 48
1.0
  6
BYLAYER
100
AcDbCircle
 10
0.0179051542604039
 20
-4.9928297017651895
 30
0.0
 40
2.1784350482945873
100
AcDbArc
 50
164.4750644563981723
 51
167.3620251991767134
  0
ARC
  5
A5
100
AcDbEntity
  8
0
 62
256
370
-1
 48
1.0
  6
BYLAYER
100
AcDbCircle
 10
-4.3383133331716124
 20
-3.7848327543181965
 30
0.0
 40
2.3421733241915965
100
AcDbArc
 50
344.5252987745349174
 51
347.2119458917903785
  0
ARC
  5
A6
100
AcDbEntity
  8
0
 62
256
370
-1
 48
1.0
  6
BYLAYER
100
AcDbCircle
 10
-0.6185228643834271
 20
-6.7383042853910267
 30
0.0
 40
2.8267837830036826
100
AcDbArc
 50
120.5238164332972701
 51
127.21739528401028
  0
ARC
  5
A7
100
AcDbEntity
  8
0
 62
256
370
-1
 48
1.0
  6
BYLAYER
100
AcDbCircle
 10
-2.3341628955874478
 20
-4.4885974776973265
 30
0.0
 40
0.0060479211292173
100
AcDbArc
 50
200.4934946541385443
 51
13.3071878830010988
  0
ARC
  5
A8
100
AcDbEntity
  8
0
 62
256
370
-1
 48
1.0
  6
BYLAYER
100
AcDbCircle
 10
0.1369318898829964
 20
-3.9911410055810768
 30
0.0
 40
2.5266408261678039
100
AcDbArc
 50
188.1717847474186271
 51
191.4038111894014946
  0
ARC
  5
A9
100
AcDbEntity
  8
0
 62
256
370
-1
 48
1.0
  6
BYLAYER
100
AcDbCircle
 10
-2.4163861341402391
 20
-4.3400966555710792
 30
0.0
 40
0.0533137121656658
100
AcDbArc
 50
348.9867127542559615
 51
38.7708134304016028
  0
ARC
  5
AA
100
AcDbEntity
  8
0
 62
256
370
-1
 48
1.0
  6
BYLAYER
100
AcDbCircle
 10
0.5319545381121706
 20
-6.030996362296257
 30
0.0
 40
3.3797182943300257
100
AcDbArc
 50
149.323777050736112
 51
155.662922045246205
  0
ARC
  5
AB
100
AcDbEntity
  8
0
 62
256
370
-1
 48
1.0
  6
BYLAYER
100
AcDbCircle
 10
-2.6872299041701648
 20
-4.5942475312181568
 30
0.0
 40
0.146545498389972
100
AcDbArc
 50
330.2398012323473608
 51
342.5466946765101284
  0
ARC
  5
AC
100
AcDbEntity
  8
0
 62
256
370
-1
 48
1.0
  6
BYLAYER
100
AcDbCircle
 10
-1.7503025929325602
 20
-3.8051282697908593
 30
0.0
 40
1.1825534627658227
100
AcDbArc
 50
219.7659721456974466
 51
226.7869662337722616
  0
LWPOLYLINE
  5
AD
100
AcDbEntity
  8
0
 62
256
370
-1
 48
1.0
  6
BYLAYER
100
AcDbPolyline
 90
3
 70
128
 10
-2.659288333333333
 20
-4.5615525000000039
 10
-2.6857058333333335
 20
-4.5292220833333374
 10
-2.6881801388888888
 20
-4.5786693055555592
  0
ARC
  5
AE
100
AcDbEntity
  8
0
 62
256
370
-1
 48
1.0
  6
BYLAYER
100
AcDbCircle
 10
1.3444214896928139
 20
-4.6986165268356697
 30
0.0
 40
4.0343851118519432
100
AcDbArc
 50
178.2962750858131642
 51
180.6604998368755446
  0
LWPOLYLINE
  5
AF
100
AcDbEntity
  8
0
 62
256
370
-1
 48
1.0
  6
BYLAYER
100
AcDbPolyline
 90
3
 70
128
 10
-2.6896955555555553
 20
-4.7451234722222262
 10
-2.6887372222222221
 20
-4.8621306944444473
 10
-2.7478631944444443
 20
-4.8423633333333367
  0
ARC
  5
B0
100
AcDbEntity
  8
0
 62
256
370
-1
 48
1.0
  6
BYLAYER
100
AcDbCircle
 10
-3.0154689476063301
 20
-5.5949866178875434
 30
0.0
 40
0.7987832294048882
100
AcDbArc
 50
70.4264441262868672
 51
75.0088988293038739
  0
ARC
  5
B1
100
AcDbEntity
  8
0
 62
256
370
-1
 48
1.0
  6
BYLAYER
100
AcDbCircle
 10
-1.9948808170788432
 20
-4.5340524081194413
 30
0.0
 40
0.8638628962203598
100
AcDbArc
 50
199.5685036823369387
 51
205.0946864532231473
  0
ARC
  5
B2
100
AcDbEntity
  8
0
 62
256
370
-1
 48
1.0
  6
BYLAYER
100
AcDbCircle
 10
-4.3182465877145573
 20
-5.5994528630133988
 30
0.0
 40
1.6921734921393305
100
AcDbArc
 50
21.4694508150364882
 51
24.3992005335805082
  0
ARC
  5
B3
100
AcDbEntity
  8
0
 62
256
370
-1
 48
1.0
  6
BYLAYER
100
AcDbCircle
 10
-2.7875031973103495
 20
-4.8518091458473434
 30
0.0
 40
0.1356396288074214
100
AcDbArc
 50
268.6324305012818172
 51
288.9352600866824332
  0
ARC
  5
B4
100
AcDbEntity
  8
0
 62
256
370
-1
 48
1.0
  6
BYLAYER
100
AcDbCircle
 10
-2.735089684906812
 20
-5.812976114686311
 30
0.0
 40
0.8274395351563471
100
AcDbArc
 50
93.8564278117027584
 51
97.218044569626656
  0
ARC
  5
B5
100
AcDbEntity
  8
0
 62
256
370
-1
 48
1.0
  6
BYLAYER
100
AcDbCircle
 10
-2.4304707270860293
 20
-4.4964234192558745
 30
0.0
 40
0.642362370142459
100
AcDbArc
 50
230.5011040754152987
 51
235.3727655100912273
  0
ARC
  5
B6
100
AcDbEntity
  8
0
 62
256
370
-1
 48
1.0
  6
BYLAYER
100
AcDbCircle
 10
-278.0992613782419198
 20
-386.1022810188678704
 30
0.0
 40
470.1192006948321023
100
AcDbArc
 50
54.1474874951047269
 51
54.1543146317109532
  0
ARC
  5
B7
100
AcDbEntity
  8
0
 62
256
370
-1
 48
1.0
  6
BYLAYER
100
AcDbCircle
 10
-2.9521637551530047
 20
-4.9338776228749515
 30
0.0
 40
0.2370603975717845
100
AcDbArc
 50
320.3023151414793688
 51
328.4809292209746445
  0
ARC
  5
B8
100
AcDbEntity
  8
0
 62
256
370
-1
 48
1.0
  6
BYLAYER
100
AcDbCircle
 10
-2.7394984386515029
 20
-5.1220295632176036
 30
0.0
 40
0.0475948289470122
100
AcDbArc
 50
129.4859595649438972
 51
169.5678608530670033
  0
ARC
  5
B9
100
AcDbEntity
  8
0
 62
256
370
-1
 48
1.0
  6
BYLAYER
100
AcDbCircle
 10
-2.6522699458930585
 20
-4.5052411502164134
 30
0.0
 40
0.6227656167664336
100
AcDbArc
 50
257.57109763085748
 51
260.8000110929757511
  0
ARC
  5
BA
100
AcDbEntity
  8
0
 62
256
370
-1
 48
1.0
  6
BYLAYER
100
AcDbCircle
 10
-2.7968314903084859
 20
-5.4250492743696999
 30
0.0
 40
0.3083538078243922
100
AcDbArc
 50
75.8584200846332379
 51
81.609785864762074
  0
ARC
  5
BB
100
AcDbEntity
  8
0
 62
256
370
-1
 48
1.0
  6
BYLAYER
100
AcDbCircle
 10
-3.2575996419638766
 20
-4.9043989570575572
 30
0.0
 40
0.5801147727275892
100
AcDbArc
 50
334.8717127682896262
 51
337.5383871174337855
  0
ARC
  5
BC
100
AcDbEntity
  8
0
 62
256
370
-1
 48
1.0
  6
BYLAYER
100
AcDbCircle
 10
-2.5095284168036347
 20
-5.2589570452700052
 30
0.0
 40
0.2477427431959604
100
AcDbArc
 50
154.1000172001296278
 51
160.6522975316119357
  0
ARC
  5
BD
100
AcDbEntity
  8
0
 62
256
370
-1
 48
1.0
  6
BYLAYER
100
AcDbCircle
 10
-2.7253069870459248
 20
-4.777052344973117
 30
0.0
 40
0.4002312729606829
100
AcDbArc
 50
267.4261776134229649
 51
275.9713971405776647
  0
ARC
  5
BE
100
AcDbEntity
  8
0
 62
256
370
-1
 48
1.0
  6
BYLAYER
100
AcDbCircle
 10
-2.6102981688107412
 20
-6.0490375290958154
 30
0.0
 40
0.8770002129426095
100
AcDbArc
 50
90.8323729936543316
 51
94.7991138491453
  0
ARC
  5
BF
100
AcDbEntity
  8
0
 62
256
370
-1
 48
1.0
  6
BYLAYER
100
AcDbCircle
 10
-2.7357260722414058
 20
-5.157922437034216
 30
0.0
 40
0.1135796905128039
100
AcDbArc
 50
341.0893886096563392
 51
352.8141787004196317
  0
ARC
  5
C0
100
AcDbEntity
  8
0
 62
256
370
-1
 48
1.0
  6
BYLAYER
100
AcDbCircle
 10
-2.4972673765201003
 20
-5.236922870656449
 30
0.0
 40
0.1376352950129681
100
AcDbArc
 50
162.1494377158722386
 51
195.294423460022756
  0
ARC
  5
C1
100
AcDbEntity
  8
0
 62
256
370
-1
 48
1.0
  6
BYLAYER
100
AcDbCircle
 10
-2.5179978262827527
 20
-5.184337847724894
 30
0.0
 40
0.1430114191623852
100
AcDbArc
 50
218.4302300887688091
 51
247.0800263209607692
  0
ARC
  5
C2
100
AcDbEntity
  8
0
 62
256
370
-1
 48
1.0
  6
BYLAYER
100
AcDbCircle
 10
-2.5432666845537528
 20
-5.196690142558964
 30
0.0
 40
0.1231850385687562
100
AcDbArc
 50
255.7001683790445554
 51
293.4185731624521623
  0
ARC
  5
C3
100
AcDbEntity
  8
0
 62
256
370
-1
 48
1.0
  6
BYLAYER
100
AcDbCircle
 10
-2.4342025719149869
 20
-5.3985221843159694
 30
0.0
 40
0.1072241001439788
100
AcDbArc
 50
81.721331472491201
 51
124.0940488388915526
  0
ARC
  5
C4
100
AcDbEntity
  8
0
 62
256
370
-1
 48
1.0
  6
BYLAYER
100
AcDbCircle
 10
-2.4539834079554184
 20
-5.4251815779882868
 30
0.0
 40
0.1373582457729853
100
AcDbArc
 50
58.2948986699823593
 51
75.1429493237599786
  0
ARC
  5
C5
100
AcDbEntity
  8
0
 62
256
370
-1
 48
1.0
  6
BYLAYER
100
AcDbCircle
 10
-1.9020812683943902
 20
-4.4828232431504036
 30
0.0
 40
0.9547637051586016
100
AcDbArc
 50
239.8382729811172851
 51
244.16768385599363
  0
SPLINE
  5
C6
100
AcDbEntity
  8
0
 62
256
370
-1
 48
1.0
  6
BYLAYER
100
AcDbSpline
 70
8
 71
3
 72
8
 73
4
 74
0
 40
0.0
 40
0.0
 40
0.0
 40
0.0
 40
1.0
 40
1.0
 40
1.0
 40
1.0
 10
-2.3181088888888892
 20
-5.34218041666667
 30
0.0
 10
-2.2718693055555557
 20
-5.3648366666666698
 30
0.0
 10
-2.2650362500000005
 20
-5.371080555555559
 30
0.0
 10
-2.2764068055555557
 20
-5.3802877777777818
 30
0.0
  0
ARC
  5
C7
100
AcDbEntity
  8
0
 62
256
370
-1
 48
1.0
  6
BYLAYER
100
AcDbCircle
 10
-3.0973997487545444
 20
-3.5879324101480234
 30
0.0
 40
1.9714378449887131
100
AcDbArc
 50
289.0526637095529736
 51
294.6102684243884937
  0
ARC
  5
C8
100
AcDbEntity
  8
0
 62
256
370
-1
 48
1.0
  6
BYLAYER
100
AcDbCircle
 10
-1.7684544980864829
 20
-7.3300390265980413
 30
0.0
 40
1.9997882179275768
100
AcDbArc
 50
110.0435134002269848
 51
111.9479408217056147
  0
ARC
  5
C9
100
AcDbEntity
  8
0
 62
256
370
-1
 48
1.0
  6
BYLAYER
100
AcDbCircle
 10
-2.4044256642319399
 20
-5.444161838924801
 30
0.0
 40
0.1157146472577635
100
AcDbArc
 50
195.5526976578657354
 51
209.2823364783928639
  0
ARC
  5
CA
100
AcDbEntity
  8
0
 62
256
370
-1
 48
1.0
  6
BYLAYER
100
AcDbCircle
 10
-2.5474133932811647
 20
-5.5310549593921179
 30
0.0
 40
0.0518342076842606
100
AcDbArc
 50
356.5820397322364101
 51
35.7655234985337813
  0
ARC
  5
CB
100
AcDbEntity
  8
0
 62
256
370
-1
 48
1.0
  6
BYLAYER
100
AcDbCircle
 10
-2.541655851833478
 20
-5.5248338523991407
 30
0.0
 40
0.0469177309221607
100
AcDbArc
 50
302.8439888986314941
 51
348.5529164508365056
  0
ARC
  5
CC
100
AcDbEntity
  8
0
 62
256
370
-1
 48
1.0
  6
BYLAYER
100
AcDbCircle
 10
-2.5109055329347614
 20
-5.5289980747576903
 30
0.0
 40
0.0356505460346815
100
AcDbArc
 50
195.4173360481636053
 51
261.4433776465506298
  0
ARC
  5
CD
100
AcDbEntity
  8
0
 62
256
370
-1
 48
1.0
  6
BYLAYER
100
AcDbCircle
 10
-2.5750735164436356
 20
-5.5436643176974849
 30
0.0
 40
0.0302486529041787
100
AcDbArc
 50
9.8769264957995446
 51
94.8729900853901
  0
ARC
  5
CE
100
AcDbEntity
  8
0
 62
256
370
-1
 48
1.0
  6
BYLAYER
100
AcDbCircle
 10
-2.5826378342830845
 20
-5.539848426095574
 30
0.0
 40
0.0267931068737093
100
AcDbArc
 50
79.2560503860543832
 51
169.4212882331720778
  0
ARC
  5
CF
100
AcDbEntity
  8
0
 62
256
370
-1
 48
1.0
  6
BYLAYER
100
AcDbCircle
 10
-2.6449075807414872
 20
-5.5249900674543415
 30
0.0
 40
0.0372814217790995
100
AcDbArc
 50
289.1557382094191553
 51
344.5374926799859736
  0
ARC
  5
D0
100
AcDbEntity
  8
0
 62
256
370
-1
 48
1.0
  6
BYLAYER
100
AcDbCircle
 10
-2.5925551979811581
 20
-5.4743710640841865
 30
0.0
 40
0.0947490247563915
100
AcDbArc
 50
228.9187441328501791
 51
244.9490798296281753
  0
ARC
  5
D1
100
AcDbEntity
  8
0
 62
256
370
-1
 48
1.0
  6
BYLAYER
100
AcDbCircle
 10
-2.7095391861288203
 20
-5.5996131850277662
 30
0.0
 40
0.0767548596161837
100
AcDbArc
 50
44.5252904771508824
 51
89.4766144889226496
  0
ARC
  5
D2
100
AcDbEntity
  8
0
 62
256
370
-1
 48
1.0
  6
BYLAYER
100
AcDbCircle
 10
-2.7124399538003745
 20
-5.5542081536726728
 30
0.0
 40
0.0315528861748089
100
AcDbArc
 50
83.4451501008113468
 51
136.1174499014046546
  0
ARC
  5
D3
100
AcDbEntity
  8
0
 62
256
370
-1
 48
1.0
  6
BYLAYER
100
AcDbCircle
 10
-2.6716449913113167
 20
-5.5981009640491495
 30
0.0
 40
0.0914437514354057
100
AcDbArc
 50
134.0130012940232405
 51
170.7367885432317109
  0
ARC
  5
D4
100
AcDbEntity
  8
0
 62
256
370
-1
 48
1.0
  6
BYLAYER
100
AcDbCircle
 10
-2.7094172352013892
 20
-5.575738683993829
 30
0.0
 40
0.0530325919543029
100
AcDbArc
 50
188.2857874399156231
 51
215.559548236319074
  0
ARC
  5
D5
100
AcDbEntity
  8
0
 62
256
370
-1
 48
1.0
  6
BYLAYER
100
AcDbCircle
 10
-2.7954618899636774
 20
-5.6383021389946189
 30
0.0
 40
0.0533563098944053
100
AcDbArc
 50
12.043598764831323
 51
36.4797883085668317
  0
ARC
  5
D6
100
AcDbEntity
  8
0
 62
256
370
-1
 48
1.0
  6
BYLAYER
100
AcDbCircle
 10
-2.798262573619835
 20
-5.6072189214787942
 30
0.0
 40
0.0584900858539423
100
AcDbArc
 50
310.910339223447636
 51
340.0569920707517326
  0
ARC
  5
D7
100
AcDbEntity
  8
0
 62
256
370
-1
 48
1.0
  6
BYLAYER
100
AcDbCircle
 10
-2.713809284522279
 20
-5.7085614559354561
 30
0.0
 40
0.0734486006490963
100
AcDbArc
 50
128.9265250337246016
 51
173.8750623111771461
  0
ARC
  5
D8
100
AcDbEntity
  8
0
 62
256
370
-1
 48
1.0
  6
BYLAYER
100
AcDbCircle
 10
-2.742347433723606
 20
-5.6981537962842159
 30
0.0
 40
0.0445653960546211
100
AcDbArc
 50
183.3071630809880617
 51
234.7398518644480419
  0
ARC
  5
D9
100
AcDbEntity
  8
0
 62
256
370
-1
 48
1.0
  6
BYLAYER
100
AcDbCircle
 10
-2.7428237045035955
 20
-5.5663070374320132
 30
0.0
 40
0.1701205790255455
100
AcDbArc
 50
261.4640867171810328
 51
289.1744128783624319
  0
ARC
  5
DA
100
AcDbEntity
  8
0
 62
256
370
-1
 48
1.0
  6
BYLAYER
100
AcDbCircle
 10
-2.6585476918929585
 20
-5.7838004378496679
 30
0.0
 40
0.0635141397853903
100
AcDbArc
 50
72.4158929043624227
 51
116.5614138281232783
  0
ARC
  5
DB
100
AcDbEntity
  8
0
 62
256
370
-1
 48
1.0
  6
BYLAYER
100
AcDbCircle
 10
-2.6501631518195263
 20
-5.750896096380286
 30
0.0
 40
0.0296782419912215
100
AcDbArc
 50
15.5471707091423994
 51
68.652807038273437
  0
ARC
  5
DC
100
AcDbEntity
  8
0
 62
256
370
-1
 48
1.0
  6
BYLAYER
100
AcDbCircle
 10
-2.5338148703897181
 20
-5.736912533192065
 30
0.0
 40
0.087962811080446
100
AcDbArc
 50
183.9300586245618661
 51
254.3838118623123989
  0
ARC
  5
DD
100
AcDbEntity
  8
0
 62
256
370
-1
 48
1.0
  6
BYLAYER
100
AcDbCircle
 10
-2.5595507020863568
 20
-5.7618453266855507
 30
0.0
 40
0.0598183829247743
100
AcDbArc
 50
271.9705967600688155
 51
326.3721828254814454
  0
ARC
  5
DE
100
AcDbEntity
  8
0
 62
256
370
-1
 48
1.0
  6
BYLAYER
100
AcDbCircle
 10
-2.6054589590330806
 20
-5.7505487507723032
 30
0.0
 40
0.1055227788183356
100
AcDbArc
 50
335.1030647428027009
 51
3.3554410350936732
  0
ARC
  5
DF
100
AcDbEntity
  8
0
 62
256
370
-1
 48
1.0
  6
BYLAYER
100
AcDbCircle
 10
-2.3356765117841882
 20
-5.739606110537534
 30
0.0
 40
0.1645096350975135
100
AcDbArc
 50
152.1339048182207421
 51
181.6602810057639772
  0
ARC
  5
E0
100
AcDbEntity
  8
0
 62
256
370
-1
 48
1.0
  6
BYLAYER
100
AcDbCircle
 10
-2.3671100693842959
 20
-5.7644228015691379
 30
0.0
 40
0.1527770544350306
100
AcDbArc
 50
111.1385775887038818
 51
138.2609737943843982
  0
ARC
  5
E1
100
AcDbEntity
  8
0
 62
256
370
-1
 48
1.0
  6
BYLAYER
100
AcDbCircle
 10
-2.4134618477638843
 20
-5.6527488588803774
 30
0.0
 40
0.0320390060761749
100
AcDbArc
 50
8.020621652083161
 51
105.8368794762750298
  0
ARC
  5
E2
100
AcDbEntity
  8
0
 62
256
370
-1
 48
1.0
  6
BYLAYER
100
AcDbCircle
 10
-2.2517099361164266
 20
-5.5917697190293314
 30
0.0
 40
0.1417747561788235
100
AcDbArc
 50
203.4895126859379957
 51
232.5912088111205662
  0
ARC
  5
E3
100
AcDbEntity
  8
0
 62
256
370
-1
 48
1.0
  6
BYLAYER
100
AcDbCircle
 10
-2.3154571816327509
 20
-5.6452018950380038
 30
0.0
 40
0.0632729423849795
100
AcDbArc
 50
249.285282665071577
 51
280.074161743340369
  0
ARC
  5
E4
100
AcDbEntity
  8
0
 62
256
370
-1
 48
1.0
  6
BYLAYER
100
AcDbCircle
 10
-2.2934513041162568
 20
-5.7411005773609114
 30
0.0
 40
0.0353367421025659
100
AcDbArc
 50
53.007365661339982
 51
108.0312829498373048
  0
ARC
  5
E5
100
AcDbEntity
  8
0
 62
256
370
-1
 48
1.0
  6
BYLAYER
100
AcDbCircle
 10
-2.3547830313529294
 20
-5.7846609588905329
 30
0.0
 40
0.1094294289589776
100
AcDbArc
 50
359.9058928352579301
 51
40.9945384822305172
  0
ARC
  5
E6
100
AcDbEntity
  8
0
 62
256
370
-1
 48
1.0
  6
BYLAYER
100
AcDbCircle
 10
-1.6780344332384201
 20
-5.6787498001531196
 30
0.0
 40
0.5771537793537868
100
AcDbArc
 50
190.5921907574652323
 51
202.3521778264703244
  0
ARC
  5
E7
100
AcDbEntity
  8
0
 62
256
370
-1
 48
1.0
  6
BYLAYER
100
AcDbCircle
 10
-2.0979633749942224
 20
-5.8148792952349302
 30
0.0
 40
0.1411138780551813
100
AcDbArc
 50
216.2093613136715931
 51
244.0330052228574118
  0
ARC
  5
E8
100
AcDbEntity
  8
0
 62
256
370
-1
 48
1.0
  6
BYLAYER
100
AcDbCircle
 10
-2.0738337293371591
 20
-5.7171333051017141
 30
0.0
 40
0.2404851612712564
100
AcDbArc
 50
249.0677017540335498
 51
260.0462813327458207
  0
ARC
  5
E9
100
AcDbEntity
  8
0
 62
256
370
-1
 48
1.0
  6
BYLAYER
100
AcDbCircle
 10
-2.1185096523380658
 20
-6.0151475826166241
 30
0.0
 40
0.0612278763155031
100
AcDbArc
 50
58.6059015956352312
 51
87.0908814326646308
  0
ARC
  5
EA
100
AcDbEntity
  8
0
 62
256
370
-1
 48
1.0
  6
BYLAYER
100
AcDbCircle
 10
-2.1589292252004526
 20
-5.9196315985217973
 30
0.0
 40
0.0842620192663613
100
AcDbArc
 50
310.6439794205577414
 51
329.1161859241068441
  0
ARC
  5
EB
100
AcDbEntity
  8
0
 62
256
370
-1
 48
1.0
  6
BYLAYER
100
AcDbCircle
 10
-1.7608281674680002
 20
-6.2965212516709972
 30
0.0
 40
0.4644757611196381
100
AcDbArc
 50
137.6405932221822752
 51
156.0465962085967817
  0
ARC
  5
EC
100
AcDbEntity
  8
0
 62
256
370
-1
 48
1.0
  6
BYLAYER
100
AcDbCircle
 10
-1.8699251871858629
 20
-6.2446678441486094
 30
0.0
 40
0.343736403423518
100
AcDbArc
 50
156.5624762525853271
 51
162.9829048433609273
  0
ARC
  5
ED
100
AcDbEntity
  8
0
 62
256
370
-1
 48
1.0
  6
BYLAYER
100
AcDbCircle
 10
-4.4433547058744978
 20
-6.106662504825823
 30
0.0
 40
0.0913901959007702
100
AcDbArc
 50
342.1291490040852068
 51
58.2167998135692244
  0
SPLINE
  5
EE
100
AcDbEntity
  8
0
 62
256
370
-1
 48
1.0
  6
BYLAYER
100
AcDbSpline
 70
8
 71
3
 72
8
 73
4
 74
0
 40
0.0
 40
0.0
 40
0.0
 40
0.0
 40
1.0
 40
1.0
 40
1.0
 40
1.0
 10
-4.3952188888888886
 20
-6.0289765277777798
 30
0.0
 10
-4.4578856944444434
 20
-5.962912083333336
 30
0.0
 10
-4.459616944444444
 20
-5.9417245833333352
 30
0.0
 10
-4.4034120833333326
 20
-5.9287025000000018
 30
0.0
  0
ARC
  5
EF
100
AcDbEntity
  8
0
 62
256
370
-1
 48
1.0
  6
BYLAYER
100
AcDbCircle
 10
-4.43986346476298
 20
-5.6807107213193726
 30
0.0
 40
0.2506563893087746
100
AcDbArc
 50
278.3618159127323679
 51
312.0499832187320521
  0
ARC
  5
F0
100
AcDbEntity
  8
0
 62
256
370
-1
 48
1.0
  6
BYLAYER
100
AcDbCircle
 10
-4.4056589703301849
 20
-5.7233207970373403
 30
0.0
 40
0.196131519985924
100
AcDbArc
 50
312.9674260669179375
 51
337.0355882051118783
  0
ARC
  5
F1
100
AcDbEntity
  8
0
 62
256
370
-1
 48
1.0
  6
BYLAYER
100
AcDbCircle
 10
-4.4205073106732682
 20
-5.7512976616588514
 30
0.0
 40
0.2013749779938833
100
AcDbArc
 50
346.0502384626178696
 51
355.2861537332166222
  0
ARC
  5
F2
100
AcDbEntity
  8
0
 62
256
370
-1
 48
1.0
  6
BYLAYER
100
AcDbCircle
 10
-4.1916617579791975
 20
-5.763191361084596
 30
0.0
 40
0.0285340076358399
100
AcDbArc
 50
132.6051745123680803
 51
189.3894622090185749
  0
ARC
  5
F3
100
AcDbEntity
  8
0
 62
256
370
-1
 48
1.0
  6
BYLAYER
100
AcDbCircle
 10
-4.0812870449670786
 20
-7.8181872108478334
 30
0.0
 40
2.0800449401226198
100
AcDbArc
 50
85.3288465676683217
 51
93.5747047935838054
  0
ARC
  5
F4
100
AcDbEntity
  8
0
 62
256
370
-1
 48
1.0
  6
BYLAYER
100
AcDbCircle
 10
-3.9296250299728048
 20
-5.8545602625644735
 30
0.0
 40
0.1109351531971345
100
AcDbArc
 50
49.222497173563049
 51
80.8033558957101121
  0
ARC
  5
F5
100
AcDbEntity
  8
0
 62
256
370
-1
 48
1.0
  6
BYLAYER
100
AcDbCircle
 10
-3.9514450752675754
 20
-5.8171523563975782
 30
0.0
 40
0.1051618955609724
100
AcDbArc
 50
340.2142897103937571
 51
26.3022521121513932
  0
ARC
  5
F6
100
AcDbEntity
  8
0
 62
256
370
-1
 48
1.0
  6
BYLAYER
100
AcDbCircle
 10
-3.6708185407324874
 20
-5.8801216623354167
 30
0.0
 40
0.1837232474573161
100
AcDbArc
 50
171.4319986079271985
 51
202.8188682841472996
  0
ARC
  5
F7
100
AcDbEntity
  8
0
 62
256
370
-1
 48
1.0
  6
BYLAYER
100
AcDbCircle
 10
-3.7571731329408888
 20
-5.8916652079364136
 30
0.0
 40
0.1022365307385943
100
AcDbArc
 50
215.7335590722374263
 51
286.5133142291821287
  0
ARC
  5
F8
100
AcDbEntity
  8
0
 62
256
370
-1
 48
1.0
  6
BYLAYER
100
AcDbCircle
 10
-3.7144819451870887
 20
-5.6654978156760132
 30
0.0
 40
0.3244735162440883
100
AcDbArc
 50
267.5922014557916668
 51
308.5596763135540073
  0
ARC
  5
F9
100
AcDbEntity
  8
0
 62
256
370
-1
 48
1.0
  6
BYLAYER
100
AcDbCircle
 10
-4.0038248196606387
 20
-5.4418107771522957
 30
0.0
 40
0.6852661741500746
100
AcDbArc
 50
315.8386518202588036
 51
327.3702021088012089
  0
ARC
  5
FA
100
AcDbEntity
  8
0
 62
256
370
-1
 48
1.0
  6
BYLAYER
100
AcDbCircle
 10
-4.0327434855336159
 20
-5.38795923567044
 30
0.0
 40
0.7392571187100127
100
AcDbArc
 50
325.0631162584384128
 51
345.905241342626141
  0
ARC
  5
FB
100
AcDbEntity
  8
0
 62
256
370
-1
 48
1.0
  6
BYLAYER
100
AcDbCircle
 10
-3.6104442741063538
 20
-5.5086430840718243
 30
0.0
 40
0.3006178505274952
100
AcDbArc
 50
348.6145100995848907
 51
10.0700200537335558
  0
ARC
  5
FC
100
AcDbEntity
  8
0
 62
256
370
-1
 48
1.0
  6
BYLAYER
100
AcDbCircle
 10
-3.4645412976493692
 20
-5.4964075834675334
 30
0.0
 40
0.155407509186915
100
AcDbArc
 50
15.0403011236416582
 51
65.4091465150133473
  0
ARC
  5
FD
100
AcDbEntity
  8
0
 62
256
370
-1
 48
1.0
  6
BYLAYER
100
AcDbCircle
 10
-3.446923845010303
 20
-5.4400938722210634
 30
0.0
 40
0.0971534026488387
100
AcDbArc
 50
61.0321947144833103
 51
98.1111089336953484
  0
ARC
  5
FE
100
AcDbEntity
  8
0
 62
256
370
-1
 48
1.0
  6
BYLAYER
100
AcDbCircle
 10
-3.4708045300052581
 20
-5.5093649197548
 30
0.0
 40
0.1657650117970108
100
AcDbArc
 50
86.4815458759739357
 51
105.4968227040777862
  0
ARC
  5
FF
100
AcDbEntity
  8
0
 62
256
370
-1
 48
1.0
  6
BYLAYER
100
AcDbCircle
 10
-3.3757620698523589
 20
-5.7267432695508971
 30
0.0
 40
0.402033278528556
100
AcDbArc
 50
110.2776185099525463
 51
132.4301540017837056
  0
ARC
  5
100
100
AcDbEntity
  8
0
 62
256
370
-1
 48
1.0
  6
BYLAYER
100
AcDbCircle
 10
-3.7114527330612033
 20
-5.39792969744519
 30
0.0
 40
0.0719825381435217
100
AcDbArc
 50
272.5422572303071433
 51
333.5407168077109077
  0
ARC
  5
101
100
AcDbEntity
  8
0
 62
256
370
-1
 48
1.0
  6
BYLAYER
100
AcDbCircle
 10
-3.5109754318588888
 20
-5.1697754734771006
 30
0.0
 40
0.3591109850969329
100
AcDbArc
 50
230.590901626228117
 51
236.6762680846154865
  0
ARC
  5
102
100
AcDbEntity
  8
0
 62
256
370
-1
 48
1.0
  6
BYLAYER
100
AcDbCircle
 10
-4.0913229341944808
 20
-5.8848717681971454
 30
0.0
 40
0.5618590882431216
100
AcDbArc
 50
51.1605128424498972
 51
68.4121794177761871
  0
ARC
  5
103
100
AcDbEntity
  8
0
 62
256
370
-1
 48
1.0
  6
BYLAYER
100
AcDbCircle
 10
-4.1919542461606714
 20
-6.2650198849884617
 30
0.0
 40
0.9534910840170672
100
AcDbArc
 50
71.1951174019977486
 51
75.4462029730656241
  0
ARC
  5
104
100
AcDbEntity
  8
0
 62
256
370
-1
 48
1.0
  6
BYLAYER
100
AcDbCircle
 10
-3.9366073864148752
 20
-5.1551862873624152
 30
0.0
 40
0.1875999233682878
100
AcDbArc
 50
185.3702094350455525
 51
265.1855468414530606
  0
ARC
  5
105
100
AcDbEntity
  8
0
 62
256
370
-1
 48
1.0
  6
BYLAYER
100
AcDbCircle
 10
-5.1389030499690413
 20
-5.4156256036208337
 30
0.0
 40
1.0441602816962863
100
AcDbArc
 50
13.4507591727254887
 51
17.6923344307371124
  0
ARC
  5
106
100
AcDbEntity
  8
0
 62
256
370
-1
 48
1.0
  6
BYLAYER
100
AcDbCircle
 10
-2.1493188383397714
 20
-4.6524377639953833
 30
0.0
 40
2.0440306842624723
100
AcDbArc
 50
174.2050548091130509
 51
192.5991441127465293
  0
ARC
  5
107
100
AcDbEntity
  8
0
 62
256
370
-1
 48
1.0
  6
BYLAYER
100
AcDbCircle
 10
0.5286089230325781
 20
-4.9971532423676601
 30
0.0
 40
4.7436337275223206
100
AcDbArc
 50
172.371921561692659
 51
173.3285179293859244
  0
LWPOLYLINE
  5
108
100
AcDbEntity
  8
0
 62
256
370
-1
 48
1.0
  6
BYLAYER
100
AcDbPolyline
 90
5
 70
128
 10
-4.1730465277777773
 20
-4.3674731944444449
 10
-4.1712124999999993
 20
-4.35580263888889
 10
-4.1419204166666663
 20
-4.35580263888889
 10
-4.1126284722222213
 20
-4.35580263888889
 10
-4.1126284722222213
 20
-4.3262370833333339
  0
ARC
  5
109
100
AcDbEntity
  8
0
 62
256
370
-1
 48
1.0
  6
BYLAYER
100
AcDbCircle
 10
-4.0286467153927807
 20
-4.3189505217315096
 30
0.0
 40
0.0842972684025791
100
AcDbArc
 50
164.6752805736171581
 51
184.9587712827522239
  0
ARC
  5
10A
100
AcDbEntity
  8
0
 62
256
370
-1
 48
1.0
  6
BYLAYER
100
AcDbCircle
 10
-4.1635038991054616
 20
-4.464083760455801
 30
0.0
 40
0.1757702656690394
100
AcDbArc
 50
63.9342841016513006
 51
72.2598727766784634
  0
ARC
  5
10B
100
AcDbEntity
  8
0
 62
256
370
-1
 48
1.0
  6
BYLAYER
100
AcDbCircle
 10
-4.0517168695346326
 20
-4.2433015504604228
 30
0.0
 40
0.0717565871025185
100
AcDbArc
 50
241.214332006913196
 51
260.4456732415151237
  0
ARC
  5
10C
100
AcDbEntity
  8
0
 62
256
370
-1
 48
1.0
  6
BYLAYER
100
AcDbCircle
 10
-4.4174676873189878
 20
-4.3141506634617111
 30
0.0
 40
0.3538404760111379
100
AcDbArc
 50
0.0142309293891611
 51
7.9694831765471275
  0
ARC
  5
10D
100
AcDbEntity
  8
0
 62
256
370
-1
 48
1.0
  6
BYLAYER
100
AcDbCircle
 10
-3.6492931364891996
 20
-4.2087581139213972
 30
0.0
 40
0.421532683309867
100
AcDbArc
 50
181.0409703302082391
 51
187.6800509360114688
  0
ARC
  5
10E
100
AcDbEntity
  8
0
 62
256
370
-1
 48
1.0
  6
BYLAYER
100
AcDbCircle
 10
-4.2237706842625089
 20
-4.4852874949897004
 30
0.0
 40
0.3093625114246812
100
AcDbArc
 50
51.4808171548305751
 51
60.3558265025685472
  0
ARC
  5
10F
100
AcDbEntity
  8
0
 62
256
370
-1
 48
1.0
  6
BYLAYER
100
AcDbCircle
 10
-4.0002325383832487
 20
-4.2331935332333908
 30
0.0
 40
0.0324685677440158
100
AcDbArc
 50
198.0287410403653041
 51
284.7272014867766643
  0
ARC
  5
110
100
AcDbEntity
  8
0
 62
256
370
-1
 48
1.0
  6
BYLAYER
100
AcDbCircle
 10
-5.1143754626730944
 20
-4.3233076137864357
 30
0.0
 40
1.1239315487447648
100
AcDbArc
 50
2.994393150016418
 51
6.9275273417023282
  0
ARC
  5
111
100
AcDbEntity
  8
0
 62
256
370
-1
 48
1.0
  6
BYLAYER
100
AcDbCircle
 10
-2.8285646755671738
 20
-4.0449860866367944
 30
0.0
 40
1.1787612571016766
100
AcDbArc
 50
183.4852168305395423
 51
186.9561735242889426
  0
ARC
  5
112
100
AcDbEntity
  8
0
 62
256
370
-1
 48
1.0
  6
BYLAYER
100
AcDbCircle
 10
-4.1026554323046778
 20
-4.2768998865613082
 30
0.0
 40
0.1875900254557833
100
AcDbArc
 50
48.599296302237839
 51
58.6810545550015519
  0
ARC
  5
113
100
AcDbEntity
  8
0
 62
256
370
-1
 48
1.0
  6
BYLAYER
100
AcDbCircle
 10
-3.8384557766100107
 20
-3.9755323547294843
 30
0.0
 40
0.2131904113331503
100
AcDbArc
 50
228.9013128714625225
 51
237.7767590979788395
  0
ARC
  5
114
100
AcDbEntity
  8
0
 62
256
370
-1
 48
1.0
  6
BYLAYER
100
AcDbCircle
 10
-6.3972182642811823
 20
-4.1625374883496029
 30
0.0
 40
2.4450942544624663
100
AcDbArc
 50
0.1558518407682538
 51
2.3918906081156579
  0
ARC
  5
115
100
AcDbEntity
  8
0
 62
256
370
-1
 48
1.0
  6
BYLAYER
100
AcDbCircle
 10
-1.7835843168699725
 20
-3.9672503618580177
 30
0.0
 40
2.1726717311894639
100
AcDbArc
 50
179.9401096985805282
 51
182.4596767068138945
  0
ARC
  5
116
100
AcDbEntity
  8
0
 62
256
370
-1
 48
1.0
  6
BYLAYER
100
AcDbCircle
 10
-4.4122639925668157
 20
-7.6328380949332644
 30
0.0
 40
3.6960969179373917
100
AcDbArc
 50
78.2927816615070498
 51
82.91302666214645
  0
ARC
  5
117
100
AcDbEntity
  8
0
 62
256
370
-1
 48
1.0
  6
BYLAYER
100
AcDbCircle
 10
-3.8671243168578555
 20
-5.2400986175161508
 30
0.0
 40
1.2434562513017819
100
AcDbArc
 50
64.4326950027743521
 51
80.5182986187358978
  0
ARC
  5
118
100
AcDbEntity
  8
0
 62
256
370
-1
 48
1.0
  6
BYLAYER
100
AcDbCircle
 10
-1.2219135116333837
 20
0.1671957553414822
 30
0.0
 40
4.7762357502459931
100
AcDbArc
 50
243.8022055179842198
 51
245.5034781718845807
  0
ARC
  5
119
100
AcDbEntity
  8
0
 62
256
370
-1
 48
1.0
  6
BYLAYER
100
AcDbCircle
 10
-3.3276404363673455
 20
-4.5761635615911294
 30
0.0
 40
0.4163567608281696
100
AcDbArc
 50
49.5919782465102088
 51
72.4830908842199335
  0
ARC
  5
11A
100
AcDbEntity
  8
0
 62
256
370
-1
 48
1.0
  6
BYLAYER
100
AcDbCircle
 10
-3.1553520608344794
 20
-4.3103900020356729
 30
0.0
 40
0.1102468821875024
100
AcDbArc
 50
10.4311887069960036
 51
27.7075684669857232
  0
ARC
  5
11B
100
AcDbEntity
  8
0
 62
256
370
-1
 48
1.0
  6
BYLAYER
100
AcDbCircle
 10
-2.9122313798147945
 20
-4.2710200298326662
 30
0.0
 40
0.1360870675190487
100
AcDbArc
 50
188.1997117645329922
 51
237.7244680479522287
  0
ARC
  5
11C
100
AcDbEntity
  8
0
 62
256
370
-1
 48
1.0
  6
BYLAYER
100
AcDbCircle
 10
-2.9449887652320657
 20
-4.2722720923003079
 30
0.0
 40
0.1206037527406521
100
AcDbArc
 50
250.6745011010420399
 51
326.0294871840143287
  0
ARC
  5
11D
100
AcDbEntity
  8
0
 62
256
370
-1
 48
1.0
  6
BYLAYER
100
AcDbCircle
 10
-2.9692879341158362
 20
-4.2548178512089043
 30
0.0
 40
0.150511183501911
100
AcDbArc
 50
325.6877576278592983
 51
358.8763314955730834
  0
ARC
  5
11E
100
AcDbEntity
  8
0
 62
256
370
-1
 48
1.0
  6
BYLAYER
100
AcDbCircle
 10
-3.0079391415132117
 20
-4.246052956174883
 30
0.0
 40
0.1894960076030216
100
AcDbArc
 50
356.4551559762425086
 51
17.9203784064228167
  0
ARC
  5
11F
100
AcDbEntity
  8
0
 62
256
370
-1
 48
1.0
  6
BYLAYER
100
AcDbCircle
 10
-2.565248661738996
 20
-4.1122986097268397
 30
0.0
 40
0.2730195904177869
100
AcDbArc
 50
177.872176197190015
 51
196.0421318418793533
  0
ARC
  5
120
100
AcDbEntity
  8
0
 62
256
370
-1
 48
1.0
  6
BYLAYER
100
AcDbCircle
 10
-2.7372035964549251
 20
-4.0856141547941336
 30
0.0
 40
0.1022246004705365
100
AcDbArc
 50
157.2865438217970109
 51
189.3156905642221943
  0
ARC
  5
121
100
AcDbEntity
  8
0
 62
256
370
-1
 48
1.0
  6
BYLAYER
100
AcDbCircle
 10
-2.7723931714233605
 20
-4.0756363078734523
 30
0.0
 40
0.0660569948236283
100
AcDbArc
 50
105.81876289808595
 51
153.4816762563057182
  0
ARC
  5
122
100
AcDbEntity
  8
0
 62
256
370
-1
 48
1.0
  6
BYLAYER
100
AcDbCircle
 10
-2.9576018999006646
 20
-3.6929984488391736
 30
0.0
 40
0.3602362170283347
100
AcDbArc
 50
297.6549128873147083
 51
333.0430152742847554
  0
ARC
  5
123
100
AcDbEntity
  8
0
 62
256
370
-1
 48
1.0
  6
BYLAYER
100
AcDbCircle
 10
-2.7472877947672929
 20
-3.7909922091556556
 30
0.0
 40
0.1285993417728245
100
AcDbArc
 50
329.479344611184672
 51
357.5030202927795244
  0
ARC
  5
124
100
AcDbEntity
  8
0
 62
256
370
-1
 48
1.0
  6
BYLAYER
100
AcDbCircle
 10
-2.6679424580447995
 20
-3.79389784332519
 30
0.0
 40
0.0492058710638276
100
AcDbArc
 50
356.8579925369288617
 51
53.9612489106905713
  0
ARC
  5
125
100
AcDbEntity
  8
0
 62
256
370
-1
 48
1.0
  6
BYLAYER
100
AcDbCircle
 10
-2.7276148086147107
 20
-3.8563060208037312
 30
0.0
 40
0.1352702498660521
100
AcDbArc
 50
49.0692842651417607
 51
132.6752393726037553
  0
LWPOLYLINE
  5
126
100
AcDbEntity
  8
0
 62
256
370
-1
 48
1.0
  6
BYLAYER
100
AcDbPolyline
 90
3
 70
128
 10
-2.8193066666666677
 20
-3.756854305555557
 10
-2.8266233333333344
 20
-3.761647777777779
 10
-2.8319086111111123
 20
-3.7373950000000016
  0
ARC
  5
127
100
AcDbEntity
  8
0
 62
256
370
-1
 48
1.0
  6
BYLAYER
100
AcDbCircle
 10
-3.0443239346391535
 20
-3.7692145613684129
 30
0.0
 40
0.2147853676468692
100
AcDbArc
 50
8.519491248544492
 51
56.5384319290284196
  0
ARC
  5
128
100
AcDbEntity
  8
0
 62
256
370
-1
 48
1.0
  6
BYLAYER
100
AcDbCircle
 10
-2.9430880664145271
 20
-3.6920054580223658
 30
0.0
 40
0.10341586257976
100
AcDbArc
 50
80.4306663565230764
 51
140.389404746423935
  0
ARC
  5
129
100
AcDbEntity
  8
0
 62
256
370
-1
 48
1.0
  6
BYLAYER
100
AcDbCircle
 10
-2.8625459188333964
 20
-3.7698651733612123
 30
0.0
 40
0.2152790214175206
100
AcDbArc
 50
138.0914669492758833
 51
162.9370808448794321
  0
LWPOLYLINE
  5
12A
100
AcDbEntity
  8
0
 62
256
370
-1
 48
1.0
  6
BYLAYER
100
AcDbPolyline
 90
3
 70
128
 10
-3.0683490277777787
 20
-3.7066976388888904
 10
-3.0779844444444455
 20
-3.7354706944444458
 10
-3.0950270833333344
 20
-3.729534305555557
  0
ARC
  5
12B
100
AcDbEntity
  8
0
 62
256
370
-1
 48
1.0
  6
BYLAYER
100
AcDbCircle
 10
-3.1456102987921608
 20
-3.8895031864774823
 30
0.0
 40
0.167775756739665
100
AcDbArc
 50
72.4527020261331671
 51
99.1034684099792003
  0
ARC
  5
12C
100
AcDbEntity
  8
0
 62
256
370
-1
 48
1.0
  6
BYLAYER
100
AcDbCircle
 10
-3.1438533480122506
 20
-3.8014995872529251
 30
0.0
 40
0.0826553732213347
100
AcDbArc
 50
110.0238037013231889
 51
153.2488102715951754
  0
ARC
  5
12D
100
AcDbEntity
  8
0
 62
256
370
-1
 48
1.0
  6
BYLAYER
100
AcDbCircle
 10
-3.1192423111742591
 20
-3.8165260253052415
 30
0.0
 40
0.1114205167654538
100
AcDbArc
 50
152.045265712270492
 51
176.8941449544968521
  0
ARC
  5
12E
100
AcDbEntity
  8
0
 62
256
370
-1
 48
1.0
  6
BYLAYER
100
AcDbCircle
 10
-3.2357846808013693
 20
-3.812063536623465
 30
0.0
 40
0.0055150068385259
100
AcDbArc
 50
309.2410705721906652
 51
16.5869551344674342
  0
ARC
  5
12F
100
AcDbEntity
  8
0
 62
256
370
-1
 48
1.0
  6
BYLAYER
100
AcDbCircle
 10
-3.2643342609484662
 20
-3.6933237405713846
 30
0.0
 40
0.1271148603466392
100
AcDbArc
 50
250.4077755642945533
 51
284.5983825618819765
  0
ARC
  5
130
100
AcDbEntity
  8
0
 62
256
370
-1
 48
1.0
  6
BYLAYER
100
AcDbCircle
 10
-2.5291763076108893
 20
-1.3671714689129808
 30
0.0
 40
2.5665949291330383
100
AcDbArc
 50
244.5574565894403349
 51
252.3596768527626182
  0
ARC
  5
131
100
AcDbEntity
  8
0
 62
256
370
-1
 48
1.0
  6
BYLAYER
100
AcDbCircle
 10
-3.1889521785459096
 20
-2.6278633631332848
 30
0.0
 40
1.1460076037550497
100
AcDbArc
 50
237.8361452122465778
 51
247.2676510382962363
  0
ARC
  5
132
100
AcDbEntity
  8
0
 62
256
370
-1
 48
1.0
  6
BYLAYER
100
AcDbCircle
 10
-3.7818013997333111
 20
-3.6179551547678499
 30
0.0
 40
0.0263631940980599
100
AcDbArc
 50
95.1386252968860759
 51
130.7796237304117994
  0
ARC
  5
133
100
AcDbEntity
  8
0
 62
256
370
-1
 48
1.0
  6
BYLAYER
100
AcDbCircle
 10
-3.7855886275991386
 20
-3.5681052832878022
 30
0.0
 40
0.0236356889798317
100
AcDbArc
 50
273.458870273577304
 51
328.7764989671627518
  0
ARC
  5
134
100
AcDbEntity
  8
0
 62
256
370
-1
 48
1.0
  6
BYLAYER
100
AcDbCircle
 10
-3.7404255735969656
 20
-3.6012118981512202
 30
0.0
 40
0.0325185491186566
100
AcDbArc
 50
23.3216349865620387
 51
140.1105942771580999
  0
ARC
  5
135
100
AcDbEntity
  8
0
 62
256
370
-1
 48
1.0
  6
BYLAYER
100
AcDbCircle
 10
-3.6655272439304318
 20
-3.5433302127124513
 30
0.0
 40
0.0636710711901717
100
AcDbArc
 50
224.9816730636741795
 51
312.595712317659661
  0
ARC
  5
136
100
AcDbEntity
  8
0
 62
256
370
-1
 48
1.0
  6
BYLAYER
100
AcDbCircle
 10
-3.6517371742052909
 20
-3.4506374487292653
 30
0.0
 40
0.1426073183623782
100
AcDbArc
 50
281.8579642322280847
 51
331.9272461902784812
  0
LWPOLYLINE
  5
137
100
AcDbEntity
  8
0
 62
256
370
-1
 48
1.0
  6
BYLAYER
100
AcDbPolyline
 90
3
 70
128
 10
-3.5259075000000006
 20
-3.5177473611111125
 10
-3.5238566666666671
 20
-3.5068156944444455
 10
-3.498468472222223
 20
-3.5032534722222231
  0
ARC
  5
138
100
AcDbEntity
  8
0
 62
256
370
-1
 48
1.0
  6
BYLAYER
100
AcDbCircle
 10
-3.5376313566391699
 20
-3.0412782447039803
 30
0.0
 40
0.4636322274781888
100
AcDbArc
 50
274.8455323955454901
 51
289.301372576695826
  0
ARC
  5
139
100
AcDbEntity
  8
0
 62
256
370
-1
 48
1.0
  6
BYLAYER
100
AcDbCircle
 10
-3.5103407529860964
 20
-3.2762548307773907
 30
0.0
 40
0.2385590480495333
100
AcDbArc
 50
301.8698072871653153
 51
327.2790335183586876
  0
ARC
  5
13A
100
AcDbEntity
  8
0
 62
256
370
-1
 48
1.0
  6
BYLAYER
100
AcDbCircle
 10
-3.3904968490587941
 20
-3.3667441704373253
 30
0.0
 40
0.0895410222671233
100
AcDbArc
 50
334.5602977367082644
 51
13.7389326202287894
  0
ARC
  5
13B
100
AcDbEntity
  8
0
 62
256
370
-1
 48
1.0
  6
BYLAYER
100
AcDbCircle
 10
-3.6140800218100266
 20
-3.5196547822327968
 30
0.0
 40
0.3560706991168643
100
AcDbArc
 50
29.2855528510562841
 51
56.0016913278277499
  0
ARC
  5
13C
100
AcDbEntity
  8
0
 62
256
370
-1
 48
1.0
  6
BYLAYER
100
AcDbCircle
 10
-3.3495456349710544
 20
-3.1145100588120331
 30
0.0
 40
0.1279399614144439
100
AcDbArc
 50
226.6992566032035086
 51
239.2416229622953097
  0
ARC
  5
13D
100
AcDbEntity
  8
0
 62
256
370
-1
 48
1.0
  6
BYLAYER
100
AcDbCircle
 10
-2.0745643029376142
 20
-3.4874626433831599
 30
0.0
 40
1.3911629266051881
100
AcDbArc
 50
166.4048911467605762
 51
168.3953601558624484
  0
ARC
  5
13E
100
AcDbEntity
  8
0
 62
256
370
-1
 48
1.0
  6
BYLAYER
100
AcDbCircle
 10
-4.2259465350745122
 20
-2.9454119952400863
 30
0.0
 40
0.8276244048959442
100
AcDbArc
 50
344.939778266221083
 51
358.5616157019341017
  0
LWPOLYLINE
  5
13F
100
AcDbEntity
  8
0
 62
256
370
-1
 48
1.0
  6
BYLAYER
100
AcDbPolyline
 90
3
 70
128
 10
-3.3985829166666672
 20
-2.9661869444444457
 10
-3.3983898611111116
 20
-2.9163552777777793
 10
-3.408568055555556
 20
-2.8956515277777792
  0
ARC
  5
140
100
AcDbEntity
  8
0
 62
256
370
-1
 48
1.0
  6
BYLAYER
100
AcDbCircle
 10
-3.4603159794064782
 20
-2.909021424017554
 30
0.0
 40
0.0534471865334666
100
AcDbArc
 50
14.4864799637109414
 51
85.4467632212550825
  0
ARC
  5
141
100
AcDbEntity
  8
0
 62
256
370
-1
 48
1.0
  6
BYLAYER
100
AcDbCircle
 10
-3.4607212785782817
 20
-2.8416463422435014
 30
0.0
 40
0.014843159627817
100
AcDbArc
 50
223.4411717831847
 51
288.2495230421174597
  0
ARC
  5
142
100
AcDbEntity
  8
0
 62
256
370
-1
 48
1.0
  6
BYLAYER
100
AcDbCircle
 10
-2.0862610035686893
 20
-2.9469146872069412
 30
0.0
 40
1.3884955968170289
100
AcDbArc
 50
174.4311532175094897
 51
176.0742272316432206
  0
ARC
  5
143
100
AcDbEntity
  8
0
 62
256
370
-1
 48
1.0
  6
BYLAYER
100
AcDbCircle
 10
-3.681628951557598
 20
-2.76106029050599
 30
0.0
 40
0.2194606267001538
100
AcDbArc
 50
346.5321412533290868
 51
34.698593801303673
  0
ARC
  5
144
100
AcDbEntity
  8
0
 62
256
370
-1
 48
1.0
  6
BYLAYER
100
AcDbCircle
 10
-3.596900044304447
 20
-2.7382391499588392
 30
0.0
 40
0.1399470334819991
100
AcDbArc
 50
46.8549763921192408
 51
113.0788897292370336
  0
ARC
  5
145
100
AcDbEntity
  8
0
 62
256
370
-1
 48
1.0
  6
BYLAYER
100
AcDbCircle
 10
-3.5645806095021295
 20
-2.8054532580720064
 30
0.0
 40
0.2144775999578374
100
AcDbArc
 50
113.9831924438013004
 51
136.3344215526902872
  0
ARC
  5
146
100
AcDbEntity
  8
0
 62
256
370
-1
 48
1.0
  6
BYLAYER
100
AcDbCircle
 10
-3.769974676884813
 20
-2.6281279989467321
 30
0.0
 40
0.0581334504057726
100
AcDbArc
 50
251.5813891622340748
 51
329.8030164282009764
  0
ARC
  5
147
100
AcDbEntity
  8
0
 62
256
370
-1
 48
1.0
  6
BYLAYER
100
AcDbCircle
 10
-3.6730642495381285
 20
-2.5317741988500528
 30
0.0
 40
0.1903788405406342
100
AcDbArc
 50
207.3431496711686464
 51
232.7337617763111268
  0
ARC
  5
148
100
AcDbEntity
  8
0
 62
256
370
-1
 48
1.0
  6
BYLAYER
100
AcDbCircle
 10
-4.0541033336416143
 20
-2.7381710411327442
 30
0.0
 40
0.2430316536656368
100
AcDbArc
 50
29.3045592644920383
 51
60.1740702129535805
  0
ARC
  5
149
100
AcDbEntity
  8
0
 62
256
370
-1
 48
1.0
  6
BYLAYER
100
AcDbCircle
 10
-3.9947304052225756
 20
-2.6582379720214657
 30
0.0
 40
0.1446346335468176
100
AcDbArc
 50
64.8348124857509589
 51
121.6459541761080203
  0
ARC
  5
14A
100
AcDbEntity
  8
0
 62
256
370
-1
 48
1.0
  6
BYLAYER
100
AcDbCircle
 10
-3.9803459369384981
 20
-2.7339498502361592
 30
0.0
 40
0.2183714286763928
100
AcDbArc
 50
114.4171590098586933
 51
163.9790197559603939
  0
ARC
  5
14B
100
AcDbEntity
  8
0
 62
256
370
-1
 48
1.0
  6
BYLAYER
100
AcDbCircle
 10
-3.8879767221021071
 20
-2.7484342734631784
 30
0.0
 40
0.3113657118342483
100
AcDbArc
 50
166.10875182108893
 51
190.7683786982690606
  0
ARC
  5
14C
100
AcDbEntity
  8
0
 62
256
370
-1
 48
1.0
  6
BYLAYER
100
AcDbCircle
 10
-5.1869685733651538
 20
-2.9417552111179499
 30
0.0
 40
1.0022624819152655
100
AcDbArc
 50
4.1403449735308948
 51
7.7493999727086997
  0
ARC
  5
14D
100
AcDbEntity
  8
0
 62
256
370
-1
 48
1.0
  6
BYLAYER
100
AcDbCircle
 10
-4.2417073025540342
 20
-2.8552187648300729
 30
0.0
 40
0.0562020038892416
100
AcDbArc
 50
259.9862090426328791
 51
345.3931360007051126
  0
LWPOLYLINE
  5
14E
100
AcDbEntity
  8
0
 62
256
370
-1
 48
1.0
  6
BYLAYER
100
AcDbPolyline
 90
3
 70
128
 10
-4.2514800000000008
 20
-2.910564583333334
 10
-4.2677073611111114
 20
-2.9086576388888896
 10
-4.2698943055555558
 20
-2.9319947222222229
  0
ARC
  5
14F
100
AcDbEntity
  8
0
 62
256
370
-1
 48
1.0
  6
BYLAYER
100
AcDbCircle
 10
-4.3083256001280867
 20
-2.9348628159928296
 30
0.0
 40
0.0385381676315526
100
AcDbArc
 50
328.1054967055490579
 51
4.268021861391885
  0
ARC
  5
150
100
AcDbEntity
  8
0
 62
256
370
-1
 48
1.0
  6
BYLAYER
100
AcDbCircle
 10
-4.0365483225463175
 20
-1.6009334604201761
 30
0.0
 40
1.3752284592957873
100
AcDbArc
 50
257.7251168137038917
 51
259.9893559877536404
  0
ARC
  5
151
100
AcDbEntity
  8
0
 62
256
370
-1
 48
1.0
  6
BYLAYER
100
AcDbCircle
 10
-4.5303268938760528
 20
-3.8483166955242134
 30
0.0
 40
0.9257672784958213
100
AcDbArc
 50
77.43473153326633
 51
80.6203573869120902
  0
ARC
  5
152
100
AcDbEntity
  8
0
 62
256
370
-1
 48
1.0
  6
BYLAYER
100
AcDbCircle
 10
-4.0716834740582515
 20
-2.6872806136971206
 30
0.0
 40
0.3950298904643889
100
AcDbArc
 50
218.822142361274814
 51
224.4087542783975096
  0
LWPOLYLINE
  5
153
100
AcDbEntity
  8
0
 62
256
370
-1
 48
1.0
  6
BYLAYER
100
AcDbPolyline
 90
3
 70
128
 10
-4.3538793055555551
 20
-2.9637116666666676
 10
-4.3275784722222221
 20
-2.9918970833333343
 10
-4.3391441666666664
 20
-2.9938091666666677
  0
ARC
  5
154
100
AcDbEntity
  8
0
 62
256
370
-1
 48
1.0
  6
BYLAYER
100
AcDbCircle
 10
-4.3646180069958449
 20
-2.8322945202630407
 30
0.0
 40
0.1635111541883464
100
AcDbArc
 50
271.4186516883389686
 51
278.9627717665953242
  0
ARC
  5
155
100
AcDbEntity
  8
0
 62
256
370
-1
 48
1.0
  6
BYLAYER
100
AcDbCircle
 10
-4.3663789400833588
 20
-3.0072024348607482
 30
0.0
 40
0.0128365277366356
100
AcDbArc
 50
63.0930513835346147
 51
291.7949519366072764
  0
LWPOLYLINE
  5
156
100
AcDbEntity
  8
0
 62
256
370
-1
 48
1.0
  6
BYLAYER
100
AcDbPolyline
 90
3
 70
128
 10
-4.3616129166666671
 20
-3.0191213888888901
 10
-4.3424306944444444
 20
-3.0384756944444455
 10
-4.3559072222222222
 20
-3.0463247222222236
  0
ARC
  5
157
100
AcDbEntity
  8
0
 62
256
370
-1
 48
1.0
  6
BYLAYER
100
AcDbCircle
 10
-4.8995592388642741
 20
-2.0654366509438353
 30
0.0
 40
1.1214717667312026
100
AcDbArc
 50
296.3857473453478519
 51
298.9971795482375114
  0
LWPOLYLINE
  5
158
100
AcDbEntity
  8
0
 62
256
370
-1
 48
1.0
  6
BYLAYER
100
AcDbPolyline
 90
3
 70
128
 10
-4.4011633333333329
 20
-3.0700761111111126
 10
-4.4329424999999993
 20
-3.0859784722222234
 10
-4.4156168055555547
 20
-3.1350268055555568
  0
ARC
  5
159
100
AcDbEntity
  8
0
 62
256
370
-1
 48
1.0
  6
BYLAYER
100
AcDbCircle
 10
-18.693073477101148
 20
-8.1860110655882821
 30
0.0
 40
15.1445769502802587
100
AcDbArc
 50
19.2140000666194979
 51
19.4824243830291195
  0
ARC
  5
15A
100
AcDbEntity
  8
0
 62
256
370
-1
 48
1.0
  6
BYLAYER
100
AcDbCircle
 10
-4.2689697151338848
 20
-3.1643500603463299
 30
0.0
 40
0.1287589955220362
100
AcDbArc
 50
196.9882420049686971
 51
205.5408786524549214
  0
ARC
  5
15B
100
AcDbEntity
  8
0
 62
256
370
-1
 48
1.0
  6
BYLAYER
100
AcDbCircle
 10
-4.5064210791277954
 20
-2.8203646952171231
 30
0.0
 40
0.4175023621027634
100
AcDbArc
 50
286.8865347424926995
 51
289.6176367171246966
  0
ARC
  5
15C
100
AcDbEntity
  8
0
 62
256
370
-1
 48
1.0
  6
BYLAYER
100
AcDbCircle
 10
-4.328549351518209
 20
-3.3089366680581898
 30
0.0
 40
0.1024891909449847
100
AcDbArc
 50
100.5698964306756409
 51
111.5819964488668603
  0
ARC
  5
15D
100
AcDbEntity
  8
0
 62
256
370
-1
 48
1.0
  6
BYLAYER
100
AcDbCircle
 10
-4.6804698472008344
 20
-3.0609116677728445
 30
0.0
 40
0.3642239518785841
100
AcDbArc
 50
330.0207667844998696
 51
336.1494431215917871
  0
ARC
  5
15E
100
AcDbEntity
  8
0
 62
256
370
-1
 48
1.0
  6
BYLAYER
100
AcDbCircle
 10
-2.8285646712139956
 20
-4.0872903744795055
 30
0.0
 40
1.7531517930082388
100
AcDbArc
 50
151.2076916941733771
 51
152.4829593193673531
  0
ARC
  5
15F
100
AcDbEntity
  8
0
 62
256
370
-1
 48
1.0
  6
BYLAYER
100
AcDbCircle
 10
-4.0493015811776036
 20
-2.2516711892425509
 30
0.0
 40
1.0786816718106038
100
AcDbArc
 50
251.9577766617499606
 51
254.2769319022160914
  0
ARC
  5
160
100
AcDbEntity
  8
0
 62
256
370
-1
 48
1.0
  6
BYLAYER
100
AcDbCircle
 10
-4.3410802634479628
 20
-3.34915564366948
 30
0.0
 40
0.0591664998413849
100
AcDbArc
 50
39.3761931354236339
 51
90.5143392791419359
  0
ARC
  5
161
100
AcDbEntity
  8
0
 62
256
370
-1
 48
1.0
  6
BYLAYER
100
AcDbCircle
 10
-4.3220815451154255
 20
-3.3336171289367393
 30
0.0
 40
0.0346227885967451
100
AcDbArc
 50
309.6493776996879888
 51
39.4452604512976848
  0
ARC
  5
162
100
AcDbEntity
  8
0
 62
256
370
-1
 48
1.0
  6
BYLAYER
100
AcDbCircle
 10
-4.329341769722383
 20
-3.2313226690641805
 30
0.0
 40
0.1322512246460405
100
AcDbArc
 50
250.0576409160431695
 51
282.8233445855848913
  0
ARC
  5
163
100
AcDbEntity
  8
0
 62
256
370
-1
 48
1.0
  6
BYLAYER
100
AcDbCircle
 10
-3.6441066174781693
 20
-1.3892653852065606
 30
0.0
 40
2.0976281294213321
100
AcDbArc
 50
233.6975701996272221
 51
249.6242399291649292
  0
ARC
  5
164
100
AcDbEntity
  8
0
 62
256
370
-1
 48
1.0
  6
BYLAYER
100
AcDbCircle
 10
-4.643934922337559
 20
-2.7065490895837359
 30
0.0
 40
0.4448322269737104
100
AcDbArc
 50
217.6188896048477943
 51
237.031648971952734
  0
ARC
  5
165
100
AcDbEntity
  8
0
 62
256
370
-1
 48
1.0
  6
BYLAYER
100
AcDbCircle
 10
-4.89364562370206
 20
-3.0898915129598037
 30
0.0
 40
0.1517777117684302
100
AcDbArc
 50
119.9967760470090781
 51
132.5492904414311397
  0
ARC
  5
166
100
AcDbEntity
  8
0
 62
256
370
-1
 48
1.0
  6
BYLAYER
100
AcDbCircle
 10
-5.1042558094059753
 20
-2.7468376221542781
 30
0.0
 40
0.2508566159193673
100
AcDbArc
 50
302.484717912205781
 51
329.9044490943505821
  0
ARC
  5
167
100
AcDbEntity
  8
0
 62
256
370
-1
 48
1.0
  6
BYLAYER
100
AcDbCircle
 10
-4.957551586788238
 20
-2.8318326745822913
 30
0.0
 40
0.0813093197917796
100
AcDbArc
 50
329.885432384608805
 51
6.1513214612577602
  0
ARC
  5
168
100
AcDbEntity
  8
0
 62
256
370
-1
 48
1.0
  6
BYLAYER
100
AcDbCircle
 10
-4.9665205861315194
 20
-2.8153664784148189
 30
0.0
 40
0.0901442379538346
100
AcDbArc
 50
355.0657560856835744
 51
32.3213487321528419
  0
ARC
  5
169
100
AcDbEntity
  8
0
 62
256
370
-1
 48
1.0
  6
BYLAYER
100
AcDbCircle
 10
-5.0081052045466778
 20
-2.8129089301354258
 30
0.0
 40
0.1263330399844583
100
AcDbArc
 50
21.2265106928254212
 51
78.6024563527424363
  0
ARC
  5
16A
100
AcDbEntity
  8
0
 62
256
370
-1
 48
1.0
  6
BYLAYER
100
AcDbCircle
 10
-4.984504242032318
 20
-2.8589898684383477
 30
0.0
 40
0.1699281237240871
100
AcDbArc
 50
89.5399577969583902
 51
149.0681044748305908
  0
ARC
  5
16B
100
AcDbEntity
  8
0
 62
256
370
-1
 48
1.0
  6
BYLAYER
100
AcDbCircle
 10
-5.20411076046096
 20
-2.7342263869480492
 30
0.0
 40
0.0827843282398704
100
AcDbArc
 50
313.0998789791439663
 51
333.128928147128704
  0
ARC
  5
16C
100
AcDbEntity
  8
0
 62
256
370
-1
 48
1.0
  6
BYLAYER
100
AcDbCircle
 10
-5.1269711122248198
 20
-2.7092853122171268
 30
0.0
 40
0.0878311992554159
100
AcDbArc
 50
207.5648829566748077
 51
256.4519407819128674
  0
ARC
  5
16D
100
AcDbEntity
  8
0
 62
256
370
-1
 48
1.0
  6
BYLAYER
100
AcDbCircle
 10
-4.9781496917316632
 20
-2.6694070254450106
 30
0.0
 40
0.240559540568467
100
AcDbArc
 50
165.5142398726811734
 51
199.556101011788428
  0
ARC
  5
16E
100
AcDbEntity
  8
0
 62
256
370
-1
 48
1.0
  6
BYLAYER
100
AcDbCircle
 10
-5.4563656111222398
 20
-2.5714094041184707
 30
0.0
 40
0.2482027954317208
100
AcDbArc
 50
351.2344077806054656
 51
26.7481952088999506
  0
ARC
  5
16F
100
AcDbEntity
  8
0
 62
256
370
-1
 48
1.0
  6
BYLAYER
100
AcDbCircle
 10
-5.3121880166389577
 20
-2.5234842284154002
 30
0.0
 40
0.1003458445100744
100
AcDbArc
 50
39.467247370804678
 51
122.537397722026995
  0
ARC
  5
170
100
AcDbEntity
  8
0
 62
256
370
-1
 48
1.0
  6
BYLAYER
100
AcDbCircle
 10
-5.3392042422853692
 20
-2.5389914453599918
 30
0.0
 40
0.1036684035065673
100
AcDbArc
 50
105.0706348456968726
 51
164.4689036175561796
  0
ARC
  5
171
100
AcDbEntity
  8
0
 62
256
370
-1
 48
1.0
  6
BYLAYER
100
AcDbCircle
 10
-5.194664183216867
 20
-2.530856237825843
 30
0.0
 40
0.2452094844801592
100
AcDbArc
 50
175.4099285152747143
 51
196.8134266099764886
  0
ARC
  5
172
100
AcDbEntity
  8
0
 62
256
370
-1
 48
1.0
  6
BYLAYER
100
AcDbCircle
 10
-6.4853361734962895
 20
-2.8078412810711111
 30
0.0
 40
1.0758618641917599
100
AcDbArc
 50
6.9800603119104032
 51
11.0419171575755577
  0
ARC
  5
173
100
AcDbEntity
  8
0
 62
256
370
-1
 48
1.0
  6
BYLAYER
100
AcDbCircle
 10
-5.3107470319538974
 20
-2.5763005365998808
 30
0.0
 40
0.1467831879472575
100
AcDbArc
 50
211.0976949864572703
 51
223.3704062625106133
  0
ARC
  5
174
100
AcDbEntity
  8
0
 62
256
370
-1
 48
1.0
  6
BYLAYER
100
AcDbCircle
 10
-5.5839738927971307
 20
-2.7138642052595587
 30
0.0
 40
0.1599394308637951
100
AcDbArc
 50
22.7111542211884085
 51
88.7950984068098848
  0
ARC
  5
175
100
AcDbEntity
  8
0
 62
256
370
-1
 48
1.0
  6
BYLAYER
100
AcDbCircle
 10
-5.4912462917635079
 20
-2.714698604797058
 30
0.0
 40
0.1839098988337275
100
AcDbArc
 50
119.0723754564222077
 51
161.9256561665272898
  0
ARC
  5
176
100
AcDbEntity
  8
0
 62
256
370
-1
 48
1.0
  6
BYLAYER
100
AcDbCircle
 10
-5.5611247974118472
 20
-2.6877015113343719
 30
0.0
 40
0.1091764498321811
100
AcDbArc
 50
164.0174768530882261
 51
233.4258067908575924
  0
ARC
  5
177
100
AcDbEntity
  8
0
 62
256
370
-1
 48
1.0
  6
BYLAYER
100
AcDbCircle
 10
-5.9142345588458634
 20
-3.0735441393546443
 30
0.0
 40
0.4145818272021847
100
AcDbArc
 50
33.9087350642158967
 51
45.9879345234531769
  0
ARC
  5
178
100
AcDbEntity
  8
0
 62
256
370
-1
 48
1.0
  6
BYLAYER
100
AcDbCircle
 10
-5.5658095338004596
 20
-2.6975458391886198
 30
0.0
 40
0.144780287336173
100
AcDbArc
 50
256.7018438184564957
 51
268.277359573155934
  0
ARC
  5
179
100
AcDbEntity
  8
0
 62
256
370
-1
 48
1.0
  6
BYLAYER
100
AcDbCircle
 10
-5.6464583616354398
 20
-3.1105130156283152
 30
0.0
 40
0.2761580049074823
100
AcDbArc
 50
80.1279894735123719
 51
103.4511549093443961
  0
ARC
  5
17A
100
AcDbEntity
  8
0
 62
256
370
-1
 48
1.0
  6
BYLAYER
100
AcDbCircle
 10
-5.6492682720981646
 20
-2.9586781959141106
 30
0.0
 40
0.1319225525547226
100
AcDbArc
 50
117.7519110712203769
 51
175.0058860540109151
  0
ARC
  5
17B
100
AcDbEntity
  8
0
 62
256
370
-1
 48
1.0
  6
BYLAYER
100
AcDbCircle
 10
-5.6620762773485724
 20
-2.9664579321577036
 30
0.0
 40
0.1201678765905946
100
AcDbArc
 50
170.7751431620614539
 51
224.4861757789542196
  0
ARC
  5
17C
100
AcDbEntity
  8
0
 62
256
370
-1
 48
1.0
  6
BYLAYER
100
AcDbCircle
 10
-5.6794511023595513
 20
-2.9473328460749237
 30
0.0
 40
0.1238942222567957
100
AcDbArc
 50
236.5147045760578806
 51
270.6239401714987594
  0
ARC
  5
17D
100
AcDbEntity
  8
0
 62
256
370
-1
 48
1.0
  6
BYLAYER
100
AcDbCircle
 10
-5.6720455557308345
 20
-2.9886802353501194
 30
0.0
 40
0.0827613843369026
100
AcDbArc
 50
265.8034054741360137
 51
311.825585011379701
  0
SPLINE
  5
17E
100
AcDbEntity
  8
0
 62
256
370
-1
 48
1.0
  6
BYLAYER
100
AcDbSpline
 70
8
 71
3
 72
8
 73
4
 74
0
 40
0.0
 40
0.0
 40
0.0
 40
0.0
 40
1.0
 40
1.0
 40
1.0
 40
1.0
 10
-5.6168548611111113
 20
-3.0503522222222235
 30
0.0
 10
-5.5877862500000006
 20
-3.0281561111111124
 30
0.0
 10
-5.5810183333333336
 20
-3.0312718055555563
 30
0.0
 10
-5.5334497222222225
 20
-3.0887462500000011
 30
0.0
  0
ARC
  5
17F
100
AcDbEntity
  8
0
 62
256
370
-1
 48
1.0
  6
BYLAYER
100
AcDbCircle
 10
-5.3746921665455938
 20
-2.9931882196218651
 30
0.0
 40
0.1852978646778388
100
AcDbArc
 50
211.0442271375462155
 51
254.1481679151637252
  0
ARC
  5
180
100
AcDbEntity
  8
0
 62
256
370
-1
 48
1.0
  6
BYLAYER
100
AcDbCircle
 10
-5.2227195980389496
 20
-2.0382890783692003
 30
0.0
 40
1.1511173528200067
100
AcDbArc
 50
259.8636415457030466
 51
266.6202353449035058
  0
LWPOLYLINE
  5
181
100
AcDbEntity
  8
0
 62
256
370
-1
 48
1.0
  6
BYLAYER
100
AcDbPolyline
 90
3
 70
128
 10
-5.2905823611111114
 20
-3.1874043055555568
 10
-5.2563487500000008
 20
-3.1894540277777792
 10
-5.1925494444444453
 20
-3.2274702777777793
  0
ARC
  5
182
100
AcDbEntity
  8
0
 62
256
370
-1
 48
1.0
  6
BYLAYER
100
AcDbCircle
 10
-6.6047783481215818
 20
-5.7546289916555393
 30
0.0
 40
2.8949821487376091
100
AcDbArc
 50
50.8889314645838269
 51
60.8026322687245013
  0
ARC
  5
183
100
AcDbEntity
  8
0
 62
256
370
-1
 48
1.0
  6
BYLAYER
100
AcDbCircle
 10
-5.1277861800578766
 20
-3.8413878442222509
 30
0.0
 40
0.4825831798202789
100
AcDbArc
 50
18.1129683749775943
 51
43.6406406125879087
  0
ARC
  5
184
100
AcDbEntity
  8
0
 62
256
370
-1
 48
1.0
  6
BYLAYER
100
AcDbCircle
 10
-4.8998281392972984
 20
-3.7526371395392952
 30
0.0
 40
0.2387107173772909
100
AcDbArc
 50
355.281653938197735
 51
14.8751592717840584
  0
ARC
  5
185
100
AcDbEntity
  8
0
 62
256
370
-1
 48
1.0
  6
BYLAYER
100
AcDbCircle
 10
-5.1128049120655668
 20
-3.7809606387042418
 30
0.0
 40
0.4509622147987387
100
AcDbArc
 50
337.9221799702534099
 51
1.1038632175427929
  0
ARC
  5
186
100
AcDbEntity
  8
0
 62
256
370
-1
 48
1.0
  6
BYLAYER
100
AcDbCircle
 10
1.2707616418141436
 20
-5.8629995054765676
 30
0.0
 40
6.2647455602309678
100
AcDbArc
 50
162.2246423988736126
 51
168.8886509155327644
  0
ARC
  5
187
100
AcDbEntity
  8
0
 62
256
370
-1
 48
1.0
  6
BYLAYER
100
AcDbCircle
 10
-3.5006754028050753
 20
-4.9132513063975152
 30
0.0
 40
1.399774467160833
100
AcDbArc
 50
169.3966598915776558
 51
183.1072532086762408
  0
ARC
  5
188
100
AcDbEntity
  8
0
 62
256
370
-1
 48
1.0
  6
BYLAYER
100
AcDbCircle
 10
-2.4968594444686887
 20
-5.0567431100219942
 30
0.0
 40
2.4024842079432278
100
AcDbArc
 50
178.3872258655686664
 51
186.0806655734340325
  0
ARC
  5
189
100
AcDbEntity
  8
0
 62
256
370
-1
 48
1.0
  6
BYLAYER
100
AcDbCircle
 10
-4.6392640733119022
 20
-5.2964081819133106
 30
0.0
 40
0.2470079730279148
100
AcDbArc
 50
183.441221426408049
 51
207.7166413285179658
  0
ARC
  5
18A
100
AcDbEntity
  8
0
 62
256
370
-1
 48
1.0
  6
BYLAYER
100
AcDbCircle
 10
-4.9488805759690067
 20
-5.4609396181665053
 30
0.0
 40
0.1036192739768837
100
AcDbArc
 50
306.1154027100164399
 51
28.6293060271565096
  0
ARC
  5
18B
100
AcDbEntity
  8
0
 62
256
370
-1
 48
1.0
  6
BYLAYER
100
AcDbCircle
 10
-5.3766581599258769
 20
-5.1904904020145803
 30
0.0
 40
0.6036580346837488
100
AcDbArc
 50
308.8533004806314466
 51
324.077998894451639
  0
ARC
  5
18C
100
AcDbEntity
  8
0
 62
256
370
-1
 48
1.0
  6
BYLAYER
100
AcDbCircle
 10
-5.2303562455352441
 20
-5.3415920466695104
 30
0.0
 40
0.3946720724922017
100
AcDbArc
 50
282.361226359634486
 51
306.0731702259860754
  0
ARC
  5
18D
100
AcDbEntity
  8
0
 62
256
370
-1
 48
1.0
  6
BYLAYER
100
AcDbCircle
 10
-5.2312482907362394
 20
-5.1419678735164265
 30
0.0
 40
0.5913430667447868
100
AcDbArc
 50
260.7570694253977308
 51
278.3016811128229051
  0
ARC
  5
18E
100
AcDbEntity
  8
0
 62
256
370
-1
 48
1.0
  6
BYLAYER
100
AcDbCircle
 10
-5.3268134771090194
 20
-5.5022603009321802
 30
0.0
 40
0.2233735159536476
100
AcDbArc
 50
198.7596004694373732
 51
270.1495920324987878
  0
ARC
  5
18F
100
AcDbEntity
  8
0
 62
256
370
-1
 48
1.0
  6
BYLAYER
100
AcDbCircle
 10
-5.2087989575536131
 20
-5.5545037329348421
 30
0.0
 40
0.3301035777517051
100
AcDbArc
 50
153.5967676234633927
 51
183.4027518423694971
  0
ARC
  5
190
100
AcDbEntity
  8
0
 62
256
370
-1
 48
1.0
  6
BYLAYER
100
AcDbCircle
 10
-6.0124367815120072
 20
-5.1732729710256686
 30
0.0
 40
0.5594580557246972
100
AcDbArc
 50
335.225655232992608
 51
358.4603963943363283
  0
ARC
  5
191
100
AcDbEntity
  8
0
 62
256
370
-1
 48
1.0
  6
BYLAYER
100
AcDbCircle
 10
-5.6650248763936215
 20
-5.1734721409336135
 30
0.0
 40
0.2123627901802788
100
AcDbArc
 50
355.9949629024412161
 51
64.3717925479527935
  0
ARC
  5
192
100
AcDbEntity
  8
0
 62
256
370
-1
 48
1.0
  6
BYLAYER
100
AcDbCircle
 10
-5.8289984932468411
 20
-5.2702577048904899
 30
0.0
 40
0.385407458114884
100
AcDbArc
 50
48.4109902473319238
 51
104.8563407142156194
  0
ARC
  5
193
100
AcDbEntity
  8
0
 62
256
370
-1
 48
1.0
  6
BYLAYER
100
AcDbCircle
 10
-5.7604118312143582
 20
-5.1416771601604454
 30
0.0
 40
0.2958587404218624
100
AcDbArc
 50
124.4594718290909867
 51
143.2075673289043891
  0
ARC
  5
194
100
AcDbEntity
  8
0
 62
256
370
-1
 48
1.0
  6
BYLAYER
100
AcDbCircle
 10
-5.7443427209366149
 20
-5.1393778613795833
 30
0.0
 40
0.3075637391234369
100
AcDbArc
 50
145.3439377968562951
 51
153.9704406336234968
  0
ARC
  5
195
100
AcDbEntity
  8
0
 62
256
370
-1
 48
1.0
  6
BYLAYER
100
AcDbCircle
 10
-5.9559157896000494
 20
-5.0468891159950875
 30
0.0
 40
0.0774781543542657
100
AcDbArc
 50
146.7498460626678707
 51
233.1111387793348513
  0
ARC
  5
196
100
AcDbEntity
  8
0
 62
256
370
-1
 48
1.0
  6
BYLAYER
100
AcDbCircle
 10
-5.8752279899451212
 20
-4.8501890445520672
 30
0.0
 40
0.2882487523335843
100
AcDbArc
 50
243.8151311825756125
 51
275.6627740767772252
  0
ARC
  5
197
100
AcDbEntity
  8
0
 62
256
370
-1
 48
1.0
  6
BYLAYER
100
AcDbCircle
 10
-5.813698956638599
 20
-5.3871586012248684
 30
0.0
 40
0.2523063303575613
100
AcDbArc
 50
58.4451750638583221
 51
97.5352780616520505
  0
ARC
  5
198
100
AcDbEntity
  8
0
 62
256
370
-1
 48
1.0
  6
BYLAYER
100
AcDbCircle
 10
-5.7584575099368598
 20
-5.2438353669140154
 30
0.0
 40
0.1050472340018688
100
AcDbArc
 50
0.5353341024314551
 51
43.026102063525002
  0
ARC
  5
199
100
AcDbEntity
  8
0
 62
256
370
-1
 48
1.0
  6
BYLAYER
100
AcDbCircle
 10
-6.0007403018016987
 20
-5.3339813048403508
 30
0.0
 40
0.3590810043554265
100
AcDbArc
 50
339.7594159346734841
 51
14.7012798349097213
  0
ARC
  5
19A
100
AcDbEntity
  8
0
 62
256
370
-1
 48
1.0
  6
BYLAYER
100
AcDbCircle
 10
-5.3424416354888171
 20
-5.5702782632173005
 30
0.0
 40
0.340370136452172
100
AcDbArc
 50
160.7764912910030262
 51
183.0210148322709358
  0
ARC
  5
19B
100
AcDbEntity
  8
0
 62
256
370
-1
 48
1.0
  6
BYLAYER
100
AcDbCircle
 10
-5.3479018173317474
 20
-5.6105277964892784
 30
0.0
 40
0.3351803315292623
100
AcDbArc
 50
176.1832860326143191
 51
211.0813364798771374
  0
ARC
  5
19C
100
AcDbEntity
  8
0
 62
256
370
-1
 48
1.0
  6
BYLAYER
100
AcDbCircle
 10
-5.4900944559432165
 20
-5.6819166685266653
 30
0.0
 40
0.1769724233980263
100
AcDbArc
 50
215.0562334853434265
 51
246.4770861529544277
  0
ARC
  5
19D
100
AcDbEntity
  8
0
 62
256
370
-1
 48
1.0
  6
BYLAYER
100
AcDbCircle
 10
-5.2430964697212845
 20
-5.3676758804454678
 30
0.0
 40
0.5726673918411318
100
AcDbArc
 50
236.3133281419976015
 51
270.075296268767147
  0
ARC
  5
19E
100
AcDbEntity
  8
0
 62
256
370
-1
 48
1.0
  6
BYLAYER
100
AcDbCircle
 10
-5.2345144758820261
 20
-5.3372669585552206
 30
0.0
 40
0.6031266396363133
100
AcDbArc
 50
269.2562011159794224
 51
290.8523869694025734
  0
ARC
  5
19F
100
AcDbEntity
  8
0
 62
256
370
-1
 48
1.0
  6
BYLAYER
100
AcDbCircle
 10
-4.5002455302587618
 20
-7.1039705711731793
 30
0.0
 40
1.3104835970981212
100
AcDbArc
 50
110.7157665162404214
 51
113.3582392362016407
  0
LWPOLYLINE
  5
1A0
100
AcDbEntity
  8
0
 62
256
370
-1
 48
1.0
  6
BYLAYER
100
AcDbPolyline
 90
3
 70
128
 10
-4.9638058333333337
 20
-5.8782140277777781
 10
-4.9389086111111116
 20
-5.8690451388888887
 10
-4.9385391666666676
 20
-5.8990212499999997
  0
ARC
  5
1A1
100
AcDbEntity
  8
0
 62
256
370
-1
 48
1.0
  6
BYLAYER
100
AcDbCircle
 10
-4.6061493980005199
 20
-5.879821967974407
 30
0.0
 40
0.3329437951730485
100
AcDbArc
 50
183.305808413572862
 51
227.9244198226332401
  0
ARC
  5
1A2
100
AcDbEntity
  8
0
 62
256
370
-1
 48
1.0
  6
BYLAYER
100
AcDbCircle
 10
-2.7855587404978301
 20
-1.5866311070373162
 30
0.0
 40
0.2755360095011687
100
AcDbArc
 50
107.664673357103382
 51
158.7975925521119507
  0
ARC
  5
1A3
100
AcDbEntity
  8
0
 62
256
370
-1
 48
1.0
  6
BYLAYER
100
AcDbCircle
 10
-2.9049650292166573
 20
-1.5283912615964936
 30
0.0
 40
0.1435799418308283
100
AcDbArc
 50
163.2365240670543471
 51
185.9545795317260115
  0
ARC
  5
1A4
100
AcDbEntity
  8
0
 62
256
370
-1
 48
1.0
  6
BYLAYER
100
AcDbCircle
 10
-2.9740551136053917
 20
-1.5550739275855807
 30
0.0
 40
0.0746516896782883
100
AcDbArc
 50
170.9148376941951142
 51
276.4739272655230025
  0
ARC
  5
1A5
100
AcDbEntity
  8
0
 62
256
370
-1
 48
1.0
  6
BYLAYER
100
AcDbCircle
 10
-3.0506082310452269
 20
-2.0536788681269784
 30
0.0
 40
0.4328511851816864
100
AcDbArc
 50
63.3095525999112851
 51
78.6791231655862902
  0
ARC
  5
1A6
100
AcDbEntity
  8
0
 62
256
370
-1
 48
1.0
  6
BYLAYER
100
AcDbCircle
 10
-2.9190592055733959
 20
-1.7606073443983894
 30
0.0
 40
0.1128051940060462
100
AcDbArc
 50
20.4763048776791408
 51
56.1255655376569251
  0
ARC
  5
1A7
100
AcDbEntity
  8
0
 62
256
370
-1
 48
1.0
  6
BYLAYER
100
AcDbCircle
 10
-2.6719829691531225
 20
-1.6634913085724197
 30
0.0
 40
0.1527008753386138
100
AcDbArc
 50
202.1829420856600734
 51
233.5566458342298404
  0
ARC
  5
1A8
100
AcDbEntity
  8
0
 62
256
370
-1
 48
1.0
  6
BYLAYER
100
AcDbCircle
 10
-1.9057262026202053
 20
1.555000387970326
 30
0.0
 40
3.449475753043278
100
AcDbArc
 50
255.6151660271729327
 51
256.4799760966790245
  0
ARC
  5
1A9
100
AcDbEntity
  8
0
 62
256
370
-1
 48
1.0
  6
BYLAYER
100
AcDbCircle
 10
-2.747597869208894
 20
-2.0602336919801054
 30
0.0
 40
0.263740581971047
100
AcDbArc
 50
55.7092071170526424
 51
82.2785653288748478
  0
ARC
  5
1AA
100
AcDbEntity
  8
0
 62
256
370
-1
 48
1.0
  6
BYLAYER
100
AcDbCircle
 10
-2.5160085750128798
 20
-1.759904779484861
 30
0.0
 40
0.1169766673185449
100
AcDbArc
 50
224.8025027622213941
 51
283.6367149903472296
  0
ARC
  5
1AB
100
AcDbEntity
  8
0
 62
256
370
-1
 48
1.0
  6
BYLAYER
100
AcDbCircle
 10
-2.4586449206322065
 20
-2.0033331101590179
 30
0.0
 40
0.1331239518359664
100
AcDbArc
 50
87.486622565294283
 51
102.9285801926546355
  0
ARC
  5
1AC
100
AcDbEntity
  8
0
 62
256
370
-1
 48
1.0
  6
BYLAYER
100
AcDbCircle
 10
-2.5058603105067059
 20
-1.9636667525314315
 30
0.0
 40
0.1073547676689164
100
AcDbArc
 50
27.0593904380642911
 51
60.3839089997937322
  0
ARC
  5
1AD
100
AcDbEntity
  8
0
 62
256
370
-1
 48
1.0
  6
BYLAYER
100
AcDbCircle
 10
-2.4554760575990469
 20
-1.9483844269013912
 30
0.0
 40
0.0563088195624811
100
AcDbArc
 50
353.5958756820698454
 51
36.5773473070021566
  0
ARC
  5
1AE
100
AcDbEntity
  8
0
 62
256
370
-1
 48
1.0
  6
BYLAYER
100
AcDbCircle
 10
-2.7551580178688324
 20
-1.8816812073555413
 30
0.0
 40
0.3630510183170513
100
AcDbArc
 50
317.8163415193218952
 51
348.4028375006052443
  0
ARC
  5
1AF
100
AcDbEntity
  8
0
 62
256
370
-1
 48
1.0
  6
BYLAYER
100
AcDbCircle
 10
-2.353315692458807
 20
-2.2277762264869168
 30
0.0
 40
0.1676538388075567
100
AcDbArc
 50
142.3958097085668726
 51
178.700153018659222
  0
ARC
  5
1B0
100
AcDbEntity
  8
0
 62
256
370
-1
 48
1.0
  6
BYLAYER
100
AcDbCircle
 10
-2.3892980088519002
 20
-2.241972094079042
 30
0.0
 40
0.1328532868202051
100
AcDbArc
 50
172.2135903856485015
 51
224.9074371597949096
  0
ARC
  5
1B1
100
AcDbEntity
  8
0
 62
256
370
-1
 48
1.0
  6
BYLAYER
100
AcDbCircle
 10
-2.3150147083853452
 20
-2.1122490079481997
 30
0.0
 40
0.2798365980394047
100
AcDbArc
 50
233.0085792404157417
 51
274.0273644019168273
  0
LWPOLYLINE
  5
1B2
100
AcDbEntity
  8
0
 62
256
370
-1
 48
1.0
  6
BYLAYER
100
AcDbPolyline
 90
3
 70
128
 10
-2.2953609722222224
 20
-2.3913945833333341
 10
-2.256686666666667
 20
-2.3935854166666672
 10
-2.2531244444444445
 20
-2.4094362500000002
  0
SPLINE
  5
1B3
100
AcDbEntity
  8
0
 62
256
370
-1
 48
1.0
  6
BYLAYER
100
AcDbSpline
 70
8
 71
3
 72
8
 73
4
 74
0
 40
0.0
 40
0.0
 40
0.0
 40
0.0
 40
1.0
 40
1.0
 40
1.0
 40
1.0
 10
-2.2531244444444445
 20
-2.4094362500000002
 30
0.0
 10
-2.2349193055555556
 20
-2.4904416666666669
 30
0.0
 10
-2.1087418055555553
 20
-2.5280087500000001
 30
0.0
 10
-1.9201184722222224
 20
-2.5085818055555555
 30
0.0
  0
ARC
  5
1B4
100
AcDbEntity
  8
0
 62
256
370
-1
 48
1.0
  6
BYLAYER
100
AcDbCircle
 10
-1.8698285292903911
 20
-2.7293385185236181
 30
0.0
 40
0.2264124658241025
100
AcDbArc
 50
51.9049936278724431
 51
102.8333753044337442
  0
ARC
  5
1B5
100
AcDbEntity
  8
0
 62
256
370
-1
 48
1.0
  6
BYLAYER
100
AcDbCircle
 10
-1.834438807861503
 20
-2.6550654575004251
 30
0.0
 40
0.1472272252116567
100
AcDbArc
 50
342.6154234901626978
 51
44.8931330357484413
  0
ARC
  5
1B6
100
AcDbEntity
  8
0
 62
256
370
-1
 48
1.0
  6
BYLAYER
100
AcDbCircle
 10
-1.7899284217135001
 20
-2.6357449864704012
 30
0.0
 40
0.114989110039
100
AcDbArc
 50
290.379719697342864
 51
326.5938484611888271
  0
ARC
  5
1B7
100
AcDbEntity
  8
0
 62
256
370
-1
 48
1.0
  6
BYLAYER
100
AcDbCircle
 10
-1.6135020096343877
 20
-3.0029400366504357
 30
0.0
 40
0.2930707404036528
100
AcDbArc
 50
117.7333406621716989
 51
156.526197195774472
  0
ARC
  5
1B8
100
AcDbEntity
  8
0
 62
256
370
-1
 48
1.0
  6
BYLAYER
100
AcDbCircle
 10
-1.5404609420901267
 20
-3.0747022102194825
 30
0.0
 40
0.390383744273673
100
AcDbArc
 50
151.1275951858334565
 51
168.8680846202570649
  0
ARC
  5
1B9
100
AcDbEntity
  8
0
 62
256
370
-1
 48
1.0
  6
BYLAYER
100
AcDbCircle
 10
-1.7767719430328615
 20
-2.9865501215579244
 30
0.0
 40
0.1472834070098451
100
AcDbArc
 50
184.9783948292049729
 51
263.2527970680202429
  0
ARC
  5
1BA
100
AcDbEntity
  8
0
 62
256
370
-1
 48
1.0
  6
BYLAYER
100
AcDbCircle
 10
-1.5457505878060438
 20
-2.6865778402210245
 30
0.0
 40
0.5106777896014709
100
AcDbArc
 50
240.9045137746236378
 51
271.0736532787966553
  0
ARC
  5
1BB
100
AcDbEntity
  8
0
 62
256
370
-1
 48
1.0
  6
BYLAYER
100
AcDbCircle
 10
-1.5710612953374088
 20
-2.5416173458913187
 30
0.0
 40
0.6564758868233801
100
AcDbArc
 50
273.0456518106586827
 51
286.3836616299581692
  0
ARC
  5
1BC
100
AcDbEntity
  8
0
 62
256
370
-1
 48
1.0
  6
BYLAYER
100
AcDbCircle
 10
-1.4085257664486985
 20
-3.1081562413834036
 30
0.0
 40
0.0672068914153914
100
AcDbArc
 50
289.6819938931383263
 51
336.2388588427140235
  0
ARC
  5
1BD
100
AcDbEntity
  8
0
 62
256
370
-1
 48
1.0
  6
BYLAYER
100
AcDbCircle
 10
-1.4723283683039987
 20
-3.1080411994496688
 30
0.0
 40
0.1282293837913164
100
AcDbArc
 50
347.7559695920698459
 51
28.7303947532755295
  0
ARC
  5
1BE
100
AcDbEntity
  8
0
 62
256
370
-1
 48
1.0
  6
BYLAYER
100
AcDbCircle
 10
-3.1695108660639462
 20
-4.1781512887822032
 30
0.0
 40
2.1886915916987686
100
AcDbArc
 50
20.9002925575501735
 51
31.3398666979524272
  0
ARC
  5
1BF
100
AcDbEntity
  8
0
 62
256
370
-1
 48
1.0
  6
BYLAYER
100
AcDbCircle
 10
-9.579059511359592
 20
-6.726478267638921
 30
0.0
 40
9.0860933834815185
100
AcDbArc
 50
19.3165243469320096
 51
21.4936463129725972
  0
ARC
  5
1C0
100
AcDbEntity
  8
0
 62
256
370
-1
 48
1.0
  6
BYLAYER
100
AcDbCircle
 10
23.3811009026620624
 20
4.9282110503902397
 30
0.0
 40
25.8739864455249311
100
AcDbArc
 50
199.5287033121735476
 51
200.203765464504329
  0
ARC
  5
1C1
100
AcDbEntity
  8
0
 62
256
370
-1
 48
1.0
  6
BYLAYER
100
AcDbCircle
 10
-0.8468430994109354
 20
-4.0159990154156011
 30
0.0
 40
0.0546695835898812
100
AcDbArc
 50
171.1897668782117421
 51
298.0488335168878962
  0
SPLINE
  5
1C2
100
AcDbEntity
  8
0
 62
256
370
-1
 48
1.0
  6
BYLAYER
100
AcDbSpline
 70
8
 71
3
 72
8
 73
4
 74
0
 40
0.0
 40
0.0
 40
0.0
 40
0.0
 40
1.0
 40
1.0
 40
1.0
 40
1.0
 10
-0.8211361527777783
 20
-4.0642475000000005
 30
0.0
 10
-0.7816344027777783
 20
-4.0462133333333341
 30
0.0
 10
-0.7497513194444451
 20
-4.0539602777777777
 30
0.0
 10
-0.5632179444444451
 20
-4.1269186111111109
 30
0.0
  0
ARC
  5
1C3
100
AcDbEntity
  8
0
 62
256
370
-1
 48
1.0
  6
BYLAYER
100
AcDbCircle
 10
-0.8291107310627328
 20
-4.8853180181567577
 30
0.0
 40
0.8036595265302511
100
AcDbArc
 50
61.6969891298729536
 51
70.6794713233338143
  0
ARC
  5
1C4
100
AcDbEntity
  8
0
 62
256
370
-1
 48
1.0
  6
BYLAYER
100
AcDbCircle
 10
-1.0991258675192497
 20
-4.9648964180461608
 30
0.0
 40
1.021518928486852
100
AcDbArc
 50
33.9016093540213177
 51
50.4060303743847697
  0
ARC
  5
1C5
100
AcDbEntity
  8
0
 62
256
370
-1
 48
1.0
  6
BYLAYER
100
AcDbCircle
 10
0.1503342664374147
 20
-4.1242322573614496
 30
0.0
 40
0.4844254070686408
100
AcDbArc
 50
214.0008430782679625
 51
223.0908008275486054
  0
LWPOLYLINE
  5
1C6
100
AcDbEntity
  8
0
 62
256
370
-1
 48
1.0
  6
BYLAYER
100
AcDbPolyline
 90
2
 70
128
 10
-0.2272216944444451
 20
-4.3696130555555559
 10
-0.2272216944444444
 20
-4.3696130555555559
  0
LINE
  5
1C7
100
AcDbEntity
  8
0
 62
256
370
-1
 48
1.0
  6
BYLAYER
100
AcDbLine
 10
-1.3598851388888895
 20
-3.0464027777777778
 30
0.0
 11
-1.3001556388888893
 21
-3.0397831944444444
 31
0.0
  0
LINE
  5
1C8
100
AcDbEntity
  8
0
 62
256
370
-1
 48
1.0
  6
BYLAYER
100
AcDbLine
 10
-1.4714749794888939
 20
-7.273046616126793
 30
0.0
 11
-1.4551557030004822
 21
-7.2758250144265251
 31
0.0
  0
ARC
  5
1C9
100
AcDbEntity
  8
0
 62
256
370
-1
 48
1.0
  6
BYLAYER
100
AcDbCircle
 10
-4.5889390972222222
 20
-5.8943882638888878
 30
0.0
 40
0.3344247501697372
100
AcDbArc
 50
224.0605544942168876
 51
314.0605544942166034
  0
ARC
  5
1CA
100
AcDbEntity
  8
0
 62
256
370
-1
 48
1.0
  6
BYLAYER
100
AcDbCircle
 10
-1.9469972222222216
 20
-5.8620109722222233
 30
0.0
 40
0.3779785867466137
100
AcDbArc
 50
228.2650923094493294
 51
318.2650923094490736
  0
LWPOLYLINE
  5
1CB
100
AcDbEntity
  8
0
 62
256
370
-1
 48
1.0
  6
BYLAYER
100
AcDbPolyline
 90
8
 70
129
 10
-5.9596256072307519
 20
-6.8627771004787048
 10
-5.9596256072307519
 20
-6.3776816025250893
 10
-6.1408329742157441
 20
-6.3776816025250893
 10
-6.1408329742157441
 20
-6.312777100478705
 10
-5.7048848159619929
 20
-6.312777100478705
 10
-5.7048848159619929
 20
-6.3776816025250893
 10
-5.8868425240111062
 20
-6.3776816025250893
 10
-5.8868425240111062
 20
-6.8627771004787048
  0
LWPOLYLINE
  5
1CC
100
AcDbEntity
  8
0
 62
256
370
-1
 48
1.0
  6
BYLAYER
100
AcDbPolyline
 90
12
 70
129
 10
-5.6293711682684062
 20
-6.8627771004787048
 10
-5.6293711682684062
 20
-6.312777100478705
 10
-5.5565880850487614
 20
-6.312777100478705
 10
-5.5565880850487614
 20
-6.5386297607788411
 10
-5.2707081396190212
 20
-6.5386297607788411
 10
-5.2707081396190212
 20
-6.312777100478705
 10
-5.1979250563993755
 20
-6.312777100478705
 10
-5.1979250563993755
 20
-6.8627771004787048
 10
-5.2707081396190212
 20
-6.8627771004787048
 10
-5.2707081396190212
 20
-6.6035342628252263
 10
-5.5565880850487614
 20
-6.6035342628252263
 10
-5.5565880850487614
 20
-6.8627771004787048
  0
LWPOLYLINE
  5
1CD
100
AcDbEntity
  8
0
 62
256
370
-1
 48
1.0
  6
BYLAYER
100
AcDbPolyline
 90
12
 70
129
 10
-5.0755235546914905
 20
-6.8627771004787048
 10
-5.0755235546914905
 20
-6.312777100478705
 10
-4.6778427907078619
 20
-6.312777100478705
 10
-4.6778427907078619
 20
-6.3776816025250893
 10
-5.0027404714718449
 20
-6.3776816025250893
 10
-5.0027404714718449
 20
-6.5461331714200419
 10
-4.6984771699711629
 20
-6.5461331714200419
 10
-4.6984771699711629
 20
-6.6106625029343666
 10
-5.0027404714718449
 20
-6.6106625029343666
 10
-5.0027404714718449
 20
-6.7978725984323205
 10
-4.6650869926178204
 20
-6.7978725984323205
 10
-4.6650869926178204
 20
-6.8627771004787048
  0
LWPOLYLINE
  5
1CE
100
AcDbEntity
  8
0
 62
256
370
-1
 48
1.0
  6
BYLAYER
100
AcDbPolyline
 90
15
 70
129
 10
-4.3513654445457304
 20
-6.8627771004787048
 10
-4.3513654445457304
 20
-6.312777100478705
 10
-4.2418156491842023
 20
-6.312777100478705
 10
-4.1116314745593723
 20
-6.7022041127570136
 42
-0.0052684585217225
 10
-4.0853695373151711
 20
-6.783616118214038
 42
-0.0061129832133658
 10
-4.0561062358144895
 20
-6.695451043179931
 10
-3.9244213790614189
 20
-6.312777100478705
 10
-3.8265018701937521
 20
-6.312777100478705
 10
-3.8265018701937521
 20
-6.8627771004787048
 10
-3.8966587596889775
 20
-6.8627771004787048
 10
-3.8966587596889775
 20
-6.4024428576410513
 10
-4.0564814063465491
 20
-6.8627771004787048
 10
-4.1221362494570535
 20
-6.8627771004787048
 10
-4.2812085550505055
 20
-6.3945642764677908
 10
-4.2812085550505055
 20
-6.8627771004787048
  0
LWPOLYLINE
  5
1CF
100
AcDbEntity
  8
0
 62
256
370
-1
 48
1.0
  6
BYLAYER
100
AcDbPolyline
 90
8
 70
129
 10
-3.7682629919613362
 20
-6.8627771004787048
 10
-3.5570419824115405
 20
-6.312777100478705
 10
-3.478631341210995
 20
-6.312777100478705
 10
-3.2535290219749791
 20
-6.8627771004787048
 10
-3.3364417095602446
 20
-6.8627771004787048
 10
-3.4005958705425092
 20
-6.6962013842440529
 10
-3.6305754066953062
 20
-6.6962013842440529
 10
-3.6909778623569705
 20
-6.8627771004787048
  0
LWPOLYLINE
  5
1D0
100
AcDbEntity
  8
0
 62
256
370
-1
 48
1.0
  6
BYLAYER
100
AcDbPolyline
 90
5
 70
129
 10
-3.6095658568999447
 20
-6.6369244401785688
 10
-3.4231061024661114
 20
-6.6369244401785688
 10
-3.4805071938712953
 20
-6.4846052041621975
 42
-0.020027516996517
 10
-3.5195249292055379
 20
-6.3705533624159489
 42
-0.0389785285321276
 10
-3.5491634012382804
 20
-6.4756011113927565
  0
LWPOLYLINE
  5
1D1
100
AcDbEntity
  8
0
 62
256
370
-1
 48
1.0
  6
BYLAYER
100
AcDbPolyline
 90
19
 70
129
 10
-3.1925765042550309
 20
-6.8627771004787048
 10
-3.1925765042550309
 20
-6.312777100478705
 10
-2.9487156584160128
 20
-6.312777100478705
 42
-0.0875367077473347
 10
-2.8369148398621249
 20
-6.327596336495076
 42
-0.1693110127219026
 10
-2.7757620431363406
 20
-6.3799326257174496
 42
-0.1404351892920217
 10
-2.7528766406806788
 20
-6.4628453133027159
 42
-0.1985679884957662
 10
-2.7907688644187414
 20
-6.5615151632345032
 42
-0.1713575546748315
 10
-2.9078220704214699
 20
-6.6125383555946664
 42
-0.068853571148116
 10
-2.8639271181704471
 20
-6.6399258044350482
 42
-0.0629639356907409
 10
-2.8035246625087824
 20
-6.7130840581867544
 10
-2.7078561768334755
 20
-6.8627771004787048
 10
-2.7993977866561224
 20
-6.8627771004787048
 10
-2.8721808698757676
 20
-6.7483500882003966
 42
0.0221108371652564
 10
-2.9247047443641714
 20
-6.6725656407242706
 42
0.0794123878255166
 10
-2.9616590417720841
 20
-6.6357989285823882
 42
0.0836205663887523
 10
-2.9948616338593967
 20
-6.6211672778320469
 42
0.0465253297531256
 10
-3.0353800513218796
 20
-6.6185410841076271
 10
-3.1197934210353857
 20
-6.6185410841076271
 10
-3.1197934210353857
 20
-6.8627771004787048
  0
LWPOLYLINE
  5
1D2
100
AcDbEntity
  8
0
 62
256
370
-1
 48
1.0
  6
BYLAYER
100
AcDbPolyline
 90
8
 70
129
 10
-3.1197934210353857
 20
-6.5555124347215425
 10
-2.963347309166354
 20
-6.5555124347215425
 42
0.0844705030657123
 10
-2.8853118384978682
 20
-6.545195245089892
 42
0.1672046010832061
 10
-2.8425423978430251
 20
-6.5121802382686091
 42
0.147185502581027
 10
-2.8279107470926843
 20
-6.4628453133027168
 42
0.2247372737947682
 10
-2.8562361222632164
 20
-6.3986911523204508
 42
0.1810737436917906
 10
-2.9457142941595325
 20
-6.3735547266724293
 10
-3.1197934210353857
 20
-6.3735547266724293
  0
LWPOLYLINE
  5
1D3
100
AcDbEntity
  8
0
 62
256
370
-1
 48
1.0
  6
BYLAYER
100
AcDbPolyline
 90
8
 70
129
 10
-2.5107195768068058
 20
-6.8627771004787048
 10
-2.5107195768068058
 20
-6.3776816025250893
 10
-2.691926943791799
 20
-6.3776816025250893
 10
-2.691926943791799
 20
-6.312777100478705
 10
-2.2559787855380473
 20
-6.312777100478705
 10
-2.2559787855380473
 20
-6.3776816025250893
 10
-2.4379364935871606
 20
-6.3776816025250893
 10
-2.4379364935871606
 20
-6.8627771004787048
  0
LWPOLYLINE
  5
1D4
100
AcDbEntity
  8
0
 62
256
370
-1
 48
1.0
  6
BYLAYER
100
AcDbPolyline
 90
4
 70
129
 10
-2.1703355334788408
 20
-6.8627771004787048
 10
-2.1703355334788408
 20
-6.312777100478705
 10
-2.0975524502591951
 20
-6.312777100478705
 10
-2.0975524502591951
 20
-6.8627771004787048
  0
LWPOLYLINE
  5
1D5
100
AcDbEntity
  8
0
 62
256
370
-1
 48
1.0
  6
BYLAYER
100
AcDbPolyline
 90
10
 70
129
 10
-1.9697152070830417
 20
-6.8627771004787048
 10
-1.9697152070830417
 20
-6.312777100478705
 10
-1.8950562712030963
 20
-6.312777100478705
 10
-1.6061749615168757
 20
-6.7445983828797962
 10
-1.6061749615168757
 20
-6.312777100478705
 10
-1.5363932425537112
 20
-6.312777100478705
 10
-1.5363932425537112
 20
-6.8627771004787048
 10
-1.6110521784336558
 20
-6.8627771004787048
 10
-1.8999334881198773
 20
-6.4305806475455531
 10
-1.8999334881198773
 20
-6.8627771004787048
  0
LWPOLYLINE
  5
1D6
100
AcDbEntity
  8
0
 62
256
370
-1
 48
1.0
  6
BYLAYER
100
AcDbPolyline
 90
35
 70
129
 10
-1.4391281664938478
 20
-6.6860717798784322
 10
-1.370471959126863
 20
-6.6800690513654715
 42
0.119456399284572
 10
-1.3477741419372307
 20
-6.7477873324023063
 42
0.1440439443612091
 10
-1.2924364884583768
 20
-6.7905567730571494
 42
0.1036669472459769
 10
-1.2080231187448702
 20
-6.8068766912017606
 42
0.092959490747102
 10
-1.1344896944611054
 20
-6.7944960636437797
 42
0.146076495899549
 10
-1.0870306221555119
 20
-6.7605431304923478
 42
0.1615320388773717
 10
-1.0714610450750199
 20
-6.7134592287188157
 42
0.1712546538744793
 10
-1.0864678663574225
 20
-6.6682511796055808
 42
0.1356091898860799
 10
-1.1359903765893447
 20
-6.6357989285823882
 42
0.0262406157732007
 10
-1.2339098854570127
 20
-6.6089742355400967
 42
-0.0559314157074515
 10
-1.34008314603
 20
-6.5746461318566034
 42
-0.1331529260376939
 10
-1.3987973342973938
 20
-6.5234353542304104
 42
-0.144675378727108
 10
-1.4181186166984863
 20
-6.4549667321294564
 42
-0.1487225112053642
 10
-1.394482873178704
 20
-6.3771188467269999
 42
-0.154318845042934
 10
-1.3254514952796588
 20
-6.3221563637802056
 42
-0.0989490370401148
 10
-1.2245306221555121
 20
-6.3033978371772044
 42
-0.1004256807691453
 10
-1.116669094188254
 20
-6.3230942901103555
 42
-0.1517682692772261
 10
-1.0448239372987582
 20
-6.3810581373136301
 42
-0.1389500364196805
 10
-1.0178116589904369
 20
-6.4677225302194961
 10
-1.0875933779536022
 20
-6.4729749176683367
 42
0.2022442545307244
 10
-1.1256731869576941
 20
-6.3941891059357303
 42
0.1728139984533185
 10
-1.2215292578990309
 20
-6.3675519981594686
 42
0.1656904734929831
 10
-1.3177604993724281
 20
-6.3917504974773403
 42
0.2392581221545677
 10
-1.3479617272032614
 20
-6.4500895152126736
 42
0.2235050768275655
 10
-1.3265770068758393
 20
-6.4988616843804783
 42
0.1015734454766433
 10
-1.2168396262482806
 20
-6.5380670049807517
 42
-0.0437200168019724
 10
-1.0950967885948022
 20
-6.5731454497283641
 42
-0.1381392777915015
 10
-1.0241895580354572
 20
-6.6292334442713381
 42
-0.1525896218397798
 10
-1.001304155579795
 20
-6.7074565002058542
 42
-0.1476306926423839
 10
-1.0264405812278175
 20
-6.7901816025250898
 42
-0.1452134064010456
 10
-1.0986609086493728
 20
-6.8505840581867536
 42
-0.1087394858814657
 10
-1.2046465839563303
 20
-6.8721563637802054
 42
-0.101356709311417
 10
-1.3297659563983495
 20
-6.8503964729207238
 42
-0.149847620745666
 10
-1.4089269386630154
 20
-6.7849292150762492
 42
-0.1420282575360405
  0
ENDSEC
  0
SECTION
  2
OBJECTS
  0
DICTIONARY
  5
C
100
AcDbDictionary
280
0
281
1
  3
ACAD_GROUP
350
D
  3
ACAD_LAYOUT
350
1A
  3
ACAD_MLINESTYLE
350
17
  3
ACAD_PLOTSETTINGS
350
19
  3
ACAD_PLOTSTYLENAME
350
E
  3
AcDbVariableDictionary
350
1D7
  3
QCAD_OBJECTS
350
1D8
  0
DICTIONARY
  5
D
100
AcDbDictionary
280
0
281
1
  0
ACDBDICTIONARYWDFLT
  5
E
100
AcDbDictionary
281
1
  3
Normal
350
F
100
AcDbDictionaryWithDefault
340
F
  0
ACDBPLACEHOLDER
  5
F
  0
DICTIONARY
  5
17
100
AcDbDictionary
280
0
281
1
  3
Standard
350
18
  0
MLINESTYLE
  5
18
100
AcDbMlineStyle
  2
STANDARD
 70
0
  3

 62
256
 51
90.0
 52
90.0
 71
2
 49
0.5
 62
256
  6
BYLAYER
 49
-0.5
 62
256
  6
BYLAYER
  0
DICTIONARY
  5
19
100
AcDbDictionary
280
0
281
1
  0
DICTIONARY
  5
1A
100
AcDbDictionary
281
1
  3
Layout1
350
1E
  3
Layout2
350
26
  3
Model
350
22
  0
LAYOUT
  5
1E
100
AcDbPlotSettings
  1

  2
none_device
  4

  6

 40
0.0
 41
0.0
 42
0.0
 43
0.0
 44
0.0
 45
0.0
 46
0.0
 47
0.0
 48
0.0
 49
0.0
140
0.0
141
0.0
142
1.0
143
1.0
 70
688
 72
0
 73
0
 74
5
  7

 75
16
147
1.0
148
0.0
149
0.0
100
AcDbLayout
  1
Layout1
 70
1
 71
1
 10
0.0
 20
0.0
 11
420.0
 21
297.0
 12
0.0
 22
0.0
 32
0.0
 14
100000000000000000000.0
 24
100000000000000000000.0
 34
100000000000000000000.0
 15
-100000000000000000000.0
 25
-100000000000000000000.0
 35
-100000000000000000000.0
146
0.0
 13
0.0
 23
0.0
 33
0.0
 16
1.0
 26
0.0
 36
0.0
 17
0.0
 27
1.0
 37
0.0
 76
0
330
1B
  0
LAYOUT
  5
22
100
AcDbPlotSettings
  1

  2
none_device
  4

  6

 40
0.0
 41
0.0
 42
0.0
 43
0.0
 44
0.0
 45
0.0
 46
0.0
 47
0.0
 48
0.0
 49
0.0
140
0.0
141
0.0
142
1.0
143
1.0
 70
1712
 72
0
 73
0
 74
0
  7

 75
0
147
1.0
148
0.0
149
0.0
100
AcDbLayout
  1
Model
 70
1
 71
0
 10
0.0
 20
0.0
 11
12.0
 21
9.0
 12
0.0
 22
0.0
 32
0.0
 14
0.0
 24
0.0
 34
0.0
 15
0.0
 25
0.0
 35
0.0
146
0.0
 13
0.0
 23
0.0
 33
0.0
 16
1.0
 26
0.0
 36
0.0
 17
0.0
 27
1.0
 37
0.0
 76
0
330
1F
  0
LAYOUT
  5
26
100
AcDbPlotSettings
  1

  2
none_device
  4

  6

 40
0.0
 41
0.0
 42
0.0
 43
0.0
 44
0.0
 45
0.0
 46
0.0
 47
0.0
 48
0.0
 49
0.0
140
0.0
141
0.0
142
1.0
143
1.0
 70
688
 72
0
 73
0
 74
5
  7

 75
16
147
1.0
148
0.0
149
0.0
100
AcDbLayout
  1
Layout2
 70
1
 71
2
 10
0.0
 20
0.0
 11
12.0
 21
9.0
 12
0.0
 22
0.0
 32
0.0
 14
0.0
 24
0.0
 34
0.0
 15
0.0
 25
0.0
 35
0.0
146
0.0
 13
0.0
 23
0.0
 33
0.0
 16
1.0
 26
0.0
 36
0.0
 17
0.0
 27
1.0
 37
0.0
 76
0
330
23
  0
DICTIONARY
  5
1D7
100
AcDbDictionary
281
1
  3
DIMASSOC
350
1DA
  3
HIDETEXT
350
1D9
  0
DICTIONARYVAR
  5
1D9
100
DictionaryVariables
280
0
  1
2
  0
DICTIONARYVAR
  5
1DA
100
DictionaryVariables
280
0
  1
1
  0
DICTIONARY
  5
1D8
100
AcDbDictionary
281
1
  3
ColorSettings/BackgroundColor
350
1DB
  3
ColorSettings/ColorMode
350
1DC
  3
Grid/DisplayGrid00
350
1DD
  3
Grid/DisplayGrid01
350
1DE
  3
Grid/DisplayGrid02
350
1DF
  3
Grid/DisplayGrid03
350
1E0
  3
Grid/GridSpacingX00
350
1E1
  3
Grid/GridSpacingX01
350
1E2
  3
Grid/GridSpacingX02
350
1E3
  3
Grid/GridSpacingX03
350
1E4
  3
Grid/GridSpacingY00
350
1E5
  3
Grid/GridSpacingY01
350
1E6
  3
Grid/GridSpacingY02
350
1E7
  3
Grid/GridSpacingY03
350
1E8
  3
Grid/IsometricGrid00
350
1E9
  3
Grid/IsometricGrid01
350
1EA
  3
Grid/IsometricGrid02
350
1EB
  3
Grid/IsometricGrid03
350
1EC
  3
Grid/IsometricProjection00
350
1ED
  3
Grid/IsometricProjection01
350
1EE
  3
Grid/IsometricProjection02
350
1EF
  3
Grid/IsometricProjection03
350
1F0
  3
Grid/MetaGridSpacingX00
350
1F1
  3
Grid/MetaGridSpacingX01
350
1F2
  3
Grid/MetaGridSpacingX02
350
1F3
  3
Grid/MetaGridSpacingX03
350
1F4
  3
Grid/MetaGridSpacingY00
350
1F5
  3
Grid/MetaGridSpacingY01
350
1F6
  3
Grid/MetaGridSpacingY02
350
1F7
  3
Grid/MetaGridSpacingY03
350
1F8
  3
MultiPageSettings/Columns
350
1F9
  3
MultiPageSettings/GlueMarginsBottom
350
1FA
  3
MultiPageSettings/GlueMarginsLeft
350
1FB
  3
MultiPageSettings/GlueMarginsRight
350
1FC
  3
MultiPageSettings/GlueMarginsTop
350
1FD
  3
MultiPageSettings/PrintCropMarks
350
1FE
  3
MultiPageSettings/Rows
350
1FF
  3
PageSettings/OffsetX
350
200
  3
PageSettings/OffsetY
350
201
  3
PageSettings/PageOrientation
350
202
  3
PageSettings/PaperHeight
350
203
  3
PageSettings/PaperWidth
350
204
  3
PageSettings/Scale
350
205
  3
PageSettings/ShowPaperBorders
350
206
  3
PageTagSettings/EnablePageTags
350
207
  3
PageTagSettings/TagAlignment
350
208
  3
PageTagSettings/TagFont
350
209
  3
PageTagSettings/TagPosition
350
20A
  3
QCADVersion
350
20B
  3
UnitSettings/PaperUnit
350
20C
  3
ViewportCenter
350
20D
  3
ViewportHeight
350
20E
  3
ViewportWidth
350
20F
  0
XRECORD
  5
1DB
330
1D8
100
AcDbXrecord
280
1
1000
White
  0
XRECORD
  5
1DC
330
1D8
100
AcDbXrecord
280
1
1000
FullColor
  0
XRECORD
  5
1DD
330
1D8
100
AcDbXrecord
280
1
290
1
  0
XRECORD
  5
1DE
330
1D8
100
AcDbXrecord
280
1
290
1
  0
XRECORD
  5
1DF
330
1D8
100
AcDbXrecord
280
1
290
1
  0
XRECORD
  5
1E0
330
1D8
100
AcDbXrecord
280
1
290
1
  0
XRECORD
  5
1E1
330
1D8
100
AcDbXrecord
280
1
1000
auto
  0
XRECORD
  5
1E2
330
1D8
100
AcDbXrecord
280
1
1000
auto
  0
XRECORD
  5
1E3
330
1D8
100
AcDbXrecord
280
1
1000
auto
  0
XRECORD
  5
1E4
330
1D8
100
AcDbXrecord
280
1
1000
auto
  0
XRECORD
  5
1E5
330
1D8
100
AcDbXrecord
280
1
1000
auto
  0
XRECORD
  5
1E6
330
1D8
100
AcDbXrecord
280
1
1000
auto
  0
XRECORD
  5
1E7
330
1D8
100
AcDbXrecord
280
1
1000
auto
  0
XRECORD
  5
1E8
330
1D8
100
AcDbXrecord
280
1
1000
auto
  0
XRECORD
  5
1E9
330
1D8
100
AcDbXrecord
280
1
290
0
  0
XRECORD
  5
1EA
330
1D8
100
AcDbXrecord
280
1
290
0
  0
XRECORD
  5
1EB
330
1D8
100
AcDbXrecord
280
1
290
0
  0
XRECORD
  5
1EC
330
1D8
100
AcDbXrecord
280
1
290
0
  0
XRECORD
  5
1ED
330
1D8
100
AcDbXrecord
280
1
 90
65537
  0
XRECORD
  5
1EE
330
1D8
100
AcDbXrecord
280
1
 90
65537
  0
XRECORD
  5
1EF
330
1D8
100
AcDbXrecord
280
1
 90
65537
  0
XRECORD
  5
1F0
330
1D8
100
AcDbXrecord
280
1
 90
65537
  0
XRECORD
  5
1F1
330
1D8
100
AcDbXrecord
280
1
1000
auto
  0
XRECORD
  5
1F2
330
1D8
100
AcDbXrecord
280
1
1000
auto
  0
XRECORD
  5
1F3
330
1D8
100
AcDbXrecord
280
1
1000
auto
  0
XRECORD
  5
1F4
330
1D8
100
AcDbXrecord
280
1
1000
auto
  0
XRECORD
  5
1F5
330
1D8
100
AcDbXrecord
280
1
1000
auto
  0
XRECORD
  5
1F6
330
1D8
100
AcDbXrecord
280
1
1000
auto
  0
XRECORD
  5
1F7
330
1D8
100
AcDbXrecord
280
1
1000
auto
  0
XRECORD
  5
1F8
330
1D8
100
AcDbXrecord
280
1
1000
auto
  0
XRECORD
  5
1F9
330
1D8
100
AcDbXrecord
280
1
 90
1
  0
XRECORD
  5
1FA
330
1D8
100
AcDbXrecord
280
1
 40
0.5
  0
XRECORD
  5
1FB
330
1D8
100
AcDbXrecord
280
1
 40
0.5
  0
XRECORD
  5
1FC
330
1D8
100
AcDbXrecord
280
1
 40
0.5
  0
XRECORD
  5
1FD
330
1D8
100
AcDbXrecord
280
1
 40
0.5
  0
XRECORD
  5
1FE
330
1D8
100
AcDbXrecord
280
1
290
0
  0
XRECORD
  5
1FF
330
1D8
100
AcDbXrecord
280
1
 90
1
  0
XRECORD
  5
200
330
1D8
100
AcDbXrecord
280
1
 40
0.0
  0
XRECORD
  5
201
330
1D8
100
AcDbXrecord
280
1
 40
0.0
  0
XRECORD
  5
202
330
1D8
100
AcDbXrecord
280
1
1000
Portrait
  0
XRECORD
  5
203
330
1D8
100
AcDbXrecord
280
1
 40
11.0
  0
XRECORD
  5
204
330
1D8
100
AcDbXrecord
280
1
 40
8.5
  0
XRECORD
  5
205
330
1D8
100
AcDbXrecord
280
1
1000
1:1
  0
XRECORD
  5
206
330
1D8
100
AcDbXrecord
280
1
290
1
  0
XRECORD
  5
207
330
1D8
100
AcDbXrecord
280
1
290
0
  0
XRECORD
  5
208
330
1D8
100
AcDbXrecord
280
1
1000
Inside
  0
XRECORD
  5
209
330
1D8
100
AcDbXrecord
280
1
1000
Arial,10,-1,5,50,0,0,0,0,0
  0
XRECORD
  5
20A
330
1D8
100
AcDbXrecord
280
1
1000
TopLeft
  0
XRECORD
  5
20B
330
1D8
100
AcDbXrecord
280
1
1000
3.26.1
  0
XRECORD
  5
20C
330
1D8
100
AcDbXrecord
280
1
 90
1
  0
XRECORD
  5
20E
330
1D8
100
AcDbXrecord
280
1
 40
3.6370411039006463
  0
XRECORD
  5
20F
330
1D8
100
AcDbXrecord
280
1
 40
7.0803054276754382
  0
ENDSEC
  0
EOF
