0
SECTION
2
HEADER
9
$INSUNITS
70
1
9
$ACADVER
1
AC1014
9
$HANDSEED
5
FFFF
0
ENDSEC
0
SECTION
2
TABLES
0
TABLE
2
VPORT
5
8
100
AcDbSymbolTable
0
ENDTAB
0
TABLE
2
LTYPE
5
5
100
AcDbSymbolTable
0
LTYPE
5
14
100
AcDbSymbolTableRecord
100
AcDbLinetypeTableRecord
2
BYBLOCK
70
0
0
LTYPE
5
15
100
AcDbSymbolTableRecord
100
AcDbLinetypeTableRecord
2
BYLAYER
70
0
0
ENDTAB
0
TABLE
2
LAYER
5
2
100
AcDbSymbolTable
70
2
0
LAYER
5
50
100
AcDbSymbolTableRecord
100
AcDbLayerTableRecord
2
0
70
0
6
CONTINUOUS
0
ENDTAB
0
TABLE
2
STYLE
5
3
100
AcDbSymbolTable
70
1
0
STYLE
5
11
100
AcDbSymbolTableRecord
100
AcDbTextStyleTableRecord
2
STANDARD
70
0
0
ENDTAB
0
TABLE
2
VIEW
5
6
100
AcDbSymbolTable
70
0
0
ENDTAB
0
TABLE
2
UCS
5
7
100
AcDbSymbolTable
70
0
0
ENDTAB
0
TABLE
2
APPID
5
9
100
AcDbSymbolTable
70
2
0
APPID
5
12
100
AcDbSymbolTableRecord
100
AcDbRegAppTableRecord
2
ACAD
70
0
0
ENDTAB
0
TABLE
2
DIMSTYLE
5
A
100
AcDbSymbolTable
70
1
0
ENDTAB
0
TABLE
2
BLOCK_RECORD
5
1
100
AcDbSymbolTable
70
1
0
BLOCK_RECORD
5
1F
100
AcDbSymbolTableRecord
100
AcDbBlockTableRecord
2
*MODEL_SPACE
0
BLOCK_RECORD
5
1B
100
AcDbSymbolTableRecord
100
AcDbBlockTableRecord
2
*PAPER_SPACE
0
ENDTAB
0
ENDSEC
0
SECTION
2
BLOCKS
0
BLOCK
5
20
100
AcDbEntity
100
AcDbBlockBegin
2
*MODEL_SPACE
0
ENDBLK
5
21
100
AcDbEntity
100
AcDbBlockEnd
0
BLOCK
5
1C
100
AcDbEntity
100
AcDbBlockBegin
2
*PAPER_SPACE
0
ENDBLK
5
1D
100
AcDbEntity
100
AcDbBlockEnd
0
ENDSEC
0
SECTION
2
ENTITIES
0
LINE
5
100
100
AcDbEntity
8
0
100
AcDbLine
10
-14.749106462813184
20
-10.843514924723641
30
0
11
-14.749106462813174
21
1.1564850752763585
31
0
0
LINE
5
101
100
AcDbEntity
8
0
100
AcDbLine
10
-14.749106462813174
20
1.1564850752763585
30
0
11
40.250893537186819
21
1.1564850752763585
31
0
0
LINE
5
102
100
AcDbEntity
8
0
100
AcDbLine
10
40.250893537186819
20
1.1564850752763585
30
0
11
40.250893537186798
21
-10.843514924723641
31
0
0
LINE
5
103
100
AcDbEntity
8
0
100
AcDbLine
10
40.250893537186798
20
-10.843514924723641
30
0
11
-14.749106462813192
21
-10.843514924723641
31
0
0
SPLINE
5
104
100
AcDbEntity
8
0
100
AcDbSpline
70
0
71
2
72
6
73
3
74
0
42
0.000000001
43
0.0000000001
44
0.0000000001
40
0
40
0
40
0
40
1
40
1
40
1
10
-13.604246540599368
20
-6.8551397699070726
30
0
10
-13.721069016122829
20
-6.971962620892862
30
0
10
-13.879947590343981
20
-6.971962620892862
30
0
0
SPLINE
5
105
100
AcDbEntity
8
0
100
AcDbSpline
70
0
71
2
72
6
73
3
74
0
42
0.000000001
43
0.0000000001
44
0.0000000001
40
0
40
0
40
0
40
1
40
1
40
1
10
-13.879947590343981
20
-6.971962620892862
30
0
10
-14.048171797403587
20
-6.971962620892862
30
0
10
-14.164994272927046
20
-6.8551397699070726
30
0
0
SPLINE
5
106
100
AcDbEntity
8
0
100
AcDbSpline
70
0
71
2
72
6
73
3
74
0
42
0.000000001
43
0.0000000001
44
0.0000000001
40
0
40
0
40
0
40
1
40
1
40
1
10
-14.164994272927046
20
-6.8551397699070726
30
0
10
-14.281816701517716
20
-6.7383176698459408
30
0
10
-14.281816701517716
20
-6.5794392833559527
30
0
0
LINE
5
107
100
AcDbEntity
8
0
100
AcDbLine
10
-14.281816701517716
20
-6.579439283355951
30
0
11
-14.281816701517714
21
-0.3925229620745801
31
0
0
SPLINE
5
108
100
AcDbEntity
8
0
100
AcDbSpline
70
0
71
2
72
6
73
3
74
0
42
0.000000001
43
0.0000000001
44
0.0000000001
40
0
40
0
40
0
40
1
40
1
40
1
10
-14.281816701517714
20
-0.39252296207458093
30
0
10
-14.281816701517714
20
-0.23364457558459253
30
0
10
-14.164994272927045
20
-0.11682172459880276
30
0
0
SPLINE
5
109
100
AcDbEntity
8
0
100
AcDbSpline
70
0
71
2
72
6
73
3
74
0
42
0.000000001
43
0.0000000001
44
0.0000000001
40
0
40
0
40
0
40
1
40
1
40
1
10
-14.164994272927045
20
-0.11682172459880276
30
0
10
-14.048171797403583
20
3.7546232850702696e-07
30
0
10
-13.87994759034398
20
3.7546232841960782e-07
30
0
0
SPLINE
5
110
100
AcDbEntity
8
0
100
AcDbSpline
70
0
71
2
72
6
73
3
74
0
42
0.000000001
43
0.0000000001
44
0.0000000001
40
0
40
0
40
0
40
1
40
1
40
1
10
-13.87994759034398
20
3.7546232841960782e-07
30
0
10
-13.721069016122826
20
3.7546232841960782e-07
30
0
10
-13.604246540599366
20
-0.11682172459880293
30
0
0
SPLINE
5
111
100
AcDbEntity
8
0
100
AcDbSpline
70
0
71
2
72
6
73
3
74
0
42
0.000000001
43
0.0000000001
44
0.0000000001
40
0
40
0
40
0
40
1
40
1
40
1
10
-13.604246540599366
20
-0.11682172459880293
30
0
10
-13.487424065075905
20
-0.23364457558459278
30
0
10
-13.487424065075905
20
-0.39252296207458109
30
0
0
SPLINE
5
112
100
AcDbEntity
8
0
100
AcDbSpline
70
0
71
2
72
6
73
3
74
0
42
0.000000001
43
0.0000000001
44
0.0000000001
40
0
40
0
40
0
40
1
40
1
40
1
10
-13.487424065075908
20
-6.5794392833559527
30
0
10
-13.487424065075908
20
-6.7383176698459408
30
0
10
-13.604246540599368
20
-6.8551397699070726
30
0
0
LINE
5
113
100
AcDbEntity
8
0
100
AcDbLine
10
-13.487424065075905
20
-0.39252296207458109
30
0
11
-13.487424065075908
21
-6.5794392833559536
31
0
0
SPLINE
5
114
100
AcDbEntity
8
0
100
AcDbSpline
70
0
71
2
72
6
73
3
74
0
42
0.000000001
43
0.0000000001
44
0.0000000001
40
0
40
0
40
0
40
1
40
1
40
1
10
-10.20705005623638
20
-0.69626147352804524
30
0
10
-9.8799472749556223
20
-1.0186912506584127
30
0
10
-9.6930312390256201
20
-1.4532708746241791
30
0
0
SPLINE
5
115
100
AcDbEntity
8
0
100
AcDbSpline
70
0
71
2
72
6
73
3
74
0
42
0.000000001
43
0.0000000001
44
0.0000000001
40
0
40
0
40
0
40
1
40
1
40
1
10
-9.6930312390256201
20
-1.4532708746241791
30
0
10
-9.5061152030956162
20
-1.8878501231276164
30
0
10
-9.5061152030956162
20
-2.3831772991991436
30
0
0
LINE
5
116
100
AcDbEntity
8
0
100
AcDbLine
10
-9.5061152030956162
20
-2.3831772991991436
30
0
11
-9.5061152030956162
21
-4.5887845707690635
31
0
0
SPLINE
5
117
100
AcDbEntity
8
0
100
AcDbSpline
70
0
71
2
72
6
73
3
74
0
42
0.000000001
43
0.0000000001
44
0.0000000001
40
0
40
0
40
0
40
1
40
1
40
1
10
-9.506115203095618
20
-4.5887845707690635
30
0
10
-9.506115203095618
20
-5.0841117468405912
30
0
10
-9.6930312390256219
20
-5.5186913708063576
30
0
0
SPLINE
5
118
100
AcDbEntity
8
0
100
AcDbSpline
70
0
71
2
72
6
73
3
74
0
42
0.000000001
43
0.0000000001
44
0.0000000001
40
0
40
0
40
0
40
1
40
1
40
1
10
-9.6930312390256219
20
-5.5186913708063576
30
0
10
-9.8799472749556259
20
-5.9532709947721241
30
0
10
-10.207050056236383
20
-6.2757007719024918
30
0
0
SPLINE
5
119
100
AcDbEntity
8
0
100
AcDbSpline
70
0
71
2
72
6
73
3
74
0
42
0.000000001
43
0.0000000001
44
0.0000000001
40
0
40
0
40
0
40
1
40
1
40
1
10
-10.207050056236383
20
-6.2757007719024918
30
0
10
-10.534152837517141
20
-6.5981305490328577
30
0
10
-10.968732086020578
20
-6.7850469604251904
30
0
0
SPLINE
5
120
100
AcDbEntity
8
0
100
AcDbSpline
70
0
71
2
72
6
73
3
74
0
42
0.000000001
43
0.0000000001
44
0.0000000001
40
0
40
0
40
0
40
1
40
1
40
1
10
-10.968732086020578
20
-6.7850469604251904
30
0
10
-11.403311709986344
20
-6.9719626208928638
30
0
10
-11.898639073789036
20
-6.9719626208928638
30
0
0
LINE
5
121
100
AcDbEntity
8
0
100
AcDbLine
10
-11.898639073789036
20
-6.9719626208928638
30
0
11
-12.693031569432472
21
-6.9719626208928638
31
0
0
SPLINE
5
122
100
AcDbEntity
8
0
100
AcDbSpline
70
0
71
2
72
6
73
3
74
0
42
0.000000001
43
0.0000000001
44
0.0000000001
40
0
40
0
40
0
40
1
40
1
40
1
10
-12.693031569432472
20
-6.971962620892862
30
0
10
-12.851910143653624
20
-6.971962620892862
30
0
10
-12.968732431445922
20
-6.8551397699070726
30
0
0
SPLINE
5
123
100
AcDbEntity
8
0
100
AcDbSpline
70
0
71
2
72
6
73
3
74
0
42
0.000000001
43
0.0000000001
44
0.0000000001
40
0
40
0
40
0
40
1
40
1
40
1
10
-12.968732431445922
20
-6.8551397699070726
30
0
10
-13.085554906969382
20
-6.7383176698459408
30
0
10
-13.085554906969382
20
-6.5794392833559527
30
0
0
SPLINE
5
124
100
AcDbEntity
8
0
100
AcDbSpline
70
0
71
2
72
6
73
3
74
0
42
0.000000001
43
0.0000000001
44
0.0000000001
40
0
40
0
40
0
40
1
40
1
40
1
10
-13.085554906969382
20
-6.5794392833559527
30
0
10
-13.085554906969382
20
-6.4112148885651834
30
0
10
-12.968732431445922
20
-6.294392037579394
30
0
0
SPLINE
5
125
100
AcDbEntity
8
0
100
AcDbSpline
70
0
71
2
72
6
73
3
74
0
42
0.000000001
43
0.0000000001
44
0.0000000001
40
0
40
0
40
0
40
1
40
1
40
1
10
-12.968732431445922
20
-6.294392037579394
30
0
10
-12.851910143653624
20
-6.1775699375182622
30
0
10
-12.693031569432472
20
-6.1775699375182622
30
0
0
LINE
5
126
100
AcDbEntity
8
0
100
AcDbLine
10
-12.693031569432469
20
-6.1775699375182622
30
0
11
-11.898639073789035
21
-6.177569937518264
31
0
0
SPLINE
5
127
100
AcDbEntity
8
0
100
AcDbSpline
70
0
71
2
72
6
73
3
74
0
42
0.000000001
43
0.0000000001
44
0.0000000001
40
0
40
0
40
0
40
1
40
1
40
1
10
-11.898639073789035
20
-6.177569937518264
30
0
10
-11.571536104777115
20
-6.177569937518264
30
0
10
-11.281816605774823
20
-6.0514018291563518
30
0
0
SPLINE
5
128
100
AcDbEntity
8
0
100
AcDbSpline
70
0
71
2
72
6
73
3
74
0
42
0.000000001
43
0.0000000001
44
0.0000000001
40
0
40
0
40
0
40
1
40
1
40
1
10
-11.281816605774823
20
-6.0514018291563518
30
0
10
-10.992096731310202
20
-5.9252337207944388
30
0
10
-10.772470417252123
20
-5.7102800354244216
30
0
0
SPLINE
5
129
100
AcDbEntity
8
0
100
AcDbSpline
70
0
71
2
72
6
73
3
74
0
42
0.000000001
43
0.0000000001
44
0.0000000001
40
0
40
0
40
0
40
1
40
1
40
1
10
-10.772470417252123
20
-5.7102800354244216
30
0
10
-10.552844478656374
20
-5.495327100979063
30
0
10
-10.426675994832131
20
-5.2056072265144424
30
0
0
SPLINE
5
130
100
AcDbEntity
8
0
100
AcDbSpline
70
0
71
2
72
6
73
3
74
0
42
0.000000001
43
0.0000000001
44
0.0000000001
40
0
40
0
40
0
40
1
40
1
40
1
10
-10.426675994832131
20
-5.2056072265144424
30
0
10
-10.300507886470218
20
-4.9158873520498219
30
0
10
-10.300507886470218
20
-4.5887845707690635
30
0
0
LINE
5
131
100
AcDbEntity
8
0
100
AcDbLine
10
-10.300507886470218
20
-4.5887845707690635
30
0
11
-10.300507886470218
21
-2.3831772991991436
31
0
0
SPLINE
5
132
100
AcDbEntity
8
0
100
AcDbSpline
70
0
71
2
72
6
73
3
74
0
42
0.000000001
43
0.0000000001
44
0.0000000001
40
0
40
0
40
0
40
1
40
1
40
1
10
-10.300507886470218
20
-2.3831772991991436
30
0
10
-10.300507886470218
20
-2.0560745179183857
30
0
10
-10.426675994832129
20
-1.7663550189160941
30
0
0
SPLINE
5
133
100
AcDbEntity
8
0
100
AcDbSpline
70
0
71
2
72
6
73
3
74
0
42
0.000000001
43
0.0000000001
44
0.0000000001
40
0
40
0
40
0
40
1
40
1
40
1
10
-10.426675994832129
20
-1.7663550189160941
30
0
10
-10.552844478656372
20
-1.4766351444514734
30
0
10
-10.772470417252121
20
-1.2616818345437855
30
0
0
SPLINE
5
134
100
AcDbEntity
8
0
100
AcDbSpline
70
0
71
2
72
6
73
3
74
0
42
0.000000001
43
0.0000000001
44
0.0000000001
40
0
40
0
40
0
40
1
40
1
40
1
10
-10.772470417252121
20
-1.2616818345437855
30
0
10
-10.9920967313102
20
-1.0467285246360976
30
0
10
-11.28181660577482
20
-0.92056041627418506
30
0
0
SPLINE
5
135
100
AcDbEntity
8
0
100
AcDbSpline
70
0
71
2
72
6
73
3
74
0
42
0.000000001
43
0.0000000001
44
0.0000000001
40
0
40
0
40
0
40
1
40
1
40
1
10
-11.28181660577482
20
-0.92056041627418506
30
0
10
-11.571536104777111
20
-0.79439230791227222
30
0
10
-11.898639073789035
20
-0.79439230791227222
30
0
0
LINE
5
136
100
AcDbEntity
8
0
100
AcDbLine
10
-11.898639073789035
20
-0.79439230791227222
30
0
11
-12.693031569432469
21
-0.794392307912272
31
0
0
SPLINE
5
137
100
AcDbEntity
8
0
100
AcDbSpline
70
0
71
2
72
6
73
3
74
0
42
0.000000001
43
0.0000000001
44
0.0000000001
40
0
40
0
40
0
40
1
40
1
40
1
10
-12.693031569432469
20
-0.79439230791227189
30
0
10
-12.851910143653622
20
-0.79439230791227189
30
0
10
-12.968732431445918
20
-0.67756945692648207
30
0
0
SPLINE
5
138
100
AcDbEntity
8
0
100
AcDbSpline
70
0
71
2
72
6
73
3
74
0
42
0.000000001
43
0.0000000001
44
0.0000000001
40
0
40
0
40
0
40
1
40
1
40
1
10
-12.968732431445918
20
-0.67756945692648207
30
0
10
-13.085554906969378
20
-0.56074735686535082
30
0
10
-13.085554906969378
20
-0.39252296207458126
30
0
0
SPLINE
5
139
100
AcDbEntity
8
0
100
AcDbSpline
70
0
71
2
72
6
73
3
74
0
42
0.000000001
43
0.0000000001
44
0.0000000001
40
0
40
0
40
0
40
1
40
1
40
1
10
-13.085554906969378
20
-0.39252296207458126
30
0
10
-13.085554906969378
20
-0.23364457558459287
30
0
10
-12.968732431445918
20
-0.11682172459880311
30
0
0
SPLINE
5
140
100
AcDbEntity
8
0
100
AcDbSpline
70
0
71
2
72
6
73
3
74
0
42
0.000000001
43
0.0000000001
44
0.0000000001
40
0
40
0
40
0
40
1
40
1
40
1
10
-12.968732431445918
20
-0.11682172459880311
30
0
10
-12.851910143653622
20
3.7546232815735043e-07
30
0
10
-12.693031569432469
20
3.7546232806993128e-07
30
0
0
LINE
5
141
100
AcDbEntity
8
0
100
AcDbLine
10
-12.693031569432467
20
3.7546232806993128e-07
30
0
11
-11.898639073789035
21
3.7546232784770695e-07
31
0
0
SPLINE
5
142
100
AcDbEntity
8
0
100
AcDbSpline
70
0
71
2
72
6
73
3
74
0
42
0.000000001
43
0.0000000001
44
0.0000000001
40
0
40
0
40
0
40
1
40
1
40
1
10
-10.968732086020575
20
-0.18691528500534582
30
0
10
-10.534152837517139
20
-0.37383169639767805
30
0
10
-10.20705005623638
20
-0.69626147352804524
30
0
0
SPLINE
5
143
100
AcDbEntity
8
0
100
AcDbSpline
70
0
71
2
72
6
73
3
74
0
42
0.000000001
43
0.0000000001
44
0.0000000001
40
0
40
0
40
0
40
1
40
1
40
1
10
-11.898639073789035
20
3.7546232789509299e-07
30
0
10
-11.403311709986342
20
3.7546232772025475e-07
30
0
10
-10.968732086020575
20
-0.18691528500534582
30
0
0
SPLINE
5
144
100
AcDbEntity
8
0
100
AcDbSpline
70
0
71
2
72
6
73
3
74
0
42
0.000000001
43
0.0000000001
44
0.0000000001
40
0
40
0
40
0
40
1
40
1
40
1
10
-6.4593863330341783
20
-0.074766189094606236
30
0
10
-6.3565824944995608
20
3.7546232649638685e-07
30
0
10
-6.2257413819872571
20
3.7546232649638685e-07
30
0
0
SPLINE
5
145
100
AcDbEntity
8
0
100
AcDbSpline
70
0
71
2
72
6
73
3
74
0
42
0.000000001
43
0.0000000001
44
0.0000000001
40
0
40
0
40
0
40
1
40
1
40
1
10
-6.2257413819872571
20
3.7546232649638685e-07
30
0
10
-6.0949002694749543
20
3.7546232649638685e-07
30
0
10
-5.9920966186715008
20
-0.074766189094606403
30
0
0
SPLINE
5
146
100
AcDbEntity
8
0
100
AcDbSpline
70
0
71
2
72
6
73
3
74
0
42
0.000000001
43
0.0000000001
44
0.0000000001
40
0
40
0
40
0
40
1
40
1
40
1
10
-5.9920966186715008
20
-0.074766189094606403
30
0
10
-5.8892929678680472
20
-0.14953200272688064
30
0
10
-5.8425640527511291
20
-0.27102785786306111
30
0
0
LINE
5
147
100
AcDbEntity
8
0
100
AcDbLine
10
-5.8425640527511291
20
-0.27102785786306111
30
0
11
-4.3846201739765629
21
-4.813083888977534
31
0
0
LINE
5
148
100
AcDbEntity
8
0
100
AcDbLine
10
-4.3846201739765629
20
-4.813083888977534
30
0
11
-3.8612553484650216
21
-6.4579434282197745
31
0
0
SPLINE
5
149
100
AcDbEntity
8
0
100
AcDbSpline
70
0
71
2
72
6
73
3
74
0
42
0.000000001
43
0.0000000001
44
0.0000000001
40
0
40
0
40
0
40
1
40
1
40
1
10
-3.8612553484650216
20
-6.4579434282197745
30
0
10
-3.8051808005096515
20
-6.6168225656344219
30
0
10
-3.8799469896042549
20
-6.7616819396732382
30
0
0
SPLINE
5
150
100
AcDbEntity
8
0
100
AcDbSpline
70
0
71
2
72
6
73
3
74
0
42
0.000000001
43
0.0000000001
44
0.0000000001
40
0
40
0
40
0
40
1
40
1
40
1
10
-3.8799469896042549
20
-6.7616819396732382
30
0
10
-3.9547135541611875
20
-6.9065420646367137
30
0
10
-4.1135919406511761
20
-6.9532706042913022
30
0
0
SPLINE
5
151
100
AcDbEntity
8
0
100
AcDbSpline
70
0
71
2
72
6
73
3
74
0
42
0.000000001
43
0.0000000001
44
0.0000000001
40
0
40
0
40
0
40
1
40
1
40
1
10
-4.1135919406511761
20
-6.9532706042913022
30
0
10
-4.1416292146288614
20
-6.9719626208928647
30
0
10
-4.1743394927569373
20
-6.9719626208928647
30
0
0
LINE
5
152
100
AcDbEntity
8
0
100
AcDbLine
10
-4.1743394927569373
20
-6.9719626208928647
30
0
11
-4.2350874203250273
21
-6.9719626208928647
31
0
0
SPLINE
5
153
100
AcDbEntity
8
0
100
AcDbSpline
70
0
71
2
72
6
73
3
74
0
42
0.000000001
43
0.0000000001
44
0.0000000001
40
0
40
0
40
0
40
1
40
1
40
1
10
-4.2350874203250273
20
-6.9719626208928647
30
0
10
-4.3659285328373301
20
-6.9719626208928647
30
0
10
-4.4687319959096188
20
-6.9018690604863231
30
0
0
SPLINE
5
154
100
AcDbEntity
8
0
100
AcDbSpline
70
0
71
2
72
6
73
3
74
0
42
0.000000001
43
0.0000000001
44
0.0000000001
40
0
40
0
40
0
40
1
40
1
40
1
10
-4.4687319959096188
20
-6.9018690604863231
30
0
10
-4.5715358344442372
20
-6.8317755000797806
30
0
10
-4.6182647495611553
20
-6.7009343875674769
30
0
0
LINE
5
155
100
AcDbEntity
8
0
100
AcDbLine
10
-4.6182647495611553
20
-6.7009343875674761
30
0
11
-5.0575173776773115
21
-5.3271027061882945
31
0
0
LINE
5
156
100
AcDbEntity
8
0
100
AcDbLine
10
-5.0575173776773115
20
-5.3271027061882945
30
0
11
-6.4220030507557135
21
-5.3271027061882945
31
0
0
SPLINE
5
157
100
AcDbEntity
8
0
100
AcDbSpline
70
0
71
2
72
6
73
3
74
0
42
0.000000001
43
0.0000000001
44
0.0000000001
40
0
40
0
40
0
40
1
40
1
40
1
10
-6.4220030507557135
20
-5.3271027061882945
30
0
10
-6.5902274455464829
20
-5.3271027061882945
30
0
10
-6.7070499210699435
20
-5.2102802306648339
30
0
0
SPLINE
5
158
100
AcDbEntity
8
0
100
AcDbSpline
70
0
71
2
72
6
73
3
74
0
42
0.000000001
43
0.0000000001
44
0.0000000001
40
0
40
0
40
0
40
1
40
1
40
1
10
-6.7070499210699435
20
-5.2102802306648339
30
0
10
-6.8238723965934041
20
-5.0934577551413733
30
0
10
-6.8238723965934041
20
-4.9345793686513852
30
0
0
SPLINE
5
159
100
AcDbEntity
8
0
100
AcDbSpline
70
0
71
2
72
6
73
3
74
0
42
0.000000001
43
0.0000000001
44
0.0000000001
40
0
40
0
40
0
40
1
40
1
40
1
10
-6.8238723965934041
20
-4.9345793686513852
30
0
10
-6.8238723965934041
20
-4.766354973860615
30
0
10
-6.7070499210699435
20
-4.6495324983371544
30
0
0
SPLINE
5
160
100
AcDbEntity
8
0
100
AcDbSpline
70
0
71
2
72
6
73
3
74
0
42
0.000000001
43
0.0000000001
44
0.0000000001
40
0
40
0
40
0
40
1
40
1
40
1
10
-6.7070499210699435
20
-4.6495324983371544
30
0
10
-6.5902274455464829
20
-4.5327100228136938
30
0
10
-6.4220030507557135
20
-4.5327100228136938
30
0
0
LINE
5
161
100
AcDbEntity
8
0
100
AcDbLine
10
-6.4220030507557135
20
-4.5327100228136938
30
0
11
-5.3098535944011367
21
-4.5327100228136938
31
0
0
LINE
5
162
100
AcDbEntity
8
0
100
AcDbLine
10
-5.3098535944011367
20
-4.5327100228136938
30
0
11
-6.225741381987258
21
-1.6915884543591619
31
0
0
LINE
5
163
100
AcDbEntity
8
0
100
AcDbLine
10
-6.225741381987258
20
-1.6915884543591619
30
0
11
-7.8332182021445291
21
-6.7009343875674769
31
0
0
SPLINE
5
164
100
AcDbEntity
8
0
100
AcDbSpline
70
0
71
2
72
6
73
3
74
0
42
0.000000001
43
0.0000000001
44
0.0000000001
40
0
40
0
40
0
40
1
40
1
40
1
10
-7.8332182021445291
20
-6.7009343875674761
30
0
10
-7.8799471172614473
20
-6.8598127740574641
30
0
10
-8.0294798709129829
20
-6.9299063344640066
30
0
0
SPLINE
5
165
100
AcDbEntity
8
0
100
AcDbSpline
70
0
71
2
72
6
73
3
74
0
42
0.000000001
43
0.0000000001
44
0.0000000001
40
0
40
0
40
0
40
1
40
1
40
1
10
-8.0294798709129829
20
-6.9299063344640066
30
0
10
-8.1790126245645194
20
-6.9999998948705482
30
0
10
-8.3378911049200912
20
-6.9532706042913013
30
0
0
SPLINE
5
166
100
AcDbEntity
8
0
100
AcDbSpline
70
0
71
2
72
6
73
3
74
0
42
0.000000001
43
0.0000000001
44
0.0000000001
40
0
40
0
40
0
40
1
40
1
40
1
10
-8.3378911049200912
20
-6.9532706042913013
30
0
10
-8.4967696322084532
20
-6.9065420646367119
30
0
10
-8.5668630987494101
20
-6.7616819396732373
30
0
0
SPLINE
5
167
100
AcDbEntity
8
0
100
AcDbSpline
70
0
71
2
72
6
73
3
74
0
42
0.000000001
43
0.0000000001
44
0.0000000001
40
0
40
0
40
0
40
1
40
1
40
1
10
-8.5668630987494101
20
-6.7616819396732373
30
0
10
-8.6369565652903706
20
-6.6168225656344202
30
0
10
-8.5902276032406615
20
-6.4579434282197736
30
0
0
SPLINE
5
168
100
AcDbEntity
8
0
100
AcDbSpline
70
0
71
2
72
6
73
3
74
0
42
0.000000001
43
0.0000000001
44
0.0000000001
40
0
40
0
40
0
40
1
40
1
40
1
10
-6.5995732661160984
20
-0.27102785786306094
30
0
10
-6.5621899838376319
20
-0.14953200272688047
30
0
10
-6.4593863330341783
20
-0.074766189094606236
30
0
0
LINE
5
169
100
AcDbEntity
8
0
100
AcDbLine
10
-8.5902276032406615
20
-6.4579434282197745
30
0
11
-6.5995732661160984
21
-0.27102785786306033
31
0
0
SPLINE
5
170
100
AcDbEntity
8
0
100
AcDbSpline
70
0
71
2
72
6
73
3
74
0
42
0.000000001
43
0.0000000001
44
0.0000000001
40
0
40
0
40
0
40
1
40
1
40
1
10
-10.652987073053911
20
-8.0351067882755771
30
0
10
-10.640021795629902
20
-8.0543054912905205
30
0
10
-10.64820818852666
20
-8.0783664314698207
30
0
0
SPLINE
5
171
100
AcDbEntity
8
0
100
AcDbSpline
70
0
71
2
72
6
73
3
74
0
42
0.000000001
43
0.0000000001
44
0.0000000001
40
0
40
0
40
0
40
1
40
1
40
1
10
-10.64820818852666
20
-8.0783664314698207
30
0
10
-10.657641491819001
20
-8.1061671641800501
30
0
10
-10.683447580904858
20
-8.1235375533824978
30
0
0
SPLINE
5
172
100
AcDbEntity
8
0
100
AcDbSpline
70
0
71
2
72
6
73
3
74
0
42
0.000000001
43
0.0000000001
44
0.0000000001
40
0
40
0
40
0
40
1
40
1
40
1
10
-10.683447580904858
20
-8.1235375533824978
30
0
10
-10.70925385772188
20
-8.1409079425849473
30
0
10
-10.735226088888449
20
-8.1409079425849473
30
0
0
LINE
5
173
100
AcDbEntity
8
0
100
AcDbLine
10
-10.735226088888449
20
-8.1409079425849473
30
0
11
-11.765270944922374
21
-8.1409079425849455
31
0
0
LINE
5
174
100
AcDbEntity
8
0
100
AcDbLine
10
-11.765270944922374
20
-8.1409079425849455
30
0
11
-12.380962426535177
21
-9.9501249900885593
31
0
0
SPLINE
5
175
100
AcDbEntity
8
0
100
AcDbSpline
70
0
71
2
72
6
73
3
74
0
42
0.000000001
43
0.0000000001
44
0.0000000001
40
0
40
0
40
0
40
1
40
1
40
1
10
-12.380962426535177
20
-9.9501249900885576
30
0
10
-12.389938510576021
20
-9.9764713694662692
30
0
10
-12.41603558296708
20
-9.99618952461379
30
0
0
SPLINE
5
176
100
AcDbEntity
8
0
100
AcDbSpline
70
0
71
2
72
6
73
3
74
0
42
0.000000001
43
0.0000000001
44
0.0000000001
40
0
40
0
40
0
40
1
40
1
40
1
10
-12.41603558296708
20
-9.99618952461379
30
0
10
-12.442132631891745
20
-10.015907867492478
30
0
10
-12.468479046469048
20
-10.015907867492478
30
0
0
SPLINE
5
177
100
AcDbEntity
8
0
100
AcDbSpline
70
0
71
2
72
6
73
3
74
0
42
0.000000001
43
0.0000000001
44
0.0000000001
40
0
40
0
40
0
40
1
40
1
40
1
10
-12.468479046469048
20
-10.015907867492478
30
0
10
-12.496612333204252
20
-10.015907867492478
30
0
10
-12.507125982416346
20
-9.9962312009323426
30
0
0
SPLINE
5
178
100
AcDbEntity
8
0
100
AcDbSpline
70
0
71
2
72
6
73
3
74
0
42
0.000000001
43
0.0000000001
44
0.0000000001
40
0
40
0
40
0
40
1
40
1
40
1
10
-12.507125982416346
20
-9.9962312009323426
30
0
10
-12.517639643361639
20
-9.9765545343722071
30
0
10
-12.508663559320793
20
-9.9501664786759445
30
0
0
LINE
5
179
100
AcDbEntity
8
0
100
AcDbLine
10
-12.508663559320793
20
-9.9501664786759445
30
0
11
-11.871861696510249
21
-8.0789896989364465
31
0
0
SPLINE
5
180
100
AcDbEntity
8
0
100
AcDbSpline
70
0
71
2
72
6
73
3
74
0
42
0.000000001
43
0.0000000001
44
0.0000000001
40
0
40
0
40
0
40
1
40
1
40
1
10
-11.871861696510249
20
-8.0789896989364465
30
0
10
-11.863592138707554
20
-8.0547626166764346
30
0
10
-11.840009162073446
20
-8.0353352571029504
30
0
0
SPLINE
5
181
100
AcDbEntity
8
0
100
AcDbSpline
70
0
71
2
72
6
73
3
74
0
42
0.000000001
43
0.0000000001
44
0.0000000001
40
0
40
0
40
0
40
1
40
1
40
1
10
-11.840009162073446
20
-8.0353352571029504
30
0
10
-11.816426185439338
20
-8.0159078975294662
30
0
10
-11.787835855450602
20
-8.0159078975294662
30
0
0
SPLINE
5
182
100
AcDbEntity
8
0
100
AcDbSpline
70
0
71
2
72
6
73
3
74
0
42
0.000000001
43
0.0000000001
44
0.0000000001
40
0
40
0
40
0
40
1
40
1
40
1
10
-10.692673065797937
20
-8.015907897529468
30
0
10
-10.665952538209085
20
-8.015907897529468
30
0
10
-10.652987073053911
20
-8.0351067882755771
30
0
0
LINE
5
183
100
AcDbEntity
8
0
100
AcDbLine
10
-11.787835855450602
20
-8.0159078975294662
30
0
11
-10.692673065797937
21
-8.015907897529468
31
0
0
SPLINE
5
184
100
AcDbEntity
8
0
100
AcDbSpline
70
0
71
2
72
6
73
3
74
0
42
0.000000001
43
0.0000000001
44
0.0000000001
40
0
40
0
40
0
40
1
40
1
40
1
10
-11.08593662731705
20
-8.9739364505685373
30
0
10
-11.072950511733765
20
-8.9931352474490645
30
0
10
-11.080264330177243
20
-9.0146196712591671
30
0
0
SPLINE
5
185
100
AcDbEntity
8
0
100
AcDbSpline
70
0
71
2
72
6
73
3
74
0
42
0.000000001
43
0.0000000001
44
0.0000000001
40
0
40
0
40
0
40
1
40
1
40
1
10
-11.080264330177243
20
-9.0146196712591671
30
0
10
-11.089240320352506
20
-9.040966050636877
30
0
10
-11.115524560714718
20
-9.0603519216229742
30
0
0
SPLINE
5
186
100
AcDbEntity
8
0
100
AcDbSpline
70
0
71
2
72
6
73
3
74
0
42
0.000000001
43
0.0000000001
44
0.0000000001
40
0
40
0
40
0
40
1
40
1
40
1
10
-11.115524560714718
20
-9.0603519216229742
30
0
10
-11.141808613345766
20
-9.0797376987434895
30
0
10
-11.168154992723476
20
-9.0797376987434895
30
0
0
LINE
5
187
100
AcDbEntity
8
0
100
AcDbLine
10
-11.168154992723476
20
-9.0797376987434895
30
0
11
-11.963907929184318
21
-9.0797376987434877
31
0
0
SPLINE
5
188
100
AcDbEntity
8
0
100
AcDbSpline
70
0
71
2
72
6
73
3
74
0
42
0.000000001
43
0.0000000001
44
0.0000000001
40
0
40
0
40
0
40
1
40
1
40
1
10
-11.963907929184318
20
-9.0797376987434895
30
0
10
-11.991625637786981
20
-9.0797376987434895
30
0
10
-12.002658739131654
20
-9.0601441032237098
30
0
0
SPLINE
5
189
100
AcDbEntity
8
0
100
AcDbSpline
70
0
71
2
72
6
73
3
74
0
42
0.000000001
43
0.0000000001
44
0.0000000001
40
0
40
0
40
0
40
1
40
1
40
1
10
-12.002658739131654
20
-9.0601441032237098
30
0
10
-12.013691793543535
20
-9.0405505077039301
30
0
10
-12.004881945448984
20
-9.0146196712591653
30
0
0
SPLINE
5
190
100
AcDbEntity
8
0
100
AcDbSpline
70
0
71
2
72
6
73
3
74
0
42
0.000000001
43
0.0000000001
44
0.0000000001
40
0
40
0
40
0
40
1
40
1
40
1
10
-12.004881945448984
20
-9.0146196712591653
30
0
10
-11.997692780498832
20
-8.993426136888683
30
0
10
-11.973632028050698
20
-8.9740819422211366
30
0
0
SPLINE
5
191
100
AcDbEntity
8
0
100
AcDbSpline
70
0
71
2
72
6
73
3
74
0
42
0.000000001
43
0.0000000001
44
0.0000000001
40
0
40
0
40
0
40
1
40
1
40
1
10
-11.973632028050698
20
-8.9740819422211366
30
0
10
-11.94957118173698
20
-8.9547376536880083
30
0
10
-11.921396300815609
20
-8.9547376536880083
30
0
0
SPLINE
5
192
100
AcDbEntity
8
0
100
AcDbSpline
70
0
71
2
72
6
73
3
74
0
42
0.000000001
43
0.0000000001
44
0.0000000001
40
0
40
0
40
0
40
1
40
1
40
1
10
-11.125643270489187
20
-8.9547376536880083
30
0
10
-11.098922930631499
20
-8.9547376536880083
30
0
10
-11.08593662731705
20
-8.9739364505685373
30
0
0
LINE
5
193
100
AcDbEntity
8
0
100
AcDbLine
10
-11.921396300815607
20
-8.9547376536880083
30
0
11
-11.125643270489187
21
-8.9547376536880101
31
0
0
SPLINE
5
194
100
AcDbEntity
8
0
100
AcDbSpline
70
0
71
2
72
6
73
3
74
0
42
0.000000001
43
0.0000000001
44
0.0000000001
40
0
40
0
40
0
40
1
40
1
40
1
10
-9.1762169498950588
20
-8.015907897529468
30
0
10
-9.1273056599891191
20
-8.0159078975294697
30
0
10
-9.1321677094223102
20
-8.0718836988922344
30
0
0
LINE
5
195
100
AcDbEntity
8
0
100
AcDbLine
10
-9.1321677094223102
20
-8.0718836988922344
30
0
11
-9.1647475143909585
21
-9.9361621092556192
31
0
0
LINE
5
196
100
AcDbEntity
8
0
100
AcDbLine
10
-9.1647475143909585
20
-9.9361621092556192
30
0
11
-9.1651214748709346
21
-9.9396944588496154
31
0
0
SPLINE
5
197
100
AcDbEntity
8
0
100
AcDbSpline
70
0
71
2
72
6
73
3
74
0
42
0.000000001
43
0.0000000001
44
0.0000000001
40
0
40
0
40
0
40
1
40
1
40
1
10
-9.1651214748709346
20
-9.9396944588496154
30
0
10
-9.171895096888143
20
-9.9904340625680508
30
0
10
-9.2376779742920618
20
-10.01324828008293
30
0
0
SPLINE
5
198
100
AcDbEntity
8
0
100
AcDbSpline
70
0
71
2
72
6
73
3
74
0
42
0.000000001
43
0.0000000001
44
0.0000000001
40
0
40
0
40
0
40
1
40
1
40
1
10
-9.2376779742920618
20
-10.01324828008293
30
0
10
-9.2386753899698313
20
-10.01324828008293
30
0
10
-9.2417712646060242
20
-10.014578167653289
30
0
0
SPLINE
5
199
100
AcDbEntity
8
0
100
AcDbSpline
70
0
71
2
72
6
73
3
74
0
42
0.000000001
43
0.0000000001
44
0.0000000001
40
0
40
0
40
0
40
1
40
1
40
1
10
-9.2417712646060242
20
-10.014578167653289
30
0
10
-9.2448671392422153
20
-10.015907867492482
30
0
10
-9.2541756951756504
20
-10.015907867492482
30
0
0
SPLINE
5
200
100
AcDbEntity
8
0
100
AcDbSpline
70
0
71
2
72
6
73
3
74
0
42
0.000000001
43
0.0000000001
44
0.0000000001
40
0
40
0
40
0
40
1
40
1
40
1
10
-9.2541756951756504
20
-10.015907867492482
30
0
10
-9.3030038201756504
20
-10.015907867492482
30
0
10
-9.2970197954369471
20
-9.9563582279483338
30
0
0
LINE
5
201
100
AcDbEntity
8
0
100
AcDbLine
10
-9.2970197954369471
20
-9.9563582279483338
30
0
11
-9.2913265662722839
21
-9.5159078750017283
31
0
0
LINE
5
202
100
AcDbEntity
8
0
100
AcDbLine
10
-9.2913265662722839
20
-9.5159078750017283
30
0
11
-9.9475766150823866
21
-9.5159078750017265
31
0
0
SPLINE
5
203
100
AcDbEntity
8
0
100
AcDbSpline
70
0
71
2
72
6
73
3
74
0
42
0.000000001
43
0.0000000001
44
0.0000000001
40
0
40
0
40
0
40
1
40
1
40
1
10
-9.9475766150823866
20
-9.5159078750017283
30
0
10
-9.9752943236850502
20
-9.5159078750017283
30
0
10
-9.9863273780969308
20
-9.4963143733475324
30
0
0
SPLINE
5
204
100
AcDbEntity
8
0
100
AcDbSpline
70
0
71
2
72
6
73
3
74
0
42
0.000000001
43
0.0000000001
44
0.0000000001
40
0
40
0
40
0
40
1
40
1
40
1
10
-9.9863273780969308
20
-9.4963143733475324
30
0
10
-9.9973604794416033
20
-9.4767206839621707
30
0
10
-9.9885506313470529
20
-9.4507899413829879
30
0
0
SPLINE
5
205
100
AcDbEntity
8
0
100
AcDbSpline
70
0
71
2
72
6
73
3
74
0
42
0.000000001
43
0.0000000001
44
0.0000000001
40
0
40
0
40
0
40
1
40
1
40
1
10
-9.9885506313470529
20
-9.4507899413829879
30
0
10
-9.9681882297752544
20
-9.390907829946249
30
0
10
-9.9050649397808872
20
-9.390907829946249
30
0
0
LINE
5
206
100
AcDbEntity
8
0
100
AcDbLine
10
-9.9050649397808872
20
-9.390907829946249
30
0
11
-9.279400099247848
21
-9.3909078299462507
31
0
0
LINE
5
207
100
AcDbEntity
8
0
100
AcDbLine
10
-9.279400099247848
20
-9.3909078299462507
30
0
11
-9.2486487958228611
21
-8.2282168262519395
31
0
0
LINE
5
208
100
AcDbEntity
8
0
100
AcDbLine
10
-9.2486487958228611
20
-8.2282168262519395
30
0
11
-10.385159656085756
21
-9.9747675214159361
31
0
0
SPLINE
5
209
100
AcDbEntity
8
0
100
AcDbSpline
70
0
71
2
72
6
73
3
74
0
42
0.000000001
43
0.0000000001
44
0.0000000001
40
0
40
0
40
0
40
1
40
1
40
1
10
-10.385159656085756
20
-9.9747675214159361
30
0
10
-10.400286047744389
20
-9.9952961120012382
30
0
10
-10.428211574746317
20
-10.006890200998667
30
0
0
SPLINE
5
210
100
AcDbEntity
8
0
100
AcDbSpline
70
0
71
2
72
6
73
3
74
0
42
0.000000001
43
0.0000000001
44
0.0000000001
40
0
40
0
40
0
40
1
40
1
40
1
10
-10.428211574746317
20
-10.006890200998667
30
0
10
-10.456137101748247
20
-10.018484289996096
30
0
10
-10.476125425508092
20
-10.012666501203688
30
0
0
SPLINE
5
211
100
AcDbEntity
8
0
100
AcDbSpline
70
0
71
2
72
6
73
3
74
0
42
0.000000001
43
0.0000000001
44
0.0000000001
40
0
40
0
40
0
40
1
40
1
40
1
10
-10.476125425508092
20
-10.012666501203688
30
0
10
-10.524247118135525
20
-9.9899354485947462
30
0
10
-10.49046221988822
20
-9.9325884588053999
30
0
0
SPLINE
5
212
100
AcDbEntity
8
0
100
AcDbSpline
70
0
71
2
72
6
73
3
74
0
42
0.000000001
43
0.0000000001
44
0.0000000001
40
0
40
0
40
0
40
1
40
1
40
1
10
-9.2529705549641967
20
-8.0590428872303868
30
0
10
-9.2254606178280039
20
-8.015907897529468
30
0
10
-9.1762169498950588
20
-8.015907897529468
30
0
0
LINE
5
213
100
AcDbEntity
8
0
100
AcDbLine
10
-10.49046221988822
20
-9.9325884588053999
30
0
11
-9.2529705549641967
21
-8.0590428872303868
31
0
0
SPLINE
5
214
100
AcDbEntity
8
0
100
AcDbSpline
70
0
71
2
72
6
73
3
74
0
42
0.000000001
43
0.0000000001
44
0.0000000001
40
0
40
0
40
0
40
1
40
1
40
1
10
-8.2735199987272683
20
-8.0353352571029557
30
0
10
-8.2499370220931603
20
-8.0159078975294715
30
0
10
-8.2213465982388438
20
-8.0159078975294715
30
0
0
SPLINE
5
215
100
AcDbEntity
8
0
100
AcDbSpline
70
0
71
2
72
6
73
3
74
0
42
0.000000001
43
0.0000000001
44
0.0000000001
40
0
40
0
40
0
40
1
40
1
40
1
10
-8.2213465982388438
20
-8.0159078975294715
30
0
10
-8.1945846759281871
20
-8.0159078975294715
30
0
10
-8.1820347537059597
20
-8.035397583849619
30
0
0
SPLINE
5
216
100
AcDbEntity
8
0
100
AcDbSpline
70
0
71
2
72
6
73
3
74
0
42
0.000000001
43
0.0000000001
44
0.0000000001
40
0
40
0
40
0
40
1
40
1
40
1
10
-8.1820347537059597
20
-8.035397583849619
30
0
10
-8.1694848314837323
20
-8.0548872701697665
30
0
10
-8.1777129006990403
20
-8.0789896989364518
30
0
0
LINE
5
217
100
AcDbEntity
8
0
100
AcDbLine
10
-8.1777129006990403
20
-8.0789896989364518
30
0
11
-8.8145147987091761
21
-9.9501664786759498
31
0
0
SPLINE
5
218
100
AcDbEntity
8
0
100
AcDbSpline
70
0
71
2
72
6
73
3
74
0
42
0.000000001
43
0.0000000001
44
0.0000000001
40
0
40
0
40
0
40
1
40
1
40
1
10
-8.8145147987091761
20
-9.9501664786759498
30
0
10
-8.8234493472298432
20
-9.9765128580536615
30
0
10
-8.8495464196209035
20
-9.9962103627730716
30
0
0
SPLINE
5
219
100
AcDbEntity
8
0
100
AcDbSpline
70
0
71
2
72
6
73
3
74
0
42
0.000000001
43
0.0000000001
44
0.0000000001
40
0
40
0
40
0
40
1
40
1
40
1
10
-8.8495464196209035
20
-9.9962103627730716
30
0
10
-8.875643468545567
20
-10.015907867492484
30
0
10
-8.9019898831228712
20
-10.015907867492484
30
0
0
SPLINE
5
220
100
AcDbEntity
8
0
100
AcDbSpline
70
0
71
2
72
6
73
3
74
0
42
0.000000001
43
0.0000000001
44
0.0000000001
40
0
40
0
40
0
40
1
40
1
40
1
10
-8.9019898831228712
20
-10.015907867492484
30
0
10
-8.9301231698580743
20
-10.015907867492484
30
0
10
-8.9406368190701677
20
-9.996231200932348
30
0
0
SPLINE
5
221
100
AcDbEntity
8
0
100
AcDbSpline
70
0
71
2
72
6
73
3
74
0
42
0.000000001
43
0.0000000001
44
0.0000000001
40
0
40
0
40
0
40
1
40
1
40
1
10
-8.9406368190701677
20
-9.996231200932348
30
0
10
-8.9511504800154604
20
-9.9765545343722124
30
0
10
-8.942174384241417
20
-9.9501664786759498
30
0
0
SPLINE
5
222
100
AcDbEntity
8
0
100
AcDbSpline
70
0
71
2
72
6
73
3
74
0
42
0.000000001
43
0.0000000001
44
0.0000000001
40
0
40
0
40
0
40
1
40
1
40
1
10
-8.3053725331640731
20
-8.0789896989364518
30
0
10
-8.2971029753613763
20
-8.0547626166764399
30
0
10
-8.2735199987272683
20
-8.0353352571029557
30
0
0
LINE
5
223
100
AcDbEntity
8
0
100
AcDbLine
10
-8.942174384241417
20
-9.9501664786759498
30
0
11
-8.3053725331640731
21
-8.0789896989364518
31
0
0
SPLINE
5
224
100
AcDbEntity
8
0
100
AcDbSpline
70
0
71
2
72
6
73
3
74
0
42
0.000000001
43
0.0000000001
44
0.0000000001
40
0
40
0
40
0
40
1
40
1
40
1
10
-8.0663432645839137
20
-8.0352729303562924
30
0
10
-8.0904040170320481
20
-8.0546379631831151
30
0
10
-8.0985074327540314
20
-8.0783664314698242
30
0
0
SPLINE
5
225
100
AcDbEntity
8
0
100
AcDbSpline
70
0
71
2
72
6
73
3
74
0
42
0.000000001
43
0.0000000001
44
0.0000000001
40
0
40
0
40
0
40
1
40
1
40
1
10
-8.0985074327540314
20
-8.0783664314698242
30
0
10
-8.1197841320304533
20
-8.1409079425849509
30
0
10
-8.0566606543049204
20
-8.1409079425849509
30
0
0
LINE
5
226
100
AcDbEntity
8
0
100
AcDbLine
10
-8.0566606543049204
20
-8.1409079425849509
30
0
11
-7.600086634820288
21
-8.1409079425849509
31
0
0
SPLINE
5
227
100
AcDbEntity
8
0
100
AcDbSpline
70
0
71
2
72
6
73
3
74
0
42
0.000000001
43
0.0000000001
44
0.0000000001
40
0
40
0
40
0
40
1
40
1
40
1
10
-7.600086634820288
20
-8.1409079425849509
30
0
10
-7.5174734707746085
20
-8.1409079425849527
30
0
10
-7.4563033358172275
20
-8.172781315181032
30
0
0
SPLINE
5
228
100
AcDbEntity
8
0
100
AcDbSpline
70
0
71
2
72
6
73
3
74
0
42
0.000000001
43
0.0000000001
44
0.0000000001
40
0
40
0
40
0
40
1
40
1
40
1
10
-7.4563033358172275
20
-8.172781315181032
30
0
10
-7.3951332008598465
20
-8.2046546877771114
30
0
10
-7.3585432704831781
20
-8.2604018325813389
30
0
0
SPLINE
5
229
100
AcDbEntity
8
0
100
AcDbSpline
70
0
71
2
72
6
73
3
74
0
42
0.000000001
43
0.0000000001
44
0.0000000001
40
0
40
0
40
0
40
1
40
1
40
1
10
-7.3585432704831781
20
-8.2604018325813389
30
0
10
-7.3219533401065089
20
-8.3161489773855646
30
0
10
-7.3152419509703828
20
-8.3897859635248171
30
0
0
SPLINE
5
230
100
AcDbEntity
8
0
100
AcDbSpline
70
0
71
2
72
6
73
3
74
0
42
0.000000001
43
0.0000000001
44
0.0000000001
40
0
40
0
40
0
40
1
40
1
40
1
10
-7.3152419509703828
20
-8.3897859635248171
30
0
10
-7.3085307495654206
20
-8.4634228557984876
30
0
10
-7.3367887953927315
20
-8.5464930513644983
30
0
0
SPLINE
5
231
100
AcDbEntity
8
0
100
AcDbSpline
70
0
71
2
72
6
73
3
74
0
42
0.000000001
43
0.0000000001
44
0.0000000001
40
0
40
0
40
0
40
1
40
1
40
1
10
-7.3367887953927315
20
-8.5464930513644983
30
0
10
-7.3655869437807313
20
-8.6310176002630303
30
0
10
-7.422954771729354
20
-8.70536101877485
30
0
0
SPLINE
5
232
100
AcDbEntity
8
0
100
AcDbSpline
70
0
71
2
72
6
73
3
74
0
42
0.000000001
43
0.0000000001
44
0.0000000001
40
0
40
0
40
0
40
1
40
1
40
1
10
-7.422954771729354
20
-8.70536101877485
30
0
10
-7.4803225996779767
20
-8.7797044372866679
30
0
10
-7.555102305416435
20
-8.8356594004901563
30
0
0
SPLINE
5
233
100
AcDbEntity
8
0
100
AcDbSpline
70
0
71
2
72
6
73
3
74
0
42
0.000000001
43
0.0000000001
44
0.0000000001
40
0
40
0
40
0
40
1
40
1
40
1
10
-7.555102305416435
20
-8.8356594004901563
30
0
10
-7.6298821988860572
20
-8.8916143636936464
30
0
10
-7.7119757230679937
20
-8.9231760086908309
30
0
0
SPLINE
5
234
100
AcDbEntity
8
0
100
AcDbSpline
70
0
71
2
72
6
73
3
74
0
42
0.000000001
43
0.0000000001
44
0.0000000001
40
0
40
0
40
0
40
1
40
1
40
1
10
-7.7119757230679937
20
-8.9231760086908309
30
0
10
-7.7940692472499311
20
-8.9547376536880154
30
0
10
-7.8770563717755868
20
-8.9547376536880154
30
0
0
LINE
5
235
100
AcDbEntity
8
0
100
AcDbLine
10
-7.8770563717755868
20
-8.9547376536880154
30
0
11
-8.3336304851258021
21
-8.9547376536880154
31
0
0
SPLINE
5
236
100
AcDbEntity
8
0
100
AcDbSpline
70
0
71
2
72
6
73
3
74
0
42
0.000000001
43
0.0000000001
44
0.0000000001
40
0
40
0
40
0
40
1
40
1
40
1
10
-8.3336304851258021
20
-8.9547376536880154
30
0
10
-8.3618053660471734
20
-8.9547376536880154
30
0
10
-8.3858662123608898
20
-8.9741026865148363
30
0
0
SPLINE
5
237
100
AcDbEntity
8
0
100
AcDbSpline
70
0
71
2
72
6
73
3
74
0
42
0.000000001
43
0.0000000001
44
0.0000000001
40
0
40
0
40
0
40
1
40
1
40
1
10
-8.3858662123608898
20
-8.9741026865148363
30
0
10
-8.4099270586746062
20
-8.9934677193416572
30
0
10
-8.4171161766919678
20
-9.0146196712591706
30
0
0
SPLINE
5
238
100
AcDbEntity
8
0
100
AcDbSpline
70
0
71
2
72
6
73
3
74
0
42
0.000000001
43
0.0000000001
44
0.0000000001
40
0
40
0
40
0
40
1
40
1
40
1
10
-8.4171161766919678
20
-9.0146196712591706
30
0
10
-8.4259260247865182
20
-9.0405505077039354
30
0
10
-8.4148929703746376
20
-9.0601441032237151
30
0
0
SPLINE
5
239
100
AcDbEntity
8
0
100
AcDbSpline
70
0
71
2
72
6
73
3
74
0
42
0.000000001
43
0.0000000001
44
0.0000000001
40
0
40
0
40
0
40
1
40
1
40
1
10
-8.4148929703746376
20
-9.0601441032237151
30
0
10
-8.4038599159627569
20
-9.0797376987434948
30
0
10
-8.3761421604273014
20
-9.0797376987434948
30
0
0
LINE
5
240
100
AcDbEntity
8
0
100
AcDbLine
10
-8.3761421604273014
20
-9.0797376987434948
30
0
11
-7.9195679062787123
21
-9.0797376987434948
31
0
0
SPLINE
5
241
100
AcDbEntity
8
0
100
AcDbSpline
70
0
71
2
72
6
73
3
74
0
42
0.000000001
43
0.0000000001
44
0.0000000001
40
0
40
0
40
0
40
1
40
1
40
1
10
-7.9195679062787123
20
-9.0797376987434948
30
0
10
-7.8369549299641976
20
-9.0797376987434948
30
0
10
-7.7757639568475412
20
-9.1115071621399419
30
0
0
SPLINE
5
242
100
AcDbEntity
8
0
100
AcDbSpline
70
0
71
2
72
6
73
3
74
0
42
0.000000001
43
0.0000000001
44
0.0000000001
40
0
40
0
40
0
40
1
40
1
40
1
10
-7.7757639568475412
20
-9.1115071621399419
30
0
10
-7.7145729837308838
20
-9.1432765316708071
30
0
10
-7.6779207266075522
20
-9.1988575343943211
30
0
0
SPLINE
5
243
100
AcDbEntity
8
0
100
AcDbSpline
70
0
71
2
72
6
73
3
74
0
42
0.000000001
43
0.0000000001
44
0.0000000001
40
0
40
0
40
0
40
1
40
1
40
1
10
-7.6779207266075522
20
-9.1988575343943211
30
0
10
-7.6412684694842214
20
-9.254438537117835
30
0
10
-7.6344947536014329
20
-9.3278677048578231
30
0
0
SPLINE
5
244
100
AcDbEntity
8
0
100
AcDbSpline
70
0
71
2
72
6
73
3
74
0
42
0.000000001
43
0.0000000001
44
0.0000000001
40
0
40
0
40
0
40
1
40
1
40
1
10
-7.6344947536014329
20
-9.3278677048578231
30
0
10
-7.6277212254498084
20
-9.4012968725978112
30
0
10
-7.6558546177837927
20
-9.4839930138182638
30
0
0
SPLINE
5
245
100
AcDbEntity
8
0
100
AcDbSpline
70
0
71
2
72
6
73
3
74
0
42
0.000000001
43
0.0000000001
44
0.0000000001
40
0
40
0
40
0
40
1
40
1
40
1
10
-7.6558546177837927
20
-9.4839930138182638
30
0
10
-7.6845281126784659
20
-9.5682266732771755
30
0
10
-7.7418336138804262
20
-9.6423416229616201
30
0
0
SPLINE
5
246
100
AcDbEntity
8
0
100
AcDbSpline
70
0
71
2
72
6
73
3
74
0
42
0.000000001
43
0.0000000001
44
0.0000000001
40
0
40
0
40
0
40
1
40
1
40
1
10
-7.7418336138804262
20
-9.6423416229616201
30
0
10
-7.7991391150823866
20
-9.716456384914899
30
0
10
-7.87383584364607
20
-9.7722035297191248
30
0
0
SPLINE
5
247
100
AcDbEntity
8
0
100
AcDbSpline
70
0
71
2
72
6
73
3
74
0
42
0.000000001
43
0.0000000001
44
0.0000000001
40
0
40
0
40
0
40
1
40
1
40
1
10
-7.87383584364607
20
-9.7722035297191248
30
0
10
-7.9485323844785896
20
-9.8279506745233505
30
0
10
-8.03058442007314
20
-9.8594292484801773
30
0
0
SPLINE
5
248
100
AcDbEntity
8
0
100
AcDbSpline
70
0
71
2
72
6
73
3
74
0
42
0.000000001
43
0.0000000001
44
0.0000000001
40
0
40
0
40
0
40
1
40
1
40
1
10
-8.03058442007314
20
-9.8594292484801773
30
0
10
-8.1126364556676887
20
-9.8909078224370059
30
0
10
-8.1956235801933452
20
-9.8909078224370059
30
0
0
LINE
5
249
100
AcDbEntity
8
0
100
AcDbLine
10
-8.1956235801933452
20
-9.8909078224370059
30
0
11
-8.6521976935435596
21
-9.8909078224370059
31
0
0
SPLINE
5
250
100
AcDbEntity
8
0
100
AcDbSpline
70
0
71
2
72
6
73
3
74
0
42
0.000000001
43
0.0000000001
44
0.0000000001
40
0
40
0
40
0
40
1
40
1
40
1
10
-8.6521976935435596
20
-9.8909078224370059
30
0
10
-8.7153209600715318
20
-9.8909078224370059
30
0
10
-8.735724944096301
20
-9.9507897461425774
30
0
0
SPLINE
5
251
100
AcDbEntity
8
0
100
AcDbSpline
70
0
71
2
72
6
73
3
74
0
42
0.000000001
43
0.0000000001
44
0.0000000001
40
0
40
0
40
0
40
1
40
1
40
1
10
-8.735724944096301
20
-9.9507897461425774
30
0
10
-8.7445347452580595
20
-9.9767206764529242
30
0
10
-8.7335016908461789
20
-9.9963141781071219
30
0
0
SPLINE
5
252
100
AcDbEntity
8
0
100
AcDbSpline
70
0
71
2
72
6
73
3
74
0
42
0.000000001
43
0.0000000001
44
0.0000000001
40
0
40
0
40
0
40
1
40
1
40
1
10
-8.7335016908461789
20
-9.9963141781071219
30
0
10
-8.7224686129679032
20
-10.015907867492484
30
0
10
-8.6947508574324459
20
-10.015907867492485
30
0
0
LINE
5
253
100
AcDbEntity
8
0
100
AcDbLine
10
-8.6947508574324477
20
-10.015907867492485
30
0
11
-8.2381766971494397
21
-10.015907867492485
31
0
0
SPLINE
5
254
100
AcDbEntity
8
0
100
AcDbSpline
70
0
71
2
72
6
73
3
74
0
42
0.000000001
43
0.0000000001
44
0.0000000001
40
0
40
0
40
0
40
1
40
1
40
1
10
-8.2381766971494397
20
-10.015907867492485
30
0
10
-8.1280951784205389
20
-10.015907867492485
30
0
10
-8.0173489975032037
20
-9.9733338185115326
30
0
0
SPLINE
5
255
100
AcDbEntity
8
0
100
AcDbSpline
70
0
71
2
72
6
73
3
74
0
42
0.000000001
43
0.0000000001
44
0.0000000001
40
0
40
0
40
0
40
1
40
1
40
1
10
-8.0173489975032037
20
-9.9733338185115326
30
0
10
-7.9066026288547047
20
-9.9307599572617438
30
0
10
-7.8114811250397675
20
-9.8598448852787062
30
0
0
SPLINE
5
256
100
AcDbEntity
8
0
100
AcDbSpline
70
0
71
2
72
6
73
3
74
0
42
0.000000001
43
0.0000000001
44
0.0000000001
40
0
40
0
40
0
40
1
40
1
40
1
10
-7.8114811250397675
20
-9.8598448852787062
30
0
10
-7.7163598089559944
20
-9.7889298132956686
30
0
10
-7.6408321822575829
20
-9.6909619295623557
30
0
0
SPLINE
5
257
100
AcDbEntity
8
0
100
AcDbSpline
70
0
71
2
72
6
73
3
74
0
42
0.000000001
43
0.0000000001
44
0.0000000001
40
0
40
0
40
0
40
1
40
1
40
1
10
-7.6408321822575829
20
-9.6909619295623557
30
0
10
-7.5653043678280074
20
-9.592994045829041
30
0
10
-7.5281118204128221
20
-9.4837437068316142
30
0
0
SPLINE
5
258
100
AcDbEntity
8
0
100
AcDbSpline
70
0
71
2
72
6
73
3
74
0
42
0.000000001
43
0.0000000001
44
0.0000000001
40
0
40
0
40
0
40
1
40
1
40
1
10
-7.5281118204128221
20
-9.4837437068316142
30
0
10
-7.4718867120634052
20
-9.3185175664714208
30
0
10
-7.5184085597057164
20
-9.185871324945456
30
0
0
SPLINE
5
259
100
AcDbEntity
8
0
100
AcDbSpline
70
0
71
2
72
6
73
3
74
0
42
0.000000001
43
0.0000000001
44
0.0000000001
40
0
40
0
40
0
40
1
40
1
40
1
10
-7.5184085597057164
20
-9.185871324945456
30
0
10
-7.5649304073480295
20
-9.0532250834194894
30
0
10
-7.6819931787622373
20
-9.016489661390219
30
0
0
SPLINE
5
260
100
AcDbEntity
8
0
100
AcDbSpline
70
0
71
2
72
6
73
3
74
0
42
0.000000001
43
0.0000000001
44
0.0000000001
40
0
40
0
40
0
40
1
40
1
40
1
10
-7.6819931787622373
20
-9.016489661390219
30
0
10
-7.5414512460479708
20
-8.9816659058105479
30
0
10
-7.4038598840484591
20
-8.8480222486068154
30
0
0
SPLINE
5
261
100
AcDbEntity
8
0
100
AcDbSpline
70
0
71
2
72
6
73
3
74
0
42
0.000000001
43
0.0000000001
44
0.0000000001
40
0
40
0
40
0
40
1
40
1
40
1
10
-7.4038598840484591
20
-8.8480222486068154
30
0
10
-7.2662685220489474
20
-8.7143786852686631
30
0
10
-7.2092538164210254
20
-8.5468254293915056
30
0
0
SPLINE
5
262
100
AcDbEntity
8
0
100
AcDbSpline
70
0
71
2
72
6
73
3
74
0
42
0.000000001
43
0.0000000001
44
0.0000000001
40
0
40
0
40
0
40
1
40
1
40
1
10
-7.2092538164210254
20
-8.5468254293915056
30
0
10
-7.1724769058043671
20
-8.4387802306055288
30
0
10
-7.1811829385648673
20
-8.3412903104174063
30
0
0
SPLINE
5
263
100
AcDbEntity
8
0
100
AcDbSpline
70
0
71
2
72
6
73
3
74
0
42
0.000000001
43
0.0000000001
44
0.0000000001
40
0
40
0
40
0
40
1
40
1
40
1
10
-7.1811829385648673
20
-8.3412903104174063
30
0
10
-7.1898887835942018
20
-8.2438002024981198
30
0
10
-7.236556122889116
20
-8.1728642923558059
30
0
0
SPLINE
5
264
100
AcDbEntity
8
0
100
AcDbSpline
70
0
71
2
72
6
73
3
74
0
42
0.000000001
43
0.0000000001
44
0.0000000001
40
0
40
0
40
0
40
1
40
1
40
1
10
-7.236556122889116
20
-8.1728642923558059
30
0
10
-7.2832232744528662
20
-8.1019285699446577
30
0
10
-7.3655246170340671
20
-8.0589182337370655
30
0
0
SPLINE
5
265
100
AcDbEntity
8
0
100
AcDbSpline
70
0
71
2
72
6
73
3
74
0
42
0.000000001
43
0.0000000001
44
0.0000000001
40
0
40
0
40
0
40
1
40
1
40
1
10
-7.3655246170340671
20
-8.0589182337370655
30
0
10
-7.4478259596152672
20
-8.0159078975294733
30
0
10
-7.5575334239986107
20
-8.0159078975294733
30
0
0
SPLINE
5
266
100
AcDbEntity
8
0
100
AcDbSpline
70
0
71
2
72
6
73
3
74
0
42
0.000000001
43
0.0000000001
44
0.0000000001
40
0
40
0
40
0
40
1
40
1
40
1
10
-8.0141076312144079
20
-8.0159078975294715
30
0
10
-8.0422825121357793
20
-8.0159078975294715
30
0
10
-8.0663432645839137
20
-8.0352729303562924
30
0
0
LINE
5
267
100
AcDbEntity
8
0
100
AcDbLine
10
-7.5575334239986089
20
-8.0159078975294733
30
0
11
-8.0141076312144079
21
-8.0159078975294733
31
0
0
SPLINE
5
268
100
AcDbEntity
8
0
100
AcDbSpline
70
0
71
2
72
6
73
3
74
0
42
0.000000001
43
0.0000000001
44
0.0000000001
40
0
40
0
40
0
40
1
40
1
40
1
10
-6.1797907392663385
20
-8.0823972073059611
30
0
10
-6.2014828876101236
20
-8.1462269296728937
30
0
10
-6.1383595976157563
20
-8.1462269296728937
30
0
0
LINE
5
269
100
AcDbEntity
8
0
100
AcDbLine
10
-6.1383595976157563
20
-8.1462269296728937
30
0
11
-5.6869799117257385
21
-8.1462269296728937
31
0
0
SPLINE
5
270
100
AcDbEntity
8
0
100
AcDbSpline
70
0
71
2
72
6
73
3
74
0
42
0.000000001
43
0.0000000001
44
0.0000000001
40
0
40
0
40
0
40
1
40
1
40
1
10
-5.6869799117257385
20
-8.1462269296728937
30
0
10
-5.6042421880523161
20
-8.1462269296728955
30
0
10
-5.5414721142442316
20
-8.1780588136815879
30
0
0
SPLINE
5
271
100
AcDbEntity
8
0
100
AcDbSpline
70
0
71
2
72
6
73
3
74
0
42
0.000000001
43
0.0000000001
44
0.0000000001
40
0
40
0
40
0
40
1
40
1
40
1
10
-5.5414721142442316
20
-8.1780588136815879
30
0
10
-5.4787019465705651
20
-8.2098905099591164
30
0
10
-5.4436288840042444
20
-8.264723591722678
30
0
0
SPLINE
5
272
100
AcDbEntity
8
0
100
AcDbSpline
70
0
71
2
72
6
73
3
74
0
42
0.000000001
43
0.0000000001
44
0.0000000001
40
0
40
0
40
0
40
1
40
1
40
1
10
-5.4436288840042444
20
-8.264723591722678
30
0
10
-5.4085558214379219
20
-8.3195564857550739
30
0
10
-5.4012211648351682
20
-8.391822095736579
30
0
0
SPLINE
5
273
100
AcDbEntity
8
0
100
AcDbSpline
70
0
71
2
72
6
73
3
74
0
42
0.000000001
43
0.0000000001
44
0.0000000001
40
0
40
0
40
0
40
1
40
1
40
1
10
-5.4012211648351682
20
-8.391822095736579
30
0
10
-5.3938865082324137
20
-8.4640877995836696
30
0
10
-5.4218952470730732
20
-8.5464930513645019
30
0
0
SPLINE
5
274
100
AcDbEntity
8
0
100
AcDbSpline
70
0
71
2
72
6
73
3
74
0
42
0.000000001
43
0.0000000001
44
0.0000000001
40
0
40
0
40
0
40
1
40
1
40
1
10
-5.4218952470730732
20
-8.5464930513645019
30
0
10
-5.4504440884744207
20
-8.6303527503434374
30
0
10
-5.5075002826897297
20
-8.7033040484038153
30
0
0
SPLINE
5
275
100
AcDbEntity
8
0
100
AcDbSpline
70
0
71
2
72
6
73
3
74
0
42
0.000000001
43
0.0000000001
44
0.0000000001
40
0
40
0
40
0
40
1
40
1
40
1
10
-5.5075002826897297
20
-8.7033040484038153
30
0
10
-5.5645564769050386
20
-8.776255346464195
30
0
10
-5.6372791184068785
20
-8.8313376413488243
30
0
0
SPLINE
5
276
100
AcDbEntity
8
0
100
AcDbSpline
70
0
71
2
72
6
73
3
74
0
42
0.000000001
43
0.0000000001
44
0.0000000001
40
0
40
0
40
0
40
1
40
1
40
1
10
-5.6372791184068785
20
-8.8313376413488243
30
0
10
-5.7100018537743011
20
-8.8864199362334535
30
0
10
-5.793591407607309
20
-8.9179192544839729
30
0
0
SPLINE
5
277
100
AcDbEntity
8
0
100
AcDbSpline
70
0
71
2
72
6
73
3
74
0
42
0.000000001
43
0.0000000001
44
0.0000000001
40
0
40
0
40
0
40
1
40
1
40
1
10
-5.793591407607309
20
-8.9179192544839729
30
0
10
-5.8771810553058987
20
-8.9494185727344941
30
0
10
-5.9603343219122671
20
-8.9494185727344941
30
0
0
LINE
5
278
100
AcDbEntity
8
0
100
AcDbLine
10
-5.9603343219122671
20
-8.9494185727344941
30
0
11
-6.4117139608694931
21
-8.9494185727344941
31
0
0
SPLINE
5
279
100
AcDbEntity
8
0
100
AcDbSpline
70
0
71
2
72
6
73
3
74
0
42
0.000000001
43
0.0000000001
44
0.0000000001
40
0
40
0
40
0
40
1
40
1
40
1
10
-6.4117139608694931
20
-8.9494185727344941
30
0
10
-6.4748372977966522
20
-8.9494185727344941
30
0
10
-6.4956567778215755
20
-9.0105888015574589
30
0
0
SPLINE
5
280
100
AcDbEntity
8
0
100
AcDbSpline
70
0
71
2
72
6
73
3
74
0
42
0.000000001
43
0.0000000001
44
0.0000000001
40
0
40
0
40
0
40
1
40
1
40
1
10
-6.4956567778215755
20
-9.0105888015574589
30
0
10
-6.5173905086183295
20
-9.0744185239243915
30
0
10
-6.4542671716911704
20
-9.0744185239243915
30
0
0
LINE
5
281
100
AcDbEntity
8
0
100
AcDbLine
10
-6.4542671716911704
20
-9.0744185239243915
30
0
11
-6.0028875327339444
21
-9.0744185239243915
31
0
0
SPLINE
5
282
100
AcDbEntity
8
0
100
AcDbSpline
70
0
71
2
72
6
73
3
74
0
42
0.000000001
43
0.0000000001
44
0.0000000001
40
0
40
0
40
0
40
1
40
1
40
1
10
-6.0028875327339444
20
-9.0744185239243915
30
0
10
-5.920191297647909
20
-9.0744185239243915
30
0
10
-5.8574212238398244
20
-9.1062711522267783
30
0
0
SPLINE
5
283
100
AcDbEntity
8
0
100
AcDbSpline
70
0
71
2
72
6
73
3
74
0
42
0.000000001
43
0.0000000001
44
0.0000000001
40
0
40
0
40
0
40
1
40
1
40
1
10
-5.8574212238398244
20
-9.1062711522267783
30
0
10
-5.7946511500317399
20
-9.1381236866635831
30
0
10
-5.7595987378935307
20
-9.1931020723485801
30
0
0
SPLINE
5
284
100
AcDbEntity
8
0
100
AcDbSpline
70
0
71
2
72
6
73
3
74
0
42
0.000000001
43
0.0000000001
44
0.0000000001
40
0
40
0
40
0
40
1
40
1
40
1
10
-5.7595987378935307
20
-9.1931020723485801
30
0
10
-5.7245464196209026
20
-9.2480804580335771
30
0
10
-5.717253345471117
20
-9.3204707215084088
30
0
0
SPLINE
5
285
100
AcDbEntity
8
0
100
AcDbSpline
70
0
71
2
72
6
73
3
74
0
42
0.000000001
43
0.0000000001
44
0.0000000001
40
0
40
0
40
0
40
1
40
1
40
1
10
-5.717253345471117
20
-9.3204707215084088
30
0
10
-5.7099602713213322
20
-9.3928609849832405
30
0
10
-5.7380520812023468
20
-9.4754324727103683
30
0
0
LINE
5
286
100
AcDbEntity
8
0
100
AcDbLine
10
-5.7380520812023468
20
-9.4754324727103683
30
0
11
-5.8959643092534808
21
-9.9395281290377433
31
0
0
SPLINE
5
287
100
AcDbEntity
8
0
100
AcDbSpline
70
0
71
2
72
6
73
3
74
0
42
0.000000001
43
0.0000000001
44
0.0000000001
40
0
40
0
40
0
40
1
40
1
40
1
10
-5.8959643092534808
20
-9.9395281290377433
30
0
10
-5.9053974248146588
20
-9.9672043959858136
30
0
10
-5.8918294364865504
20
-9.9849072570808506
30
0
0
SPLINE
5
288
100
AcDbEntity
8
0
100
AcDbSpline
70
0
71
2
72
6
73
3
74
0
42
0.000000001
43
0.0000000001
44
0.0000000001
40
0
40
0
40
0
40
1
40
1
40
1
10
-5.8918294364865504
20
-9.9849072570808506
30
0
10
-5.878261448158443
20
-10.002609930444725
30
0
10
-5.8549071280828748
20
-10.002609930444725
30
0
0
SPLINE
5
289
100
AcDbEntity
8
0
100
AcDbSpline
70
0
71
2
72
6
73
3
74
0
42
0.000000001
43
0.0000000001
44
0.0000000001
40
0
40
0
40
0
40
1
40
1
40
1
10
-5.8549071280828748
20
-10.002609930444725
30
0
10
-5.829391834571056
20
-10.002609930444725
30
0
10
-5.8035024867136782
20
-9.9847202768408625
30
0
0
SPLINE
5
290
100
AcDbEntity
8
0
100
AcDbSpline
70
0
71
2
72
6
73
3
74
0
42
0.000000001
43
0.0000000001
44
0.0000000001
40
0
40
0
40
0
40
1
40
1
40
1
10
-5.8035024867136782
20
-9.9847202768408625
30
0
10
-5.7776132327218832
20
-9.9668304355058375
30
0
10
-5.7683046767884489
20
-9.9394866404503563
30
0
0
LINE
5
291
100
AcDbEntity
8
0
100
AcDbLine
10
-5.7683046767884489
20
-9.9394866404503563
30
0
11
-5.6102262127910203
21
-9.4750170236430051
31
0
0
SPLINE
5
292
100
AcDbEntity
8
0
100
AcDbSpline
70
0
71
2
72
6
73
3
74
0
42
0.000000001
43
0.0000000001
44
0.0000000001
40
0
40
0
40
0
40
1
40
1
40
1
10
-5.6102262127910203
20
-9.4750170236430051
30
0
10
-5.5829240940540927
20
-9.3947309751142907
30
0
10
-5.5818851897889363
20
-9.3189332032699514
30
0
0
SPLINE
5
293
100
AcDbEntity
8
0
100
AcDbSpline
70
0
71
2
72
6
73
3
74
0
42
0.000000001
43
0.0000000001
44
0.0000000001
40
0
40
0
40
0
40
1
40
1
40
1
10
-5.5818851897889363
20
-9.3189332032699514
30
0
10
-5.5808462855237808
20
-9.2431352436944501
30
0
10
-5.6030786302938367
20
-9.1805522439919347
30
0
0
SPLINE
5
294
100
AcDbEntity
8
0
100
AcDbSpline
70
0
71
2
72
6
73
3
74
0
42
0.000000001
43
0.0000000001
44
0.0000000001
40
0
40
0
40
0
40
1
40
1
40
1
10
-5.6030786302938367
20
-9.1805522439919347
30
0
10
-5.6253109750638917
20
-9.1179690565582554
30
0
10
-5.6685498739644418
20
-9.0689123688652984
30
0
0
SPLINE
5
295
100
AcDbEntity
8
0
100
AcDbSpline
70
0
71
2
72
6
73
3
74
0
42
0.000000001
43
0.0000000001
44
0.0000000001
40
0
40
0
40
0
40
1
40
1
40
1
10
-5.6685498739644418
20
-9.0689123688652984
30
0
10
-5.7117887728649919
20
-9.0198557750379234
30
0
10
-5.7655620183385388
20
-9.0120016663025897
30
0
0
SPLINE
5
296
100
AcDbEntity
8
0
100
AcDbSpline
70
0
71
2
72
6
73
3
74
0
42
0.000000001
43
0.0000000001
44
0.0000000001
40
0
40
0
40
0
40
1
40
1
40
1
10
-5.7655620183385388
20
-9.0120016663025897
30
0
10
-5.7075500847640122
20
-9.0045631943657867
30
0
10
-5.6309002950289244
20
-8.9554857623791353
30
0
0
SPLINE
5
297
100
AcDbEntity
8
0
100
AcDbSpline
70
0
71
2
72
6
73
3
74
0
42
0.000000001
43
0.0000000001
44
0.0000000001
40
0
40
0
40
0
40
1
40
1
40
1
10
-5.6309002950289244
20
-8.9554857623791353
30
0
10
-5.5542505991594178
20
-8.9064082365269037
30
0
10
-5.4890701510628501
20
-8.8434719267725246
30
0
0
SPLINE
5
298
100
AcDbEntity
8
0
100
AcDbSpline
70
0
71
2
72
6
73
3
74
0
42
0.000000001
43
0.0000000001
44
0.0000000001
40
0
40
0
40
0
40
1
40
1
40
1
10
-5.4890701510628501
20
-8.8434719267725246
30
0
10
-5.4238898906974464
20
-8.7805356170181454
30
0
10
-5.3728801418330852
20
-8.7040728075230458
30
0
0
SPLINE
5
299
100
AcDbEntity
8
0
100
AcDbSpline
70
0
71
2
72
6
73
3
74
0
42
0.000000001
43
0.0000000001
44
0.0000000001
40
0
40
0
40
0
40
1
40
1
40
1
10
-5.3728801418330852
20
-8.7040728075230458
30
0
10
-5.3218702052375582
20
-8.6276100918935281
30
0
10
-5.2941524497021026
20
-8.5461605794719127
30
0
0
SPLINE
5
300
100
AcDbEntity
8
0
100
AcDbSpline
70
0
71
2
72
6
73
3
74
0
42
0.000000001
43
0.0000000001
44
0.0000000001
40
0
40
0
40
0
40
1
40
1
40
1
10
-5.2941524497021026
20
-8.5461605794719127
30
0
10
-5.2573755390854444
20
-8.4381152868203522
30
0
10
-5.2666216744066343
20
-8.3420797199647492
30
0
0
SPLINE
5
301
100
AcDbEntity
8
0
100
AcDbSpline
70
0
71
2
72
6
73
3
74
0
42
0.000000001
43
0.0000000001
44
0.0000000001
40
0
40
0
40
0
40
1
40
1
40
1
10
-5.2666216744066343
20
-8.3420797199647492
30
0
10
-5.2758679974589873
20
-8.2460441531091462
30
0
10
-5.322597475769399
20
-8.1751914078727719
30
0
0
SPLINE
5
302
100
AcDbEntity
8
0
100
AcDbSpline
70
0
71
2
72
6
73
3
74
0
42
0.000000001
43
0.0000000001
44
0.0000000001
40
0
40
0
40
0
40
1
40
1
40
1
10
-5.322597475769399
20
-8.1751914078727719
30
0
10
-5.3693271418109765
20
-8.1043386626363976
30
0
10
-5.4521479365247547
20
-8.0627828674924888
30
0
0
SPLINE
5
303
100
AcDbEntity
8
0
100
AcDbSpline
70
0
71
2
72
6
73
3
74
0
42
0.000000001
43
0.0000000001
44
0.0000000001
40
0
40
0
40
0
40
1
40
1
40
1
10
-5.4521479365247547
20
-8.0627828674924888
30
0
10
-5.534968543507369
20
-8.0212270723485801
30
0
10
-5.6444682833570301
20
-8.0212270723485801
30
0
0
SPLINE
5
304
100
AcDbEntity
8
0
100
AcDbSpline
70
0
71
2
72
6
73
3
74
0
42
0.000000001
43
0.0000000001
44
0.0000000001
40
0
40
0
40
0
40
1
40
1
40
1
10
-6.095847969247048
20
-8.0212270723485801
30
0
10
-6.1589712592414152
20
-8.0212270723485801
30
0
10
-6.1797907392663385
20
-8.0823972073059611
30
0
0
LINE
5
305
100
AcDbEntity
8
0
100
AcDbLine
10
-5.6444682833570301
20
-8.0212270723485801
30
0
11
-6.095847969247048
21
-8.0212270723485801
31
0
0
SPLINE
5
306
100
AcDbEntity
8
0
100
AcDbSpline
70
0
71
2
72
6
73
3
74
0
42
0.000000001
43
0.0000000001
44
0.0000000001
40
0
40
0
40
0
40
1
40
1
40
1
10
-6.9732997485825532
20
-10.002609930444724
30
0
10
-7.0371295296154761
20
-10.002609930444724
30
0
10
-7.0156451527381645
20
-9.9394866404503563
30
0
0
LINE
5
307
100
AcDbEntity
8
0
100
AcDbLine
10
-7.0156451527381627
20
-9.9394866404503563
30
0
11
-6.3834144733875862
21
-8.0816907749333939
31
0
0
SPLINE
5
308
100
AcDbEntity
8
0
100
AcDbSpline
70
0
71
2
72
6
73
3
74
0
42
0.000000001
43
0.0000000001
44
0.0000000001
40
0
40
0
40
0
40
1
40
1
40
1
10
-6.3834144733875862
20
-8.0816907749333939
30
0
10
-6.3628443003493143
20
-8.0212270723485801
30
0
10
-6.2990144841167979
20
-8.0212270723485801
30
0
0
SPLINE
5
309
100
AcDbEntity
8
0
100
AcDbSpline
70
0
71
2
72
6
73
3
74
0
42
0.000000001
43
0.0000000001
44
0.0000000001
40
0
40
0
40
0
40
1
40
1
40
1
10
-6.2990144841167979
20
-8.0212270723485801
30
0
10
-6.2351846678842815
20
-8.0212270723485801
30
0
10
-6.2557548409225543
20
-8.0816907749333939
30
0
0
SPLINE
5
310
100
AcDbEntity
8
0
100
AcDbSpline
70
0
71
2
72
6
73
3
74
0
42
0.000000001
43
0.0000000001
44
0.0000000001
40
0
40
0
40
0
40
1
40
1
40
1
10
-6.8879855789391211
20
-9.9394866404503563
30
0
10
-6.9094699558164328
20
-10.002609930444724
30
0
10
-6.9732997485825532
20
-10.002609930444724
30
0
0
LINE
5
311
100
AcDbEntity
8
0
100
AcDbLine
10
-6.2557548409225543
20
-8.0816907749333939
30
0
11
-6.8879855789391211
21
-9.9394866404503563
31
0
0
SPLINE
5
312
100
AcDbEntity
8
0
100
AcDbSpline
70
0
71
2
72
6
73
3
74
0
42
0.000000001
43
0.0000000001
44
0.0000000001
40
0
40
0
40
0
40
1
40
1
40
1
10
-5.005879607054581
20
-9.9826007919920006
30
0
10
-5.0308131451535552
20
-10.002609930444725
30
0
10
-5.058406200262894
20
-10.002609930444725
30
0
0
SPLINE
5
313
100
AcDbEntity
8
0
100
AcDbSpline
70
0
71
2
72
6
73
3
74
0
42
0.000000001
43
0.0000000001
44
0.0000000001
40
0
40
0
40
0
40
1
40
1
40
1
10
-5.058406200262894
20
-10.002609930444725
30
0
10
-5.0864148687043667
20
-10.002609930444725
30
0
10
-5.0975933678360574
20
-9.9828500989786519
30
0
0
SPLINE
5
314
100
AcDbEntity
8
0
100
AcDbSpline
70
0
71
2
72
6
73
3
74
0
42
0.000000001
43
0.0000000001
44
0.0000000001
40
0
40
0
40
0
40
1
40
1
40
1
10
-5.0975933678360574
20
-9.9828500989786519
30
0
10
-5.1087718787009457
20
-9.9630902675125785
30
0
10
-5.0998789595660403
20
-9.9368685416281934
30
0
0
LINE
5
315
100
AcDbEntity
8
0
100
AcDbLine
10
-5.0998789595660403
20
-9.9368685416281917
30
0
11
-4.4676066742960971
21
-8.0790311875238441
31
0
0
SPLINE
5
316
100
AcDbEntity
8
0
100
AcDbSpline
70
0
71
2
72
6
73
3
74
0
42
0.000000001
43
0.0000000001
44
0.0000000001
40
0
40
0
40
0
40
1
40
1
40
1
10
-4.4676066742960971
20
-8.0790311875238441
30
0
10
-4.4603344383055878
20
-8.0576300224852631
30
0
10
-4.4360034468459437
20
-8.0380986598465629
30
0
0
SPLINE
5
317
100
AcDbEntity
8
0
100
AcDbSpline
70
0
71
2
72
6
73
3
74
0
42
0.000000001
43
0.0000000001
44
0.0000000001
40
0
40
0
40
0
40
1
40
1
40
1
10
-4.4360034468459437
20
-8.0380986598465629
30
0
10
-4.4116725492518825
20
-8.0185674849390303
30
0
10
-4.3832067788908908
20
-8.0185674849390303
30
0
0
SPLINE
5
318
100
AcDbEntity
8
0
100
AcDbSpline
70
0
71
2
72
6
73
3
74
0
42
0.000000001
43
0.0000000001
44
0.0000000001
40
0
40
0
40
0
40
1
40
1
40
1
10
-4.3832067788908908
20
-8.0185674849390303
30
0
10
-4.3551565514628452
20
-8.0185674849390303
30
0
10
-4.3439780992639454
20
-8.0383064782458273
30
0
0
SPLINE
5
319
100
AcDbEntity
8
0
100
AcDbSpline
70
0
71
2
72
6
73
3
74
0
42
0.000000001
43
0.0000000001
44
0.0000000001
40
0
40
0
40
0
40
1
40
1
40
1
10
-4.3439780992639454
20
-8.0383064782458273
30
0
10
-4.3327995531994636
20
-8.0580454715526262
30
0
10
-4.3399471356966473
20
-8.0790311875238441
30
0
0
SPLINE
5
320
100
AcDbEntity
8
0
100
AcDbSpline
70
0
71
2
72
6
73
3
74
0
42
0.000000001
43
0.0000000001
44
0.0000000001
40
0
40
0
40
0
40
1
40
1
40
1
10
-4.972219385766997
20
-9.9368685416281934
30
0
10
-4.9809460924220037
20
-9.9625916535392758
30
0
10
-5.005879607054581
20
-9.9826007919920006
30
0
0
LINE
5
321
100
AcDbEntity
8
0
100
AcDbLine
10
-4.3399471356966473
20
-8.0790311875238441
30
0
11
-4.972219385766997
21
-9.9368685416281934
31
0
0
SPLINE
5
322
100
AcDbEntity
8
0
100
AcDbSpline
70
0
71
2
72
6
73
3
74
0
42
0.000000001
43
0.0000000001
44
0.0000000001
40
0
40
0
40
0
40
1
40
1
40
1
10
-3.6116808308244792
20
-8.4225319105741789
30
0
10
-3.5176399545260404
20
-8.3008563967134315
30
0
10
-3.3983331386352251
20
-8.2117398496620542
30
0
0
SPLINE
5
323
100
AcDbEntity
8
0
100
AcDbSpline
70
0
71
2
72
6
73
3
74
0
42
0.000000001
43
0.0000000001
44
0.0000000001
40
0
40
0
40
0
40
1
40
1
40
1
10
-3.3983331386352251
20
-8.2117398496620542
30
0
10
-3.279026228878827
20
-8.1226233026106769
30
0
10
-3.139294731602341
20
-8.0692656000700769
30
0
0
SPLINE
5
324
100
AcDbEntity
8
0
100
AcDbSpline
70
0
71
2
72
6
73
3
74
0
42
0.000000001
43
0.0000000001
44
0.0000000001
40
0
40
0
40
0
40
1
40
1
40
1
10
-3.139294731602341
20
-8.0692656000700769
30
0
10
-2.9995631404602716
20
-8.0159078975294769
30
0
10
-2.8610159452359603
20
-8.0159078975294769
30
0
0
SPLINE
5
325
100
AcDbEntity
8
0
100
AcDbSpline
70
0
71
2
72
6
73
3
74
0
42
0.000000001
43
0.0000000001
44
0.0000000001
40
0
40
0
40
0
40
1
40
1
40
1
10
-2.8610159452359603
20
-8.0159078975294769
30
0
10
-2.7229674578505336
20
-8.0159078975294786
30
0
10
-2.6193270892462492
20
-8.0686423326034511
30
0
0
SPLINE
5
326
100
AcDbEntity
8
0
100
AcDbSpline
70
0
71
2
72
6
73
3
74
0
42
0.000000001
43
0.0000000001
44
0.0000000001
40
0
40
0
40
0
40
1
40
1
40
1
10
-2.6193270892462492
20
-8.0686423326034511
30
0
10
-2.5156869083731292
20
-8.1213765799462596
30
0
10
-2.4570308691726996
20
-8.2104931269976369
30
0
0
SPLINE
5
327
100
AcDbEntity
8
0
100
AcDbSpline
70
0
71
2
72
6
73
3
74
0
42
0.000000001
43
0.0000000001
44
0.0000000001
40
0
40
0
40
0
40
1
40
1
40
1
10
-2.4570308691726996
20
-8.2104931269976369
30
0
10
-2.3983746422411052
20
-8.2996096740490142
30
0
10
-2.3870923747081561
20
-8.4217423132956757
30
0
0
SPLINE
5
328
100
AcDbEntity
8
0
100
AcDbSpline
70
0
71
2
72
6
73
3
74
0
42
0.000000001
43
0.0000000001
44
0.0000000001
40
0
40
0
40
0
40
1
40
1
40
1
10
-2.3870923747081561
20
-8.4217423132956757
30
0
10
-2.3758099194440425
20
-8.543874952542339
30
0
10
-2.4223109289270792
20
-8.680469086595247
30
0
0
SPLINE
5
329
100
AcDbEntity
8
0
100
AcDbSpline
70
0
71
2
72
6
73
3
74
0
42
0.000000001
43
0.0000000001
44
0.0000000001
40
0
40
0
40
0
40
1
40
1
40
1
10
-2.4223109289270792
20
-8.680469086595247
30
0
10
-2.4437952588716003
20
-8.7435923765896142
30
0
10
-2.5063367699867269
20
-8.7435923765896142
30
0
0
SPLINE
5
330
100
AcDbEntity
8
0
100
AcDbSpline
70
0
71
2
72
6
73
3
74
0
42
0.000000001
43
0.0000000001
44
0.0000000001
40
0
40
0
40
0
40
1
40
1
40
1
10
-2.5063367699867269
20
-8.7435923765896142
30
0
10
-2.5322675125659093
20
-8.7435923765896142
30
0
10
-2.5458355947595988
20
-8.7258896093601575
30
0
0
SPLINE
5
331
100
AcDbEntity
8
0
100
AcDbSpline
70
0
71
2
72
6
73
3
74
0
42
0.000000001
43
0.0000000001
44
0.0000000001
40
0
40
0
40
0
40
1
40
1
40
1
10
-2.5458355947595988
20
-8.7258896093601575
30
0
10
-2.5594036769532891
20
-8.7081868421307025
30
0
10
-2.5499705613921115
20
-8.680469086595247
30
0
0
SPLINE
5
332
100
AcDbEntity
8
0
100
AcDbSpline
70
0
71
2
72
6
73
3
74
0
42
0.000000001
43
0.0000000001
44
0.0000000001
40
0
40
0
40
0
40
1
40
1
40
1
10
-2.5499705613921115
20
-8.680469086595247
30
0
10
-2.5120299052858086
20
-8.5690578680271496
30
0
10
-2.5209020801270206
20
-8.4709652369349282
30
0
0
SPLINE
5
333
100
AcDbEntity
8
0
100
AcDbSpline
70
0
71
2
72
6
73
3
74
0
42
0.000000001
43
0.0000000001
44
0.0000000001
40
0
40
0
40
0
40
1
40
1
40
1
10
-2.5209020801270206
20
-8.4709652369349282
30
0
10
-2.5297742549682329
20
-8.3728726997082887
30
0
10
-2.5784777264749077
20
-8.2990902219164351
30
0
0
SPLINE
5
334
100
AcDbEntity
8
0
100
AcDbSpline
70
0
71
2
72
6
73
3
74
0
42
0.000000001
43
0.0000000001
44
0.0000000001
40
0
40
0
40
0
40
1
40
1
40
1
10
-2.5784777264749077
20
-8.2990902219164351
30
0
10
-2.6271811979815816
20
-8.2253079318557472
30
0
10
-2.7096486826434947
20
-8.1831078433547706
30
0
0
SPLINE
5
335
100
AcDbEntity
8
0
100
AcDbSpline
70
0
71
2
72
6
73
3
74
0
42
0.000000001
43
0.0000000001
44
0.0000000001
40
0
40
0
40
0
40
1
40
1
40
1
10
-2.7096486826434947
20
-8.1831078433547706
30
0
10
-2.7921163550365726
20
-8.140907942584958
30
0
10
-2.903569156057638
20
-8.1409079425849562
30
0
0
SPLINE
5
336
100
AcDbEntity
8
0
100
AcDbSpline
70
0
71
2
72
6
73
3
74
0
42
0.000000001
43
0.0000000001
44
0.0000000001
40
0
40
0
40
0
40
1
40
1
40
1
10
-2.903569156057638
20
-8.1409079425849562
30
0
10
-3.0154375000116493
20
-8.1409079425849562
30
0
10
-3.1266409940460638
20
-8.1831701701014303
30
0
0
SPLINE
5
337
100
AcDbEntity
8
0
100
AcDbSpline
70
0
71
2
72
6
73
3
74
0
42
0.000000001
43
0.0000000001
44
0.0000000001
40
0
40
0
40
0
40
1
40
1
40
1
10
-3.1266409940460638
20
-8.1831701701014303
30
0
10
-3.2378443942148958
20
-8.2254325853490702
30
0
10
-3.336830437919672
20
-8.2993395289030847
30
0
0
SPLINE
5
338
100
AcDbEntity
8
0
100
AcDbSpline
70
0
71
2
72
6
73
3
74
0
42
0.000000001
43
0.0000000001
44
0.0000000001
40
0
40
0
40
0
40
1
40
1
40
1
10
-3.336830437919672
20
-8.2993395289030847
30
0
10
-3.4358164816244483
20
-8.3732466601882649
30
0
10
-3.5111156394954843
20
-8.4710275636815897
30
0
0
SPLINE
5
339
100
AcDbEntity
8
0
100
AcDbSpline
70
0
71
2
72
6
73
3
74
0
42
0.000000001
43
0.0000000001
44
0.0000000001
40
0
40
0
40
0
40
1
40
1
40
1
10
-3.5111156394954843
20
-8.4710275636815897
30
0
10
-3.5864148912321028
20
-8.5688084671749163
30
0
10
-3.6247293670200098
20
-8.681383337367075
30
0
0
LINE
5
340
100
AcDbEntity
8
0
100
AcDbLine
10
-3.6247293670200098
20
-8.681383337367075
30
0
11
-3.8514996497503531
21
-9.347772934110921
31
0
0
SPLINE
5
341
100
AcDbEntity
8
0
100
AcDbSpline
70
0
71
2
72
6
73
3
74
0
42
0.000000001
43
0.0000000001
44
0.0000000001
40
0
40
0
40
0
40
1
40
1
40
1
10
-3.8514996497503531
20
-9.347772934110921
30
0
10
-3.8903543219645309
20
-9.46184374008857
30
0
10
-3.881502938349803
20
-9.5603519141137383
30
0
0
SPLINE
5
342
100
AcDbEntity
8
0
100
AcDbSpline
70
0
71
2
72
6
73
3
74
0
42
0.000000001
43
0.0000000001
44
0.0000000001
40
0
40
0
40
0
40
1
40
1
40
1
10
-3.881502938349803
20
-9.5603519141137383
30
0
10
-3.8726515547350759
20
-9.6588599004077409
30
0
10
-3.8238858034145298
20
-9.7329125233455223
30
0
0
SPLINE
5
343
100
AcDbEntity
8
0
100
AcDbSpline
70
0
71
2
72
6
73
3
74
0
42
0.000000001
43
0.0000000001
44
0.0000000001
40
0
40
0
40
0
40
1
40
1
40
1
10
-3.8238858034145298
20
-9.7329125233455223
30
0
10
-3.7751200051611926
20
-9.8069649585521379
30
0
10
-3.6932342055129377
20
-9.8489363904945737
30
0
0
SPLINE
5
344
100
AcDbEntity
8
0
100
AcDbSpline
70
0
71
2
72
6
73
3
74
0
42
0.000000001
43
0.0000000001
44
0.0000000001
40
0
40
0
40
0
40
1
40
1
40
1
10
-3.6932342055129377
20
-9.8489363904945737
30
0
10
-3.6113484058646828
20
-9.8909078224370113
30
0
10
-3.4991061014306952
20
-9.8909078224370113
30
0
0
SPLINE
5
345
100
AcDbEntity
8
0
100
AcDbSpline
70
0
71
2
72
6
73
3
74
0
42
0.000000001
43
0.0000000001
44
0.0000000001
40
0
40
0
40
0
40
1
40
1
40
1
10
-3.4991061014306952
20
-9.8909078224370113
30
0
10
-3.3872792460640708
20
-9.8909078224370113
30
0
10
-3.2768653493081614
20
-9.8490195554005133
30
0
0
SPLINE
5
346
100
AcDbEntity
8
0
100
AcDbSpline
70
0
71
2
72
6
73
3
74
0
42
0.000000001
43
0.0000000001
44
0.0000000001
40
0
40
0
40
0
40
1
40
1
40
1
10
-3.2768653493081614
20
-9.8490195554005133
30
0
10
-3.166451452552252
20
-9.8071312883640154
30
0
10
-3.0672991729011811
20
-9.7331618303321736
30
0
0
SPLINE
5
347
100
AcDbEntity
8
0
100
AcDbSpline
70
0
71
2
72
6
73
3
74
0
42
0.000000001
43
0.0000000001
44
0.0000000001
40
0
40
0
40
0
40
1
40
1
40
1
10
-3.0672991729011811
20
-9.7331618303321736
30
0
10
-2.9681469871156918
20
-9.6591923723003301
30
0
10
-2.891954322766519
20
-9.5603727522730146
30
0
0
SPLINE
5
348
100
AcDbEntity
8
0
100
AcDbSpline
70
0
71
2
72
6
73
3
74
0
42
0.000000001
43
0.0000000001
44
0.0000000001
40
0
40
0
40
0
40
1
40
1
40
1
10
-2.891954322766519
20
-9.5603727522730146
30
0
10
-2.8157616584173457
20
-9.4615529445145317
30
0
10
-2.7773640646562918
20
-9.3486870910171707
30
0
0
SPLINE
5
349
100
AcDbEntity
8
0
100
AcDbSpline
70
0
71
2
72
6
73
3
74
0
42
0.000000001
43
0.0000000001
44
0.0000000001
40
0
40
0
40
0
40
1
40
1
40
1
10
-2.7773640646562918
20
-9.3486870910171707
30
0
10
-2.7687204525080369
20
-9.3233381273172302
30
0
10
-2.7433090681958503
20
-9.3057807578747926
30
0
0
SPLINE
5
350
100
AcDbEntity
8
0
100
AcDbSpline
70
0
71
2
72
6
73
3
74
0
42
0.000000001
43
0.0000000001
44
0.0000000001
40
0
40
0
40
0
40
1
40
1
40
1
10
-2.7433090681958503
20
-9.3057807578747926
30
0
10
-2.7178975900180813
20
-9.2882233884323568
30
0
10
-2.6916758641336962
20
-9.2882233884323568
30
0
0
SPLINE
5
351
100
AcDbEntity
8
0
100
AcDbSpline
70
0
71
2
72
6
73
3
74
0
42
0.000000001
43
0.0000000001
44
0.0000000001
40
0
40
0
40
0
40
1
40
1
40
1
10
-2.6916758641336962
20
-9.2882233884323568
30
0
10
-2.6291343530185696
20
-9.2882233884323568
30
0
10
-2.64970443219126
20
-9.3486870910171707
30
0
0
SPLINE
5
352
100
AcDbEntity
8
0
100
AcDbSpline
70
0
71
2
72
6
73
3
74
0
42
0.000000001
43
0.0000000001
44
0.0000000001
40
0
40
0
40
0
40
1
40
1
40
1
10
-2.64970443219126
20
-9.3486870910171707
30
0
10
-2.6967042433787638
20
-9.4867772547211491
30
0
10
-2.7916800678099354
20
-9.6096578149277647
30
0
0
SPLINE
5
353
100
AcDbEntity
8
0
100
AcDbSpline
70
0
71
2
72
6
73
3
74
0
42
0.000000001
43
0.0000000001
44
0.0000000001
40
0
40
0
40
0
40
1
40
1
40
1
10
-2.7916800678099354
20
-9.6096578149277647
30
0
10
-2.8866558922411074
20
-9.7325385628655443
30
0
10
-3.0061913646904626
20
-9.8217797634102482
30
0
0
SPLINE
5
354
100
AcDbEntity
8
0
100
AcDbSpline
70
0
71
2
72
6
73
3
74
0
42
0.000000001
43
0.0000000001
44
0.0000000001
40
0
40
0
40
0
40
1
40
1
40
1
10
-3.0061913646904626
20
-9.8217797634102482
30
0
10
-3.1257267432742357
20
-9.9110209639549502
30
0
10
-3.2644817568978111
20
-9.9634644157237204
30
0
0
SPLINE
5
355
100
AcDbEntity
8
0
100
AcDbSpline
70
0
71
2
72
6
73
3
74
0
42
0.000000001
43
0.0000000001
44
0.0000000001
40
0
40
0
40
0
40
1
40
1
40
1
10
-3.2644817568978111
20
-9.9634644157237204
30
0
10
-3.4032366766558044
20
-10.015907867492491
30
0
10
-3.5416592183867901
20
-10.015907867492491
30
0
0
SPLINE
5
356
100
AcDbEntity
8
0
100
AcDbSpline
70
0
71
2
72
6
73
3
74
0
42
0.000000001
43
0.0000000001
44
0.0000000001
40
0
40
0
40
0
40
1
40
1
40
1
10
-3.5416592183867901
20
-10.015907867492491
30
0
10
-3.6805803740910781
20
-10.015907867492491
30
0
10
-3.7834311454168579
20
-9.9628409605259289
30
0
0
SPLINE
5
357
100
AcDbEntity
8
0
100
AcDbSpline
70
0
71
2
72
6
73
3
74
0
42
0.000000001
43
0.0000000001
44
0.0000000001
40
0
40
0
40
0
40
1
40
1
40
1
10
-3.7834311454168579
20
-9.9628409605259289
30
0
10
-3.8862819167426377
20
-9.9097742412905312
30
0
10
-3.9450210973826105
20
-9.8205122025865528
30
0
0
SPLINE
5
358
100
AcDbEntity
8
0
100
AcDbSpline
70
0
71
2
72
6
73
3
74
0
42
0.000000001
43
0.0000000001
44
0.0000000001
40
0
40
0
40
0
40
1
40
1
40
1
10
-3.9450210973826105
20
-9.8205122025865528
30
0
10
-4.0037603014889784
20
-9.7312503516137365
30
0
10
-4.0150426863539064
20
-9.6088058909025946
30
0
0
SPLINE
5
359
100
AcDbEntity
8
0
100
AcDbSpline
70
0
71
2
72
6
73
3
74
0
42
0.000000001
43
0.0000000001
44
0.0000000001
40
0
40
0
40
0
40
1
40
1
40
1
10
-4.0150426863539064
20
-9.6088058909025946
30
0
10
-4.0263250712188325
20
-9.4863616179226184
30
0
10
-3.9790345113900818
20
-9.3473158087250052
30
0
0
SPLINE
5
360
100
AcDbEntity
8
0
100
AcDbSpline
70
0
71
2
72
6
73
3
74
0
42
0.000000001
43
0.0000000001
44
0.0000000001
40
0
40
0
40
0
40
1
40
1
40
1
10
-3.7525551415657543
20
-8.6818404627529908
30
0
10
-3.705721707122918
20
-8.5442074244349264
30
0
10
-3.6116808308244792
20
-8.4225319105741789
30
0
0
LINE
5
361
100
AcDbEntity
8
0
100
AcDbLine
10
-3.9790345113900818
20
-9.3473158087250052
30
0
11
-3.7525551415657543
21
-8.681840462752989
31
0
0
SPLINE
5
362
100
AcDbEntity
8
0
100
AcDbSpline
70
0
71
2
72
6
73
3
74
0
42
0.000000001
43
0.0000000001
44
0.0000000001
40
0
40
0
40
0
40
1
40
1
40
1
10
-0.91291932448102897
20
-8.0159078975294804
30
0
10
-0.86400803457509046
20
-8.0159078975294804
30
0
10
-0.86887008400828059
20
-8.0718836988922451
30
0
0
LINE
5
363
100
AcDbEntity
8
0
100
AcDbLine
10
-0.86887008400828059
20
-8.0718836988922451
30
0
11
-0.90144988897692946
21
-9.9361621092556316
31
0
0
LINE
5
364
100
AcDbEntity
8
0
100
AcDbLine
10
-0.90144988897692946
20
-9.9361621092556316
30
0
11
-0.90182384945690608
21
-9.9396944588496261
31
0
0
SPLINE
5
365
100
AcDbEntity
8
0
100
AcDbSpline
70
0
71
2
72
6
73
3
74
0
42
0.000000001
43
0.0000000001
44
0.0000000001
40
0
40
0
40
0
40
1
40
1
40
1
10
-0.90182384945690608
20
-9.9396944588496261
30
0
10
-0.90859747147411318
20
-9.9904340625680614
30
0
10
-0.97438034887803326
20
-10.013248280082941
30
0
0
SPLINE
5
366
100
AcDbEntity
8
0
100
AcDbSpline
70
0
71
2
72
6
73
3
74
0
42
0.000000001
43
0.0000000001
44
0.0000000001
40
0
40
0
40
0
40
1
40
1
40
1
10
-0.97438034887803326
20
-10.013248280082941
30
0
10
-0.97537776455580227
20
-10.013248280082941
30
0
10
-0.97847363919199426
20
-10.014578167653299
30
0
0
SPLINE
5
367
100
AcDbEntity
8
0
100
AcDbSpline
70
0
71
2
72
6
73
3
74
0
42
0.000000001
43
0.0000000001
44
0.0000000001
40
0
40
0
40
0
40
1
40
1
40
1
10
-0.97847363919199426
20
-10.014578167653299
30
0
10
-0.98156951382818625
20
-10.015907867492492
30
0
10
-0.99087806976162052
20
-10.015907867492492
30
0
0
SPLINE
5
368
100
AcDbEntity
8
0
100
AcDbSpline
70
0
71
2
72
6
73
3
74
0
42
0.000000001
43
0.0000000001
44
0.0000000001
40
0
40
0
40
0
40
1
40
1
40
1
10
-0.99087806976162052
20
-10.015907867492492
30
0
10
-1.0397061947616204
20
-10.015907867492492
30
0
10
-1.0337221700229182
20
-9.9563582279483445
30
0
0
LINE
5
369
100
AcDbEntity
8
0
100
AcDbLine
10
-1.0337221700229182
20
-9.9563582279483445
30
0
11
-1.0280289408582532
21
-9.5159078750017407
31
0
0
LINE
5
370
100
AcDbEntity
8
0
100
AcDbLine
10
-1.0280289408582532
20
-9.5159078750017407
30
0
11
-1.6842789896683563
21
-9.515907875001739
31
0
0
SPLINE
5
371
100
AcDbEntity
8
0
100
AcDbSpline
70
0
71
2
72
6
73
3
74
0
42
0.000000001
43
0.0000000001
44
0.0000000001
40
0
40
0
40
0
40
1
40
1
40
1
10
-1.6842789896683563
20
-9.5159078750017407
30
0
10
-1.7119966982710213
20
-9.5159078750017407
30
0
10
-1.7230297526829019
20
-9.496314373347543
30
0
0
SPLINE
5
372
100
AcDbEntity
8
0
100
AcDbSpline
70
0
71
2
72
6
73
3
74
0
42
0.000000001
43
0.0000000001
44
0.0000000001
40
0
40
0
40
0
40
1
40
1
40
1
10
-1.7230297526829019
20
-9.496314373347543
30
0
10
-1.7340628540275735
20
-9.4767206839621814
30
0
10
-1.7252530059330236
20
-9.4507899413829985
30
0
0
SPLINE
5
373
100
AcDbEntity
8
0
100
AcDbSpline
70
0
71
2
72
6
73
3
74
0
42
0.000000001
43
0.0000000001
44
0.0000000001
40
0
40
0
40
0
40
1
40
1
40
1
10
-1.7252530059330236
20
-9.4507899413829985
30
0
10
-1.7048906043612242
20
-9.3909078299462596
30
0
10
-1.6417673143668567
20
-9.3909078299462596
30
0
0
LINE
5
374
100
AcDbEntity
8
0
100
AcDbLine
10
-1.6417673143668567
20
-9.3909078299462596
30
0
11
-1.016102473833818
21
-9.3909078299462614
31
0
0
LINE
5
375
100
AcDbEntity
8
0
100
AcDbLine
10
-1.016102473833818
20
-9.3909078299462614
30
0
11
-0.98535117040883102
21
-8.2282168262519519
31
0
0
LINE
5
376
100
AcDbEntity
8
0
100
AcDbLine
10
-0.98535117040883102
20
-8.2282168262519519
30
0
11
-2.1218620306717266
21
-9.9747675214159468
31
0
0
SPLINE
5
377
100
AcDbEntity
8
0
100
AcDbSpline
70
0
71
2
72
6
73
3
74
0
42
0.000000001
43
0.0000000001
44
0.0000000001
40
0
40
0
40
0
40
1
40
1
40
1
10
-2.1218620306717266
20
-9.9747675214159468
30
0
10
-2.1369884223303597
20
-9.9952961120012507
30
0
10
-2.1649139493322886
20
-10.006890200998678
30
0
0
SPLINE
5
378
100
AcDbEntity
8
0
100
AcDbSpline
70
0
71
2
72
6
73
3
74
0
42
0.000000001
43
0.0000000001
44
0.0000000001
40
0
40
0
40
0
40
1
40
1
40
1
10
-2.1649139493322886
20
-10.006890200998678
30
0
10
-2.1928394763342176
20
-10.018484289996106
30
0
10
-2.2128278000940629
20
-10.012666501203698
30
0
0
SPLINE
5
379
100
AcDbEntity
8
0
100
AcDbSpline
70
0
71
2
72
6
73
3
74
0
42
0.000000001
43
0.0000000001
44
0.0000000001
40
0
40
0
40
0
40
1
40
1
40
1
10
-2.2128278000940629
20
-10.012666501203698
30
0
10
-2.2609494927214966
20
-9.9899354485947587
30
0
10
-2.2271645944741905
20
-9.9325884588054105
30
0
0
SPLINE
5
380
100
AcDbEntity
8
0
100
AcDbSpline
70
0
71
2
72
6
73
3
74
0
42
0.000000001
43
0.0000000001
44
0.0000000001
40
0
40
0
40
0
40
1
40
1
40
1
10
-0.98967292955016706
20
-8.0590428872303974
30
0
10
-0.96216299241397485
20
-8.0159078975294804
30
0
10
-0.91291932448102897
20
-8.0159078975294804
30
0
0
LINE
5
381
100
AcDbEntity
8
0
100
AcDbLine
10
-2.2271645944741905
20
-9.9325884588054105
30
0
11
-0.98967292955016695
21
-8.0590428872303974
31
0
0
SPLINE
5
382
100
AcDbEntity
8
0
100
AcDbSpline
70
0
71
2
72
6
73
3
74
0
42
0.000000001
43
0.0000000001
44
0.0000000001
40
0
40
0
40
0
40
1
40
1
40
1
10
0.47882763580598942
20
-8.1857465926050512
30
0
10
0.50467540121039778
20
-8.1857465926050512
30
0
10
0.51826413383219894
20
-8.2035117804467514
30
0
0
SPLINE
5
383
100
AcDbEntity
8
0
100
AcDbSpline
70
0
71
2
72
6
73
3
74
0
42
0.000000001
43
0.0000000001
44
0.0000000001
40
0
40
0
40
0
40
1
40
1
40
1
10
0.51826413383219894
20
-8.2035117804467514
30
0
10
0.53185286645400009
20
-8.2212767805572877
30
0
10
0.52337549025204011
20
-8.246210295189865
30
0
0
LINE
5
384
100
AcDbEntity
8
0
100
AcDbLine
10
0.52337549025204011
20
-8.2462102951898668
30
0
11
-0.052879493334551407
21
-9.9394866404503652
31
0
0
SPLINE
5
385
100
AcDbEntity
8
0
100
AcDbSpline
70
0
71
2
72
6
73
3
74
0
42
0.000000001
43
0.0000000001
44
0.0000000001
40
0
40
0
40
0
40
1
40
1
40
1
10
-0.052879493334551407
20
-9.9394866404503652
30
0
10
-0.062187955402403364
20
-9.9668304355058446
30
0
10
-0.088077303259781026
20
-9.9847202768408714
30
0
0
SPLINE
5
386
100
AcDbEntity
8
0
100
AcDbSpline
70
0
71
2
72
6
73
3
74
0
42
0.000000001
43
0.0000000001
44
0.0000000001
40
0
40
0
40
0
40
1
40
1
40
1
10
-0.088077303259781026
20
-9.9847202768408714
30
0
10
-0.11396655725157637
20
-10.002609930444732
30
0
10
-0.13948185076339506
20
-10.002609930444732
30
0
0
SPLINE
5
387
100
AcDbEntity
8
0
100
AcDbSpline
70
0
71
2
72
6
73
3
74
0
42
0.000000001
43
0.0000000001
44
0.0000000001
40
0
40
0
40
0
40
1
40
1
40
1
10
-0.13948185076339506
20
-10.002609930444732
30
0
10
-0.2020233618785218
20
-10.002609930444732
30
0
10
-0.18053898500121005
20
-9.9394866404503652
30
0
0
SPLINE
5
388
100
AcDbEntity
8
0
100
AcDbSpline
70
0
71
2
72
6
73
3
74
0
42
0.000000001
43
0.0000000001
44
0.0000000001
40
0
40
0
40
0
40
1
40
1
40
1
10
0.39571585778700796
20
-8.246210295189865
30
0
10
0.41628612469086268
20
-8.1857465926050512
30
0
10
0.47882763580598942
20
-8.1857465926050512
30
0
0
LINE
5
389
100
AcDbEntity
8
0
100
AcDbLine
10
-0.18053898500121005
20
-9.9394866404503652
30
0
11
0.39571585778700796
21
-8.246210295189865
31
0
0
SPLINE
5
390
100
AcDbEntity
8
0
100
AcDbSpline
70
0
71
2
72
6
73
3
74
0
42
0.000000001
43
0.0000000001
44
0.0000000001
40
0
40
0
40
0
40
1
40
1
40
1
10
1.1345789767772079
20
-8.08239720730597
30
0
10
1.1128868284334232
20
-8.1462269296729044
30
0
10
1.0497633507078912
20
-8.1462269296729044
30
0
0
LINE
5
391
100
AcDbEntity
8
0
100
AcDbLine
10
1.0497633507078912
20
-8.1462269296729044
30
0
11
-0.064307346385681918
21
-8.1462269296729026
31
0
0
SPLINE
5
392
100
AcDbEntity
8
0
100
AcDbSpline
70
0
71
2
72
6
73
3
74
0
42
0.000000001
43
0.0000000001
44
0.0000000001
40
0
40
0
40
0
40
1
40
1
40
1
10
-0.064307346385682002
20
-8.1462269296729026
30
0
10
-0.12743068331284063
20
-8.1462269296729026
30
0
10
-0.10573853496905584
20
-8.0823972073059682
30
0
0
SPLINE
5
393
100
AcDbEntity
8
0
100
AcDbSpline
70
0
71
2
72
6
73
3
74
0
42
0.000000001
43
0.0000000001
44
0.0000000001
40
0
40
0
40
0
40
1
40
1
40
1
10
-0.10573853496905584
20
-8.0823972073059682
30
0
10
-0.084919008011341196
20
-8.0212270723485872
30
0
10
-0.021795718016973654
20
-8.0212270723485872
30
0
0
SPLINE
5
394
100
AcDbEntity
8
0
100
AcDbSpline
70
0
71
2
72
6
73
3
74
0
42
0.000000001
43
0.0000000001
44
0.0000000001
40
0
40
0
40
0
40
1
40
1
40
1
10
1.0922750729421815
20
-8.021227072348589
30
0
10
1.1553985506677136
20
-8.021227072348589
30
0
10
1.1345789767772079
20
-8.08239720730597
30
0
0
LINE
5
395
100
AcDbEntity
8
0
100
AcDbLine
10
-0.02179571801697365
20
-8.0212270723485872
30
0
11
1.0922750729421817
21
-8.021227072348589
31
0
0
SPLINE
5
396
100
AcDbEntity
8
0
100
AcDbSpline
70
0
71
2
72
6
73
3
74
0
42
0.000000001
43
0.0000000001
44
0.0000000001
40
0
40
0
40
0
40
1
40
1
40
1
10
-2.2397598913189141
20
-6.8738317865086378
30
0
10
-2.3565823668423747
20
-6.9906538865697687
30
0
10
-2.5248066677675616
20
-6.9906538865697687
30
0
0
SPLINE
5
397
100
AcDbEntity
8
0
100
AcDbSpline
70
0
71
2
72
6
73
3
74
0
42
0.000000001
43
0.0000000001
44
0.0000000001
40
0
40
0
40
0
40
1
40
1
40
1
10
-2.5248066677675616
20
-6.9906538865697687
30
0
10
-2.6836851481231321
20
-6.9906538865697687
30
0
10
-2.8005076236465927
20
-6.8738317865086378
30
0
0
SPLINE
5
398
100
AcDbEntity
8
0
100
AcDbSpline
70
0
71
2
72
6
73
3
74
0
42
0.000000001
43
0.0000000001
44
0.0000000001
40
0
40
0
40
0
40
1
40
1
40
1
10
-2.8005076236465927
20
-6.8738317865086378
30
0
10
-2.9173300522372623
20
-6.7570089355228475
30
0
10
-2.9173300522372623
20
-6.5887852916567367
30
0
0
LINE
5
399
100
AcDbEntity
8
0
100
AcDbLine
10
-2.9173300522372623
20
-6.5887852916567367
30
0
11
-2.9173300522372605
21
-0.4112142277514868
31
0
0
SPLINE
5
400
100
AcDbEntity
8
0
100
AcDbSpline
70
0
71
2
72
6
73
3
74
0
42
0.000000001
43
0.0000000001
44
0.0000000001
40
0
40
0
40
0
40
1
40
1
40
1
10
-2.9173300522372605
20
-0.41121422775148764
30
0
10
-2.9173300522372605
20
-0.24298983296071808
30
0
10
-2.8005076236465909
20
-0.1261677328995868
30
0
0
SPLINE
5
401
100
AcDbEntity
8
0
100
AcDbSpline
70
0
71
2
72
6
73
3
74
0
42
0.000000001
43
0.0000000001
44
0.0000000001
40
0
40
0
40
0
40
1
40
1
40
1
10
-2.8005076236465909
20
-0.1261677328995868
30
0
10
-2.6836851481231303
20
-0.0093448819137969524
30
0
10
-2.5248066677675598
20
-0.0093448819137970391
30
0
0
SPLINE
5
402
100
AcDbEntity
8
0
100
AcDbSpline
70
0
71
2
72
6
73
3
74
0
42
0.000000001
43
0.0000000001
44
0.0000000001
40
0
40
0
40
0
40
1
40
1
40
1
10
-2.5248066677675598
20
-0.0093448819137970391
30
0
10
-2.3565823668423724
20
-0.0093448819137970391
30
0
10
-2.2397598913189118
20
-0.12616773289958699
30
0
0
SPLINE
5
403
100
AcDbEntity
8
0
100
AcDbSpline
70
0
71
2
72
6
73
3
74
0
42
0.000000001
43
0.0000000001
44
0.0000000001
40
0
40
0
40
0
40
1
40
1
40
1
10
-2.2397598913189118
20
-0.12616773289958699
30
0
10
-2.1229374157954513
20
-0.24298983296071824
30
0
10
-2.1229374157954517
20
-0.4112142277514878
30
0
0
SPLINE
5
404
100
AcDbEntity
8
0
100
AcDbSpline
70
0
71
2
72
6
73
3
74
0
42
0.000000001
43
0.0000000001
44
0.0000000001
40
0
40
0
40
0
40
1
40
1
40
1
10
-2.1229374157954535
20
-6.5887852916567367
30
0
10
-2.1229374157954535
20
-6.7570089355228475
30
0
10
-2.2397598913189141
20
-6.8738317865086378
30
0
0
LINE
5
405
100
AcDbEntity
8
0
100
AcDbLine
10
-2.1229374157954517
20
-0.4112142277514878
30
0
11
-2.1229374157954535
21
-6.5887852916567384
31
0
0
SPLINE
5
406
100
AcDbEntity
8
0
100
AcDbSpline
70
0
71
2
72
6
73
3
74
0
42
0.000000001
43
0.0000000001
44
0.0000000001
40
0
40
0
40
0
40
1
40
1
40
1
10
-1.3472365612912505
20
-3.8971957259290839
30
0
10
-1.5061149477812388
20
-3.8971957259290839
30
0
10
-1.6229374233046989
20
-3.7803736258679526
30
0
0
SPLINE
5
407
100
AcDbEntity
8
0
100
AcDbSpline
70
0
71
2
72
6
73
3
74
0
42
0.000000001
43
0.0000000001
44
0.0000000001
40
0
40
0
40
0
40
1
40
1
40
1
10
-1.6229374233046989
20
-3.7803736258679526
30
0
10
-1.7397598988281595
20
-3.663551150344492
30
0
10
-1.7397598988281595
20
-3.4953271310160519
30
0
0
SPLINE
5
408
100
AcDbEntity
8
0
100
AcDbSpline
70
0
71
2
72
6
73
3
74
0
42
0.000000001
43
0.0000000001
44
0.0000000001
40
0
40
0
40
0
40
1
40
1
40
1
10
-1.7397598988281595
20
-3.4953271310160519
30
0
10
-1.7397598988281595
20
-3.3364483690637341
30
0
10
-1.6229374233046989
20
-3.2196258935402735
30
0
0
SPLINE
5
409
100
AcDbEntity
8
0
100
AcDbSpline
70
0
71
2
72
6
73
3
74
0
42
0.000000001
43
0.0000000001
44
0.0000000001
40
0
40
0
40
0
40
1
40
1
40
1
10
-1.6229374233046989
20
-3.2196258935402735
30
0
10
-1.5061149477812383
20
-3.1028034180168129
30
0
10
-1.34723656129125
20
-3.1028034180168129
30
0
0
LINE
5
410
100
AcDbEntity
8
0
100
AcDbLine
10
-1.34723656129125
20
-3.1028034180168129
30
0
11
-1.291161825604715
21
-3.1028034180168129
31
0
0
LINE
5
411
100
AcDbEntity
8
0
100
AcDbLine
10
-1.291161825604715
20
-3.1028034180168129
30
0
11
-0.33789075574012672
21
-3.1028034180168129
31
0
0
SPLINE
5
412
100
AcDbEntity
8
0
100
AcDbSpline
70
0
71
2
72
6
73
3
74
0
42
0.000000001
43
0.0000000001
44
0.0000000001
40
0
40
0
40
0
40
1
40
1
40
1
10
-0.33789075574012672
20
-3.1028034180168129
30
0
10
-0.1042456169620406
20
-3.1028034180168129
30
0
10
0.10603468879525668
20
-3.0140185919333669
30
0
0
SPLINE
5
413
100
AcDbEntity
8
0
100
AcDbSpline
70
0
71
2
72
6
73
3
74
0
42
0.000000001
43
0.0000000001
44
0.0000000001
40
0
40
0
40
0
40
1
40
1
40
1
10
0.10603468879525668
20
-3.0140185919333669
30
0
10
0.31631499455255396
20
-2.9252333903875916
30
0
10
0.47519375650487156
20
-2.7663550038976039
30
0
0
SPLINE
5
414
100
AcDbEntity
8
0
100
AcDbSpline
70
0
71
2
72
6
73
3
74
0
42
0.000000001
43
0.0000000001
44
0.0000000001
40
0
40
0
40
0
40
1
40
1
40
1
10
0.47519375650487156
20
-2.7663550038976039
30
0
10
0.63407214299485992
20
-2.6074766174076158
30
0
10
0.72285734454063522
20
-2.4018689403383795
30
0
0
SPLINE
5
415
100
AcDbEntity
8
0
100
AcDbSpline
70
0
71
2
72
6
73
3
74
0
42
0.000000001
43
0.0000000001
44
0.0000000001
40
0
40
0
40
0
40
1
40
1
40
1
10
0.72285734454063522
20
-2.4018689403383795
30
0
10
0.81164217062408139
20
-2.1962616387314728
30
0
10
0.81164217062408139
20
-1.9532706793837704
30
0
0
SPLINE
5
416
100
AcDbEntity
8
0
100
AcDbSpline
70
0
71
2
72
6
73
3
74
0
42
0.000000001
43
0.0000000001
44
0.0000000001
40
0
40
0
40
0
40
1
40
1
40
1
10
0.81164217062408139
20
-1.9532706793837704
30
0
10
0.81164217062408139
20
-1.7196261037991785
30
0
10
0.72285734454063522
20
-1.509345422579552
30
0
0
SPLINE
5
417
100
AcDbEntity
8
0
100
AcDbSpline
70
0
71
2
72
6
73
3
74
0
42
0.000000001
43
0.0000000001
44
0.0000000001
40
0
40
0
40
0
40
1
40
1
40
1
10
0.72285734454063522
20
-1.509345422579552
30
0
10
0.63407214299485992
20
-1.2990651168222547
30
0
10
0.47519375650487156
20
-1.1401867303322664
30
0
0
SPLINE
5
418
100
AcDbEntity
8
0
100
AcDbSpline
70
0
71
2
72
6
73
3
74
0
42
0.000000001
43
0.0000000001
44
0.0000000001
40
0
40
0
40
0
40
1
40
1
40
1
10
0.47519375650487156
20
-1.1401867303322664
30
0
10
0.31631499455255396
20
-0.98130796837994883
30
0
10
0.10603468879525668
20
-0.89252314229650265
30
0
0
SPLINE
5
419
100
AcDbEntity
8
0
100
AcDbSpline
70
0
71
2
72
6
73
3
74
0
42
0.000000001
43
0.0000000001
44
0.0000000001
40
0
40
0
40
0
40
1
40
1
40
1
10
0.10603468879525668
20
-0.89252314229650265
30
0
10
-0.1042456169620406
20
-0.80373794075072691
30
0
10
-0.337890755740126
20
-0.80373794075072691
30
0
0
LINE
5
420
100
AcDbEntity
8
0
100
AcDbLine
10
-0.337890755740126
20
-0.80373794075072691
30
0
11
-1.3472365612912494
21
-0.80373794075072658
31
0
0
SPLINE
5
421
100
AcDbEntity
8
0
100
AcDbSpline
70
0
71
2
72
6
73
3
74
0
42
0.000000001
43
0.0000000001
44
0.0000000001
40
0
40
0
40
0
40
1
40
1
40
1
10
-1.3472365612912494
20
-0.80373794075072658
30
0
10
-1.5061149477812377
20
-0.80373794075072658
30
0
10
-1.6229374233046983
20
-0.6869154652272661
30
0
0
SPLINE
5
422
100
AcDbEntity
8
0
100
AcDbSpline
70
0
71
2
72
6
73
3
74
0
42
0.000000001
43
0.0000000001
44
0.0000000001
40
0
40
0
40
0
40
1
40
1
40
1
10
-1.6229374233046983
20
-0.6869154652272661
30
0
10
-1.7397598988281588
20
-0.57009261424147628
30
0
10
-1.7397598988281588
20
-0.41121422775148797
30
0
0
SPLINE
5
423
100
AcDbEntity
8
0
100
AcDbSpline
70
0
71
2
72
6
73
3
74
0
42
0.000000001
43
0.0000000001
44
0.0000000001
40
0
40
0
40
0
40
1
40
1
40
1
10
-1.7397598988281588
20
-0.41121422775148797
30
0
10
-1.7397598988281588
20
-0.24298983296071841
30
0
10
-1.6229374233046983
20
-0.12616773289958716
30
0
0
SPLINE
5
424
100
AcDbEntity
8
0
100
AcDbSpline
70
0
71
2
72
6
73
3
74
0
42
0.000000001
43
0.0000000001
44
0.0000000001
40
0
40
0
40
0
40
1
40
1
40
1
10
-1.6229374233046983
20
-0.12616773289958716
30
0
10
-1.5061149477812372
20
-0.009344881913797301
30
0
10
-1.3472365612912489
20
-0.0093448819137973895
30
0
0
LINE
5
425
100
AcDbEntity
8
0
100
AcDbLine
10
-1.3472365612912489
20
-0.0093448819137973895
30
0
11
-0.33789075574012567
21
-0.0093448819137976723
31
0
0
SPLINE
5
426
100
AcDbEntity
8
0
100
AcDbSpline
70
0
71
2
72
6
73
3
74
0
42
0.000000001
43
0.0000000001
44
0.0000000001
40
0
40
0
40
0
40
1
40
1
40
1
10
-0.33789075574012567
20
-0.0093448819137976515
30
0
10
0.063978402366400358
20
-0.0093448819137977382
30
0
10
0.41911883308717263
20
-0.16355101517805409
30
0
0
SPLINE
5
427
100
AcDbEntity
8
0
100
AcDbSpline
70
0
71
2
72
6
73
3
74
0
42
0.000000001
43
0.0000000001
44
0.0000000001
40
0
40
0
40
0
40
1
40
1
40
1
10
0.41911883308717263
20
-0.16355101517805409
30
0
10
0.77425888834561563
20
-0.31775639751765195
30
0
10
1.0359414888325513
20
-0.5794386225422582
30
0
0
SPLINE
5
428
100
AcDbEntity
8
0
100
AcDbSpline
70
0
71
2
72
6
73
3
74
0
42
0.000000001
43
0.0000000001
44
0.0000000001
40
0
40
0
40
0
40
1
40
1
40
1
10
1.0359414888325513
20
-0.5794386225422582
30
0
10
1.2976237138571569
20
-0.84112122302919368
30
0
10
1.4518290961967544
20
-1.196261278287637
30
0
0
SPLINE
5
429
100
AcDbEntity
8
0
100
AcDbSpline
70
0
71
2
72
6
73
3
74
0
42
0.000000001
43
0.0000000001
44
0.0000000001
40
0
40
0
40
0
40
1
40
1
40
1
10
1.4518290961967544
20
-1.196261278287637
30
0
10
1.6060348539986815
20
-1.5514017090084093
30
0
10
1.6060348539986815
20
-1.9532706793837706
30
0
0
SPLINE
5
430
100
AcDbEntity
8
0
100
AcDbSpline
70
0
71
2
72
6
73
3
74
0
42
0.000000001
43
0.0000000001
44
0.0000000001
40
0
40
0
40
0
40
1
40
1
40
1
10
1.6060348539986815
20
-1.9532706793837706
30
0
10
1.6060348539986815
20
-2.4299062143160648
30
0
10
1.4004271769294454
20
-2.8271025560033651
30
0
0
SPLINE
5
431
100
AcDbEntity
8
0
100
AcDbSpline
70
0
71
2
72
6
73
3
74
0
42
0.000000001
43
0.0000000001
44
0.0000000001
40
0
40
0
40
0
40
1
40
1
40
1
10
1.4004271769294454
20
-2.8271025560033651
30
0
10
1.1948198753225381
20
-3.224298897690665
30
0
10
0.83967982006409514
20
-3.4953271310160523
30
0
0
SPLINE
5
432
100
AcDbEntity
8
0
100
AcDbSpline
70
0
71
2
72
6
73
3
74
0
42
0.000000001
43
0.0000000001
44
0.0000000001
40
0
40
0
40
0
40
1
40
1
40
1
10
0.83967982006409514
20
-3.4953271310160523
30
0
10
1.1948198753225381
20
-3.7663549888791108
30
0
10
1.4004271769294447
20
-4.1682239592544725
30
0
0
SPLINE
5
433
100
AcDbEntity
8
0
100
AcDbSpline
70
0
71
2
72
6
73
3
74
0
42
0.000000001
43
0.0000000001
44
0.0000000001
40
0
40
0
40
0
40
1
40
1
40
1
10
1.4004271769294447
20
-4.1682239592544725
30
0
10
1.6060348539986808
20
-4.570093305092163
30
0
10
1.6060348539986808
20
-5.0467284645621273
30
0
0
LINE
5
434
100
AcDbEntity
8
0
100
AcDbLine
10
1.6060348539986808
20
-5.0467284645621273
30
0
11
1.6060348539986804
21
-6.5887852916567393
31
0
0
SPLINE
5
435
100
AcDbEntity
8
0
100
AcDbSpline
70
0
71
2
72
6
73
3
74
0
42
0.000000001
43
0.0000000001
44
0.0000000001
40
0
40
0
40
0
40
1
40
1
40
1
10
1.60603485399868
20
-6.5887852916567384
30
0
10
1.60603485399868
20
-6.7570089355228493
30
0
10
1.4892123784752196
20
-6.8738317865086387
30
0
0
SPLINE
5
436
100
AcDbEntity
8
0
100
AcDbSpline
70
0
71
2
72
6
73
3
74
0
42
0.000000001
43
0.0000000001
44
0.0000000001
40
0
40
0
40
0
40
1
40
1
40
1
10
1.4892123784752196
20
-6.8738317865086387
30
0
10
1.372389902951759
20
-6.9906538865697705
30
0
10
1.2041655081609894
20
-6.9906538865697705
30
0
0
SPLINE
5
437
100
AcDbEntity
8
0
100
AcDbSpline
70
0
71
2
72
6
73
3
74
0
42
0.000000001
43
0.0000000001
44
0.0000000001
40
0
40
0
40
0
40
1
40
1
40
1
10
1.2041655081609894
20
-6.9906538865697705
30
0
10
1.0452871216710011
20
-6.9906538865697705
30
0
10
0.92846464614754054
20
-6.8738317865086387
30
0
0
SPLINE
5
438
100
AcDbEntity
8
0
100
AcDbSpline
70
0
71
2
72
6
73
3
74
0
42
0.000000001
43
0.0000000001
44
0.0000000001
40
0
40
0
40
0
40
1
40
1
40
1
10
0.92846464614754054
20
-6.8738317865086387
30
0
10
0.81164217062407995
20
-6.7570089355228493
30
0
10
0.81164217062407995
20
-6.5887852916567384
30
0
0
LINE
5
439
100
AcDbEntity
8
0
100
AcDbLine
10
0.81164217062407995
20
-6.5887852916567384
30
0
11
0.81164217062408028
21
-5.0467284645621273
31
0
0
SPLINE
5
440
100
AcDbEntity
8
0
100
AcDbSpline
70
0
71
2
72
6
73
3
74
0
42
0.000000001
43
0.0000000001
44
0.0000000001
40
0
40
0
40
0
40
1
40
1
40
1
10
0.81164217062408062
20
-5.0467284645621273
30
0
10
0.81164217062408062
20
-4.8130838889775358
30
0
10
0.72285734454063455
20
-4.602803583220239
30
0
0
SPLINE
5
441
100
AcDbEntity
8
0
100
AcDbSpline
70
0
71
2
72
6
73
3
74
0
42
0.000000001
43
0.0000000001
44
0.0000000001
40
0
40
0
40
0
40
1
40
1
40
1
10
0.72285734454063455
20
-4.602803583220239
30
0
10
0.63407214299485914
20
-4.3925229020006116
30
0
10
0.47519375650487089
20
-4.2336445155106235
30
0
0
SPLINE
5
442
100
AcDbEntity
8
0
100
AcDbSpline
70
0
71
2
72
6
73
3
74
0
42
0.000000001
43
0.0000000001
44
0.0000000001
40
0
40
0
40
0
40
1
40
1
40
1
10
0.47519375650487089
20
-4.2336445155106235
30
0
10
0.3163149945525533
20
-4.0747661290206345
30
0
10
0.10603468879525599
20
-3.9859809274748592
30
0
0
SPLINE
5
443
100
AcDbEntity
8
0
100
AcDbSpline
70
0
71
2
72
6
73
3
74
0
42
0.000000001
43
0.0000000001
44
0.0000000001
40
0
40
0
40
0
40
1
40
1
40
1
10
0.10603468879525599
20
-3.9859809274748592
30
0
10
-0.10424561696204129
20
-3.8971957259290839
30
0
10
-0.33789075574012706
20
-3.8971957259290839
30
0
0
LINE
5
444
100
AcDbEntity
8
0
100
AcDbLine
10
-1.2911618256047155
20
-3.8971957259290839
30
0
11
-1.3472365612912505
21
-3.8971957259290839
31
0
0
LINE
5
445
100
AcDbEntity
8
0
100
AcDbLine
10
-0.33789075574012706
20
-3.8971957259290839
30
0
11
-1.2911618256047155
21
-3.8971957259290839
31
0
0
SPLINE
5
446
100
AcDbEntity
8
0
100
AcDbSpline
70
0
71
2
72
6
73
3
74
0
42
0.000000001
43
0.0000000001
44
0.0000000001
40
0
40
0
40
0
40
1
40
1
40
1
10
2.6096856469390772
20
-0.16355101517805462
30
0
10
2.6881027847909422
20
-0.056074923417704599
30
0
10
2.8173375286601532
20
-0.018691641139238189
30
0
0
SPLINE
5
447
100
AcDbEntity
8
0
100
AcDbSpline
70
0
71
2
72
6
73
3
74
0
42
0.000000001
43
0.0000000001
44
0.0000000001
40
0
40
0
40
0
40
1
40
1
40
1
10
2.8173375286601532
20
-0.018691641139238189
30
0
10
2.9465723194621551
20
0.018691641139228134
30
0
10
3.0664612896945407
20
-0.028036898515360936
30
0
0
SPLINE
5
448
100
AcDbEntity
8
0
100
AcDbSpline
70
0
71
2
72
6
73
3
74
0
42
0.000000001
43
0.0000000001
44
0.0000000001
40
0
40
0
40
0
40
1
40
1
40
1
10
3.0664612896945407
20
-0.028036898515360936
30
0
10
3.1863503537925082
20
-0.074766189094608679
30
0
10
3.2602404954072868
20
-0.18691603593000791
30
0
0
LINE
5
449
100
AcDbEntity
8
0
100
AcDbLine
10
3.2602404954072868
20
-0.18691603593000791
30
0
11
6.512577324134706
21
-5.23364487595446
31
0
0
LINE
5
450
100
AcDbEntity
8
0
100
AcDbLine
10
6.512577324134706
20
-5.23364487595446
30
0
11
6.5125773241347078
21
-0.40186897037536767
31
0
0
SPLINE
5
451
100
AcDbEntity
8
0
100
AcDbSpline
70
0
71
2
72
6
73
3
74
0
42
0.000000001
43
0.0000000001
44
0.0000000001
40
0
40
0
40
0
40
1
40
1
40
1
10
6.5125773241347087
20
-0.4018689703753674
30
0
10
6.5125773241347087
20
-0.23364457558459786
30
0
10
6.6293997996581693
20
-0.11682247552346668
30
0
0
SPLINE
5
452
100
AcDbEntity
8
0
100
AcDbSpline
70
0
71
2
72
6
73
3
74
0
42
0.000000001
43
0.0000000001
44
0.0000000001
40
0
40
0
40
0
40
1
40
1
40
1
10
6.6293997996581693
20
-0.11682247552346668
30
0
10
6.7462222751816299
20
3.7546232317445968e-07
30
0
10
6.9144462945100704
20
3.7546232308704053e-07
30
0
0
SPLINE
5
453
100
AcDbEntity
8
0
100
AcDbSpline
70
0
71
2
72
6
73
3
74
0
42
0.000000001
43
0.0000000001
44
0.0000000001
40
0
40
0
40
0
40
1
40
1
40
1
10
6.9144462945100704
20
3.7546232308704053e-07
30
0
10
7.0733250564623882
20
3.7546232308704053e-07
30
0
10
7.1901475319858488
20
-0.11682247552346677
30
0
0
SPLINE
5
454
100
AcDbEntity
8
0
100
AcDbSpline
70
0
71
2
72
6
73
3
74
0
42
0.000000001
43
0.0000000001
44
0.0000000001
40
0
40
0
40
0
40
1
40
1
40
1
10
7.1901475319858488
20
-0.11682247552346677
30
0
10
7.3069700075093094
20
-0.23364457558459811
30
0
10
7.3069700075093094
20
-0.40186897037536756
30
0
0
LINE
5
455
100
AcDbEntity
8
0
100
AcDbLine
10
7.3069700075093094
20
-0.40186897037536756
30
0
11
7.3069700075093076
21
-6.5794392833559581
31
0
0
SPLINE
5
456
100
AcDbEntity
8
0
100
AcDbSpline
70
0
71
2
72
6
73
3
74
0
42
0.000000001
43
0.0000000001
44
0.0000000001
40
0
40
0
40
0
40
1
40
1
40
1
10
7.3069700075093067
20
-6.5794392833559581
30
0
10
7.3069700075093067
20
-6.7102803958682617
30
0
10
7.2322034429523736
20
-6.8177572385532699
30
0
0
SPLINE
5
457
100
AcDbEntity
8
0
100
AcDbSpline
70
0
71
2
72
6
73
3
74
0
42
0.000000001
43
0.0000000001
44
0.0000000001
40
0
40
0
40
0
40
1
40
1
40
1
10
7.2322034429523736
20
-6.8177572385532699
30
0
10
7.1574372538577702
20
-6.9252333303136195
30
0
10
7.0265961413454665
20
-6.9626166125920861
30
0
0
SPLINE
5
458
100
AcDbEntity
8
0
100
AcDbSpline
70
0
71
2
72
6
73
3
74
0
42
0.000000001
43
0.0000000001
44
0.0000000001
40
0
40
0
40
0
40
1
40
1
40
1
10
7.0265961413454665
20
-6.9626166125920861
30
0
10
6.9518295767885343
20
-6.9813086291936486
30
0
10
6.9144462945100678
20
-6.9813086291936486
30
0
0
SPLINE
5
459
100
AcDbEntity
8
0
100
AcDbSpline
70
0
71
2
72
6
73
3
74
0
42
0.000000001
43
0.0000000001
44
0.0000000001
40
0
40
0
40
0
40
1
40
1
40
1
10
6.9144462945100678
20
-6.9813086291936486
30
0
10
6.6901473517639278
20
-6.9813086291936486
30
0
10
6.5779978803908579
20
-6.7943922178013167
30
0
0
LINE
5
460
100
AcDbEntity
8
0
100
AcDbLine
10
6.5779978803908579
20
-6.7943922178013167
30
0
11
3.3256611455290201
21
-1.757009010615316
31
0
0
LINE
5
461
100
AcDbEntity
8
0
100
AcDbLine
10
3.3256611455290201
20
-1.757009010615316
30
0
11
3.3256611455290188
21
-6.5794392833559581
31
0
0
SPLINE
5
462
100
AcDbEntity
8
0
100
AcDbSpline
70
0
71
2
72
6
73
3
74
0
42
0.000000001
43
0.0000000001
44
0.0000000001
40
0
40
0
40
0
40
1
40
1
40
1
10
3.3256611455290188
20
-6.5794392833559572
30
0
10
3.3256611455290188
20
-6.7476636781467265
30
0
10
3.2055529991619083
20
-6.8644857782078574
30
0
0
SPLINE
5
463
100
AcDbEntity
8
0
100
AcDbSpline
70
0
71
2
72
6
73
3
74
0
42
0.000000001
43
0.0000000001
44
0.0000000001
40
0
40
0
40
0
40
1
40
1
40
1
10
3.2055529991619083
20
-6.8644857782078574
30
0
10
3.0854450405259621
20
-6.9813086291936477
30
0
10
2.9284648038417185
20
-6.9813086291936477
30
0
0
SPLINE
5
464
100
AcDbEntity
8
0
100
AcDbSpline
70
0
71
2
72
6
73
3
74
0
42
0.000000001
43
0.0000000001
44
0.0000000001
40
0
40
0
40
0
40
1
40
1
40
1
10
2.9284648038417185
20
-6.9813086291936477
30
0
10
2.7621389343190232
20
-6.9813086291936477
30
0
10
2.6467036982367209
20
-6.8644857782078574
30
0
0
SPLINE
5
465
100
AcDbEntity
8
0
100
AcDbSpline
70
0
71
2
72
6
73
3
74
0
42
0.000000001
43
0.0000000001
44
0.0000000001
40
0
40
0
40
0
40
1
40
1
40
1
10
2.6467036982367209
20
-6.8644857782078574
30
0
10
2.5312685090872096
20
-6.7476636781467265
30
0
10
2.5312685090872096
20
-6.5794392833559572
30
0
0
SPLINE
5
466
100
AcDbEntity
8
0
100
AcDbSpline
70
0
71
2
72
6
73
3
74
0
42
0.000000001
43
0.0000000001
44
0.0000000001
40
0
40
0
40
0
40
1
40
1
40
1
10
2.5312685090872113
20
-0.40186897037536634
30
0
10
2.5312685090872113
20
-0.27102785786306322
30
0
10
2.6096856469390772
20
-0.16355101517805462
30
0
0
LINE
5
467
100
AcDbEntity
8
0
100
AcDbLine
10
2.5312685090872096
20
-6.5794392833559554
30
0
11
2.5312685090872113
21
-0.40186897037536556
31
0
0
SPLINE
5
468
100
AcDbEntity
8
0
100
AcDbSpline
70
0
71
2
72
6
73
3
74
0
42
0.000000001
43
0.0000000001
44
0.0000000001
40
0
40
0
40
0
40
1
40
1
40
1
10
8.3583717240269628
20
-0.11682247552346746
30
0
10
8.4751941995504243
20
3.7546232238768746e-07
30
0
10
8.6340726799059944
20
3.7546232230026832e-07
30
0
0
SPLINE
5
469
100
AcDbEntity
8
0
100
AcDbSpline
70
0
71
2
72
6
73
3
74
0
42
0.000000001
43
0.0000000001
44
0.0000000001
40
0
40
0
40
0
40
1
40
1
40
1
10
8.6340726799059944
20
3.7546232230026832e-07
30
0
10
8.8022969808311817
20
3.7546232230026832e-07
30
0
10
8.9191194563546414
20
-0.11682247552346764
30
0
0
SPLINE
5
470
100
AcDbEntity
8
0
100
AcDbSpline
70
0
71
2
72
6
73
3
74
0
42
0.000000001
43
0.0000000001
44
0.0000000001
40
0
40
0
40
0
40
1
40
1
40
1
10
8.9191194563546414
20
-0.11682247552346764
30
0
10
9.0359419318781029
20
-0.23364457558459892
30
0
10
9.0359419318781029
20
-0.40186897037536845
30
0
0
LINE
5
471
100
AcDbEntity
8
0
100
AcDbLine
10
9.0359419318781029
20
-0.40186897037536845
30
0
11
9.0359419318781011
21
-6.5794392833559598
31
0
0
SPLINE
5
472
100
AcDbEntity
8
0
100
AcDbSpline
70
0
71
2
72
6
73
3
74
0
42
0.000000001
43
0.0000000001
44
0.0000000001
40
0
40
0
40
0
40
1
40
1
40
1
10
9.0359419318781011
20
-6.5794392833559598
30
0
10
9.0359419318780994
20
-6.7476636781467292
30
0
10
8.9191194563546397
20
-6.8644857782078601
30
0
0
SPLINE
5
473
100
AcDbEntity
8
0
100
AcDbSpline
70
0
71
2
72
6
73
3
74
0
42
0.000000001
43
0.0000000001
44
0.0000000001
40
0
40
0
40
0
40
1
40
1
40
1
10
8.9191194563546397
20
-6.8644857782078601
30
0
10
8.8022969808311782
20
-6.9813086291936504
30
0
10
8.6340726799059908
20
-6.9813086291936504
30
0
0
SPLINE
5
474
100
AcDbEntity
8
0
100
AcDbSpline
70
0
71
2
72
6
73
3
74
0
42
0.000000001
43
0.0000000001
44
0.0000000001
40
0
40
0
40
0
40
1
40
1
40
1
10
8.6340726799059908
20
-6.9813086291936504
30
0
10
8.4751941995504207
20
-6.9813086291936504
30
0
10
8.358371724026961
20
-6.8644857782078601
30
0
0
SPLINE
5
475
100
AcDbEntity
8
0
100
AcDbSpline
70
0
71
2
72
6
73
3
74
0
42
0.000000001
43
0.0000000001
44
0.0000000001
40
0
40
0
40
0
40
1
40
1
40
1
10
8.358371724026961
20
-6.8644857782078601
30
0
10
8.2415492954362914
20
-6.7476636781467292
30
0
10
8.2415492954362914
20
-6.5794392833559598
30
0
0
SPLINE
5
476
100
AcDbEntity
8
0
100
AcDbSpline
70
0
71
2
72
6
73
3
74
0
42
0.000000001
43
0.0000000001
44
0.0000000001
40
0
40
0
40
0
40
1
40
1
40
1
10
8.2415492954362932
20
-0.40186897037536828
30
0
10
8.2415492954362932
20
-0.23364457558459864
30
0
10
8.3583717240269628
20
-0.11682247552346746
30
0
0
LINE
5
477
100
AcDbEntity
8
0
100
AcDbLine
10
8.2415492954362914
20
-6.5794392833559581
30
0
11
8.2415492954362932
21
-0.40186897037536834
31
0
0
SPLINE
5
478
100
AcDbEntity
8
0
100
AcDbSpline
70
0
71
2
72
6
73
3
74
0
42
0.000000001
43
0.0000000001
44
0.0000000001
40
0
40
0
40
0
40
1
40
1
40
1
10
10.12939988789182
20
-1.4532708746241838
30
0
10
10.316315783023448
20
-1.0186912506584169
30
0
10
10.638745747884981
20
-0.69626147352805001
30
0
0
SPLINE
5
479
100
AcDbEntity
8
0
100
AcDbSpline
70
0
71
2
72
6
73
3
74
0
42
0.000000001
43
0.0000000001
44
0.0000000001
40
0
40
0
40
0
40
1
40
1
40
1
10
10.638745747884981
20
-0.69626147352805001
30
0
10
10.96117561888093
20
-0.37383169639768277
30
0
10
11.395754961249949
20
-0.1869152850053509
30
0
0
SPLINE
5
480
100
AcDbEntity
8
0
100
AcDbSpline
70
0
71
2
72
6
73
3
74
0
42
0.000000001
43
0.0000000001
44
0.0000000001
40
0
40
0
40
0
40
1
40
1
40
1
10
11.395754961249949
20
-0.1869152850053509
30
0
10
11.830334585215716
20
3.7546232247510661e-07
30
0
10
12.325661761287243
20
3.7546232230026832e-07
30
0
0
SPLINE
5
481
100
AcDbEntity
8
0
100
AcDbSpline
70
0
71
2
72
6
73
3
74
0
42
0.000000001
43
0.0000000001
44
0.0000000001
40
0
40
0
40
0
40
1
40
1
40
1
10
12.325661761287243
20
3.7546232230026832e-07
30
0
10
12.820988937358772
20
3.7546232212543002e-07
30
0
10
13.255568561324537
20
-0.18691528500535143
30
0
0
SPLINE
5
482
100
AcDbEntity
8
0
100
AcDbSpline
70
0
71
2
72
6
73
3
74
0
42
0.000000001
43
0.0000000001
44
0.0000000001
40
0
40
0
40
0
40
1
40
1
40
1
10
13.255568561324537
20
-0.18691528500535143
30
0
10
13.690147809827975
20
-0.37383169639768365
30
0
10
14.012577586958342
20
-0.6962614735280509
30
0
0
SPLINE
5
483
100
AcDbEntity
8
0
100
AcDbSpline
70
0
71
2
72
6
73
3
74
0
42
0.000000001
43
0.0000000001
44
0.0000000001
40
0
40
0
40
0
40
1
40
1
40
1
10
14.012577586958342
20
-0.6962614735280509
30
0
10
14.335007739551038
20
-1.0186912506584183
30
0
10
14.52192377548104
20
-1.4532708746241847
30
0
0
SPLINE
5
484
100
AcDbEntity
8
0
100
AcDbSpline
70
0
71
2
72
6
73
3
74
0
42
0.000000001
43
0.0000000001
44
0.0000000001
40
0
40
0
40
0
40
1
40
1
40
1
10
14.52192377548104
20
-1.4532708746241847
30
0
10
14.708839435948715
20
-1.8878501231276219
30
0
10
14.708839435948715
20
-2.3831772991991493
30
0
0
SPLINE
5
485
100
AcDbEntity
8
0
100
AcDbSpline
70
0
71
2
72
6
73
3
74
0
42
0.000000001
43
0.0000000001
44
0.0000000001
40
0
40
0
40
0
40
1
40
1
40
1
10
14.708839435948715
20
-2.3831772991991493
30
0
10
14.708839435948715
20
-2.5420556856891379
30
0
10
14.592016960425253
20
-2.6635511653629886
30
0
0
SPLINE
5
486
100
AcDbEntity
8
0
100
AcDbSpline
70
0
71
2
72
6
73
3
74
0
42
0.000000001
43
0.0000000001
44
0.0000000001
40
0
40
0
40
0
40
1
40
1
40
1
10
14.592016960425253
20
-2.6635511653629886
30
0
10
14.475194484901794
20
-2.7850466450368399
30
0
10
14.316316098411805
20
-2.7850466450368399
30
0
0
SPLINE
5
487
100
AcDbEntity
8
0
100
AcDbSpline
70
0
71
2
72
6
73
3
74
0
42
0.000000001
43
0.0000000001
44
0.0000000001
40
0
40
0
40
0
40
1
40
1
40
1
10
14.316316098411805
20
-2.7850466450368399
30
0
10
14.148091703621036
20
-2.7850466450368399
30
0
10
14.031269228097575
20
-2.6635511653629886
30
0
0
SPLINE
5
488
100
AcDbEntity
8
0
100
AcDbSpline
70
0
71
2
72
6
73
3
74
0
42
0.000000001
43
0.0000000001
44
0.0000000001
40
0
40
0
40
0
40
1
40
1
40
1
10
14.031269228097575
20
-2.6635511653629886
30
0
10
13.914446752574115
20
-2.5420556856891379
30
0
10
13.914446752574115
20
-2.3831772991991493
30
0
0
SPLINE
5
489
100
AcDbEntity
8
0
100
AcDbSpline
70
0
71
2
72
6
73
3
74
0
42
0.000000001
43
0.0000000001
44
0.0000000001
40
0
40
0
40
0
40
1
40
1
40
1
10
13.914446752574115
20
-2.3831772991991493
30
0
10
13.914446752574115
20
-2.0560745179183915
30
0
10
13.788278644212202
20
-1.7663550189160997
30
0
0
SPLINE
5
490
100
AcDbEntity
8
0
100
AcDbSpline
70
0
71
2
72
6
73
3
74
0
42
0.000000001
43
0.0000000001
44
0.0000000001
40
0
40
0
40
0
40
1
40
1
40
1
10
13.788278644212202
20
-1.7663550189160997
30
0
10
13.662110535850289
20
-1.4766351444514789
30
0
10
13.447157225942602
20
-1.261681834543791
30
0
0
SPLINE
5
491
100
AcDbEntity
8
0
100
AcDbSpline
70
0
71
2
72
6
73
3
74
0
42
0.000000001
43
0.0000000001
44
0.0000000001
40
0
40
0
40
0
40
1
40
1
40
1
10
13.447157225942602
20
-1.261681834543791
30
0
10
13.232203916034914
20
-1.0467285246361031
30
0
10
12.942484041570292
20
-0.92056041627419061
30
0
0
SPLINE
5
492
100
AcDbEntity
8
0
100
AcDbSpline
70
0
71
2
72
6
73
3
74
0
42
0.000000001
43
0.0000000001
44
0.0000000001
40
0
40
0
40
0
40
1
40
1
40
1
10
12.942484041570292
20
-0.92056041627419061
30
0
10
12.652764542568001
20
-0.79439230791227777
30
0
10
12.325661761287243
20
-0.79439230791227777
30
0
0
SPLINE
5
493
100
AcDbEntity
8
0
100
AcDbSpline
70
0
71
2
72
6
73
3
74
0
42
0.000000001
43
0.0000000001
44
0.0000000001
40
0
40
0
40
0
40
1
40
1
40
1
10
12.325661761287243
20
-0.79439230791227777
30
0
10
11.998558980006486
20
-0.79439230791227777
30
0
10
11.708839105541864
20
-0.92056041627419027
30
0
0
SPLINE
5
494
100
AcDbEntity
8
0
100
AcDbSpline
70
0
71
2
72
6
73
3
74
0
42
0.000000001
43
0.0000000001
44
0.0000000001
40
0
40
0
40
0
40
1
40
1
40
1
10
11.708839105541864
20
-0.92056041627419027
30
0
10
11.419119606539574
20
-1.0467285246361029
30
0
10
11.204166296631886
20
-1.2616818345437903
30
0
0
SPLINE
5
495
100
AcDbEntity
8
0
100
AcDbSpline
70
0
71
2
72
6
73
3
74
0
42
0.000000001
43
0.0000000001
44
0.0000000001
40
0
40
0
40
0
40
1
40
1
40
1
10
11.204166296631886
20
-1.2616818345437903
30
0
10
10.989212986724198
20
-1.4766351444514783
30
0
10
10.863044784496703
20
-1.766355018916099
30
0
0
SPLINE
5
496
100
AcDbEntity
8
0
100
AcDbSpline
70
0
71
2
72
6
73
3
74
0
42
0.000000001
43
0.0000000001
44
0.0000000001
40
0
40
0
40
0
40
1
40
1
40
1
10
10.863044784496703
20
-1.766355018916099
30
0
10
10.736876582269208
20
-2.0560745179183906
30
0
10
10.736876582269206
20
-2.3831772991991484
30
0
0
LINE
5
497
100
AcDbEntity
8
0
100
AcDbLine
10
10.736876582269206
20
-2.3831772991991484
30
0
11
10.736876582269206
21
-4.5887845707690689
31
0
0
SPLINE
5
498
100
AcDbEntity
8
0
100
AcDbSpline
70
0
71
2
72
6
73
3
74
0
42
0.000000001
43
0.0000000001
44
0.0000000001
40
0
40
0
40
0
40
1
40
1
40
1
10
10.736876582269206
20
-4.588784570769068
30
0
10
10.736876582269206
20
-4.9158873520498263
30
0
10
10.863044784496701
20
-5.2056072265144477
30
0
0
SPLINE
5
499
100
AcDbEntity
8
0
100
AcDbSpline
70
0
71
2
72
6
73
3
74
0
42
0.000000001
43
0.0000000001
44
0.0000000001
40
0
40
0
40
0
40
1
40
1
40
1
10
10.863044784496701
20
-5.2056072265144477
30
0
10
10.989212986724196
20
-5.4953271009790683
30
0
10
11.204166296631884
20
-5.710280035424427
30
0
0
SPLINE
5
500
100
AcDbEntity
8
0
100
AcDbSpline
70
0
71
2
72
6
73
3
74
0
42
0.000000001
43
0.0000000001
44
0.0000000001
40
0
40
0
40
0
40
1
40
1
40
1
10
11.204166296631884
20
-5.710280035424427
30
0
10
11.419119606539573
20
-5.9252337207944432
30
0
10
11.708839105541864
20
-6.0514018291563554
30
0
0
SPLINE
5
501
100
AcDbEntity
8
0
100
AcDbSpline
70
0
71
2
72
6
73
3
74
0
42
0.000000001
43
0.0000000001
44
0.0000000001
40
0
40
0
40
0
40
1
40
1
40
1
10
11.708839105541864
20
-6.0514018291563554
30
0
10
11.998558980006484
20
-6.1775699375182693
30
0
10
12.325661761287241
20
-6.1775699375182693
30
0
0
SPLINE
5
502
100
AcDbEntity
8
0
100
AcDbSpline
70
0
71
2
72
6
73
3
74
0
42
0.000000001
43
0.0000000001
44
0.0000000001
40
0
40
0
40
0
40
1
40
1
40
1
10
12.325661761287241
20
-6.1775699375182693
30
0
10
12.652764542567999
20
-6.1775699375182693
30
0
10
12.942484041570291
20
-6.0514018291563572
30
0
0
SPLINE
5
503
100
AcDbEntity
8
0
100
AcDbSpline
70
0
71
2
72
6
73
3
74
0
42
0.000000001
43
0.0000000001
44
0.0000000001
40
0
40
0
40
0
40
1
40
1
40
1
10
12.942484041570291
20
-6.0514018291563572
30
0
10
13.23220391603491
20
-5.925233720794445
30
0
10
13.447157225942599
20
-5.7102800354244279
30
0
0
SPLINE
5
504
100
AcDbEntity
8
0
100
AcDbSpline
70
0
71
2
72
6
73
3
74
0
42
0.000000001
43
0.0000000001
44
0.0000000001
40
0
40
0
40
0
40
1
40
1
40
1
10
13.447157225942599
20
-5.7102800354244279
30
0
10
13.662110535850287
20
-5.4953271009790692
30
0
10
13.788278644212198
20
-5.2056072265144477
30
0
0
SPLINE
5
505
100
AcDbEntity
8
0
100
AcDbSpline
70
0
71
2
72
6
73
3
74
0
42
0.000000001
43
0.0000000001
44
0.0000000001
40
0
40
0
40
0
40
1
40
1
40
1
10
13.788278644212198
20
-5.2056072265144477
30
0
10
13.914446752574111
20
-4.9158873520498272
30
0
10
13.914446752574111
20
-4.5887845707690698
30
0
0
SPLINE
5
506
100
AcDbEntity
8
0
100
AcDbSpline
70
0
71
2
72
6
73
3
74
0
42
0.000000001
43
0.0000000001
44
0.0000000001
40
0
40
0
40
0
40
1
40
1
40
1
10
13.914446752574111
20
-4.5887845707690698
30
0
10
13.914446752574111
20
-4.4205601759782995
30
0
10
14.031269228097573
20
-4.3037380759171686
30
0
0
SPLINE
5
507
100
AcDbEntity
8
0
100
AcDbSpline
70
0
71
2
72
6
73
3
74
0
42
0.000000001
43
0.0000000001
44
0.0000000001
40
0
40
0
40
0
40
1
40
1
40
1
10
14.031269228097573
20
-4.3037380759171686
30
0
10
14.148091703621033
20
-4.186915600393708
30
0
10
14.316316098411802
20
-4.186915600393708
30
0
0
SPLINE
5
508
100
AcDbEntity
8
0
100
AcDbSpline
70
0
71
2
72
6
73
3
74
0
42
0.000000001
43
0.0000000001
44
0.0000000001
40
0
40
0
40
0
40
1
40
1
40
1
10
14.316316098411802
20
-4.186915600393708
30
0
10
14.47519448490179
20
-4.186915600393708
30
0
10
14.592016960425251
20
-4.3037380759171686
30
0
0
SPLINE
5
509
100
AcDbEntity
8
0
100
AcDbSpline
70
0
71
2
72
6
73
3
74
0
42
0.000000001
43
0.0000000001
44
0.0000000001
40
0
40
0
40
0
40
1
40
1
40
1
10
14.592016960425251
20
-4.3037380759171686
30
0
10
14.708839435948711
20
-4.4205601759782995
30
0
10
14.708839435948711
20
-4.5887845707690698
30
0
0
SPLINE
5
510
100
AcDbEntity
8
0
100
AcDbSpline
70
0
71
2
72
6
73
3
74
0
42
0.000000001
43
0.0000000001
44
0.0000000001
40
0
40
0
40
0
40
1
40
1
40
1
10
14.708839435948711
20
-4.5887845707690698
30
0
10
14.708839435948711
20
-5.0841117468405965
30
0
10
14.521923775481039
20
-5.518691370806363
30
0
0
SPLINE
5
511
100
AcDbEntity
8
0
100
AcDbSpline
70
0
71
2
72
6
73
3
74
0
42
0.000000001
43
0.0000000001
44
0.0000000001
40
0
40
0
40
0
40
1
40
1
40
1
10
14.521923775481039
20
-5.518691370806363
30
0
10
14.335007739551035
20
-5.9532709947721294
30
0
10
14.012577586958338
20
-6.2757007719024971
30
0
0
SPLINE
5
512
100
AcDbEntity
8
0
100
AcDbSpline
70
0
71
2
72
6
73
3
74
0
42
0.000000001
43
0.0000000001
44
0.0000000001
40
0
40
0
40
0
40
1
40
1
40
1
10
14.012577586958338
20
-6.2757007719024971
30
0
10
13.690147809827971
20
-6.5981305490328639
30
0
10
13.255568561324534
20
-6.7850469604251957
30
0
0
SPLINE
5
513
100
AcDbEntity
8
0
100
AcDbSpline
70
0
71
2
72
6
73
3
74
0
42
0.000000001
43
0.0000000001
44
0.0000000001
40
0
40
0
40
0
40
1
40
1
40
1
10
13.255568561324534
20
-6.7850469604251957
30
0
10
12.820988937358768
20
-6.9719626208928691
30
0
10
12.325661761287241
20
-6.9719626208928691
30
0
0
SPLINE
5
514
100
AcDbEntity
8
0
100
AcDbSpline
70
0
71
2
72
6
73
3
74
0
42
0.000000001
43
0.0000000001
44
0.0000000001
40
0
40
0
40
0
40
1
40
1
40
1
10
12.325661761287241
20
-6.9719626208928691
30
0
10
11.830334585215713
20
-6.9719626208928673
30
0
10
11.395754961249947
20
-6.785046960425194
30
0
0
SPLINE
5
515
100
AcDbEntity
8
0
100
AcDbSpline
70
0
71
2
72
6
73
3
74
0
42
0.000000001
43
0.0000000001
44
0.0000000001
40
0
40
0
40
0
40
1
40
1
40
1
10
11.395754961249947
20
-6.785046960425194
30
0
10
10.96117561888093
20
-6.5981305490328621
30
0
10
10.638745747884979
20
-6.2757007719024953
30
0
0
SPLINE
5
516
100
AcDbEntity
8
0
100
AcDbSpline
70
0
71
2
72
6
73
3
74
0
42
0.000000001
43
0.0000000001
44
0.0000000001
40
0
40
0
40
0
40
1
40
1
40
1
10
10.638745747884979
20
-6.2757007719024953
30
0
10
10.316315783023448
20
-5.9532709947721285
30
0
10
10.129399887891818
20
-5.5186913708063621
30
0
0
SPLINE
5
517
100
AcDbEntity
8
0
100
AcDbSpline
70
0
71
2
72
6
73
3
74
0
42
0.000000001
43
0.0000000001
44
0.0000000001
40
0
40
0
40
0
40
1
40
1
40
1
10
10.129399887891818
20
-5.5186913708063621
30
0
10
9.9424839927601898
20
-5.0841117468405956
30
0
10
9.9424839927601898
20
-4.588784570769068
30
0
0
SPLINE
5
518
100
AcDbEntity
8
0
100
AcDbSpline
70
0
71
2
72
6
73
3
74
0
42
0.000000001
43
0.0000000001
44
0.0000000001
40
0
40
0
40
0
40
1
40
1
40
1
10
9.9424839927601898
20
-2.383177299199148
30
0
10
9.9424839927601898
20
-1.8878501231276206
30
0
10
10.12939988789182
20
-1.4532708746241838
30
0
0
LINE
5
519
100
AcDbEntity
8
0
100
AcDbLine
10
9.9424839927601898
20
-4.588784570769068
30
0
11
9.9424839927601898
21
-2.383177299199148
31
0
0
SPLINE
5
520
100
AcDbEntity
8
0
100
AcDbSpline
70
0
71
2
72
6
73
3
74
0
42
0.000000001
43
0.0000000001
44
0.0000000001
40
0
40
0
40
0
40
1
40
1
40
1
10
1.97623035261536
20
-8.0380986598465718
30
0
10
2.0005612502094214
20
-8.0185674849390374
30
0
10
2.0290270205704131
20
-8.0185674849390374
30
0
0
SPLINE
5
521
100
AcDbEntity
8
0
100
AcDbSpline
70
0
71
2
72
6
73
3
74
0
42
0.000000001
43
0.0000000001
44
0.0000000001
40
0
40
0
40
0
40
1
40
1
40
1
10
2.0290270205704131
20
-8.0185674849390374
30
0
10
2.0570772479984591
20
-8.0185674849390374
30
0
10
2.0682557001973585
20
-8.0383064782458362
30
0
0
SPLINE
5
522
100
AcDbEntity
8
0
100
AcDbSpline
70
0
71
2
72
6
73
3
74
0
42
0.000000001
43
0.0000000001
44
0.0000000001
40
0
40
0
40
0
40
1
40
1
40
1
10
2.0682557001973585
20
-8.0383064782458362
30
0
10
2.0794342462618407
20
-8.0580454715526351
30
0
10
2.0722866637646566
20
-8.079031187523853
30
0
0
LINE
5
523
100
AcDbEntity
8
0
100
AcDbLine
10
2.0722866637646571
20
-8.079031187523853
30
0
11
1.4400144136943076
21
-9.9368685416282005
31
0
0
SPLINE
5
524
100
AcDbEntity
8
0
100
AcDbSpline
70
0
71
2
72
6
73
3
74
0
42
0.000000001
43
0.0000000001
44
0.0000000001
40
0
40
0
40
0
40
1
40
1
40
1
10
1.4400144136943078
20
-9.9368685416282005
30
0
10
1.4312877070393009
20
-9.9625916535392847
30
0
10
1.4063541924067229
20
-9.9826007919920094
30
0
0
SPLINE
5
525
100
AcDbEntity
8
0
100
AcDbSpline
70
0
71
2
72
6
73
3
74
0
42
0.000000001
43
0.0000000001
44
0.0000000001
40
0
40
0
40
0
40
1
40
1
40
1
10
1.4063541924067229
20
-9.9826007919920094
30
0
10
1.3814206543077494
20
-10.002609930444734
30
0
10
1.3538275991984099
20
-10.002609930444734
30
0
0
SPLINE
5
526
100
AcDbEntity
8
0
100
AcDbSpline
70
0
71
2
72
6
73
3
74
0
42
0.000000001
43
0.0000000001
44
0.0000000001
40
0
40
0
40
0
40
1
40
1
40
1
10
1.3538275991984099
20
-10.002609930444734
30
0
10
1.3258189307569379
20
-10.002609930444734
30
0
10
1.3146404316252471
20
-9.9828500989786608
30
0
0
SPLINE
5
527
100
AcDbEntity
8
0
100
AcDbSpline
70
0
71
2
72
6
73
3
74
0
42
0.000000001
43
0.0000000001
44
0.0000000001
40
0
40
0
40
0
40
1
40
1
40
1
10
1.3146404316252471
20
-9.9828500989786608
30
0
10
1.3034619207603584
20
-9.9630902675125856
30
0
10
1.3123548398952645
20
-9.9368685416282005
30
0
0
SPLINE
5
528
100
AcDbEntity
8
0
100
AcDbSpline
70
0
71
2
72
6
73
3
74
0
42
0.000000001
43
0.0000000001
44
0.0000000001
40
0
40
0
40
0
40
1
40
1
40
1
10
1.944627125165207
20
-8.079031187523853
30
0
10
1.9518993611557163
20
-8.0576300224852702
30
0
10
1.97623035261536
20
-8.0380986598465718
30
0
0
LINE
5
529
100
AcDbEntity
8
0
100
AcDbLine
10
1.3123548398952645
20
-9.9368685416282005
30
0
11
1.944627125165207
21
-8.079031187523853
31
0
0
SPLINE
5
530
100
AcDbEntity
8
0
100
AcDbSpline
70
0
71
2
72
6
73
3
74
0
42
0.000000001
43
0.0000000001
44
0.0000000001
40
0
40
0
40
0
40
1
40
1
40
1
10
2.7778634515480616
20
-8.4473200274197477
30
0
10
2.852373106006175
20
-8.3411239806055431
30
0
10
2.9511721694709632
20
-8.2542513841651903
30
0
0
SPLINE
5
531
100
AcDbEntity
8
0
100
AcDbSpline
70
0
71
2
72
6
73
3
74
0
42
0.000000001
43
0.0000000001
44
0.0000000001
40
0
40
0
40
0
40
1
40
1
40
1
10
2.9511721694709632
20
-8.2542513841651903
30
0
10
3.0499711390701689
20
-8.1673789754560016
30
0
10
3.166867768403665
20
-8.1064373093259974
30
0
0
SPLINE
5
532
100
AcDbEntity
8
0
100
AcDbSpline
70
0
71
2
72
6
73
3
74
0
42
0.000000001
43
0.0000000001
44
0.0000000001
40
0
40
0
40
0
40
1
40
1
40
1
10
3.166867768403665
20
-8.1064373093259974
30
0
10
3.2837643977371611
20
-8.0454956431959914
30
0
10
3.4076007911685768
20
-8.0207282706441259
30
0
0
SPLINE
5
533
100
AcDbEntity
8
0
100
AcDbSpline
70
0
71
2
72
6
73
3
74
0
42
0.000000001
43
0.0000000001
44
0.0000000001
40
0
40
0
40
0
40
1
40
1
40
1
10
3.4076007911685768
20
-8.0207282706441259
30
0
10
3.4702670496426116
20
-8.0095083298578391
30
0
10
3.4677321157263843
20
-8.0689331281774983
30
0
0
SPLINE
5
534
100
AcDbEntity
8
0
100
AcDbSpline
70
0
71
2
72
6
73
3
74
0
42
0.000000001
43
0.0000000001
44
0.0000000001
40
0
40
0
40
0
40
1
40
1
40
1
10
3.4677321157263843
20
-8.0689331281774983
30
0
10
3.4568029705141359
20
-8.1253660549261788
30
0
10
3.3936795866541858
20
-8.1430272397026648
30
0
0
SPLINE
5
535
100
AcDbEntity
8
0
100
AcDbSpline
70
0
71
2
72
6
73
3
74
0
42
0.000000001
43
0.0000000001
44
0.0000000001
40
0
40
0
40
0
40
1
40
1
40
1
10
3.3936795866541858
20
-8.1430272397026648
30
0
10
3.294070275482782
20
-8.1630987049020529
30
0
10
3.2006318754244862
20
-8.2125294469405699
30
0
0
SPLINE
5
536
100
AcDbEntity
8
0
100
AcDbSpline
70
0
71
2
72
6
73
3
74
0
42
0.000000001
43
0.0000000001
44
0.0000000001
40
0
40
0
40
0
40
1
40
1
40
1
10
3.2006318754244862
20
-8.2125294469405699
30
0
10
3.1071935692317725
20
-8.2619600012479211
30
0
10
3.0264505830483053
20
-8.3334362016820887
30
0
0
SPLINE
5
537
100
AcDbEntity
8
0
100
AcDbSpline
70
0
71
2
72
6
73
3
74
0
42
0.000000001
43
0.0000000001
44
0.0000000001
40
0
40
0
40
0
40
1
40
1
40
1
10
3.0264505830483053
20
-8.3334362016820887
30
0
10
2.9457075029992561
20
-8.4049122143850905
30
0
10
2.8847035101225873
20
-8.4899770535754762
30
0
0
SPLINE
5
538
100
AcDbEntity
8
0
100
AcDbSpline
70
0
71
2
72
6
73
3
74
0
42
0.000000001
43
0.0000000001
44
0.0000000001
40
0
40
0
40
0
40
1
40
1
40
1
10
2.8847035101225873
20
-8.4899770535754762
30
0
10
2.8236995641787099
20
-8.5750418927658618
30
0
10
2.7913275776093278
20
-8.6700801378092773
30
0
0
LINE
5
539
100
AcDbEntity
8
0
100
AcDbLine
10
2.7913275776093278
20
-8.6700801378092773
30
0
11
2.5649313022917517
21
-9.335389153969416
31
0
0
SPLINE
5
540
100
AcDbEntity
8
0
100
AcDbSpline
70
0
71
2
72
6
73
3
74
0
42
0.000000001
43
0.0000000001
44
0.0000000001
40
0
40
0
40
0
40
1
40
1
40
1
10
2.5649313022917517
20
-9.3353891539694143
30
0
10
2.5262012835708996
20
-9.4492107468259956
30
0
10
2.5350734114793205
20
-9.5475319406111741
30
0
0
SPLINE
5
541
100
AcDbEntity
8
0
100
AcDbSpline
70
0
71
2
72
6
73
3
74
0
42
0.000000001
43
0.0000000001
44
0.0000000001
40
0
40
0
40
0
40
1
40
1
40
1
10
2.5350734114793205
20
-9.5475319406111741
30
0
10
2.5439455863205329
20
-9.6458531343963543
30
0
10
2.5927737113205329
20
-9.7198432428563066
30
0
0
SPLINE
5
542
100
AcDbEntity
8
0
100
AcDbSpline
70
0
71
2
72
6
73
3
74
0
42
0.000000001
43
0.0000000001
44
0.0000000001
40
0
40
0
40
0
40
1
40
1
40
1
10
2.5927737113205329
20
-9.7198432428563066
30
0
10
2.6416018832533239
20
-9.7938333513162608
30
0
10
2.7235291714889658
20
-9.8357218060839244
30
0
0
SPLINE
5
543
100
AcDbEntity
8
0
100
AcDbSpline
70
0
71
2
72
6
73
3
74
0
42
0.000000001
43
0.0000000001
44
0.0000000001
40
0
40
0
40
0
40
1
40
1
40
1
10
2.7235291714889658
20
-9.8357218060839244
30
0
10
2.8054565535901896
20
-9.8776100731204224
30
0
10
2.91769895188976
20
-9.8776100731204224
30
0
0
SPLINE
5
544
100
AcDbEntity
8
0
100
AcDbSpline
70
0
71
2
72
6
73
3
74
0
42
0.000000001
43
0.0000000001
44
0.0000000001
40
0
40
0
40
0
40
1
40
1
40
1
10
2.91769895188976
20
-9.8776100731204224
30
0
10
3.029567201978189
20
-9.8776100731204224
30
0
10
3.1412901481451811
20
-9.8357009679246481
30
0
0
SPLINE
5
545
100
AcDbEntity
8
0
100
AcDbSpline
70
0
71
2
72
6
73
3
74
0
42
0.000000001
43
0.0000000001
44
0.0000000001
40
0
40
0
40
0
40
1
40
1
40
1
10
3.1412901481451811
20
-9.8357009679246481
30
0
10
3.2530130943121738
20
-9.7937918627288738
30
0
10
3.3521445358039688
20
-9.7198432428563084
30
0
0
SPLINE
5
546
100
AcDbEntity
8
0
100
AcDbSpline
70
0
71
2
72
6
73
3
74
0
42
0.000000001
43
0.0000000001
44
0.0000000001
40
0
40
0
40
0
40
1
40
1
40
1
10
3.3521445358039688
20
-9.7198432428563084
30
0
10
3.4512759772957642
20
-9.6458946229837412
30
0
10
3.5274686416449375
20
-9.5470748152252618
30
0
0
SPLINE
5
547
100
AcDbEntity
8
0
100
AcDbSpline
70
0
71
2
72
6
73
3
74
0
42
0.000000001
43
0.0000000001
44
0.0000000001
40
0
40
0
40
0
40
1
40
1
40
1
10
3.5274686416449375
20
-9.5470748152252618
30
0
10
3.6036613059941103
20
-9.4482550074667806
30
0
10
3.6420588997551646
20
-9.3353891539694178
30
0
0
LINE
5
548
100
AcDbEntity
8
0
100
AcDbLine
10
3.6420588997551651
20
-9.3353891539694178
30
0
11
3.8684551750727403
21
-8.6700801378092791
31
0
0
SPLINE
5
549
100
AcDbEntity
8
0
100
AcDbSpline
70
0
71
2
72
6
73
3
74
0
42
0.000000001
43
0.0000000001
44
0.0000000001
40
0
40
0
40
0
40
1
40
1
40
1
10
3.8684551750727403
20
-8.6700801378092791
30
0
10
3.901367451933976
20
-8.5734212096214666
30
0
10
3.8986661882058726
20
-8.4865695452059704
30
0
0
SPLINE
5
550
100
AcDbEntity
8
0
100
AcDbSpline
70
0
71
2
72
6
73
3
74
0
42
0.000000001
43
0.0000000001
44
0.0000000001
40
0
40
0
40
0
40
1
40
1
40
1
10
3.8986661882058726
20
-8.4865695452059704
30
0
10
3.8959651122089332
20
-8.399717693059312
30
0
10
3.8623880792936824
20
-8.3299453406754811
30
0
0
SPLINE
5
551
100
AcDbEntity
8
0
100
AcDbSpline
70
0
71
2
72
6
73
3
74
0
42
0.000000001
43
0.0000000001
44
0.0000000001
40
0
40
0
40
0
40
1
40
1
40
1
10
3.8623880792936824
20
-8.3299453406754811
30
0
10
3.8288110463784322
20
-8.2601731760228141
30
0
10
3.7656669182247886
20
-8.21161519616874
30
0
0
SPLINE
5
552
100
AcDbEntity
8
0
100
AcDbSpline
70
0
71
2
72
6
73
3
74
0
42
0.000000001
43
0.0000000001
44
0.0000000001
40
0
40
0
40
0
40
1
40
1
40
1
10
3.7656669182247886
20
-8.21161519616874
30
0
10
3.7025227900711455
20
-8.1630572163146677
30
0
10
3.6161696457633705
20
-8.1429025862093418
30
0
0
SPLINE
5
553
100
AcDbEntity
8
0
100
AcDbSpline
70
0
71
2
72
6
73
3
74
0
42
0.000000001
43
0.0000000001
44
0.0000000001
40
0
40
0
40
0
40
1
40
1
40
1
10
3.6161696457633705
20
-8.1429025862093418
30
0
10
3.5933970107014606
20
-8.1344252100073806
30
0
10
3.5870597697764754
20
-8.1120472797191407
30
0
0
SPLINE
5
554
100
AcDbEntity
8
0
100
AcDbSpline
70
0
71
2
72
6
73
3
74
0
42
0.000000001
43
0.0000000001
44
0.0000000001
40
0
40
0
40
0
40
1
40
1
40
1
10
3.5870597697764754
20
-8.1120472797191407
30
0
10
3.5807225288514899
20
-8.0896695371620666
30
0
10
3.5936463176881119
20
-8.0676449169256923
30
0
0
SPLINE
5
555
100
AcDbEntity
8
0
100
AcDbSpline
70
0
71
2
72
6
73
3
74
0
42
0.000000001
43
0.0000000001
44
0.0000000001
40
0
40
0
40
0
40
1
40
1
40
1
10
3.5936463176881119
20
-8.0676449169256923
30
0
10
3.6054066426318347
20
-8.0443320854375102
30
0
10
3.6330620714206279
20
-8.0282292570587579
30
0
0
SPLINE
5
556
100
AcDbEntity
8
0
100
AcDbSpline
70
0
71
2
72
6
73
3
74
0
42
0.000000001
43
0.0000000001
44
0.0000000001
40
0
40
0
40
0
40
1
40
1
40
1
10
3.6330620714206279
20
-8.0282292570587579
30
0
10
3.6607175002094214
20
-8.0121262409488416
30
0
10
3.6835315299931359
20
-8.0174039271805597
30
0
0
SPLINE
5
557
100
AcDbEntity
8
0
100
AcDbSpline
70
0
71
2
72
6
73
3
74
0
42
0.000000001
43
0.0000000001
44
0.0000000001
40
0
40
0
40
0
40
1
40
1
40
1
10
3.6835315299931359
20
-8.0174039271805597
30
0
10
3.7931975057890917
20
-8.0427528908805002
30
0
10
3.8701798612823519
20
-8.1038815372504942
30
0
0
SPLINE
5
558
100
AcDbEntity
8
0
100
AcDbSpline
70
0
71
2
72
6
73
3
74
0
42
0.000000001
43
0.0000000001
44
0.0000000001
40
0
40
0
40
0
40
1
40
1
40
1
10
3.8701798612823519
20
-8.1038815372504942
30
0
10
3.9471620290444474
20
-8.16501018362049
30
0
10
3.9895074214668607
20
-8.2517581265675162
30
0
0
SPLINE
5
559
100
AcDbEntity
8
0
100
AcDbSpline
70
0
71
2
72
6
73
3
74
0
42
0.000000001
43
0.0000000001
44
0.0000000001
40
0
40
0
40
0
40
1
40
1
40
1
10
3.9895074214668607
20
-8.2517581265675162
30
0
10
4.031852813889274
20
-8.3385058817833784
30
0
10
4.0336189886862721
20
-8.4466343393408767
30
0
0
SPLINE
5
560
100
AcDbEntity
8
0
100
AcDbSpline
70
0
71
2
72
6
73
3
74
0
42
0.000000001
43
0.0000000001
44
0.0000000001
40
0
40
0
40
0
40
1
40
1
40
1
10
4.0336189886862721
20
-8.4466343393408767
30
0
10
4.0353849757521045
20
-8.5547627030327931
30
0
10
3.9961148075377726
20
-8.6700801378092791
30
0
0
LINE
5
561
100
AcDbEntity
8
0
100
AcDbLine
10
3.9961148075377717
20
-8.6700801378092791
30
0
11
3.7697185322201965
21
-9.3353891539694178
31
0
0
SPLINE
5
562
100
AcDbEntity
8
0
100
AcDbSpline
70
0
71
2
72
6
73
3
74
0
42
0.000000001
43
0.0000000001
44
0.0000000001
40
0
40
0
40
0
40
1
40
1
40
1
10
3.7697185322201965
20
-9.3353891539694178
30
0
10
3.7227189087638575
20
-9.4734793176733962
30
0
10
3.6277428966015206
20
-9.5963598778800119
30
0
0
SPLINE
5
563
100
AcDbEntity
8
0
100
AcDbSpline
70
0
71
2
72
6
73
3
74
0
42
0.000000001
43
0.0000000001
44
0.0000000001
40
0
40
0
40
0
40
1
40
1
40
1
10
3.6277428966015206
20
-9.5963598778800119
30
0
10
3.532767072170349
20
-9.7192406258177932
30
0
10
3.413190111133606
20
-9.8085441531091568
30
0
0
SPLINE
5
564
100
AcDbEntity
8
0
100
AcDbSpline
70
0
71
2
72
6
73
3
74
0
42
0.000000001
43
0.0000000001
44
0.0000000001
40
0
40
0
40
0
40
1
40
1
40
1
10
3.413190111133606
20
-9.8085441531091568
30
0
10
3.293613150096864
20
-9.8978476804005222
30
0
10
3.1535699252214813
20
-9.9502288054226291
30
0
0
SPLINE
5
565
100
AcDbEntity
8
0
100
AcDbSpline
70
0
71
2
72
6
73
3
74
0
42
0.000000001
43
0.0000000001
44
0.0000000001
40
0
40
0
40
0
40
1
40
1
40
1
10
3.1535699252214813
20
-9.9502288054226291
30
0
10
3.013526700346099
20
-10.002609930444738
30
0
10
2.8751457410680823
20
-10.002609930444738
30
0
0
SPLINE
5
566
100
AcDbEntity
8
0
100
AcDbSpline
70
0
71
2
72
6
73
3
74
0
42
0.000000001
43
0.0000000001
44
0.0000000001
40
0
40
0
40
0
40
1
40
1
40
1
10
2.8751457410680823
20
-10.002609930444738
30
0
10
2.7362244914982119
20
-10.002609930444738
30
0
10
2.633165995638751
20
-9.9501873168352422
30
0
0
SPLINE
5
567
100
AcDbEntity
8
0
100
AcDbSpline
70
0
71
2
72
6
73
3
74
0
42
0.000000001
43
0.0000000001
44
0.0000000001
40
0
40
0
40
0
40
1
40
1
40
1
10
2.633165995638751
20
-9.9501873168352422
30
0
10
2.5301075467120806
20
-9.8977645154945826
30
0
10
2.4713475513792273
20
-9.8085026645217681
30
0
0
SPLINE
5
568
100
AcDbEntity
8
0
100
AcDbSpline
70
0
71
2
72
6
73
3
74
0
42
0.000000001
43
0.0000000001
44
0.0000000001
40
0
40
0
40
0
40
1
40
1
40
1
10
2.4713475513792273
20
-9.8085026645217681
30
0
10
2.412587602979166
20
-9.7192406258177897
30
0
10
2.4012844034213585
20
-9.5968170032659241
30
0
0
SPLINE
5
569
100
AcDbEntity
8
0
100
AcDbSpline
70
0
71
2
72
6
73
3
74
0
42
0.000000001
43
0.0000000001
44
0.0000000001
40
0
40
0
40
0
40
1
40
1
40
1
10
2.4012844034213585
20
-9.5968170032659241
30
0
10
2.3899811803971551
20
-9.4743935684452243
30
0
10
2.4372717167595108
20
-9.3353891539694143
30
0
0
SPLINE
5
570
100
AcDbEntity
8
0
100
AcDbSpline
70
0
71
2
72
6
73
3
74
0
42
0.000000001
43
0.0000000001
44
0.0000000001
40
0
40
0
40
0
40
1
40
1
40
1
10
2.6636679920770869
20
-8.6700801378092773
30
0
10
2.7033537970899473
20
-8.5535159803683705
30
0
10
2.7778634515480616
20
-8.4473200274197477
30
0
0
LINE
5
571
100
AcDbEntity
8
0
100
AcDbLine
10
2.4372717167595108
20
-9.3353891539694143
30
0
11
2.6636679920770869
21
-8.6700801378092756
31
0
0
SPLINE
5
572
100
AcDbEntity
8
0
100
AcDbSpline
70
0
71
2
72
6
73
3
74
0
42
0.000000001
43
0.0000000001
44
0.0000000001
40
0
40
0
40
0
40
1
40
1
40
1
10
4.8896071119717606
20
-8.0227645905870535
30
0
10
4.9401805736094833
20
-8.010754864791096
30
0
10
4.9531460387646566
20
-8.048404537592198
30
0
0
LINE
5
573
100
AcDbEntity
8
0
100
AcDbLine
10
4.9531460387646575
20
-8.048404537592198
30
0
11
5.4385183943684501
21
-9.7850235032217157
31
0
0
LINE
5
574
100
AcDbEntity
8
0
100
AcDbLine
10
5.4385183943684501
20
-9.7850235032217157
30
0
11
6.0190951370963779
21
-8.0790311875238583
31
0
0
SPLINE
5
575
100
AcDbEntity
8
0
100
AcDbSpline
70
0
71
2
72
6
73
3
74
0
42
0.000000001
43
0.0000000001
44
0.0000000001
40
0
40
0
40
0
40
1
40
1
40
1
10
6.0190951370963779
20
-8.0790311875238583
30
0
10
6.0265336090331827
20
-8.0571312207808106
30
0
10
6.0520697407042769
20
-8.0378493528599275
30
0
0
SPLINE
5
576
100
AcDbEntity
8
0
100
AcDbSpline
70
0
71
2
72
6
73
3
74
0
42
0.000000001
43
0.0000000001
44
0.0000000001
40
0
40
0
40
0
40
1
40
1
40
1
10
6.0520697407042769
20
-8.0378493528599275
30
0
10
6.0776058723753712
20
-8.0185674849390445
30
0
10
6.104783337618974
20
-8.0185674849390445
30
0
0
SPLINE
5
577
100
AcDbEntity
8
0
100
AcDbSpline
70
0
71
2
72
6
73
3
74
0
42
0.000000001
43
0.0000000001
44
0.0000000001
40
0
40
0
40
0
40
1
40
1
40
1
10
6.104783337618974
20
-8.0185674849390445
30
0
10
6.128968931291598
20
-8.0185674849390445
30
0
10
6.1415187596482435
20
-8.0380571712591902
30
0
0
SPLINE
5
578
100
AcDbEntity
8
0
100
AcDbSpline
70
0
71
2
72
6
73
3
74
0
42
0.000000001
43
0.0000000001
44
0.0000000001
40
0
40
0
40
0
40
1
40
1
40
1
10
6.1415187596482435
20
-8.0380571712591902
30
0
10
6.1540685880048889
20
-8.0575468575793376
30
0
10
6.1467547695614106
20
-8.0790311875238583
30
0
0
LINE
5
579
100
AcDbEntity
8
0
100
AcDbLine
10
6.1467547695614106
20
-8.0790311875238583
30
0
11
5.514523984612052
21
-9.9368270530408207
31
0
0
SPLINE
5
580
100
AcDbEntity
8
0
100
AcDbSpline
70
0
71
2
72
6
73
3
74
0
42
0.000000001
43
0.0000000001
44
0.0000000001
40
0
40
0
40
0
40
1
40
1
40
1
10
5.514523984612052
20
-9.9368270530408207
30
0
10
5.4979431926881093
20
-9.9854473596415563
30
0
10
5.4455829058252778
20
-9.9999503430351879
30
0
0
SPLINE
5
581
100
AcDbEntity
8
0
100
AcDbSpline
70
0
71
2
72
6
73
3
74
0
42
0.000000001
43
0.0000000001
44
0.0000000001
40
0
40
0
40
0
40
1
40
1
40
1
10
5.4455829058252778
20
-9.9999503430351879
30
0
10
5.4468295346241149
20
-9.9999503430351879
30
0
10
5.4450841979863931
20
-10.001280230605547
30
0
0
SPLINE
5
582
100
AcDbEntity
8
0
100
AcDbSpline
70
0
71
2
72
6
73
3
74
0
42
0.000000001
43
0.0000000001
44
0.0000000001
40
0
40
0
40
0
40
1
40
1
40
1
10
5.4450841979863931
20
-10.001280230605547
30
0
10
5.4433388613486704
20
-10.002609930444741
30
0
10
5.4297085462739005
20
-10.002609930444741
30
0
0
SPLINE
5
583
100
AcDbEntity
8
0
100
AcDbSpline
70
0
71
2
72
6
73
3
74
0
42
0.000000001
43
0.0000000001
44
0.0000000001
40
0
40
0
40
0
40
1
40
1
40
1
10
5.4297085462739005
20
-10.002609930444741
30
0
10
5.3884851291569991
20
-10.00260993044474
30
0
10
5.3859917776937412
20
-9.9685340958250226
30
0
0
LINE
5
584
100
AcDbEntity
8
0
100
AcDbLine
10
5.3859917776937412
20
-9.9685340958250226
30
0
11
4.9000376432107071
21
-8.2334943247525132
31
0
0
LINE
5
585
100
AcDbEntity
8
0
100
AcDbLine
10
4.9000376432107071
20
-8.2334943247525132
30
0
11
4.3203334984024533
21
-9.9368685416282059
31
0
0
SPLINE
5
586
100
AcDbEntity
8
0
100
AcDbSpline
70
0
71
2
72
6
73
3
74
0
42
0.000000001
43
0.0000000001
44
0.0000000001
40
0
40
0
40
0
40
1
40
1
40
1
10
4.3203334984024533
20
-9.9368685416282059
30
0
10
4.311399020280974
20
-9.9632149210059158
30
0
10
4.2853019478899146
20
-9.9829124257253277
30
0
0
SPLINE
5
587
100
AcDbEntity
8
0
100
AcDbSpline
70
0
71
2
72
6
73
3
74
0
42
0.000000001
43
0.0000000001
44
0.0000000001
40
0
40
0
40
0
40
1
40
1
40
1
10
4.2853019478899146
20
-9.9829124257253277
30
0
10
4.2592048285660633
20
-10.002609930444738
30
0
10
4.2354348951583631
20
-10.002609930444738
30
0
0
SPLINE
5
588
100
AcDbEntity
8
0
100
AcDbSpline
70
0
71
2
72
6
73
3
74
0
42
0.000000001
43
0.0000000001
44
0.0000000001
40
0
40
0
40
0
40
1
40
1
40
1
10
4.2354348951583631
20
-10.002609930444738
30
0
10
4.2086729259149154
20
-10.002609930444738
30
0
10
4.196123074091874
20
-9.9831202441245921
30
0
0
SPLINE
5
589
100
AcDbEntity
8
0
100
AcDbSpline
70
0
71
2
72
6
73
3
74
0
42
0.000000001
43
0.0000000001
44
0.0000000001
40
0
40
0
40
0
40
1
40
1
40
1
10
4.196123074091874
20
-9.9831202441245921
30
0
10
4.1835732222688335
20
-9.9636305578044446
30
0
10
4.1926739246034099
20
-9.9368685416282059
30
0
0
SPLINE
5
590
100
AcDbEntity
8
0
100
AcDbSpline
70
0
71
2
72
6
73
3
74
0
42
0.000000001
43
0.0000000001
44
0.0000000001
40
0
40
0
40
0
40
1
40
1
40
1
10
4.8249046274203833
20
-8.0790726761112435
30
0
10
4.8411945299047066
20
-8.0312419667890129
30
0
10
4.8896071119717606
20
-8.0227645905870535
30
0
0
LINE
5
591
100
AcDbEntity
8
0
100
AcDbLine
10
4.1926739246034099
20
-9.9368685416282059
30
0
11
4.8249046274203833
21
-8.0790726761112435
31
0
0
SPLINE
5
592
100
AcDbEntity
8
0
100
AcDbSpline
70
0
71
2
72
6
73
3
74
0
42
0.000000001
43
0.0000000001
44
0.0000000001
40
0
40
0
40
0
40
1
40
1
40
1
10
6.2374295850115349
20
-10.153000615518714
30
0
10
6.226541963586266
20
-10.133178457305977
30
0
10
6.2353933296011981
20
-10.107164549820856
30
0
0
SPLINE
5
593
100
AcDbEntity
8
0
100
AcDbSpline
70
0
71
2
72
6
73
3
74
0
42
0.000000001
43
0.0000000001
44
0.0000000001
40
0
40
0
40
0
40
1
40
1
40
1
10
6.2353933296011981
20
-10.107164549820856
30
0
10
6.2559219553860945
20
-10.046783824410815
30
0
10
6.3190452805800552
20
-10.046783824410815
30
0
0
SPLINE
5
594
100
AcDbEntity
8
0
100
AcDbSpline
70
0
71
2
72
6
73
3
74
0
42
0.000000001
43
0.0000000001
44
0.0000000001
40
0
40
0
40
0
40
1
40
1
40
1
10
6.3190452805800552
20
-10.046783824410815
30
0
10
6.3408621176167586
20
-10.046783824410815
30
0
10
6.3611413660158176
20
-10.031013467924653
30
0
0
SPLINE
5
595
100
AcDbEntity
8
0
100
AcDbSpline
70
0
71
2
72
6
73
3
74
0
42
0.000000001
43
0.0000000001
44
0.0000000001
40
0
40
0
40
0
40
1
40
1
40
1
10
6.3611413660158176
20
-10.031013467924653
30
0
10
6.3814205792152832
20
-10.015242923707325
30
0
10
6.3891500109908943
20
-9.9925950360043228
30
0
0
LINE
5
596
100
AcDbEntity
8
0
100
AcDbLine
10
6.3891500109908943
20
-9.9925950360043228
30
0
11
6.3900226793097552
21
-9.9899769371821581
31
0
0
LINE
5
597
100
AcDbEntity
8
0
100
AcDbLine
10
6.3900226793097552
20
-9.9899769371821581
30
0
11
6.4095539011500806
21
-9.9326714359801969
31
0
0
SPLINE
5
598
100
AcDbEntity
8
0
100
AcDbSpline
70
0
71
2
72
6
73
3
74
0
42
0.000000001
43
0.0000000001
44
0.0000000001
40
0
40
0
40
0
40
1
40
1
40
1
10
6.4095539011500806
20
-9.9326714359801969
30
0
10
6.4181559777781576
20
-9.9073224722802564
30
0
10
6.4435673855567392
20
-9.8898065914252058
30
0
0
SPLINE
5
599
100
AcDbEntity
8
0
100
AcDbSpline
70
0
71
2
72
6
73
3
74
0
42
0.000000001
43
0.0000000001
44
0.0000000001
40
0
40
0
40
0
40
1
40
1
40
1
10
6.4435673855567392
20
-9.8898065914252058
30
0
10
6.4689787698689258
20
-9.8722908983013209
30
0
10
6.4952005426861019
20
-9.8722908983013209
30
0
0
SPLINE
5
600
100
AcDbEntity
8
0
100
AcDbSpline
70
0
71
2
72
6
73
3
74
0
42
0.000000001
43
0.0000000001
44
0.0000000001
40
0
40
0
40
0
40
1
40
1
40
1
10
6.4952005426861019
20
-9.8722908983013209
30
0
10
6.5577420303348335
20
-9.8722908983013209
30
0
10
6.5372135101487174
20
-9.9326714359801969
30
0
0
LINE
5
601
100
AcDbEntity
8
0
100
AcDbLine
10
6.5372135101487174
20
-9.9326714359801969
30
0
11
6.5176822179092051
21
-9.9899769371821581
31
0
0
LINE
5
602
100
AcDbEntity
8
0
100
AcDbLine
10
6.5176822179092051
20
-9.9899769371821581
30
0
11
6.5168095730567392
21
-9.9925950360043228
31
0
0
SPLINE
5
603
100
AcDbEntity
8
0
100
AcDbSpline
70
0
71
2
72
6
73
3
74
0
42
0.000000001
43
0.0000000001
44
0.0000000001
40
0
40
0
40
0
40
1
40
1
40
1
10
6.5168095730567392
20
-9.9925950360043228
30
0
10
6.4918344994375881
20
-10.065982715156924
30
0
10
6.4223946658791373
20
-10.119402744444187
30
0
0
SPLINE
5
604
100
AcDbEntity
8
0
100
AcDbSpline
70
0
71
2
72
6
73
3
74
0
42
0.000000001
43
0.0000000001
44
0.0000000001
40
0
40
0
40
0
40
1
40
1
40
1
10
6.2761596330653813
20
-10.17282277373145
30
0
10
6.2483171947036054
20
-10.17282277373145
30
0
10
6.2374295850115349
20
-10.153000615518714
30
0
0
SPLINE
5
605
100
AcDbEntity
8
0
100
AcDbSpline
70
0
71
2
72
6
73
3
74
0
42
0.000000001
43
0.0000000001
44
0.0000000001
40
0
40
0
40
0
40
1
40
1
40
1
10
6.4223946658791373
20
-10.119402744444187
30
0
10
6.3529548323206866
20
-10.17282277373145
30
0
10
6.2761596330653813
20
-10.17282277373145
30
0
0
SPLINE
5
606
100
AcDbEntity
8
0
100
AcDbSpline
70
0
71
2
72
6
73
3
74
0
42
0.000000001
43
0.0000000001
44
0.0000000001
40
0
40
0
40
0
40
1
40
1
40
1
10
8.1878742005089009
20
-8.0559885011816075
30
0
10
8.2068028522435021
20
-8.034649475158524
30
0
10
8.2338557578593612
20
-8.0251331946914082
30
0
0
SPLINE
5
607
100
AcDbEntity
8
0
100
AcDbSpline
70
0
71
2
72
6
73
3
74
0
42
0.000000001
43
0.0000000001
44
0.0000000001
40
0
40
0
40
0
40
1
40
1
40
1
10
8.2338557578593612
20
-8.0251331946914082
30
0
10
8.3022566402198645
20
-8.0083030957808141
30
0
10
8.3003450676358472
20
-8.069888867536724
30
0
0
LINE
5
608
100
AcDbEntity
8
0
100
AcDbLine
10
8.3003450676358472
20
-8.069888867536724
30
0
11
8.2515169426358437
21
-9.7902595131348864
31
0
0
LINE
5
609
100
AcDbEntity
8
0
100
AcDbLine
10
8.2515169426358437
20
-9.7902595131348864
30
0
11
8.9054813645163726
21
-8.7725984372424772
31
0
0
LINE
5
610
100
AcDbEntity
8
0
100
AcDbLine
10
8.9054813645163726
20
-8.7725984372424772
30
0
11
8.9084318413655463
21
-8.7639132426412534
31
0
0
SPLINE
5
611
100
AcDbEntity
8
0
100
AcDbSpline
70
0
71
2
72
6
73
3
74
0
42
0.000000001
43
0.0000000001
44
0.0000000001
40
0
40
0
40
0
40
1
40
1
40
1
10
8.9084318413655463
20
-8.7639132426412534
30
0
10
8.9119640032283769
20
-8.7612952376846707
30
0
10
8.9128367654128198
20
-8.7586772327280862
30
0
0
LINE
5
612
100
AcDbEntity
8
0
100
AcDbLine
10
8.9128367654128198
20
-8.7586772327280862
30
0
11
8.9265916401153333
21
-8.7485791733817297
31
0
0
LINE
5
613
100
AcDbEntity
8
0
100
AcDbLine
10
8.9265916401153333
20
-8.7485791733817297
30
0
11
8.9300825011219427
21
-8.746002657012534
31
0
0
LINE
5
614
100
AcDbEntity
8
0
100
AcDbLine
10
8.9300825011219427
20
-8.746002657012534
30
0
11
8.933282191092184
21
-8.7435924704552139
31
0
0
LINE
5
615
100
AcDbEntity
8
0
100
AcDbLine
10
8.933282191092184
20
-8.7435924704552139
30
0
11
8.9367728643676294
21
-8.7409744654986312
31
0
0
LINE
5
616
100
AcDbEntity
8
0
100
AcDbLine
10
8.9367728643676294
20
-8.7409744654986312
30
0
11
8.9498629830161285
21
-8.7310425482329865
31
0
0
LINE
5
617
100
AcDbEntity
8
0
100
AcDbLine
10
8.9498629830161285
20
-8.7310425482329865
30
0
11
8.9378949335387237
21
-8.7310425482329865
31
0
0
SPLINE
5
618
100
AcDbEntity
8
0
100
AcDbSpline
70
0
71
2
72
6
73
3
74
0
42
0.000000001
43
0.0000000001
44
0.0000000001
40
0
40
0
40
0
40
1
40
1
40
1
10
8.9378949335387237
20
-8.7310425482329865
30
0
10
8.9388091843105535
20
-8.7284245432764038
30
0
10
8.9440451942237207
20
-8.7284245432764038
30
0
0
LINE
5
619
100
AcDbEntity
8
0
100
AcDbLine
10
8.9440451942237207
20
-8.7284245432764038
30
0
11
8.9449177686769996
21
-8.72584812077279
31
0
0
LINE
5
620
100
AcDbEntity
8
0
100
AcDbLine
10
8.9449177686769996
20
-8.72584812077279
30
0
11
8.9767081640983051
21
-8.72584812077279
31
0
0
LINE
5
621
100
AcDbEntity
8
0
100
AcDbLine
10
8.9767081640983051
20
-8.72584812077279
30
0
11
8.9793260751893058
21
-8.72584812077279
31
0
0
LINE
5
622
100
AcDbEntity
8
0
100
AcDbLine
10
8.9793260751893058
20
-8.72584812077279
30
0
11
8.9845205965150861
21
-8.72584812077279
31
0
0
LINE
5
623
100
AcDbEntity
8
0
100
AcDbLine
10
8.9845205965150861
20
-8.72584812077279
30
0
11
8.9871385076060868
21
-8.72584812077279
31
0
0
LINE
5
624
100
AcDbEntity
8
0
100
AcDbLine
10
8.9871385076060868
20
-8.72584812077279
30
0
11
8.9897566064282532
21
-8.72584812077279
31
0
0
LINE
5
625
100
AcDbEntity
8
0
100
AcDbLine
10
8.9897566064282532
20
-8.72584812077279
30
0
11
9.0215884904369457
21
-8.72584812077279
31
0
0
SPLINE
5
626
100
AcDbEntity
8
0
100
AcDbSpline
70
0
71
2
72
6
73
3
74
0
42
0.000000001
43
0.0000000001
44
0.0000000001
40
0
40
0
40
0
40
1
40
1
40
1
10
9.0215884904369457
20
-8.72584812077279
30
0
10
9.0207157282525028
20
-8.7284245432764038
30
0
10
9.0030960320634037
20
-8.7284245432764038
30
0
0
LINE
5
627
100
AcDbEntity
8
0
100
AcDbLine
10
9.0030960320634037
20
-8.7284245432764038
30
0
11
9.0073348140299654
21
-8.7310425482329865
31
0
0
LINE
5
628
100
AcDbEntity
8
0
100
AcDbLine
10
9.0073348140299654
20
-8.7310425482329865
30
0
11
9.0152304113526842
21
-8.7310425482329865
31
0
0
LINE
5
629
100
AcDbEntity
8
0
100
AcDbLine
10
9.0152304113526842
20
-8.7310425482329865
30
0
11
9.0215884904369457
21
-8.7409744654986312
31
0
0
LINE
5
630
100
AcDbEntity
8
0
100
AcDbLine
10
9.0215884904369457
20
-8.7409744654986312
30
0
11
9.0232506621687296
21
-8.7435924704552139
31
0
0
LINE
5
631
100
AcDbEntity
8
0
100
AcDbLine
10
9.0232506621687296
20
-8.7435924704552139
30
0
11
9.0248713453131266
21
-8.746002657012534
31
0
0
LINE
5
632
100
AcDbEntity
8
0
100
AcDbLine
10
9.0248713453131266
20
-8.746002657012534
30
0
11
9.0319358567699535
21
-8.7567656601440689
31
0
0
LINE
5
633
100
AcDbEntity
8
0
100
AcDbLine
10
9.0319358567699535
20
-8.7567656601440689
30
0
11
9.0311462594914484
21
-8.7590927756610331
31
0
0
SPLINE
5
634
100
AcDbEntity
8
0
100
AcDbSpline
70
0
71
2
72
6
73
3
74
0
42
0.000000001
43
0.0000000001
44
0.0000000001
40
0
40
0
40
0
40
1
40
1
40
1
10
9.0311462594914484
20
-8.7590927756610331
30
0
10
9.0328501075417851
20
-8.7617107806176158
30
0
10
9.0289023088804239
20
-8.7732632871620737
30
0
0
LINE
5
635
100
AcDbEntity
8
0
100
AcDbLine
10
9.0289023088804239
20
-8.7732632871620737
30
0
11
9.0286944904811612
21
-8.773886648494285
31
0
0
LINE
5
636
100
AcDbEntity
8
0
100
AcDbLine
10
9.0286944904811612
20
-8.773886648494285
30
0
11
8.9924993587437427
21
-9.7902595131348882
31
0
0
LINE
5
637
100
AcDbEntity
8
0
100
AcDbLine
10
8.9924993587437427
20
-9.7902595131348882
30
0
11
10.120782243656912
21
-8.0567157717134528
31
0
0
SPLINE
5
638
100
AcDbEntity
8
0
100
AcDbSpline
70
0
71
2
72
6
73
3
74
0
42
0.000000001
43
0.0000000001
44
0.0000000001
40
0
40
0
40
0
40
1
40
1
40
1
10
10.120782243656912
20
-8.0567157717134528
30
0
10
10.156437085102475
20
-8.0083030957808159
30
0
10
10.208839048283858
20
-8.0252578481847365
30
0
0
SPLINE
5
639
100
AcDbEntity
8
0
100
AcDbSpline
70
0
71
2
72
6
73
3
74
0
42
0.000000001
43
0.0000000001
44
0.0000000001
40
0
40
0
40
0
40
1
40
1
40
1
10
10.208839048283858
20
-8.0252578481847365
30
0
10
10.232151879772038
20
-8.0339430427859604
30
0
10
10.236847787124516
20
-8.0556351911297455
30
0
0
SPLINE
5
640
100
AcDbEntity
8
0
100
AcDbSpline
70
0
71
2
72
6
73
3
74
0
42
0.000000001
43
0.0000000001
44
0.0000000001
40
0
40
0
40
0
40
1
40
1
40
1
10
10.236847787124516
20
-8.0556351911297455
30
0
10
10.241543506745829
20
-8.0773273394735305
30
0
10
10.219020272536152
20
-8.1134809826235585
30
0
0
LINE
5
641
100
AcDbEntity
8
0
100
AcDbLine
10
10.219020272536152
20
-8.1134809826235585
30
0
11
8.9973614081769338
21
-9.9580205874113101
31
0
0
SPLINE
5
642
100
AcDbEntity
8
0
100
AcDbSpline
70
0
71
2
72
6
73
3
74
0
42
0.000000001
43
0.0000000001
44
0.0000000001
40
0
40
0
40
0
40
1
40
1
40
1
10
8.9973614081769338
20
-9.9580205874113101
30
0
10
8.968937220268911
20
-10.002609930444747
30
0
10
8.9205245443362742
20
-10.002609930444747
30
0
0
SPLINE
5
643
100
AcDbEntity
8
0
100
AcDbSpline
70
0
71
2
72
6
73
3
74
0
42
0.000000001
43
0.0000000001
44
0.0000000001
40
0
40
0
40
0
40
1
40
1
40
1
10
8.9205245443362742
20
-10.002609930444747
30
0
10
8.8716549307488872
20
-10.002609930444747
30
0
10
8.8770987590613171
20
-9.9446811617761597
30
0
0
LINE
5
644
100
AcDbEntity
8
0
100
AcDbLine
10
8.8770987590613188
20
-9.9446811617761597
30
0
11
8.9128782540002067
21
-8.9354973682201262
31
0
0
LINE
5
645
100
AcDbEntity
8
0
100
AcDbLine
10
8.9128782540002067
20
-8.9354973682201262
30
0
11
8.2537609871124502
21
-9.9580205874113084
31
0
0
SPLINE
5
646
100
AcDbEntity
8
0
100
AcDbSpline
70
0
71
2
72
6
73
3
74
0
42
0.000000001
43
0.0000000001
44
0.0000000001
40
0
40
0
40
0
40
1
40
1
40
1
10
8.2537609871124502
20
-9.9580205874113084
30
0
10
8.2253782877918162
20
-10.002609930444745
30
0
10
8.1795422220939571
20
-10.002609930444745
30
0
0
SPLINE
5
647
100
AcDbEntity
8
0
100
AcDbSpline
70
0
71
2
72
6
73
3
74
0
42
0.000000001
43
0.0000000001
44
0.0000000001
40
0
40
0
40
0
40
1
40
1
40
1
10
8.1795422220939571
20
-10.002609930444745
30
0
10
8.1307140970939571
20
-10.002609930444745
30
0
10
8.1361994609265675
20
-9.9444733433768935
30
0
0
SPLINE
5
648
100
AcDbEntity
8
0
100
AcDbSpline
70
0
71
2
72
6
73
3
74
0
42
0.000000001
43
0.0000000001
44
0.0000000001
40
0
40
0
40
0
40
1
40
1
40
1
10
8.1665352214186093
20
-8.1034244118645873
30
0
10
8.1689454549087195
20
-8.077327339473527
30
0
10
8.1878742005089009
20
-8.0559885011816075
30
0
0
LINE
5
649
100
AcDbEntity
8
0
100
AcDbLine
10
8.1361994609265675
20
-9.9444733433768935
30
0
11
8.1665352214186093
21
-8.1034244118645873
31
0
0
SPLINE
5
650
100
AcDbEntity
8
0
100
AcDbSpline
70
0
71
2
72
6
73
3
74
0
42
0.000000001
43
0.0000000001
44
0.0000000001
40
0
40
0
40
0
40
1
40
1
40
1
10
11.061585899146136
20
-8.0353352571029824
30
0
10
11.085168875780244
20
-8.0159078975294982
30
0
10
11.113759205768979
20
-8.0159078975294982
30
0
0
LINE
5
651
100
AcDbEntity
8
0
100
AcDbLine
10
11.113759205768979
20
-8.0159078975294982
30
0
11
11.145507924871733
21
-8.0159078975294982
31
0
0
LINE
5
652
100
AcDbEntity
8
0
100
AcDbLine
10
11.145507924871733
20
-8.0159078975294982
30
0
11
11.120903011070915
21
-8.0159078975294982
31
0
0
LINE
5
653
100
AcDbEntity
8
0
100
AcDbLine
10
11.126600017430826
20
-8.0159078975294982
30
0
11
12.221970625482758
21
-8.0159078975294999
31
0
0
SPLINE
5
654
100
AcDbEntity
8
0
100
AcDbSpline
70
0
71
2
72
6
73
3
74
0
42
0.000000001
43
0.0000000001
44
0.0000000001
40
0
40
0
40
0
40
1
40
1
40
1
10
12.221970625482758
20
-8.0159078975294999
30
0
10
12.246073054249443
20
-8.0159078975294999
30
0
10
12.259038519404617
20
-8.0351067882756091
30
0
0
SPLINE
5
655
100
AcDbEntity
8
0
100
AcDbSpline
70
0
71
2
72
6
73
3
74
0
42
0.000000001
43
0.0000000001
44
0.0000000001
40
0
40
0
40
0
40
1
40
1
40
1
10
12.259038519404617
20
-8.0351067882756091
30
0
10
12.272003796828626
20
-8.0543054912905525
30
0
10
12.263817403931869
20
-8.0783664314698527
30
0
0
SPLINE
5
656
100
AcDbEntity
8
0
100
AcDbSpline
70
0
71
2
72
6
73
3
74
0
42
0.000000001
43
0.0000000001
44
0.0000000001
40
0
40
0
40
0
40
1
40
1
40
1
10
12.263817403931869
20
-8.0783664314698527
30
0
10
12.254384100639527
20
-8.1061671641800821
30
0
10
12.228578011553669
20
-8.1235375533825298
30
0
0
SPLINE
5
657
100
AcDbEntity
8
0
100
AcDbSpline
70
0
71
2
72
6
73
3
74
0
42
0.000000001
43
0.0000000001
44
0.0000000001
40
0
40
0
40
0
40
1
40
1
40
1
10
12.228578011553669
20
-8.1235375533825298
30
0
10
12.202771734736649
20
-8.1409079425849793
30
0
10
12.17941741466108
20
-8.1409079425849793
30
0
0
LINE
5
658
100
AcDbEntity
8
0
100
AcDbLine
10
12.17941741466108
20
-8.1409079425849793
30
0
11
11.136324116297207
21
-8.1409079425849775
31
0
0
LINE
5
659
100
AcDbEntity
8
0
100
AcDbLine
10
11.136324116297207
20
-8.1409079425849775
30
0
11
10.54078721785694
21
-9.8909078224370308
31
0
0
LINE
5
660
100
AcDbEntity
8
0
100
AcDbLine
10
10.54078721785694
20
-9.8909078224370308
30
0
11
11.583880657019186
21
-9.8909078224370326
31
0
0
SPLINE
5
661
100
AcDbEntity
8
0
100
AcDbSpline
70
0
71
2
72
6
73
3
74
0
42
0.000000001
43
0.0000000001
44
0.0000000001
40
0
40
0
40
0
40
1
40
1
40
1
10
11.583880657019186
20
-9.8909078224370326
30
0
10
11.607525960399958
20
-9.8909078224370326
30
0
10
11.621384650436521
20
-9.9081535581461555
30
0
0
SPLINE
5
662
100
AcDbEntity
8
0
100
AcDbSpline
70
0
71
2
72
6
73
3
74
0
42
0.000000001
43
0.0000000001
44
0.0000000001
40
0
40
0
40
0
40
1
40
1
40
1
10
11.621384650436521
20
-9.9081535581461555
30
0
10
11.635243528204249
20
-9.9253992938552784
30
0
10
11.626600009921576
20
-9.9507897461426076
30
0
0
SPLINE
5
663
100
AcDbEntity
8
0
100
AcDbSpline
70
0
71
2
72
6
73
3
74
0
42
0.000000001
43
0.0000000001
44
0.0000000001
40
0
40
0
40
0
40
1
40
1
40
1
10
11.626600009921576
20
-9.9507897461426076
30
0
10
11.617665508333701
20
-9.9771363132514832
30
0
10
11.591360617543378
20
-9.9965219965064147
30
0
0
SPLINE
5
664
100
AcDbEntity
8
0
100
AcDbSpline
70
0
71
2
72
6
73
3
74
0
42
0.000000001
43
0.0000000001
44
0.0000000001
40
0
40
0
40
0
40
1
40
1
40
1
10
11.591360617543378
20
-9.9965219965064147
30
0
10
11.565055726753055
20
-10.015907867492512
30
0
10
11.54132744619751
20
-10.015907867492512
30
0
0
LINE
5
665
100
AcDbEntity
8
0
100
AcDbLine
10
11.54132744619751
20
-10.015907867492512
30
0
11
10.445956767746392
21
-10.01590786749251
31
0
0
SPLINE
5
666
100
AcDbEntity
8
0
100
AcDbSpline
70
0
71
2
72
6
73
3
74
0
42
0.000000001
43
0.0000000001
44
0.0000000001
40
0
40
0
40
0
40
1
40
1
40
1
10
10.445956767746392
20
-10.01590786749251
30
0
10
10.431910874539083
20
-10.01590786749251
30
0
10
10.431079753473597
20
-10.014578167653315
30
0
0
SPLINE
5
667
100
AcDbEntity
8
0
100
AcDbSpline
70
0
71
2
72
6
73
3
74
0
42
0.000000001
43
0.0000000001
44
0.0000000001
40
0
40
0
40
0
40
1
40
1
40
1
10
10.431079753473597
20
-10.014578167653315
30
0
10
10.430248667607705
20
-10.013248280082957
30
0
10
10.445582736867228
20
-10.013248280082957
30
0
0
LINE
5
668
100
AcDbEntity
8
0
100
AcDbLine
10
10.445582736867228
20
-10.013248280082957
30
0
11
10.439557176608348
21
-10.01590786749251
31
0
0
SPLINE
5
669
100
AcDbEntity
8
0
100
AcDbSpline
70
0
71
2
72
6
73
3
74
0
42
0.000000001
43
0.0000000001
44
0.0000000001
40
0
40
0
40
0
40
1
40
1
40
1
10
10.439557176608348
20
-10.01590786749251
30
0
10
10.404982728015328
20
-10.01590786749251
30
0
10
10.394469078803235
20
-9.9962312009323746
30
0
0
SPLINE
5
670
100
AcDbEntity
8
0
100
AcDbSpline
70
0
71
2
72
6
73
3
74
0
42
0.000000001
43
0.0000000001
44
0.0000000001
40
0
40
0
40
0
40
1
40
1
40
1
10
10.394469078803235
20
-9.9962312009323746
30
0
10
10.383955417857944
20
-9.976554534372239
30
0
10
10.392931501898788
20
-9.9501664786759765
30
0
0
SPLINE
5
671
100
AcDbEntity
8
0
100
AcDbSpline
70
0
71
2
72
6
73
3
74
0
42
0.000000001
43
0.0000000001
44
0.0000000001
40
0
40
0
40
0
40
1
40
1
40
1
10
11.029733364709331
20
-8.0789896989364784
30
0
10
11.038002922512026
20
-8.0547626166764665
30
0
10
11.061585899146136
20
-8.0353352571029824
30
0
0
LINE
5
672
100
AcDbEntity
8
0
100
AcDbLine
10
10.392931501898788
20
-9.9501664786759765
30
0
11
11.029733364709331
21
-8.0789896989364784
31
0
0
SPLINE
5
673
100
AcDbEntity
8
0
100
AcDbSpline
70
0
71
2
72
6
73
3
74
0
42
0.000000001
43
0.0000000001
44
0.0000000001
40
0
40
0
40
0
40
1
40
1
40
1
10
11.827771787301373
20
-8.9743312492078218
30
0
10
11.838784097419559
20
-8.9939248447276015
30
0
10
11.831761262281285
20
-9.0146196712591991
30
0
0
SPLINE
5
674
100
AcDbEntity
8
0
100
AcDbSpline
70
0
71
2
72
6
73
3
74
0
42
0.000000001
43
0.0000000001
44
0.0000000001
40
0
40
0
40
0
40
1
40
1
40
1
10
11.831761262281285
20
-9.0146196712591991
30
0
10
11.823076067680059
20
-9.040093382318048
30
0
10
11.79843334862152
20
-9.0599155405307847
30
0
0
SPLINE
5
675
100
AcDbEntity
8
0
100
AcDbSpline
70
0
71
2
72
6
73
3
74
0
42
0.000000001
43
0.0000000001
44
0.0000000001
40
0
40
0
40
0
40
1
40
1
40
1
10
11.79843334862152
20
-9.0599155405307847
30
0
10
11.773790817294145
20
-9.0797376987435214
30
0
10
11.749106609648218
20
-9.0797376987435214
30
0
0
LINE
5
676
100
AcDbEntity
8
0
100
AcDbLine
10
11.749106609648218
20
-9.0797376987435214
30
0
11
10.922020590883152
21
-9.0797376987435214
31
0
0
SPLINE
5
677
100
AcDbEntity
8
0
100
AcDbSpline
70
0
71
2
72
6
73
3
74
0
42
0.000000001
43
0.0000000001
44
0.0000000001
40
0
40
0
40
0
40
1
40
1
40
1
10
10.922020590883152
20
-9.0797376987435214
30
0
10
10.896920887237069
20
-9.0797376987435214
30
0
10
10.885887785892399
20
-9.0601441032237418
30
0
0
SPLINE
5
678
100
AcDbEntity
8
0
100
AcDbSpline
70
0
71
2
72
6
73
3
74
0
42
0.000000001
43
0.0000000001
44
0.0000000001
40
0
40
0
40
0
40
1
40
1
40
1
10
10.885887785892399
20
-9.0601441032237418
30
0
10
10.874854731480518
20
-9.0405505077039621
30
0
10
10.883664579575067
20
-9.0146196712591973
30
0
0
SPLINE
5
679
100
AcDbEntity
8
0
100
AcDbSpline
70
0
71
2
72
6
73
3
74
0
42
0.000000001
43
0.0000000001
44
0.0000000001
40
0
40
0
40
0
40
1
40
1
40
1
10
10.883664579575067
20
-9.0146196712591973
30
0
10
10.890853697592428
20
-8.993426136888715
30
0
10
10.914914496973354
20
-8.9740819422211686
30
0
0
SPLINE
5
680
100
AcDbEntity
8
0
100
AcDbSpline
70
0
71
2
72
6
73
3
74
0
42
0.000000001
43
0.0000000001
44
0.0000000001
40
0
40
0
40
0
40
1
40
1
40
1
10
10.914914496973354
20
-8.9740819422211686
30
0
10
10.938975343287071
20
-8.9547376536880421
30
0
10
10.96453221925186
20
-8.9547376536880421
30
0
0
SPLINE
5
681
100
AcDbEntity
8
0
100
AcDbSpline
70
0
71
2
72
6
73
3
74
0
42
0.000000001
43
0.0000000001
44
0.0000000001
40
0
40
0
40
0
40
1
40
1
40
1
10
11.791618331882509
20
-8.9547376536880421
30
0
10
11.81675966491435
20
-8.9547376536880421
30
0
10
11.827771787301373
20
-8.9743312492078218
30
0
0
LINE
5
682
100
AcDbEntity
8
0
100
AcDbLine
10
10.96453221925186
20
-8.9547376536880421
30
0
11
11.791618331882509
21
-8.9547376536880421
31
0
0
SPLINE
5
683
100
AcDbEntity
8
0
100
AcDbSpline
70
0
71
2
72
6
73
3
74
0
42
0.000000001
43
0.0000000001
44
0.0000000001
40
0
40
0
40
0
40
1
40
1
40
1
10
13.092586479520785
20
-8.0379948445125375
30
0
10
13.116169456154893
20
-8.0185674849390534
30
0
10
13.144759880009211
20
-8.0185674849390534
30
0
0
SPLINE
5
684
100
AcDbEntity
8
0
100
AcDbSpline
70
0
71
2
72
6
73
3
74
0
42
0.000000001
43
0.0000000001
44
0.0000000001
40
0
40
0
40
0
40
1
40
1
40
1
10
13.144759880009211
20
-8.0185674849390534
30
0
10
13.171521802319868
20
-8.0185674849390534
30
0
10
13.184071724542095
20
-8.0380571712592008
30
0
0
SPLINE
5
685
100
AcDbEntity
8
0
100
AcDbSpline
70
0
71
2
72
6
73
3
74
0
42
0.000000001
43
0.0000000001
44
0.0000000001
40
0
40
0
40
0
40
1
40
1
40
1
10
13.184071724542095
20
-8.0380571712592008
30
0
10
13.196621552898741
20
-8.0575468575793483
30
0
10
13.189266152002292
20
-8.0790726761112559
30
0
0
LINE
5
686
100
AcDbEntity
8
0
100
AcDbLine
10
13.189266152002292
20
-8.0790726761112559
30
0
11
12.577231626544021
21
-9.8776100731204348
31
0
0
LINE
5
687
100
AcDbEntity
8
0
100
AcDbLine
10
12.577231626544021
20
-9.8776100731204348
30
0
11
13.68087183933144
21
-9.8776100731204366
31
0
0
LINE
5
688
100
AcDbEntity
8
0
100
AcDbLine
10
13.68087183933144
20
-9.8776100731204366
30
0
11
13.663501543994572
21
-9.8895781225978414
31
0
0
SPLINE
5
689
100
AcDbEntity
8
0
100
AcDbSpline
70
0
71
2
72
6
73
3
74
0
42
0.000000001
43
0.0000000001
44
0.0000000001
40
0
40
0
40
0
40
1
40
1
40
1
10
13.663501543994572
20
-9.8895781225978414
30
0
10
13.680497878851462
20
-9.8776100731204384
30
0
10
13.694356756619189
20
-9.8948556210983956
30
0
0
SPLINE
5
690
100
AcDbEntity
8
0
100
AcDbSpline
70
0
71
2
72
6
73
3
74
0
42
0.000000001
43
0.0000000001
44
0.0000000001
40
0
40
0
40
0
40
1
40
1
40
1
10
13.694356756619189
20
-9.8948556210983956
30
0
10
13.708215634386919
20
-9.9121013568075185
30
0
10
13.699572022238664
20
-9.9374919968260116
30
0
0
SPLINE
5
691
100
AcDbEntity
8
0
100
AcDbSpline
70
0
71
2
72
6
73
3
74
0
42
0.000000001
43
0.0000000001
44
0.0000000001
40
0
40
0
40
0
40
1
40
1
40
1
10
13.699572022238664
20
-9.9374919968260116
30
0
10
13.690595938197818
20
-9.9638383762037215
30
0
10
13.664311885566772
20
-9.9832242471898205
30
0
0
SPLINE
5
692
100
AcDbEntity
8
0
100
AcDbSpline
70
0
71
2
72
6
73
3
74
0
42
0.000000001
43
0.0000000001
44
0.0000000001
40
0
40
0
40
0
40
1
40
1
40
1
10
13.664311885566772
20
-9.9832242471898205
30
0
10
13.638027739070141
20
-10.002609930444752
30
0
10
13.6117229421454
20
-10.002609930444752
30
0
0
LINE
5
693
100
AcDbEntity
8
0
100
AcDbLine
10
13.6117229421454
20
-10.002609930444752
30
0
11
12.48755413877268
21
-10.00260993044475
31
0
0
SPLINE
5
694
100
AcDbEntity
8
0
100
AcDbSpline
70
0
71
2
72
6
73
3
74
0
42
0.000000001
43
0.0000000001
44
0.0000000001
40
0
40
0
40
0
40
1
40
1
40
1
10
12.48755413877268
20
-10.00260993044475
30
0
10
12.473508233832172
20
-10.00260993044475
30
0
10
12.472677101033488
20
-10.001280230605555
30
0
0
SPLINE
5
695
100
AcDbEntity
8
0
100
AcDbSpline
70
0
71
2
72
6
73
3
74
0
42
0.000000001
43
0.0000000001
44
0.0000000001
40
0
40
0
40
0
40
1
40
1
40
1
10
12.472677101033488
20
-10.001280230605555
30
0
10
12.471845991701201
20
-9.9999503430351968
30
0
10
12.480738957768898
20
-9.9999503430351968
30
0
0
SPLINE
5
696
100
AcDbEntity
8
0
100
AcDbSpline
70
0
71
2
72
6
73
3
74
0
42
0.000000001
43
0.0000000001
44
0.0000000001
40
0
40
0
40
0
40
1
40
1
40
1
10
12.480738957768898
20
-9.9999503430351968
30
0
10
12.484603661923506
20
-9.9999503430351968
30
0
10
12.48163244078064
20
-10.001280230605555
30
0
0
SPLINE
5
697
100
AcDbEntity
8
0
100
AcDbSpline
70
0
71
2
72
6
73
3
74
0
42
0.000000001
43
0.0000000001
44
0.0000000001
40
0
40
0
40
0
40
1
40
1
40
1
10
12.48163244078064
20
-10.001280230605555
30
0
10
12.478661172704982
20
-10.00260993044475
30
0
10
12.469560411704416
20
-10.00260993044475
30
0
0
SPLINE
5
698
100
AcDbEntity
8
0
100
AcDbSpline
70
0
71
2
72
6
73
3
74
0
42
0.000000001
43
0.0000000001
44
0.0000000001
40
0
40
0
40
0
40
1
40
1
40
1
10
12.469560411704416
20
-10.00260993044475
30
0
10
12.44142713670241
20
-10.00260993044475
30
0
10
12.430913510956712
20
-9.9829332638846147
30
0
0
SPLINE
5
699
100
AcDbEntity
8
0
100
AcDbSpline
70
0
71
2
72
6
73
3
74
0
42
0.000000001
43
0.0000000001
44
0.0000000001
40
0
40
0
40
0
40
1
40
1
40
1
10
12.430913510956712
20
-9.9829332638846147
30
0
10
12.420399873477816
20
-9.9632565973244791
30
0
10
12.429375910585868
20
-9.9368685416282165
30
0
0
SPLINE
5
700
100
AcDbEntity
8
0
100
AcDbSpline
70
0
71
2
72
6
73
3
74
0
42
0.000000001
43
0.0000000001
44
0.0000000001
40
0
40
0
40
0
40
1
40
1
40
1
10
13.061648195855811
20
-8.079031187523869
30
0
10
13.069003502886677
20
-8.0574222040860217
30
0
10
13.092586479520785
20
-8.0379948445125375
30
0
0
LINE
5
701
100
AcDbEntity
8
0
100
AcDbLine
10
12.429375910585868
20
-9.9368685416282165
30
0
11
13.061648195855811
21
-8.079031187523869
31
0
0
SPLINE
5
702
100
AcDbEntity
8
0
100
AcDbSpline
70
0
71
2
72
6
73
3
74
0
42
0.000000001
43
0.0000000001
44
0.0000000001
40
0
40
0
40
0
40
1
40
1
40
1
10
14.54296873471454
20
-8.0353352571029859
30
0
10
14.566551711348648
20
-8.0159078975295017
30
0
10
14.595142135202966
20
-8.0159078975295017
30
0
0
SPLINE
5
703
100
AcDbEntity
8
0
100
AcDbSpline
70
0
71
2
72
6
73
3
74
0
42
0.000000001
43
0.0000000001
44
0.0000000001
40
0
40
0
40
0
40
1
40
1
40
1
10
14.595142135202966
20
-8.0159078975295017
30
0
10
14.621904057513623
20
-8.0159078975295017
30
0
10
14.63445397973585
20
-8.0353975838496492
30
0
0
SPLINE
5
704
100
AcDbEntity
8
0
100
AcDbSpline
70
0
71
2
72
6
73
3
74
0
42
0.000000001
43
0.0000000001
44
0.0000000001
40
0
40
0
40
0
40
1
40
1
40
1
10
14.63445397973585
20
-8.0353975838496492
30
0
10
14.647003901958078
20
-8.0548872701697967
30
0
10
14.638775832742768
20
-8.078989698936482
30
0
0
LINE
5
705
100
AcDbEntity
8
0
100
AcDbLine
10
14.638775832742768
20
-8.078989698936482
30
0
11
14.001973934732632
21
-9.9501664786759818
31
0
0
SPLINE
5
706
100
AcDbEntity
8
0
100
AcDbSpline
70
0
71
2
72
6
73
3
74
0
42
0.000000001
43
0.0000000001
44
0.0000000001
40
0
40
0
40
0
40
1
40
1
40
1
10
14.001973934732632
20
-9.9501664786759818
30
0
10
13.993039386211965
20
-9.9765128580536917
30
0
10
13.966942313820907
20
-9.9962103627731036
30
0
0
SPLINE
5
707
100
AcDbEntity
8
0
100
AcDbSpline
70
0
71
2
72
6
73
3
74
0
42
0.000000001
43
0.0000000001
44
0.0000000001
40
0
40
0
40
0
40
1
40
1
40
1
10
13.966942313820907
20
-9.9962103627731036
30
0
10
13.940845264896243
20
-10.015907867492514
30
0
10
13.914498850318939
20
-10.015907867492514
30
0
0
SPLINE
5
708
100
AcDbEntity
8
0
100
AcDbSpline
70
0
71
2
72
6
73
3
74
0
42
0.000000001
43
0.0000000001
44
0.0000000001
40
0
40
0
40
0
40
1
40
1
40
1
10
13.914498850318939
20
-10.015907867492514
30
0
10
13.886365563583734
20
-10.015907867492514
30
0
10
13.875851914371641
20
-9.9962312009323782
30
0
0
SPLINE
5
709
100
AcDbEntity
8
0
100
AcDbSpline
70
0
71
2
72
6
73
3
74
0
42
0.000000001
43
0.0000000001
44
0.0000000001
40
0
40
0
40
0
40
1
40
1
40
1
10
13.875851914371641
20
-9.9962312009323782
30
0
10
13.86533825342635
20
-9.9765545343722426
30
0
10
13.874314349200391
20
-9.9501664786759818
30
0
0
SPLINE
5
710
100
AcDbEntity
8
0
100
AcDbSpline
70
0
71
2
72
6
73
3
74
0
42
0.000000001
43
0.0000000001
44
0.0000000001
40
0
40
0
40
0
40
1
40
1
40
1
10
14.511116200277737
20
-8.078989698936482
30
0
10
14.519385758080432
20
-8.0547626166764701
30
0
10
14.54296873471454
20
-8.0353352571029859
30
0
0
LINE
5
711
100
AcDbEntity
8
0
100
AcDbLine
10
13.874314349200391
20
-9.9501664786759818
30
0
11
14.511116200277737
21
-8.078989698936482
31
0
0
SPLINE
5
712
100
AcDbEntity
8
0
100
AcDbSpline
70
0
71
2
72
6
73
3
74
0
42
0.000000001
43
0.0000000001
44
0.0000000001
40
0
40
0
40
0
40
1
40
1
40
1
10
14.72201207652391
20
-8.0783664314698544
30
0
10
14.730115492245895
20
-8.0545964745957583
30
0
10
14.754176432425194
20
-8.0352520921970481
30
0
0
SPLINE
5
713
100
AcDbEntity
8
0
100
AcDbSpline
70
0
71
2
72
6
73
3
74
0
42
0.000000001
43
0.0000000001
44
0.0000000001
40
0
40
0
40
0
40
1
40
1
40
1
10
14.754176432425194
20
-8.0352520921970481
30
0
10
14.778237184873328
20
-8.0159078975295017
30
0
10
14.806412065794699
20
-8.0159078975295017
30
0
0
LINE
5
714
100
AcDbEntity
8
0
100
AcDbLine
10
14.806412065794696
20
-8.0159078975295017
30
0
11
15.197743498167267
21
-8.0159078975295017
31
0
0
SPLINE
5
715
100
AcDbEntity
8
0
100
AcDbSpline
70
0
71
2
72
6
73
3
74
0
42
0.000000001
43
0.0000000001
44
0.0000000001
40
0
40
0
40
0
40
1
40
1
40
1
10
15.197743498167267
20
-8.0159078975295017
30
0
10
15.336082968857895
20
-8.0159078975295035
30
0
10
15.439661010715517
20
-8.0692656000701035
30
0
0
SPLINE
5
716
100
AcDbEntity
8
0
100
AcDbSpline
70
0
71
2
72
6
73
3
74
0
42
0.000000001
43
0.0000000001
44
0.0000000001
40
0
40
0
40
0
40
1
40
1
40
1
10
15.439661010715517
20
-8.0692656000701035
30
0
10
15.543238864841975
20
-8.1226233026107035
30
0
10
15.60201955753573
20
-8.2117606878213572
30
0
0
SPLINE
5
717
100
AcDbEntity
8
0
100
AcDbSpline
70
0
71
2
72
6
73
3
74
0
42
0.000000001
43
0.0000000001
44
0.0000000001
40
0
40
0
40
0
40
1
40
1
40
1
10
15.60201955753573
20
-8.2117606878213572
30
0
10
15.660800437960649
20
-8.300897885300845
30
0
10
15.671521764773635
20
-8.4230722008660592
30
0
0
SPLINE
5
718
100
AcDbEntity
8
0
100
AcDbSpline
70
0
71
2
72
6
73
3
74
0
42
0.000000001
43
0.0000000001
44
0.0000000001
40
0
40
0
40
0
40
1
40
1
40
1
10
15.671521764773635
20
-8.4230722008660592
30
0
10
15.682243279317783
20
-8.5452463287001095
30
0
10
15.635742269834745
20
-8.6818404627530175
30
0
0
LINE
5
719
100
AcDbEntity
8
0
100
AcDbLine
10
15.635742269834745
20
-8.6818404627530175
30
0
11
15.409262829611233
21
-9.3473158087250336
31
0
0
SPLINE
5
720
100
AcDbEntity
8
0
100
AcDbSpline
70
0
71
2
72
6
73
3
74
0
42
0.000000001
43
0.0000000001
44
0.0000000001
40
0
40
0
40
0
40
1
40
1
40
1
10
15.40926282961123
20
-9.3473158087250336
30
0
10
15.362263206154891
20
-9.4854058785634301
30
0
10
15.267827484284409
20
-9.6083072769293203
30
0
0
SPLINE
5
721
100
AcDbEntity
8
0
100
AcDbSpline
70
0
71
2
72
6
73
3
74
0
42
0.000000001
43
0.0000000001
44
0.0000000001
40
0
40
0
40
0
40
1
40
1
40
1
10
15.267827484284409
20
-9.6083072769293203
30
0
10
15.173391762413926
20
-9.7312086752952123
30
0
10
15.053731730336827
20
-9.8204915521584653
30
0
0
SPLINE
5
722
100
AcDbEntity
8
0
100
AcDbSpline
70
0
71
2
72
6
73
3
74
0
42
0.000000001
43
0.0000000001
44
0.0000000001
40
0
40
0
40
0
40
1
40
1
40
1
10
15.053731730336827
20
-9.8204915521584653
30
0
10
14.934071698259729
20
-9.9097742412905561
30
0
10
14.79496346844987
20
-9.9628409605259538
30
0
0
SPLINE
5
723
100
AcDbEntity
8
0
100
AcDbSpline
70
0
71
2
72
6
73
3
74
0
42
0.000000001
43
0.0000000001
44
0.0000000001
40
0
40
0
40
0
40
1
40
1
40
1
10
14.79496346844987
20
-9.9628409605259538
30
0
10
14.655855238640012
20
-10.015907867492515
30
0
10
14.517100318882019
20
-10.015907867492515
30
0
0
LINE
5
724
100
AcDbEntity
8
0
100
AcDbLine
10
14.517100318882019
20
-10.015907867492515
30
0
11
14.125768839576661
21
-10.015907867492515
31
0
0
SPLINE
5
725
100
AcDbEntity
8
0
100
AcDbSpline
70
0
71
2
72
6
73
3
74
0
42
0.000000001
43
0.0000000001
44
0.0000000001
40
0
40
0
40
0
40
1
40
1
40
1
10
14.125768839576661
20
-10.015907867492515
30
0
10
14.098051084041204
20
-10.015907867492515
30
0
10
14.087017959230137
20
-9.9963141781071521
30
0
0
SPLINE
5
726
100
AcDbEntity
8
0
100
AcDbSpline
70
0
71
2
72
6
73
3
74
0
42
0.000000001
43
0.0000000001
44
0.0000000001
40
0
40
0
40
0
40
1
40
1
40
1
10
14.087017959230137
20
-9.9963141781071521
30
0
10
14.075984881351861
20
-9.9767206764529561
30
0
10
14.084794752912806
20
-9.9507897461426094
30
0
0
SPLINE
5
727
100
AcDbEntity
8
0
100
AcDbSpline
70
0
71
2
72
6
73
3
74
0
42
0.000000001
43
0.0000000001
44
0.0000000001
40
0
40
0
40
0
40
1
40
1
40
1
10
14.084794752912806
20
-9.9507897461426094
30
0
10
14.105198643071994
20
-9.8909078224370361
30
0
10
14.168322003465548
20
-9.8909078224370361
30
0
0
LINE
5
728
100
AcDbEntity
8
0
100
AcDbLine
10
14.168322003465548
20
-9.8909078224370361
30
0
11
14.559653435838113
21
-9.8909078224370361
31
0
0
SPLINE
5
729
100
AcDbEntity
8
0
100
AcDbSpline
70
0
71
2
72
6
73
3
74
0
42
0.000000001
43
0.0000000001
44
0.0000000001
40
0
40
0
40
0
40
1
40
1
40
1
10
14.559653435838113
20
-9.8909078224370361
30
0
10
14.671438614886187
20
-9.8909078224370361
30
0
10
14.781831861213984
20
-9.8489363904946003
30
0
0
SPLINE
5
730
100
AcDbEntity
8
0
100
AcDbSpline
70
0
71
2
72
6
73
3
74
0
42
0.000000001
43
0.0000000001
44
0.0000000001
40
0
40
0
40
0
40
1
40
1
40
1
10
14.781831861213984
20
-9.8489363904946003
30
0
10
14.892224919810618
20
-9.8069649585521628
30
0
10
14.991377199461688
20
-9.7328916851862708
30
0
0
SPLINE
5
731
100
AcDbEntity
8
0
100
AcDbSpline
70
0
71
2
72
6
73
3
74
0
42
0.000000001
43
0.0000000001
44
0.0000000001
40
0
40
0
40
0
40
1
40
1
40
1
10
14.991377199461688
20
-9.7328916851862708
30
0
10
15.09052947911276
20
-9.6588184118203788
30
0
10
15.166763725914903
20
-9.5598324619811859
30
0
0
SPLINE
5
732
100
AcDbEntity
8
0
100
AcDbSpline
70
0
71
2
72
6
73
3
74
0
42
0.000000001
43
0.0000000001
44
0.0000000001
40
0
40
0
40
0
40
1
40
1
40
1
10
15.166763725914903
20
-9.5598324619811859
30
0
10
15.242997972717044
20
-9.4608463244108272
30
0
10
15.281478543652872
20
-9.3477729341109477
30
0
0
LINE
5
733
100
AcDbEntity
8
0
100
AcDbLine
10
15.281478543652872
20
-9.3477729341109477
30
0
11
15.508248779450424
21
-8.6813833373670999
31
0
0
SPLINE
5
734
100
AcDbEntity
8
0
100
AcDbSpline
70
0
71
2
72
6
73
3
74
0
42
0.000000001
43
0.0000000001
44
0.0000000001
40
0
40
0
40
0
40
1
40
1
40
1
10
15.508248779450426
20
-8.6813833373671017
30
0
10
15.546230924144117
20
-8.5697643003997417
30
0
10
15.537441914208843
20
-8.4715055272268067
30
0
0
SPLINE
5
735
100
AcDbEntity
8
0
100
AcDbSpline
70
0
71
2
72
6
73
3
74
0
42
0.000000001
43
0.0000000001
44
0.0000000001
40
0
40
0
40
0
40
1
40
1
40
1
10
15.537441914208843
20
-8.4715055272268067
30
0
10
15.528652716542403
20
-8.3732466601882916
30
0
10
15.480032409941668
20
-8.2993395289031113
30
0
0
SPLINE
5
736
100
AcDbEntity
8
0
100
AcDbSpline
70
0
71
2
72
6
73
3
74
0
42
0.000000001
43
0.0000000001
44
0.0000000001
40
0
40
0
40
0
40
1
40
1
40
1
10
15.480032409941668
20
-8.2993395289031113
30
0
10
15.431412103340932
20
-8.2254325853490968
30
0
10
15.348965269107131
20
-8.183170170101457
30
0
0
SPLINE
5
737
100
AcDbEntity
8
0
100
AcDbSpline
70
0
71
2
72
6
73
3
74
0
42
0.000000001
43
0.0000000001
44
0.0000000001
40
0
40
0
40
0
40
1
40
1
40
1
10
15.348965269107131
20
-8.183170170101457
30
0
10
15.266518434873328
20
-8.1409079425849828
30
0
10
15.155190287345588
20
-8.1409079425849811
30
0
0
SPLINE
5
738
100
AcDbEntity
8
0
100
AcDbSpline
70
0
71
2
72
6
73
3
74
0
42
0.000000001
43
0.0000000001
44
0.0000000001
40
0
40
0
40
0
40
1
40
1
40
1
10
14.763858854973021
20
-8.1409079425849811
30
0
10
14.700735564978654
20
-8.1409079425849811
30
0
10
14.72201207652391
20
-8.0783664314698544
30
0
0
LINE
5
739
100
AcDbEntity
8
0
100
AcDbLine
10
15.155190287345585
20
-8.1409079425849811
30
0
11
14.763858854973021
21
-8.1409079425849811
31
0
0
SPLINE
5
740
100
AcDbEntity
8
0
100
AcDbSpline
70
0
71
2
72
6
73
3
74
0
42
0.000000001
43
0.0000000001
44
0.0000000001
40
0
40
0
40
0
40
1
40
1
40
1
10
16.502825774278783
20
-8.0380986598465931
30
0
10
16.527156671872845
20
-8.0185674849390587
30
0
10
16.555622442233837
20
-8.0185674849390587
30
0
0
SPLINE
5
741
100
AcDbEntity
8
0
100
AcDbSpline
70
0
71
2
72
6
73
3
74
0
42
0.000000001
43
0.0000000001
44
0.0000000001
40
0
40
0
40
0
40
1
40
1
40
1
10
16.555622442233837
20
-8.0185674849390587
30
0
10
16.583672669661883
20
-8.0185674849390587
30
0
10
16.594851121860781
20
-8.0383064782458575
30
0
0
SPLINE
5
742
100
AcDbEntity
8
0
100
AcDbSpline
70
0
71
2
72
6
73
3
74
0
42
0.000000001
43
0.0000000001
44
0.0000000001
40
0
40
0
40
0
40
1
40
1
40
1
10
16.594851121860781
20
-8.0383064782458575
30
0
10
16.606029667925263
20
-8.0580454715526564
30
0
10
16.59888208542808
20
-8.0790311875238743
30
0
0
LINE
5
743
100
AcDbEntity
8
0
100
AcDbLine
10
16.598882085428084
20
-8.0790311875238743
30
0
11
15.966609835357731
21
-9.9368685416282219
31
0
0
SPLINE
5
744
100
AcDbEntity
8
0
100
AcDbSpline
70
0
71
2
72
6
73
3
74
0
42
0.000000001
43
0.0000000001
44
0.0000000001
40
0
40
0
40
0
40
1
40
1
40
1
10
15.966609835357731
20
-9.9368685416282219
30
0
10
15.957883128702724
20
-9.9625916535393042
30
0
10
15.932949614070147
20
-9.9826007919920308
30
0
0
SPLINE
5
745
100
AcDbEntity
8
0
100
AcDbSpline
70
0
71
2
72
6
73
3
74
0
42
0.000000001
43
0.0000000001
44
0.0000000001
40
0
40
0
40
0
40
1
40
1
40
1
10
15.932949614070147
20
-9.9826007919920308
30
0
10
15.908016075971172
20
-10.002609930444756
30
0
10
15.880423020861834
20
-10.002609930444756
30
0
0
SPLINE
5
746
100
AcDbEntity
8
0
100
AcDbSpline
70
0
71
2
72
6
73
3
74
0
42
0.000000001
43
0.0000000001
44
0.0000000001
40
0
40
0
40
0
40
1
40
1
40
1
10
15.880423020861834
20
-10.002609930444756
30
0
10
15.852414352420361
20
-10.002609930444756
30
0
10
15.841235853288671
20
-9.9828500989786821
30
0
0
SPLINE
5
747
100
AcDbEntity
8
0
100
AcDbSpline
70
0
71
2
72
6
73
3
74
0
42
0.000000001
43
0.0000000001
44
0.0000000001
40
0
40
0
40
0
40
1
40
1
40
1
10
15.841235853288671
20
-9.9828500989786821
30
0
10
15.830057342423782
20
-9.963090267512607
30
0
10
15.838950261558688
20
-9.9368685416282219
30
0
0
SPLINE
5
748
100
AcDbEntity
8
0
100
AcDbSpline
70
0
71
2
72
6
73
3
74
0
42
0.000000001
43
0.0000000001
44
0.0000000001
40
0
40
0
40
0
40
1
40
1
40
1
10
16.471222546828631
20
-8.0790311875238743
30
0
10
16.478494782819141
20
-8.0576300224852915
30
0
10
16.502825774278783
20
-8.0380986598465931
30
0
0
LINE
5
749
100
AcDbEntity
8
0
100
AcDbLine
10
15.838950261558688
20
-9.9368685416282201
30
0
11
16.471222546828631
21
-8.0790311875238743
31
0
0
SPLINE
5
750
100
AcDbEntity
8
0
100
AcDbSpline
70
0
71
2
72
6
73
3
74
0
42
0.000000001
43
0.0000000001
44
0.0000000001
40
0
40
0
40
0
40
1
40
1
40
1
10
17.461415361903395
20
-8.0227645905870695
30
0
10
17.511988823541117
20
-8.0107548647911138
30
0
10
17.524954288696293
20
-8.048404537592214
30
0
0
LINE
5
751
100
AcDbEntity
8
0
100
AcDbLine
10
17.524954288696289
20
-8.048404537592214
30
0
11
18.010326644300086
21
-9.7850235032217334
31
0
0
LINE
5
752
100
AcDbEntity
8
0
100
AcDbLine
10
18.010326644300086
20
-9.7850235032217334
30
0
11
18.590903387028014
21
-8.0790311875238761
31
0
0
SPLINE
5
753
100
AcDbEntity
8
0
100
AcDbSpline
70
0
71
2
72
6
73
3
74
0
42
0.000000001
43
0.0000000001
44
0.0000000001
40
0
40
0
40
0
40
1
40
1
40
1
10
18.590903387028014
20
-8.0790311875238761
30
0
10
18.598341858964819
20
-8.0571312207808266
30
0
10
18.623877990635911
20
-8.0378493528599435
30
0
0
SPLINE
5
754
100
AcDbEntity
8
0
100
AcDbSpline
70
0
71
2
72
6
73
3
74
0
42
0.000000001
43
0.0000000001
44
0.0000000001
40
0
40
0
40
0
40
1
40
1
40
1
10
18.623877990635911
20
-8.0378493528599435
30
0
10
18.649414122307007
20
-8.0185674849390605
30
0
10
18.676591587550607
20
-8.0185674849390605
30
0
0
SPLINE
5
755
100
AcDbEntity
8
0
100
AcDbSpline
70
0
71
2
72
6
73
3
74
0
42
0.000000001
43
0.0000000001
44
0.0000000001
40
0
40
0
40
0
40
1
40
1
40
1
10
18.676591587550607
20
-8.0185674849390605
30
0
10
18.700777181223234
20
-8.0185674849390605
30
0
10
18.713327009579878
20
-8.0380571712592079
30
0
0
SPLINE
5
756
100
AcDbEntity
8
0
100
AcDbSpline
70
0
71
2
72
6
73
3
74
0
42
0.000000001
43
0.0000000001
44
0.0000000001
40
0
40
0
40
0
40
1
40
1
40
1
10
18.713327009579878
20
-8.0380571712592079
30
0
10
18.725876837936525
20
-8.0575468575793554
30
0
10
18.718563019493047
20
-8.0790311875238761
30
0
0
LINE
5
757
100
AcDbEntity
8
0
100
AcDbLine
10
18.718563019493047
20
-8.0790311875238761
30
0
11
18.086332234543686
21
-9.9368270530408367
31
0
0
SPLINE
5
758
100
AcDbEntity
8
0
100
AcDbSpline
70
0
71
2
72
6
73
3
74
0
42
0.000000001
43
0.0000000001
44
0.0000000001
40
0
40
0
40
0
40
1
40
1
40
1
10
18.086332234543686
20
-9.9368270530408385
30
0
10
18.069751442619744
20
-9.985447359641574
30
0
10
18.017391155756911
20
-9.9999503430352057
30
0
0
SPLINE
5
759
100
AcDbEntity
8
0
100
AcDbSpline
70
0
71
2
72
6
73
3
74
0
42
0.000000001
43
0.0000000001
44
0.0000000001
40
0
40
0
40
0
40
1
40
1
40
1
10
18.017391155756911
20
-9.9999503430352057
30
0
10
18.01863778455575
20
-9.9999503430352057
30
0
10
18.016892447918028
20
-10.001280230605564
30
0
0
SPLINE
5
760
100
AcDbEntity
8
0
100
AcDbSpline
70
0
71
2
72
6
73
3
74
0
42
0.000000001
43
0.0000000001
44
0.0000000001
40
0
40
0
40
0
40
1
40
1
40
1
10
18.016892447918028
20
-10.001280230605564
30
0
10
18.015147111280307
20
-10.002609930444757
30
0
10
18.001516796205536
20
-10.002609930444757
30
0
0
SPLINE
5
761
100
AcDbEntity
8
0
100
AcDbSpline
70
0
71
2
72
6
73
3
74
0
42
0.000000001
43
0.0000000001
44
0.0000000001
40
0
40
0
40
0
40
1
40
1
40
1
10
18.001516796205536
20
-10.002609930444757
30
0
10
17.960293379088633
20
-10.002609930444757
30
0
10
17.957800027625375
20
-9.9685340958250386
30
0
0
LINE
5
762
100
AcDbEntity
8
0
100
AcDbLine
10
17.957800027625375
20
-9.9685340958250386
30
0
11
17.471845893142341
21
-8.233494324752531
31
0
0
LINE
5
763
100
AcDbEntity
8
0
100
AcDbLine
10
17.471845893142341
20
-8.233494324752531
30
0
11
16.892141748334087
21
-9.9368685416282219
31
0
0
SPLINE
5
764
100
AcDbEntity
8
0
100
AcDbSpline
70
0
71
2
72
6
73
3
74
0
42
0.000000001
43
0.0000000001
44
0.0000000001
40
0
40
0
40
0
40
1
40
1
40
1
10
16.892141748334087
20
-9.9368685416282219
30
0
10
16.883207270212608
20
-9.9632149210059335
30
0
10
16.857110197821548
20
-9.9829124257253437
30
0
0
SPLINE
5
765
100
AcDbEntity
8
0
100
AcDbSpline
70
0
71
2
72
6
73
3
74
0
42
0.000000001
43
0.0000000001
44
0.0000000001
40
0
40
0
40
0
40
1
40
1
40
1
10
16.857110197821548
20
-9.9829124257253437
30
0
10
16.831013078497698
20
-10.002609930444756
30
0
10
16.807243145089998
20
-10.002609930444756
30
0
0
SPLINE
5
766
100
AcDbEntity
8
0
100
AcDbSpline
70
0
71
2
72
6
73
3
74
0
42
0.000000001
43
0.0000000001
44
0.0000000001
40
0
40
0
40
0
40
1
40
1
40
1
10
16.807243145089998
20
-10.002609930444756
30
0
10
16.78048117584655
20
-10.002609930444756
30
0
10
16.767931324023507
20
-9.9831202441246081
30
0
0
SPLINE
5
767
100
AcDbEntity
8
0
100
AcDbSpline
70
0
71
2
72
6
73
3
74
0
42
0.000000001
43
0.0000000001
44
0.0000000001
40
0
40
0
40
0
40
1
40
1
40
1
10
16.767931324023507
20
-9.9831202441246081
30
0
10
16.755381472200469
20
-9.9636305578044606
30
0
10
16.764482174535043
20
-9.9368685416282219
30
0
0
SPLINE
5
768
100
AcDbEntity
8
0
100
AcDbSpline
70
0
71
2
72
6
73
3
74
0
42
0.000000001
43
0.0000000001
44
0.0000000001
40
0
40
0
40
0
40
1
40
1
40
1
10
17.396712877352019
20
-8.0790726761112612
30
0
10
17.41300277983634
20
-8.0312419667890289
30
0
10
17.461415361903395
20
-8.0227645905870695
30
0
0
LINE
5
769
100
AcDbEntity
8
0
100
AcDbLine
10
16.764482174535043
20
-9.9368685416282219
30
0
11
17.396712877352019
21
-8.0790726761112612
31
0
0
SPLINE
5
770
100
AcDbEntity
8
0
100
AcDbSpline
70
0
71
2
72
6
73
3
74
0
42
0.000000001
43
0.0000000001
44
0.0000000001
40
0
40
0
40
0
40
1
40
1
40
1
10
19.797041201887716
20
-9.0601441032237524
30
0
10
19.786008053610253
20
-9.0405505077039727
30
0
10
19.794817901704803
20
-9.0146196712592097
30
0
0
SPLINE
5
771
100
AcDbEntity
8
0
100
AcDbSpline
70
0
71
2
72
6
73
3
74
0
42
0.000000001
43
0.0000000001
44
0.0000000001
40
0
40
0
40
0
40
1
40
1
40
1
10
19.794817901704803
20
-9.0146196712592097
30
0
10
19.802007066654955
20
-8.9934261368887256
30
0
10
19.826067912968671
20
-8.9740819422211811
30
0
0
SPLINE
5
772
100
AcDbEntity
8
0
100
AcDbSpline
70
0
71
2
72
6
73
3
74
0
42
0.000000001
43
0.0000000001
44
0.0000000001
40
0
40
0
40
0
40
1
40
1
40
1
10
19.826067912968671
20
-8.9740819422211811
30
0
10
19.850128759282388
20
-8.9547376536880527
30
0
10
19.878303640203761
20
-8.9547376536880527
30
0
0
LINE
5
773
100
AcDbEntity
8
0
100
AcDbLine
10
19.878303640203761
20
-8.9547376536880527
30
0
11
20.480406295329175
21
-8.9547376536880545
31
0
0
SPLINE
5
774
100
AcDbEntity
8
0
100
AcDbSpline
70
0
71
2
72
6
73
3
74
0
42
0.000000001
43
0.0000000001
44
0.0000000001
40
0
40
0
40
0
40
1
40
1
40
1
10
20.480406295329175
20
-8.9547376536880545
30
0
10
20.507168311505414
20
-8.9547376536880545
30
0
10
20.519718139862061
20
-8.9742065957145076
30
0
0
SPLINE
5
775
100
AcDbEntity
8
0
100
AcDbSpline
70
0
71
2
72
6
73
3
74
0
42
0.000000001
43
0.0000000001
44
0.0000000001
40
0
40
0
40
0
40
1
40
1
40
1
10
20.519718139862061
20
-8.9742065957145076
30
0
10
20.532267968218704
20
-8.9936755377409607
30
0
10
20.524995638362615
20
-9.0151598676854814
30
0
0
LINE
5
776
100
AcDbEntity
8
0
100
AcDbLine
10
20.524995638362615
20
-9.0151598676854814
30
0
11
20.411506705129788
21
-9.3485624375238778
31
0
0
SPLINE
5
777
100
AcDbEntity
8
0
100
AcDbSpline
70
0
71
2
72
6
73
3
74
0
42
0.000000001
43
0.0000000001
44
0.0000000001
40
0
40
0
40
0
40
1
40
1
40
1
10
20.411506705129788
20
-9.3485624375238778
30
0
10
20.364590246579386
20
-9.4864447828285918
30
0
10
20.269676561163713
20
-9.6091177123671088
30
0
0
SPLINE
5
778
100
AcDbEntity
8
0
100
AcDbSpline
70
0
71
2
72
6
73
3
74
0
42
0.000000001
43
0.0000000001
44
0.0000000001
40
0
40
0
40
0
40
1
40
1
40
1
10
20.269676561163713
20
-9.6091177123671088
30
0
10
20.174763063479205
20
-9.73179045417446
30
0
10
20.055290011642096
20
-9.8208861630665609
30
0
0
SPLINE
5
779
100
AcDbEntity
8
0
100
AcDbSpline
70
0
71
2
72
6
73
3
74
0
42
0.000000001
43
0.0000000001
44
0.0000000001
40
0
40
0
40
0
40
1
40
1
40
1
10
20.055290011642096
20
-9.8208861630665609
30
0
10
19.935816865939401
20
-9.9099820596898276
30
0
10
19.795565916530339
20
-9.9629449635911751
30
0
0
SPLINE
5
780
100
AcDbEntity
8
0
100
AcDbSpline
70
0
71
2
72
6
73
3
74
0
42
0.000000001
43
0.0000000001
44
0.0000000001
40
0
40
0
40
0
40
1
40
1
40
1
10
19.795565916530339
20
-9.9629449635911751
30
0
10
19.655314873255691
20
-10.015907867492523
30
0
10
19.516892425390289
20
-10.015907867492523
30
0
0
SPLINE
5
781
100
AcDbEntity
8
0
100
AcDbSpline
70
0
71
2
72
6
73
3
74
0
42
0.000000001
43
0.0000000001
44
0.0000000001
40
0
40
0
40
0
40
1
40
1
40
1
10
19.516892425390289
20
-10.015907867492523
30
0
10
19.377929687233031
20
-10.015907867492523
30
0
10
19.275078915907251
20
-9.9628409605259591
30
0
0
SPLINE
5
782
100
AcDbEntity
8
0
100
AcDbSpline
70
0
71
2
72
6
73
3
74
0
42
0.000000001
43
0.0000000001
44
0.0000000001
40
0
40
0
40
0
40
1
40
1
40
1
10
19.275078915907251
20
-9.9628409605259591
30
0
10
19.172228144581471
20
-9.9097742412905614
30
0
10
19.113488963941499
20
-9.820512202586583
30
0
0
SPLINE
5
783
100
AcDbEntity
8
0
100
AcDbSpline
70
0
71
2
72
6
73
3
74
0
42
0.000000001
43
0.0000000001
44
0.0000000001
40
0
40
0
40
0
40
1
40
1
40
1
10
19.113488963941499
20
-9.820512202586583
30
0
10
19.054749759835129
20
-9.7312503516137685
30
0
10
19.043467374970202
20
-9.6088058909026284
30
0
0
SPLINE
5
784
100
AcDbEntity
8
0
100
AcDbSpline
70
0
71
2
72
6
73
3
74
0
42
0.000000001
43
0.0000000001
44
0.0000000001
40
0
40
0
40
0
40
1
40
1
40
1
10
19.043467374970202
20
-9.6088058909026284
30
0
10
19.032184990105275
20
-9.4863616179226504
30
0
10
19.079475549934028
20
-9.3473158087250372
30
0
0
LINE
5
785
100
AcDbEntity
8
0
100
AcDbLine
10
19.079475549934028
20
-9.3473158087250372
30
0
11
19.305954919758353
21
-8.681840462753021
31
0
0
SPLINE
5
786
100
AcDbEntity
8
0
100
AcDbSpline
70
0
71
2
72
6
73
3
74
0
42
0.000000001
43
0.0000000001
44
0.0000000001
40
0
40
0
40
0
40
1
40
1
40
1
10
19.305954919758356
20
-8.6818404627530228
30
0
10
19.352788354201191
20
-8.5442074244349602
30
0
10
19.446829230499631
20
-8.4225319105742127
30
0
0
SPLINE
5
787
100
AcDbEntity
8
0
100
AcDbSpline
70
0
71
2
72
6
73
3
74
0
42
0.000000001
43
0.0000000001
44
0.0000000001
40
0
40
0
40
0
40
1
40
1
40
1
10
19.446829230499631
20
-8.4225319105742127
30
0
10
19.540870106798067
20
-8.3008563967134634
30
0
10
19.660176922688883
20
-8.2117398496620879
30
0
0
SPLINE
5
788
100
AcDbEntity
8
0
100
AcDbSpline
70
0
71
2
72
6
73
3
74
0
42
0.000000001
43
0.0000000001
44
0.0000000001
40
0
40
0
40
0
40
1
40
1
40
1
10
19.660176922688883
20
-8.2117398496620879
30
0
10
19.779483832445283
20
-8.1226233026107106
30
0
10
19.919215329721769
20
-8.0692656000701088
30
0
0
SPLINE
5
789
100
AcDbEntity
8
0
100
AcDbSpline
70
0
71
2
72
6
73
3
74
0
42
0.000000001
43
0.0000000001
44
0.0000000001
40
0
40
0
40
0
40
1
40
1
40
1
10
19.919215329721769
20
-8.0692656000701088
30
0
10
20.058946920863836
20
-8.0159078975295088
30
0
10
20.197535604675537
20
-8.0159078975295088
30
0
0
SPLINE
5
790
100
AcDbEntity
8
0
100
AcDbSpline
70
0
71
2
72
6
73
3
74
0
42
0.000000001
43
0.0000000001
44
0.0000000001
40
0
40
0
40
0
40
1
40
1
40
1
10
20.197535604675537
20
-8.0159078975295088
30
0
10
20.335542603473574
20
-8.0159078975295106
30
0
10
20.440491833757779
20
-8.0686214944442067
30
0
0
SPLINE
5
791
100
AcDbEntity
8
0
100
AcDbSpline
70
0
71
2
72
6
73
3
74
0
42
0.000000001
43
0.0000000001
44
0.0000000001
40
0
40
0
40
0
40
1
40
1
40
1
10
20.440491833757779
20
-8.0686214944442067
30
0
10
20.545441251773145
20
-8.1213350913589046
30
0
10
20.604117941401686
20
-8.2104724765695565
30
0
0
SPLINE
5
792
100
AcDbEntity
8
0
100
AcDbSpline
70
0
71
2
72
6
73
3
74
0
42
0.000000001
43
0.0000000001
44
0.0000000001
40
0
40
0
40
0
40
1
40
1
40
1
10
20.604117941401686
20
-8.2104724765695565
30
0
10
20.662795006492555
20
-8.2996096740490461
30
0
10
20.674077274025507
20
-8.4217423132957077
30
0
0
SPLINE
5
793
100
AcDbEntity
8
0
100
AcDbSpline
70
0
71
2
72
6
73
3
74
0
42
0.000000001
43
0.0000000001
44
0.0000000001
40
0
40
0
40
0
40
1
40
1
40
1
10
20.674077274025507
20
-8.4217423132957077
30
0
10
20.685359729289619
20
-8.5438749525423709
30
0
10
20.638858719806581
20
-8.6804690865952789
30
0
0
SPLINE
5
794
100
AcDbEntity
8
0
100
AcDbSpline
70
0
71
2
72
6
73
3
74
0
42
0.000000001
43
0.0000000001
44
0.0000000001
40
0
40
0
40
0
40
1
40
1
40
1
10
20.638858719806581
20
-8.6804690865952789
30
0
10
20.629550257738732
20
-8.7078127877851763
30
0
10
20.603661003746936
20
-8.7257026291202013
30
0
0
SPLINE
5
795
100
AcDbEntity
8
0
100
AcDbSpline
70
0
71
2
72
6
73
3
74
0
42
0.000000001
43
0.0000000001
44
0.0000000001
40
0
40
0
40
0
40
1
40
1
40
1
10
20.603661003746936
20
-8.7257026291202013
30
0
10
20.577771749755136
20
-8.7435923765896462
30
0
10
20.55225645624332
20
-8.7435923765896462
30
0
0
SPLINE
5
796
100
AcDbEntity
8
0
100
AcDbSpline
70
0
71
2
72
6
73
3
74
0
42
0.000000001
43
0.0000000001
44
0.0000000001
40
0
40
0
40
0
40
1
40
1
40
1
10
20.55225645624332
20
-8.7435923765896462
30
0
10
20.489714945128192
20
-8.7435923765896462
30
0
10
20.511199275072716
20
-8.6804690865952789
30
0
0
SPLINE
5
797
100
AcDbEntity
8
0
100
AcDbSpline
70
0
71
2
72
6
73
3
74
0
42
0.000000001
43
0.0000000001
44
0.0000000001
40
0
40
0
40
0
40
1
40
1
40
1
10
20.511199275072716
20
-8.6804690865952789
30
0
10
20.549139743447853
20
-8.5690578680271834
30
0
10
20.540267568606641
20
-8.4709652369349602
30
0
0
SPLINE
5
798
100
AcDbEntity
8
0
100
AcDbSpline
70
0
71
2
72
6
73
3
74
0
42
0.000000001
43
0.0000000001
44
0.0000000001
40
0
40
0
40
0
40
1
40
1
40
1
10
20.540267568606641
20
-8.4709652369349602
30
0
10
20.531395393765429
20
-8.3728726997083207
30
0
10
20.482712572686864
20
-8.2991110600757434
30
0
0
SPLINE
5
799
100
AcDbEntity
8
0
100
AcDbSpline
70
0
71
2
72
6
73
3
74
0
42
0.000000001
43
0.0000000001
44
0.0000000001
40
0
40
0
40
0
40
1
40
1
40
1
10
20.482712572686864
20
-8.2991110600757434
30
0
10
20.434029939339467
20
-8.2253494204431661
30
0
10
20.350232567107195
20
-8.1831286815140771
30
0
0
SPLINE
5
800
100
AcDbEntity
8
0
100
AcDbSpline
70
0
71
2
72
6
73
3
74
0
42
0.000000001
43
0.0000000001
44
0.0000000001
40
0
40
0
40
0
40
1
40
1
40
1
10
20.350232567107195
20
-8.1831286815140771
30
0
10
20.266435194874923
20
-8.14090794258499
30
0
10
20.15498248771944
20
-8.1409079425849882
30
0
0
SPLINE
5
801
100
AcDbEntity
8
0
100
AcDbSpline
70
0
71
2
72
6
73
3
74
0
42
0.000000001
43
0.0000000001
44
0.0000000001
40
0
40
0
40
0
40
1
40
1
40
1
10
20.15498248771944
20
-8.1409079425849882
30
0
10
20.043114143765429
20
-8.1409079425849882
30
0
10
19.93188990543732
20
-8.1831701701014641
30
0
0
SPLINE
5
802
100
AcDbEntity
8
0
100
AcDbSpline
70
0
71
2
72
6
73
3
74
0
42
0.000000001
43
0.0000000001
44
0.0000000001
40
0
40
0
40
0
40
1
40
1
40
1
10
19.93188990543732
20
-8.1831701701014641
30
0
10
19.820665667109214
20
-8.2254325853491022
30
0
10
19.721679623404437
20
-8.2993395289031167
30
0
0
SPLINE
5
803
100
AcDbEntity
8
0
100
AcDbSpline
70
0
71
2
72
6
73
3
74
0
42
0.000000001
43
0.0000000001
44
0.0000000001
40
0
40
0
40
0
40
1
40
1
40
1
10
19.721679623404437
20
-8.2993395289031167
30
0
10
19.622693579699661
20
-8.3732466601882969
30
0
10
19.547394421828624
20
-8.4710275636816217
30
0
0
SPLINE
5
804
100
AcDbEntity
8
0
100
AcDbSpline
70
0
71
2
72
6
73
3
74
0
42
0.000000001
43
0.0000000001
44
0.0000000001
40
0
40
0
40
0
40
1
40
1
40
1
10
19.547394421828624
20
-8.4710275636816217
30
0
10
19.472095170092008
20
-8.5688084671749483
30
0
10
19.433780694304101
20
-8.681383337367107
30
0
0
LINE
5
805
100
AcDbEntity
8
0
100
AcDbLine
10
19.433780694304101
20
-8.681383337367107
30
0
11
19.207010411573759
21
-9.3477729341109548
31
0
0
SPLINE
5
806
100
AcDbEntity
8
0
100
AcDbSpline
70
0
71
2
72
6
73
3
74
0
42
0.000000001
43
0.0000000001
44
0.0000000001
40
0
40
0
40
0
40
1
40
1
40
1
10
19.207010411573755
20
-9.347772934110953
30
0
10
19.168155739359577
20
-9.461843740088602
30
0
10
19.177007122974306
20
-9.5603519141137685
30
0
0
SPLINE
5
807
100
AcDbEntity
8
0
100
AcDbSpline
70
0
71
2
72
6
73
3
74
0
42
0.000000001
43
0.0000000001
44
0.0000000001
40
0
40
0
40
0
40
1
40
1
40
1
10
19.177007122974306
20
-9.5603519141137685
30
0
10
19.185858506589032
20
-9.6588599004077711
30
0
10
19.23462425790958
20
-9.7329125233455525
30
0
0
SPLINE
5
808
100
AcDbEntity
8
0
100
AcDbSpline
70
0
71
2
72
6
73
3
74
0
42
0.000000001
43
0.0000000001
44
0.0000000001
40
0
40
0
40
0
40
1
40
1
40
1
10
19.23462425790958
20
-9.7329125233455525
30
0
10
19.283390056162915
20
-9.8069649585521681
30
0
10
19.365296647037656
20
-9.8489363904946057
30
0
0
SPLINE
5
809
100
AcDbEntity
8
0
100
AcDbSpline
70
0
71
2
72
6
73
3
74
0
42
0.000000001
43
0.0000000001
44
0.0000000001
40
0
40
0
40
0
40
1
40
1
40
1
10
19.365296647037656
20
-9.8489363904946057
30
0
10
19.447203237912394
20
-9.8909078224370433
30
0
10
19.559445636211965
20
-9.8909078224370433
30
0
0
SPLINE
5
810
100
AcDbEntity
8
0
100
AcDbSpline
70
0
71
2
72
6
73
3
74
0
42
0.000000001
43
0.0000000001
44
0.0000000001
40
0
40
0
40
0
40
1
40
1
40
1
10
19.559445636211965
20
-9.8909078224370433
30
0
10
19.671272397713008
20
-9.8909078224370433
30
0
10
19.783036832467385
20
-9.848957228653882
30
0
0
SPLINE
5
811
100
AcDbEntity
8
0
100
AcDbSpline
70
0
71
2
72
6
73
3
74
0
42
0.000000001
43
0.0000000001
44
0.0000000001
40
0
40
0
40
0
40
1
40
1
40
1
10
19.783036832467385
20
-9.848957228653882
30
0
10
19.894801267221766
20
-9.8070066348707208
30
0
10
19.993953546872838
20
-9.7329956882514921
30
0
0
SPLINE
5
812
100
AcDbEntity
8
0
100
AcDbSpline
70
0
71
2
72
6
73
3
74
0
42
0.000000001
43
0.0000000001
44
0.0000000001
40
0
40
0
40
0
40
1
40
1
40
1
10
19.993953546872838
20
-9.7329956882514921
30
0
10
20.093105826523907
20
-9.6589847416322634
30
0
10
20.169319235166775
20
-9.5600817689678443
30
0
0
SPLINE
5
813
100
AcDbEntity
8
0
100
AcDbSpline
70
0
71
2
72
6
73
3
74
0
42
0.000000001
43
0.0000000001
44
0.0000000001
40
0
40
0
40
0
40
1
40
1
40
1
10
20.169319235166775
20
-9.5600817689678443
30
0
10
20.245532643809639
20
-9.4611787963034253
30
0
10
20.283971820023663
20
-9.3482299656312886
30
0
0
LINE
5
814
100
AcDbEntity
8
0
100
AcDbLine
10
20.283971820023663
20
-9.3482299656312886
30
0
11
20.375353249710923
21
-9.0797376987435339
31
0
0
SPLINE
5
815
100
AcDbEntity
8
0
100
AcDbSpline
70
0
71
2
72
6
73
3
74
0
42
0.000000001
43
0.0000000001
44
0.0000000001
40
0
40
0
40
0
40
1
40
1
40
1
10
19.835792011835053
20
-9.0797376987435321
30
0
10
19.808074162434014
20
-9.0797376987435321
30
0
10
19.797041201887716
20
-9.0601441032237524
30
0
0
LINE
5
816
100
AcDbEntity
8
0
100
AcDbLine
10
20.375353249710923
20
-9.0797376987435339
30
0
11
19.835792011835053
21
-9.0797376987435321
31
0
0
SPLINE
5
817
100
AcDbEntity
8
0
100
AcDbSpline
70
0
71
2
72
6
73
3
74
0
42
0.000000001
43
0.0000000001
44
0.0000000001
40
0
40
0
40
0
40
1
40
1
40
1
10
22.951441779583075
20
-8.0159078975295142
30
0
10
23.000353069489012
20
-8.0159078975295142
30
0
10
22.995491020055823
20
-8.0718836988922789
30
0
0
LINE
5
818
100
AcDbEntity
8
0
100
AcDbLine
10
22.995491020055823
20
-8.0718836988922789
30
0
11
22.962911215087175
21
-9.9361621092556636
31
0
0
LINE
5
819
100
AcDbEntity
8
0
100
AcDbLine
10
22.962911215087175
20
-9.9361621092556636
30
0
11
22.962537254607199
21
-9.9396944588496599
31
0
0
SPLINE
5
820
100
AcDbEntity
8
0
100
AcDbSpline
70
0
71
2
72
6
73
3
74
0
42
0.000000001
43
0.0000000001
44
0.0000000001
40
0
40
0
40
0
40
1
40
1
40
1
10
22.962537254607199
20
-9.9396944588496599
30
0
10
22.955763632589992
20
-9.9904340625680952
30
0
10
22.88998075518607
20
-10.013248280082975
30
0
0
SPLINE
5
821
100
AcDbEntity
8
0
100
AcDbSpline
70
0
71
2
72
6
73
3
74
0
42
0.000000001
43
0.0000000001
44
0.0000000001
40
0
40
0
40
0
40
1
40
1
40
1
10
22.88998075518607
20
-10.013248280082975
30
0
10
22.8889833395083
20
-10.013248280082975
30
0
10
22.885887464872109
20
-10.014578167653333
30
0
0
SPLINE
5
822
100
AcDbEntity
8
0
100
AcDbSpline
70
0
71
2
72
6
73
3
74
0
42
0.000000001
43
0.0000000001
44
0.0000000001
40
0
40
0
40
0
40
1
40
1
40
1
10
22.885887464872109
20
-10.014578167653333
30
0
10
22.882791590235918
20
-10.015907867492526
30
0
10
22.873483034302485
20
-10.015907867492526
30
0
0
SPLINE
5
823
100
AcDbEntity
8
0
100
AcDbSpline
70
0
71
2
72
6
73
3
74
0
42
0.000000001
43
0.0000000001
44
0.0000000001
40
0
40
0
40
0
40
1
40
1
40
1
10
22.873483034302485
20
-10.015907867492526
30
0
10
22.824654909302485
20
-10.015907867492526
30
0
10
22.830638934041186
20
-9.9563582279483782
30
0
0
LINE
5
824
100
AcDbEntity
8
0
100
AcDbLine
10
22.830638934041186
20
-9.9563582279483782
30
0
11
22.836332163205849
21
-9.5159078750017727
31
0
0
LINE
5
825
100
AcDbEntity
8
0
100
AcDbLine
10
22.836332163205849
20
-9.5159078750017727
30
0
11
22.180082114395749
21
-9.5159078750017727
31
0
0
SPLINE
5
826
100
AcDbEntity
8
0
100
AcDbSpline
70
0
71
2
72
6
73
3
74
0
42
0.000000001
43
0.0000000001
44
0.0000000001
40
0
40
0
40
0
40
1
40
1
40
1
10
22.180082114395749
20
-9.5159078750017727
30
0
10
22.152364405793083
20
-9.5159078750017727
30
0
10
22.141331351381201
20
-9.4963143733475768
30
0
0
SPLINE
5
827
100
AcDbEntity
8
0
100
AcDbSpline
70
0
71
2
72
6
73
3
74
0
42
0.000000001
43
0.0000000001
44
0.0000000001
40
0
40
0
40
0
40
1
40
1
40
1
10
22.141331351381201
20
-9.4963143733475768
30
0
10
22.130298250036528
20
-9.4767206839622151
30
0
10
22.139108098131079
20
-9.4507899413830323
30
0
0
SPLINE
5
828
100
AcDbEntity
8
0
100
AcDbSpline
70
0
71
2
72
6
73
3
74
0
42
0.000000001
43
0.0000000001
44
0.0000000001
40
0
40
0
40
0
40
1
40
1
40
1
10
22.139108098131079
20
-9.4507899413830323
30
0
10
22.159470499702877
20
-9.3909078299462934
30
0
10
22.222593789697246
20
-9.3909078299462934
30
0
0
LINE
5
829
100
AcDbEntity
8
0
100
AcDbLine
10
22.222593789697246
20
-9.3909078299462934
30
0
11
22.848258630230283
21
-9.3909078299462951
31
0
0
LINE
5
830
100
AcDbEntity
8
0
100
AcDbLine
10
22.848258630230283
20
-9.3909078299462951
30
0
11
22.879009933655272
21
-8.2282168262519857
31
0
0
LINE
5
831
100
AcDbEntity
8
0
100
AcDbLine
10
22.879009933655272
20
-8.2282168262519857
30
0
11
21.742499073392377
21
-9.9747675214159806
31
0
0
SPLINE
5
832
100
AcDbEntity
8
0
100
AcDbSpline
70
0
71
2
72
6
73
3
74
0
42
0.000000001
43
0.0000000001
44
0.0000000001
40
0
40
0
40
0
40
1
40
1
40
1
10
21.742499073392377
20
-9.9747675214159806
30
0
10
21.727372681733744
20
-9.9952961120012844
30
0
10
21.699447154731814
20
-10.006890200998711
30
0
0
SPLINE
5
833
100
AcDbEntity
8
0
100
AcDbSpline
70
0
71
2
72
6
73
3
74
0
42
0.000000001
43
0.0000000001
44
0.0000000001
40
0
40
0
40
0
40
1
40
1
40
1
10
21.699447154731814
20
-10.006890200998711
30
0
10
21.671521627729888
20
-10.01848428999614
30
0
10
21.651533303970041
20
-10.012666501203732
30
0
0
SPLINE
5
834
100
AcDbEntity
8
0
100
AcDbSpline
70
0
71
2
72
6
73
3
74
0
42
0.000000001
43
0.0000000001
44
0.0000000001
40
0
40
0
40
0
40
1
40
1
40
1
10
21.651533303970041
20
-10.012666501203732
30
0
10
21.603411611342608
20
-9.9899354485947907
30
0
10
21.637196509589913
20
-9.9325884588054443
30
0
0
SPLINE
5
835
100
AcDbEntity
8
0
100
AcDbSpline
70
0
71
2
72
6
73
3
74
0
42
0.000000001
43
0.0000000001
44
0.0000000001
40
0
40
0
40
0
40
1
40
1
40
1
10
22.874688174513938
20
-8.0590428872304312
30
0
10
22.902198111650129
20
-8.0159078975295142
30
0
10
22.951441779583075
20
-8.0159078975295142
30
0
0
LINE
5
836
100
AcDbEntity
8
0
100
AcDbLine
10
21.637196509589913
20
-9.9325884588054443
30
0
11
22.874688174513938
21
-8.0590428872304312
31
0
0
SPLINE
5
837
100
AcDbEntity
8
0
100
AcDbSpline
70
0
71
2
72
6
73
3
74
0
42
0.000000001
43
0.0000000001
44
0.0000000001
40
0
40
0
40
0
40
1
40
1
40
1
10
23.886947098412467
20
-8.0227645905870801
30
0
10
23.937520560050192
20
-8.0107548647911226
30
0
10
23.950486025205365
20
-8.0484045375922246
30
0
0
LINE
5
838
100
AcDbEntity
8
0
100
AcDbLine
10
23.950486025205361
20
-8.0484045375922246
30
0
11
24.435858380809158
21
-9.7850235032217405
31
0
0
LINE
5
839
100
AcDbEntity
8
0
100
AcDbLine
10
24.435858380809158
20
-9.7850235032217405
30
0
11
25.016435123537086
21
-8.0790311875238832
31
0
0
SPLINE
5
840
100
AcDbEntity
8
0
100
AcDbSpline
70
0
71
2
72
6
73
3
74
0
42
0.000000001
43
0.0000000001
44
0.0000000001
40
0
40
0
40
0
40
1
40
1
40
1
10
25.016435123537086
20
-8.0790311875238849
30
0
10
25.023873595473891
20
-8.0571312207808354
30
0
10
25.049409727144983
20
-8.0378493528599524
30
0
0
SPLINE
5
841
100
AcDbEntity
8
0
100
AcDbSpline
70
0
71
2
72
6
73
3
74
0
42
0.000000001
43
0.0000000001
44
0.0000000001
40
0
40
0
40
0
40
1
40
1
40
1
10
25.049409727144983
20
-8.0378493528599524
30
0
10
25.074945858816079
20
-8.0185674849390693
30
0
10
25.102123324059683
20
-8.0185674849390693
30
0
0
SPLINE
5
842
100
AcDbEntity
8
0
100
AcDbSpline
70
0
71
2
72
6
73
3
74
0
42
0.000000001
43
0.0000000001
44
0.0000000001
40
0
40
0
40
0
40
1
40
1
40
1
10
25.102123324059683
20
-8.0185674849390693
30
0
10
25.126308917732306
20
-8.0185674849390693
30
0
10
25.13885874608895
20
-8.0380571712592168
30
0
0
SPLINE
5
843
100
AcDbEntity
8
0
100
AcDbSpline
70
0
71
2
72
6
73
3
74
0
42
0.000000001
43
0.0000000001
44
0.0000000001
40
0
40
0
40
0
40
1
40
1
40
1
10
25.13885874608895
20
-8.0380571712592168
30
0
10
25.151408574445597
20
-8.0575468575793643
30
0
10
25.144094756002119
20
-8.0790311875238849
30
0
0
LINE
5
844
100
AcDbEntity
8
0
100
AcDbLine
10
25.144094756002119
20
-8.0790311875238849
30
0
11
24.511863971052762
21
-9.9368270530408456
31
0
0
SPLINE
5
845
100
AcDbEntity
8
0
100
AcDbSpline
70
0
71
2
72
6
73
3
74
0
42
0.000000001
43
0.0000000001
44
0.0000000001
40
0
40
0
40
0
40
1
40
1
40
1
10
24.511863971052762
20
-9.9368270530408456
30
0
10
24.495283179128815
20
-9.9854473596415829
30
0
10
24.442922892265987
20
-9.9999503430352146
30
0
0
SPLINE
5
846
100
AcDbEntity
8
0
100
AcDbSpline
70
0
71
2
72
6
73
3
74
0
42
0.000000001
43
0.0000000001
44
0.0000000001
40
0
40
0
40
0
40
1
40
1
40
1
10
24.442922892265987
20
-9.9999503430352146
30
0
10
24.444169521064822
20
-9.9999503430352146
30
0
10
24.4424241844271
20
-10.001280230605573
30
0
0
SPLINE
5
847
100
AcDbEntity
8
0
100
AcDbSpline
70
0
71
2
72
6
73
3
74
0
42
0.000000001
43
0.0000000001
44
0.0000000001
40
0
40
0
40
0
40
1
40
1
40
1
10
24.4424241844271
20
-10.001280230605573
30
0
10
24.440678847789378
20
-10.002609930444766
30
0
10
24.427048532714608
20
-10.002609930444766
30
0
0
SPLINE
5
848
100
AcDbEntity
8
0
100
AcDbSpline
70
0
71
2
72
6
73
3
74
0
42
0.000000001
43
0.0000000001
44
0.0000000001
40
0
40
0
40
0
40
1
40
1
40
1
10
24.427048532714608
20
-10.002609930444766
30
0
10
24.385825115597708
20
-10.002609930444766
30
0
10
24.38333176413445
20
-9.9685340958250492
30
0
0
LINE
5
849
100
AcDbEntity
8
0
100
AcDbLine
10
24.38333176413445
20
-9.9685340958250492
30
0
11
23.897377629651416
21
-8.2334943247525416
31
0
0
LINE
5
850
100
AcDbEntity
8
0
100
AcDbLine
10
23.897377629651416
20
-8.2334943247525416
30
0
11
23.317673484843162
21
-9.9368685416282325
31
0
0
SPLINE
5
851
100
AcDbEntity
8
0
100
AcDbSpline
70
0
71
2
72
6
73
3
74
0
42
0.000000001
43
0.0000000001
44
0.0000000001
40
0
40
0
40
0
40
1
40
1
40
1
10
23.317673484843162
20
-9.9368685416282325
30
0
10
23.30873900672168
20
-9.9632149210059424
30
0
10
23.282641934330623
20
-9.9829124257253543
30
0
0
SPLINE
5
852
100
AcDbEntity
8
0
100
AcDbSpline
70
0
71
2
72
6
73
3
74
0
42
0.000000001
43
0.0000000001
44
0.0000000001
40
0
40
0
40
0
40
1
40
1
40
1
10
23.282641934330623
20
-9.9829124257253543
30
0
10
23.256544815006773
20
-10.002609930444764
30
0
10
23.23277488159907
20
-10.002609930444764
30
0
0
SPLINE
5
853
100
AcDbEntity
8
0
100
AcDbSpline
70
0
71
2
72
6
73
3
74
0
42
0.000000001
43
0.0000000001
44
0.0000000001
40
0
40
0
40
0
40
1
40
1
40
1
10
23.23277488159907
20
-10.002609930444764
30
0
10
23.206012912355622
20
-10.002609930444764
30
0
10
23.193463060532583
20
-9.9831202441246187
30
0
0
SPLINE
5
854
100
AcDbEntity
8
0
100
AcDbSpline
70
0
71
2
72
6
73
3
74
0
42
0.000000001
43
0.0000000001
44
0.0000000001
40
0
40
0
40
0
40
1
40
1
40
1
10
23.193463060532583
20
-9.9831202441246187
30
0
10
23.180913208709541
20
-9.9636305578044713
30
0
10
23.190013911044119
20
-9.9368685416282325
30
0
0
SPLINE
5
855
100
AcDbEntity
8
0
100
AcDbSpline
70
0
71
2
72
6
73
3
74
0
42
0.000000001
43
0.0000000001
44
0.0000000001
40
0
40
0
40
0
40
1
40
1
40
1
10
23.822244613861091
20
-8.0790726761112701
30
0
10
23.838534516345415
20
-8.0312419667890396
30
0
10
23.886947098412467
20
-8.0227645905870801
30
0
0
LINE
5
856
100
AcDbEntity
8
0
100
AcDbLine
10
23.190013911044115
20
-9.9368685416282325
30
0
11
23.822244613861091
21
-8.0790726761112701
31
0
0
SPLINE
5
857
100
AcDbEntity
8
0
100
AcDbSpline
70
0
71
2
72
6
73
3
74
0
42
0.000000001
43
0.0000000001
44
0.0000000001
40
0
40
0
40
0
40
1
40
1
40
1
10
19.115381725862822
20
-6.8551397699070806
30
0
10
18.998559250339358
20
-6.97196262089287
30
0
10
18.839680676118206
20
-6.97196262089287
30
0
0
SPLINE
5
858
100
AcDbEntity
8
0
100
AcDbSpline
70
0
71
2
72
6
73
3
74
0
42
0.000000001
43
0.0000000001
44
0.0000000001
40
0
40
0
40
0
40
1
40
1
40
1
10
18.839680676118206
20
-6.97196262089287
30
0
10
18.671456469058601
20
-6.97196262089287
30
0
10
18.554633993535141
20
-6.8551397699070806
30
0
0
SPLINE
5
859
100
AcDbEntity
8
0
100
AcDbSpline
70
0
71
2
72
6
73
3
74
0
42
0.000000001
43
0.0000000001
44
0.0000000001
40
0
40
0
40
0
40
1
40
1
40
1
10
18.554633993535141
20
-6.8551397699070806
30
0
10
18.437811564944472
20
-6.7383176698459497
30
0
10
18.437811564944472
20
-6.5794392833559607
30
0
0
LINE
5
860
100
AcDbEntity
8
0
100
AcDbLine
10
18.437811564944472
20
-6.5794392833559598
30
0
11
18.437811564944475
21
-0.4579435183307401
31
0
0
LINE
5
861
100
AcDbEntity
8
0
100
AcDbLine
10
18.437811564944475
20
-0.4579435183307401
30
0
11
18.437811564944475
21
-0.39252296207458931
31
0
0
SPLINE
5
862
100
AcDbEntity
8
0
100
AcDbSpline
70
0
71
2
72
6
73
3
74
0
42
0.000000001
43
0.0000000001
44
0.0000000001
40
0
40
0
40
0
40
1
40
1
40
1
10
18.437811564944475
20
-0.39252296207458931
30
0
10
18.437811564944475
20
-0.23364457558460092
30
0
10
18.554633993535145
20
-0.11682172459881116
30
0
0
SPLINE
5
863
100
AcDbEntity
8
0
100
AcDbSpline
70
0
71
2
72
6
73
3
74
0
42
0.000000001
43
0.0000000001
44
0.0000000001
40
0
40
0
40
0
40
1
40
1
40
1
10
18.554633993535145
20
-0.11682172459881116
30
0
10
18.671456469058604
20
3.7546232011478991e-07
30
0
10
18.83968067611821
20
3.7546232002737081e-07
30
0
0
LINE
5
864
100
AcDbEntity
8
0
100
AcDbLine
10
18.83968067611821
20
3.7546232002737081e-07
30
0
11
22.615382048760427
21
3.7546231897834115e-07
31
0
0
SPLINE
5
865
100
AcDbEntity
8
0
100
AcDbSpline
70
0
71
2
72
6
73
3
74
0
42
0.000000001
43
0.0000000001
44
0.0000000001
40
0
40
0
40
0
40
1
40
1
40
1
10
22.615382048760427
20
3.7546231897834115e-07
30
0
10
22.774260435250415
20
3.7546231897834115e-07
30
0
10
22.891082910773875
20
-0.11682172459881238
30
0
0
SPLINE
5
866
100
AcDbEntity
8
0
100
AcDbSpline
70
0
71
2
72
6
73
3
74
0
42
0.000000001
43
0.0000000001
44
0.0000000001
40
0
40
0
40
0
40
1
40
1
40
1
10
22.891082910773875
20
-0.11682172459881238
30
0
10
23.007905386297335
20
-0.23364457558460222
30
0
10
23.007905386297335
20
-0.39252296207459053
30
0
0
SPLINE
5
867
100
AcDbEntity
8
0
100
AcDbSpline
70
0
71
2
72
6
73
3
74
0
42
0.000000001
43
0.0000000001
44
0.0000000001
40
0
40
0
40
0
40
1
40
1
40
1
10
23.007905386297335
20
-0.39252296207459053
30
0
10
23.007905386297335
20
-0.56074735686536004
30
0
10
22.891082910773875
20
-0.67756945692649129
30
0
0
SPLINE
5
868
100
AcDbEntity
8
0
100
AcDbSpline
70
0
71
2
72
6
73
3
74
0
42
0.000000001
43
0.0000000001
44
0.0000000001
40
0
40
0
40
0
40
1
40
1
40
1
10
22.891082910773875
20
-0.67756945692649129
30
0
10
22.774260435250415
20
-0.79439230791228133
30
0
10
22.615382048760427
20
-0.79439230791228088
30
0
0
LINE
5
869
100
AcDbEntity
8
0
100
AcDbLine
10
22.615382048760427
20
-0.79439230791228088
30
0
11
19.232204201386285
21
-0.7943923079122801
31
0
0
SPLINE
5
870
100
AcDbEntity
8
0
100
AcDbSpline
70
0
71
2
72
6
73
3
74
0
42
0.000000001
43
0.0000000001
44
0.0000000001
40
0
40
0
40
0
40
1
40
1
40
1
10
19.232204201386281
20
-6.5794392833559607
30
0
10
19.232204201386281
20
-6.7383176698459497
30
0
10
19.115381725862822
20
-6.8551397699070806
30
0
0
LINE
5
871
100
AcDbEntity
8
0
100
AcDbLine
10
19.232204201386285
20
-0.7943923079122801
30
0
11
19.232204201386281
21
-6.5794392833559625
31
0
0
SPLINE
5
872
100
AcDbEntity
8
0
100
AcDbSpline
70
0
71
2
72
6
73
3
74
0
42
0.000000001
43
0.0000000001
44
0.0000000001
40
0
40
0
40
0
40
1
40
1
40
1
10
19.722858373307421
20
-3.7616819847287251
30
0
10
19.606035897783961
20
-3.6448595092052645
30
0
10
19.606035897783961
20
-3.4859811227152764
30
0
0
SPLINE
5
873
100
AcDbEntity
8
0
100
AcDbSpline
70
0
71
2
72
6
73
3
74
0
42
0.000000001
43
0.0000000001
44
0.0000000001
40
0
40
0
40
0
40
1
40
1
40
1
10
19.606035897783961
20
-3.4859811227152764
30
0
10
19.606035897783961
20
-3.3177567279245066
30
0
10
19.722858373307421
20
-3.200934252401046
30
0
0
SPLINE
5
874
100
AcDbEntity
8
0
100
AcDbSpline
70
0
71
2
72
6
73
3
74
0
42
0.000000001
43
0.0000000001
44
0.0000000001
40
0
40
0
40
0
40
1
40
1
40
1
10
19.722858373307421
20
-3.200934252401046
30
0
10
19.839680848830881
20
-3.0841117768775854
30
0
10
20.007905055890486
20
-3.0841117768775854
30
0
0
LINE
5
875
100
AcDbEntity
8
0
100
AcDbLine
10
20.007905055890486
20
-3.0841117768775854
30
0
11
22.054634316432747
21
-3.0841117768775863
31
0
0
SPLINE
5
876
100
AcDbEntity
8
0
100
AcDbSpline
70
0
71
2
72
6
73
3
74
0
42
0.000000001
43
0.0000000001
44
0.0000000001
40
0
40
0
40
0
40
1
40
1
40
1
10
22.054634316432747
20
-3.0841117768775863
30
0
10
22.222858711223516
20
-3.0841117768775863
30
0
10
22.339681186746976
20
-3.2009342524010469
30
0
0
SPLINE
5
877
100
AcDbEntity
8
0
100
AcDbSpline
70
0
71
2
72
6
73
3
74
0
42
0.000000001
43
0.0000000001
44
0.0000000001
40
0
40
0
40
0
40
1
40
1
40
1
10
22.339681186746976
20
-3.2009342524010469
30
0
10
22.456503662270435
20
-3.3177567279245075
30
0
10
22.456503662270435
20
-3.4859811227152768
30
0
0
SPLINE
5
878
100
AcDbEntity
8
0
100
AcDbSpline
70
0
71
2
72
6
73
3
74
0
42
0.000000001
43
0.0000000001
44
0.0000000001
40
0
40
0
40
0
40
1
40
1
40
1
10
22.456503662270435
20
-3.4859811227152768
30
0
10
22.456503662270435
20
-3.6448595092052654
30
0
10
22.339681186746976
20
-3.7616819847287255
30
0
0
SPLINE
5
879
100
AcDbEntity
8
0
100
AcDbSpline
70
0
71
2
72
6
73
3
74
0
42
0.000000001
43
0.0000000001
44
0.0000000001
40
0
40
0
40
0
40
1
40
1
40
1
10
22.339681186746976
20
-3.7616819847287255
30
0
10
22.222858711223513
20
-3.8785044602521861
30
0
10
22.054634316432743
20
-3.8785044602521861
30
0
0
SPLINE
5
880
100
AcDbEntity
8
0
100
AcDbSpline
70
0
71
2
72
6
73
3
74
0
42
0.000000001
43
0.0000000001
44
0.0000000001
40
0
40
0
40
0
40
1
40
1
40
1
10
20.007905055890483
20
-3.8785044602521856
30
0
10
19.839680848830877
20
-3.8785044602521856
30
0
10
19.722858373307421
20
-3.7616819847287251
30
0
0
LINE
5
881
100
AcDbEntity
8
0
100
AcDbLine
10
22.054634316432743
20
-3.8785044602521861
30
0
11
20.007905055890483
21
-3.8785044602521856
31
0
0
SPLINE
5
882
100
AcDbEntity
8
0
100
AcDbSpline
70
0
71
2
72
6
73
3
74
0
42
0.000000001
43
0.0000000001
44
0.0000000001
40
0
40
0
40
0
40
1
40
1
40
1
10
25.942484784985702
20
-0.074766189094614632
30
0
10
26.045288623520317
20
3.7546231810414979e-07
30
0
10
26.176129736032621
20
3.7546231810414979e-07
30
0
0
SPLINE
5
883
100
AcDbEntity
8
0
100
AcDbSpline
70
0
71
2
72
6
73
3
74
0
42
0.000000001
43
0.0000000001
44
0.0000000001
40
0
40
0
40
0
40
1
40
1
40
1
10
26.176129736032621
20
3.7546231810414979e-07
30
0
10
26.306970848544925
20
3.7546231810414979e-07
30
0
10
26.40977449934838
20
-0.074766189094614799
30
0
0
SPLINE
5
884
100
AcDbEntity
8
0
100
AcDbSpline
70
0
71
2
72
6
73
3
74
0
42
0.000000001
43
0.0000000001
44
0.0000000001
40
0
40
0
40
0
40
1
40
1
40
1
10
26.40977449934838
20
-0.074766189094614799
30
0
10
26.512578150151832
20
-0.14953200272688905
30
0
10
26.559307065268751
20
-0.27102785786306949
30
0
0
LINE
5
885
100
AcDbEntity
8
0
100
AcDbLine
10
26.559307065268744
20
-0.27102785786306949
30
0
11
28.017250944043319
21
-4.8130838889775429
31
0
0
LINE
5
886
100
AcDbEntity
8
0
100
AcDbLine
10
28.017250944043319
20
-4.8130838889775429
30
0
11
28.540615769554861
21
-6.4579434282197834
31
0
0
SPLINE
5
887
100
AcDbEntity
8
0
100
AcDbSpline
70
0
71
2
72
6
73
3
74
0
42
0.000000001
43
0.0000000001
44
0.0000000001
40
0
40
0
40
0
40
1
40
1
40
1
10
28.540615769554861
20
-6.4579434282197834
30
0
10
28.59669031751023
20
-6.6168225656344299
30
0
10
28.521924128415627
20
-6.761681939673247
30
0
0
SPLINE
5
888
100
AcDbEntity
8
0
100
AcDbSpline
70
0
71
2
72
6
73
3
74
0
42
0.000000001
43
0.0000000001
44
0.0000000001
40
0
40
0
40
0
40
1
40
1
40
1
10
28.521924128415627
20
-6.761681939673247
30
0
10
28.447157563858696
20
-6.9065420646367217
30
0
10
28.288279177368704
20
-6.9532706042913111
30
0
0
SPLINE
5
889
100
AcDbEntity
8
0
100
AcDbSpline
70
0
71
2
72
6
73
3
74
0
42
0.000000001
43
0.0000000001
44
0.0000000001
40
0
40
0
40
0
40
1
40
1
40
1
10
28.288279177368704
20
-6.9532706042913111
30
0
10
28.260241903391019
20
-6.9719626208928736
30
0
10
28.227531625262944
20
-6.9719626208928736
30
0
0
LINE
5
890
100
AcDbEntity
8
0
100
AcDbLine
10
28.227531625262944
20
-6.9719626208928736
30
0
11
28.166783697694854
21
-6.9719626208928736
31
0
0
SPLINE
5
891
100
AcDbEntity
8
0
100
AcDbSpline
70
0
71
2
72
6
73
3
74
0
42
0.000000001
43
0.0000000001
44
0.0000000001
40
0
40
0
40
0
40
1
40
1
40
1
10
28.166783697694854
20
-6.9719626208928736
30
0
10
28.03594258518255
20
-6.9719626208928736
30
0
10
27.933139122110262
20
-6.9018690604863311
30
0
0
SPLINE
5
892
100
AcDbEntity
8
0
100
AcDbSpline
70
0
71
2
72
6
73
3
74
0
42
0.000000001
43
0.0000000001
44
0.0000000001
40
0
40
0
40
0
40
1
40
1
40
1
10
27.933139122110262
20
-6.9018690604863311
30
0
10
27.830335283575643
20
-6.8317755000797886
30
0
10
27.783606368458727
20
-6.7009343875674858
30
0
0
LINE
5
893
100
AcDbEntity
8
0
100
AcDbLine
10
27.783606368458727
20
-6.7009343875674841
30
0
11
27.344353740342569
21
-5.3271027061883025
31
0
0
LINE
5
894
100
AcDbEntity
8
0
100
AcDbLine
10
27.344353740342569
20
-5.3271027061883025
30
0
11
25.979868067264167
21
-5.3271027061883025
31
0
0
SPLINE
5
895
100
AcDbEntity
8
0
100
AcDbSpline
70
0
71
2
72
6
73
3
74
0
42
0.000000001
43
0.0000000001
44
0.0000000001
40
0
40
0
40
0
40
1
40
1
40
1
10
25.979868067264167
20
-5.3271027061883025
30
0
10
25.811643672473398
20
-5.3271027061883025
30
0
10
25.694821196949938
20
-5.2102802306648419
30
0
0
SPLINE
5
896
100
AcDbEntity
8
0
100
AcDbSpline
70
0
71
2
72
6
73
3
74
0
42
0.000000001
43
0.0000000001
44
0.0000000001
40
0
40
0
40
0
40
1
40
1
40
1
10
25.694821196949938
20
-5.2102802306648419
30
0
10
25.577998721426475
20
-5.0934577551413813
30
0
10
25.577998721426475
20
-4.9345793686513932
30
0
0
SPLINE
5
897
100
AcDbEntity
8
0
100
AcDbSpline
70
0
71
2
72
6
73
3
74
0
42
0.000000001
43
0.0000000001
44
0.0000000001
40
0
40
0
40
0
40
1
40
1
40
1
10
25.577998721426475
20
-4.9345793686513932
30
0
10
25.577998721426475
20
-4.7663549738606239
30
0
10
25.694821196949938
20
-4.6495324983371633
30
0
0
SPLINE
5
898
100
AcDbEntity
8
0
100
AcDbSpline
70
0
71
2
72
6
73
3
74
0
42
0.000000001
43
0.0000000001
44
0.0000000001
40
0
40
0
40
0
40
1
40
1
40
1
10
25.694821196949938
20
-4.6495324983371633
30
0
10
25.811643672473398
20
-4.5327100228137027
30
0
10
25.979868067264167
20
-4.5327100228137027
30
0
0
LINE
5
899
100
AcDbEntity
8
0
100
AcDbLine
10
25.97986806726416
20
-4.5327100228137027
30
0
11
27.092017523618743
21
-4.5327100228137027
31
0
0
LINE
5
900
100
AcDbEntity
8
0
100
AcDbLine
10
27.092017523618743
20
-4.5327100228137027
30
0
11
26.176129736032621
21
-1.6915884543591704
31
0
0
LINE
5
901
100
AcDbEntity
8
0
100
AcDbLine
10
26.176129736032621
20
-1.6915884543591704
30
0
11
24.568652915875354
21
-6.7009343875674858
31
0
0
SPLINE
5
902
100
AcDbEntity
8
0
100
AcDbSpline
70
0
71
2
72
6
73
3
74
0
42
0.000000001
43
0.0000000001
44
0.0000000001
40
0
40
0
40
0
40
1
40
1
40
1
10
24.568652915875351
20
-6.7009343875674841
30
0
10
24.521924000758432
20
-6.859812774057473
30
0
10
24.372391247106897
20
-6.9299063344640146
30
0
0
SPLINE
5
903
100
AcDbEntity
8
0
100
AcDbSpline
70
0
71
2
72
6
73
3
74
0
42
0.000000001
43
0.0000000001
44
0.0000000001
40
0
40
0
40
0
40
1
40
1
40
1
10
24.372391247106897
20
-6.9299063344640146
30
0
10
24.222858493455359
20
-6.9999998948705571
30
0
10
24.063980013099791
20
-6.9532706042913093
30
0
0
SPLINE
5
904
100
AcDbEntity
8
0
100
AcDbSpline
70
0
71
2
72
6
73
3
74
0
42
0.000000001
43
0.0000000001
44
0.0000000001
40
0
40
0
40
0
40
1
40
1
40
1
10
24.063980013099791
20
-6.9532706042913093
30
0
10
23.905101485811429
20
-6.9065420646367199
30
0
10
23.835008019270468
20
-6.7616819396732453
30
0
0
SPLINE
5
905
100
AcDbEntity
8
0
100
AcDbSpline
70
0
71
2
72
6
73
3
74
0
42
0.000000001
43
0.0000000001
44
0.0000000001
40
0
40
0
40
0
40
1
40
1
40
1
10
23.835008019270468
20
-6.7616819396732453
30
0
10
23.764914552729508
20
-6.6168225656344291
30
0
10
23.811643514779217
20
-6.4579434282197816
30
0
0
SPLINE
5
906
100
AcDbEntity
8
0
100
AcDbSpline
70
0
71
2
72
6
73
3
74
0
42
0.000000001
43
0.0000000001
44
0.0000000001
40
0
40
0
40
0
40
1
40
1
40
1
10
25.802297851903781
20
-0.27102785786306932
30
0
10
25.839681134182246
20
-0.14953200272688885
30
0
10
25.942484784985702
20
-0.074766189094614632
30
0
0
LINE
5
907
100
AcDbEntity
8
0
100
AcDbLine
10
23.811643514779217
20
-6.4579434282197834
30
0
11
25.802297851903781
21
-0.27102785786306871
31
0
0
SPLINE
5
908
100
AcDbEntity
8
0
100
AcDbSpline
70
0
71
2
72
6
73
3
74
0
42
0.000000001
43
0.0000000001
44
0.0000000001
40
0
40
0
40
0
40
1
40
1
40
1
10
29.601363494373292
20
-0.11682172459881394
30
0
10
29.718185969896751
20
3.7546231731737757e-07
30
0
10
29.877064450252323
20
3.7546231722995842e-07
30
0
0
SPLINE
5
909
100
AcDbEntity
8
0
100
AcDbSpline
70
0
71
2
72
6
73
3
74
0
42
0.000000001
43
0.0000000001
44
0.0000000001
40
0
40
0
40
0
40
1
40
1
40
1
10
29.877064450252323
20
3.7546231722995842e-07
30
0
10
30.045288751177509
20
3.7546231722995842e-07
30
0
10
30.162111226700972
20
-0.11682172459881413
30
0
0
SPLINE
5
910
100
AcDbEntity
8
0
100
AcDbSpline
70
0
71
2
72
6
73
3
74
0
42
0.000000001
43
0.0000000001
44
0.0000000001
40
0
40
0
40
0
40
1
40
1
40
1
10
30.162111226700972
20
-0.11682172459881413
30
0
10
30.278933702224432
20
-0.23364457558460397
30
0
10
30.278933702224432
20
-0.39252296207459225
30
0
0
LINE
5
911
100
AcDbEntity
8
0
100
AcDbLine
10
30.278933702224432
20
-0.39252296207459225
30
0
11
30.278933702224432
21
-6.5794392833559652
31
0
0
SPLINE
5
912
100
AcDbEntity
8
0
100
AcDbSpline
70
0
71
2
72
6
73
3
74
0
42
0.000000001
43
0.0000000001
44
0.0000000001
40
0
40
0
40
0
40
1
40
1
40
1
10
30.278933702224432
20
-6.5794392833559634
30
0
10
30.278933702224432
20
-6.7383176698459524
30
0
10
30.162111226700972
20
-6.8551397699070833
30
0
0
SPLINE
5
913
100
AcDbEntity
8
0
100
AcDbSpline
70
0
71
2
72
6
73
3
74
0
42
0.000000001
43
0.0000000001
44
0.0000000001
40
0
40
0
40
0
40
1
40
1
40
1
10
30.162111226700972
20
-6.8551397699070833
30
0
10
30.045288751177509
20
-6.9719626208928736
30
0
10
29.877064450252323
20
-6.9719626208928736
30
0
0
SPLINE
5
914
100
AcDbEntity
8
0
100
AcDbSpline
70
0
71
2
72
6
73
3
74
0
42
0.000000001
43
0.0000000001
44
0.0000000001
40
0
40
0
40
0
40
1
40
1
40
1
10
29.877064450252323
20
-6.9719626208928736
30
0
10
29.718185969896751
20
-6.9719626208928736
30
0
10
29.601363494373292
20
-6.8551397699070833
30
0
0
SPLINE
5
915
100
AcDbEntity
8
0
100
AcDbSpline
70
0
71
2
72
6
73
3
74
0
42
0.000000001
43
0.0000000001
44
0.0000000001
40
0
40
0
40
0
40
1
40
1
40
1
10
29.601363494373292
20
-6.8551397699070833
30
0
10
29.484541065782622
20
-6.7383176698459524
30
0
10
29.484541065782622
20
-6.5794392833559634
30
0
0
SPLINE
5
916
100
AcDbEntity
8
0
100
AcDbSpline
70
0
71
2
72
6
73
3
74
0
42
0.000000001
43
0.0000000001
44
0.0000000001
40
0
40
0
40
0
40
1
40
1
40
1
10
29.484541065782622
20
-0.39252296207459209
30
0
10
29.484541065782622
20
-0.23364457558460372
30
0
10
29.601363494373292
20
-0.11682172459881394
30
0
0
LINE
5
917
100
AcDbEntity
8
0
100
AcDbLine
10
29.484541065782622
20
-6.5794392833559625
30
0
11
29.484541065782622
21
-0.39252296207459131
31
0
0
SPLINE
5
918
100
AcDbEntity
8
0
100
AcDbSpline
70
0
71
2
72
6
73
3
74
0
42
0.000000001
43
0.0000000001
44
0.0000000001
40
0
40
0
40
0
40
1
40
1
40
1
10
30.825662609832104
20
-3.7616819847287277
30
0
10
30.708840134308645
20
-3.6448595092052671
30
0
10
30.708840134308645
20
-3.485981122715279
30
0
0
SPLINE
5
919
100
AcDbEntity
8
0
100
AcDbSpline
70
0
71
2
72
6
73
3
74
0
42
0.000000001
43
0.0000000001
44
0.0000000001
40
0
40
0
40
0
40
1
40
1
40
1
10
30.708840134308645
20
-3.485981122715279
30
0
10
30.708840134308645
20
-3.3177567279245093
30
0
10
30.825662609832104
20
-3.2009342524010487
30
0
0
SPLINE
5
920
100
AcDbEntity
8
0
100
AcDbSpline
70
0
71
2
72
6
73
3
74
0
42
0.000000001
43
0.0000000001
44
0.0000000001
40
0
40
0
40
0
40
1
40
1
40
1
10
30.825662609832104
20
-3.2009342524010487
30
0
10
30.942485085355564
20
-3.0841117768775881
30
0
10
31.110709292415169
20
-3.0841117768775881
30
0
0
LINE
5
921
100
AcDbEntity
8
0
100
AcDbLine
10
31.110709292415162
20
-3.0841117768775881
30
0
11
32.063980362279757
21
-3.0841117768775885
31
0
0
SPLINE
5
922
100
AcDbEntity
8
0
100
AcDbSpline
70
0
71
2
72
6
73
3
74
0
42
0.000000001
43
0.0000000001
44
0.0000000001
40
0
40
0
40
0
40
1
40
1
40
1
10
32.063980362279757
20
-3.0841117768775881
30
0
10
32.297625501057844
20
-3.0841117768775881
30
0
10
32.507905806815138
20
-2.995326950794142
30
0
0
SPLINE
5
923
100
AcDbEntity
8
0
100
AcDbSpline
70
0
71
2
72
6
73
3
74
0
42
0.000000001
43
0.0000000001
44
0.0000000001
40
0
40
0
40
0
40
1
40
1
40
1
10
32.507905806815138
20
-2.995326950794142
30
0
10
32.71818611257244
20
-2.9065417492483667
30
0
10
32.877064874524756
20
-2.7523363669087697
30
0
0
SPLINE
5
924
100
AcDbEntity
8
0
100
AcDbSpline
70
0
71
2
72
6
73
3
74
0
42
0.000000001
43
0.0000000001
44
0.0000000001
40
0
40
0
40
0
40
1
40
1
40
1
10
32.877064874524756
20
-2.7523363669087697
30
0
10
33.035943261014744
20
-2.5981306091068426
30
0
10
33.124728462560519
20
-2.3878503033495453
30
0
0
SPLINE
5
925
100
AcDbEntity
8
0
100
AcDbSpline
70
0
71
2
72
6
73
3
74
0
42
0.000000001
43
0.0000000001
44
0.0000000001
40
0
40
0
40
0
40
1
40
1
40
1
10
33.124728462560519
20
-2.3878503033495453
30
0
10
33.213513288643966
20
-2.177569997592248
30
0
10
33.213513288643966
20
-1.9439250465453268
30
0
0
SPLINE
5
926
100
AcDbEntity
8
0
100
AcDbSpline
70
0
71
2
72
6
73
3
74
0
42
0.000000001
43
0.0000000001
44
0.0000000001
40
0
40
0
40
0
40
1
40
1
40
1
10
33.213513288643966
20
-1.9439250465453268
30
0
10
33.213513288643966
20
-1.7102800954984057
30
0
10
33.124728462560519
20
-1.4999997897411084
30
0
0
SPLINE
5
927
100
AcDbEntity
8
0
100
AcDbSpline
70
0
71
2
72
6
73
3
74
0
42
0.000000001
43
0.0000000001
44
0.0000000001
40
0
40
0
40
0
40
1
40
1
40
1
10
33.124728462560519
20
-1.4999997897411084
30
0
10
33.035943261014744
20
-1.2897194839838111
30
0
10
32.877064874524756
20
-1.1308407220314936
30
0
0
SPLINE
5
928
100
AcDbEntity
8
0
100
AcDbSpline
70
0
71
2
72
6
73
3
74
0
42
0.000000001
43
0.0000000001
44
0.0000000001
40
0
40
0
40
0
40
1
40
1
40
1
10
32.877064874524756
20
-1.1308407220314936
30
0
10
32.71818611257244
20
-0.97196233554150524
30
0
10
32.507905806815138
20
-0.88317713399572984
30
0
0
SPLINE
5
929
100
AcDbEntity
8
0
100
AcDbSpline
70
0
71
2
72
6
73
3
74
0
42
0.000000001
43
0.0000000001
44
0.0000000001
40
0
40
0
40
0
40
1
40
1
40
1
10
32.507905806815138
20
-0.88317713399572984
30
0
10
32.297625501057844
20
-0.79439230791228332
30
0
10
32.063980362279757
20
-0.79439230791228332
30
0
0
LINE
5
930
100
AcDbEntity
8
0
100
AcDbLine
10
32.063980362279757
20
-0.79439230791228332
30
0
11
31.110709292415169
21
-0.79439230791228299
31
0
0
SPLINE
5
931
100
AcDbEntity
8
0
100
AcDbSpline
70
0
71
2
72
6
73
3
74
0
42
0.000000001
43
0.0000000001
44
0.0000000001
40
0
40
0
40
0
40
1
40
1
40
1
10
31.110709292415169
20
-0.79439230791228299
30
0
10
30.942485085355564
20
-0.79439230791228299
30
0
10
30.825662609832104
20
-0.67756945692649329
30
0
0
SPLINE
5
932
100
AcDbEntity
8
0
100
AcDbSpline
70
0
71
2
72
6
73
3
74
0
42
0.000000001
43
0.0000000001
44
0.0000000001
40
0
40
0
40
0
40
1
40
1
40
1
10
30.825662609832104
20
-0.67756945692649329
30
0
10
30.708840134308645
20
-0.56074735686536203
30
0
10
30.708840134308645
20
-0.39252296207459247
30
0
0
SPLINE
5
933
100
AcDbEntity
8
0
100
AcDbSpline
70
0
71
2
72
6
73
3
74
0
42
0.000000001
43
0.0000000001
44
0.0000000001
40
0
40
0
40
0
40
1
40
1
40
1
10
30.708840134308645
20
-0.39252296207459247
30
0
10
30.708840134308645
20
-0.23364457558460405
30
0
10
30.825662609832104
20
-0.11682172459881429
30
0
0
SPLINE
5
934
100
AcDbEntity
8
0
100
AcDbSpline
70
0
71
2
72
6
73
3
74
0
42
0.000000001
43
0.0000000001
44
0.0000000001
40
0
40
0
40
0
40
1
40
1
40
1
10
30.825662609832104
20
-0.11682172459881429
30
0
10
30.942485085355564
20
3.7546231696770103e-07
30
0
10
31.110709292415169
20
3.7546231688028189e-07
30
0
0
LINE
5
935
100
AcDbEntity
8
0
100
AcDbLine
10
31.110709292415162
20
3.7546231688028189e-07
30
0
11
32.063980362279757
21
3.7546231661361268e-07
31
0
0
SPLINE
5
936
100
AcDbEntity
8
0
100
AcDbSpline
70
0
71
2
72
6
73
3
74
0
42
0.000000001
43
0.0000000001
44
0.0000000001
40
0
40
0
40
0
40
1
40
1
40
1
10
32.063980362279757
20
3.754623166180245e-07
30
0
10
32.465849520386286
20
3.7546231653060535e-07
30
0
10
32.820989951107059
20
-0.15420500687728123
30
0
0
SPLINE
5
937
100
AcDbEntity
8
0
100
AcDbSpline
70
0
71
2
72
6
73
3
74
0
42
0.000000001
43
0.0000000001
44
0.0000000001
40
0
40
0
40
0
40
1
40
1
40
1
10
32.820989951107059
20
-0.15420500687728123
30
0
10
33.176130006365497
20
-0.30841114014153764
30
0
10
33.437812606852432
20
-0.57009336516614395
30
0
0
SPLINE
5
938
100
AcDbEntity
8
0
100
AcDbSpline
70
0
71
2
72
6
73
3
74
0
42
0.000000001
43
0.0000000001
44
0.0000000001
40
0
40
0
40
0
40
1
40
1
40
1
10
33.437812606852432
20
-0.57009336516614395
30
0
10
33.69949483187704
20
-0.83177521472842086
30
0
10
33.853700214216637
20
-1.1869156454491936
30
0
0
SPLINE
5
939
100
AcDbEntity
8
0
100
AcDbSpline
70
0
71
2
72
6
73
3
74
0
42
0.000000001
43
0.0000000001
44
0.0000000001
40
0
40
0
40
0
40
1
40
1
40
1
10
33.853700214216637
20
-1.1869156454491936
30
0
10
34.007905972018563
20
-1.5420557007076365
30
0
10
34.007905972018563
20
-1.9439250465453271
30
0
0
SPLINE
5
940
100
AcDbEntity
8
0
100
AcDbSpline
70
0
71
2
72
6
73
3
74
0
42
0.000000001
43
0.0000000001
44
0.0000000001
40
0
40
0
40
0
40
1
40
1
40
1
10
34.007905972018563
20
-1.9439250465453271
30
0
10
34.007905972018563
20
-2.4205605814776212
30
0
10
33.802298294949331
20
-2.8177569231649215
30
0
0
SPLINE
5
941
100
AcDbEntity
8
0
100
AcDbSpline
70
0
71
2
72
6
73
3
74
0
42
0.000000001
43
0.0000000001
44
0.0000000001
40
0
40
0
40
0
40
1
40
1
40
1
10
33.802298294949331
20
-2.8177569231649215
30
0
10
33.59669099334242
20
-3.2149528893898922
30
0
10
33.241550938083982
20
-3.4859811227152795
30
0
0
SPLINE
5
942
100
AcDbEntity
8
0
100
AcDbSpline
70
0
71
2
72
6
73
3
74
0
42
0.000000001
43
0.0000000001
44
0.0000000001
40
0
40
0
40
0
40
1
40
1
40
1
10
33.241550938083982
20
-3.4859811227152795
30
0
10
33.59669099334242
20
-3.7570093560406672
30
0
10
33.802298294949331
20
-4.1542053222656383
30
0
0
SPLINE
5
943
100
AcDbEntity
8
0
100
AcDbSpline
70
0
71
2
72
6
73
3
74
0
42
0.000000001
43
0.0000000001
44
0.0000000001
40
0
40
0
40
0
40
1
40
1
40
1
10
33.802298294949331
20
-4.1542053222656383
30
0
10
34.007905972018563
20
-4.5514012884906085
30
0
10
34.007905972018563
20
-5.0280371988852322
30
0
0
SPLINE
5
944
100
AcDbEntity
8
0
100
AcDbSpline
70
0
71
2
72
6
73
3
74
0
42
0.000000001
43
0.0000000001
44
0.0000000001
40
0
40
0
40
0
40
1
40
1
40
1
10
34.007905972018563
20
-5.0280371988852322
30
0
10
34.007905972018563
20
-5.4299065447229227
30
0
10
33.853700214216637
20
-5.7850465999813663
30
0
0
SPLINE
5
945
100
AcDbEntity
8
0
100
AcDbSpline
70
0
71
2
72
6
73
3
74
0
42
0.000000001
43
0.0000000001
44
0.0000000001
40
0
40
0
40
0
40
1
40
1
40
1
10
33.853700214216637
20
-5.7850465999813663
30
0
10
33.69949483187704
20
-6.140186655239809
30
0
10
33.437812606852432
20
-6.4018688802644146
30
0
0
SPLINE
5
946
100
AcDbEntity
8
0
100
AcDbSpline
70
0
71
2
72
6
73
3
74
0
42
0.000000001
43
0.0000000001
44
0.0000000001
40
0
40
0
40
0
40
1
40
1
40
1
10
33.437812606852432
20
-6.4018688802644146
30
0
10
33.176130006365497
20
-6.6635511052890211
30
0
10
32.820989951107059
20
-6.817757238553277
30
0
0
SPLINE
5
947
100
AcDbEntity
8
0
100
AcDbSpline
70
0
71
2
72
6
73
3
74
0
42
0.000000001
43
0.0000000001
44
0.0000000001
40
0
40
0
40
0
40
1
40
1
40
1
10
32.820989951107059
20
-6.817757238553277
30
0
10
32.465849520386286
20
-6.9719626208928744
30
0
10
32.063980362279757
20
-6.9719626208928744
30
0
0
LINE
5
948
100
AcDbEntity
8
0
100
AcDbLine
10
32.063980362279757
20
-6.9719626208928744
30
0
11
31.110709292415169
21
-6.9719626208928744
31
0
0
SPLINE
5
949
100
AcDbEntity
8
0
100
AcDbSpline
70
0
71
2
72
6
73
3
74
0
42
0.000000001
43
0.0000000001
44
0.0000000001
40
0
40
0
40
0
40
1
40
1
40
1
10
31.110709292415169
20
-6.9719626208928736
30
0
10
30.942485085355564
20
-6.9719626208928736
30
0
10
30.825662609832104
20
-6.8551397699070833
30
0
0
SPLINE
5
950
100
AcDbEntity
8
0
100
AcDbSpline
70
0
71
2
72
6
73
3
74
0
42
0.000000001
43
0.0000000001
44
0.0000000001
40
0
40
0
40
0
40
1
40
1
40
1
10
30.825662609832104
20
-6.8551397699070833
30
0
10
30.708840134308645
20
-6.7383176698459524
30
0
10
30.708840134308645
20
-6.5794392833559634
30
0
0
SPLINE
5
951
100
AcDbEntity
8
0
100
AcDbSpline
70
0
71
2
72
6
73
3
74
0
42
0.000000001
43
0.0000000001
44
0.0000000001
40
0
40
0
40
0
40
1
40
1
40
1
10
30.708840134308645
20
-6.5794392833559634
30
0
10
30.708840134308645
20
-6.4112148885651941
30
0
10
30.825662609832104
20
-6.2943920375794047
30
0
0
SPLINE
5
952
100
AcDbEntity
8
0
100
AcDbSpline
70
0
71
2
72
6
73
3
74
0
42
0.000000001
43
0.0000000001
44
0.0000000001
40
0
40
0
40
0
40
1
40
1
40
1
10
30.825662609832104
20
-6.2943920375794047
30
0
10
30.942485085355564
20
-6.1775699375182738
30
0
10
31.110709292415169
20
-6.1775699375182738
30
0
0
LINE
5
953
100
AcDbEntity
8
0
100
AcDbLine
10
31.110709292415162
20
-6.1775699375182738
30
0
11
32.063980362279757
21
-6.1775699375182755
31
0
0
SPLINE
5
954
100
AcDbEntity
8
0
100
AcDbSpline
70
0
71
2
72
6
73
3
74
0
42
0.000000001
43
0.0000000001
44
0.0000000001
40
0
40
0
40
0
40
1
40
1
40
1
10
32.063980362279757
20
-6.1775699375182755
30
0
10
32.297625501057844
20
-6.1775699375182755
30
0
10
32.507905806815138
20
-6.088785111434829
30
0
0
SPLINE
5
955
100
AcDbEntity
8
0
100
AcDbSpline
70
0
71
2
72
6
73
3
74
0
42
0.000000001
43
0.0000000001
44
0.0000000001
40
0
40
0
40
0
40
1
40
1
40
1
10
32.507905806815138
20
-6.088785111434829
30
0
10
32.71818611257244
20
-5.9999995344267241
30
0
10
32.877064874524756
20
-5.841121147936736
30
0
0
SPLINE
5
956
100
AcDbEntity
8
0
100
AcDbSpline
70
0
71
2
72
6
73
3
74
0
42
0.000000001
43
0.0000000001
44
0.0000000001
40
0
40
0
40
0
40
1
40
1
40
1
10
32.877064874524756
20
-5.841121147936736
30
0
10
33.035943261014744
20
-5.6822427614467479
30
0
10
33.124728462560519
20
-5.4766354598398408
30
0
0
SPLINE
5
957
100
AcDbEntity
8
0
100
AcDbSpline
70
0
71
2
72
6
73
3
74
0
42
0.000000001
43
0.0000000001
44
0.0000000001
40
0
40
0
40
0
40
1
40
1
40
1
10
33.124728462560519
20
-5.4766354598398408
30
0
10
33.213513288643966
20
-5.2710277827706049
30
0
10
33.213513288643966
20
-5.0280371988852322
30
0
0
SPLINE
5
958
100
AcDbEntity
8
0
100
AcDbSpline
70
0
71
2
72
6
73
3
74
0
42
0.000000001
43
0.0000000001
44
0.0000000001
40
0
40
0
40
0
40
1
40
1
40
1
10
33.213513288643966
20
-5.0280371988852322
30
0
10
33.213513288643966
20
-4.794392247838311
30
0
10
33.124728462560519
20
-4.5841115666186845
30
0
0
SPLINE
5
959
100
AcDbEntity
8
0
100
AcDbSpline
70
0
71
2
72
6
73
3
74
0
42
0.000000001
43
0.0000000001
44
0.0000000001
40
0
40
0
40
0
40
1
40
1
40
1
10
33.124728462560519
20
-4.5841115666186845
30
0
10
33.035943261014744
20
-4.3738316363237164
30
0
10
32.877064874524756
20
-4.2196258785217893
30
0
0
SPLINE
5
960
100
AcDbEntity
8
0
100
AcDbSpline
70
0
71
2
72
6
73
3
74
0
42
0.000000001
43
0.0000000001
44
0.0000000001
40
0
40
0
40
0
40
1
40
1
40
1
10
32.877064874524756
20
-4.2196258785217893
30
0
10
32.71818611257244
20
-4.0654201207198621
30
0
10
32.507905806815138
20
-3.971962290486025
30
0
0
SPLINE
5
961
100
AcDbEntity
8
0
100
AcDbSpline
70
0
71
2
72
6
73
3
74
0
42
0.000000001
43
0.0000000001
44
0.0000000001
40
0
40
0
40
0
40
1
40
1
40
1
10
32.507905806815138
20
-3.971962290486025
30
0
10
32.297625501057844
20
-3.8785044602521883
30
0
10
32.063980362279757
20
-3.8785044602521883
30
0
0
SPLINE
5
962
100
AcDbEntity
8
0
100
AcDbSpline
70
0
71
2
72
6
73
3
74
0
42
0.000000001
43
0.0000000001
44
0.0000000001
40
0
40
0
40
0
40
1
40
1
40
1
10
31.110709292415169
20
-3.8785044602521883
30
0
10
30.942485085355564
20
-3.8785044602521883
30
0
10
30.825662609832104
20
-3.7616819847287277
30
0
0
LINE
5
963
100
AcDbEntity
8
0
100
AcDbLine
10
32.063980362279757
20
-3.8785044602521883
30
0
11
31.110709292415169
21
-3.8785044602521883
31
0
0
SPLINE
5
964
100
AcDbEntity
8
0
100
AcDbSpline
70
0
71
2
72
6
73
3
74
0
42
0.000000001
43
0.0000000001
44
0.0000000001
40
0
40
0
40
0
40
1
40
1
40
1
10
26.69867832052012
20
-9.6083072769293363
30
0
10
26.604242598649638
20
-9.7312086752952283
30
0
10
26.484582566572538
20
-9.820491552158483
30
0
0
SPLINE
5
965
100
AcDbEntity
8
0
100
AcDbSpline
70
0
71
2
72
6
73
3
74
0
42
0.000000001
43
0.0000000001
44
0.0000000001
40
0
40
0
40
0
40
1
40
1
40
1
10
26.484582566572538
20
-9.820491552158483
30
0
10
26.364922534495442
20
-9.909774241290572
30
0
10
26.225814304685578
20
-9.9628409605259698
30
0
0
SPLINE
5
966
100
AcDbEntity
8
0
100
AcDbSpline
70
0
71
2
72
6
73
3
74
0
42
0.000000001
43
0.0000000001
44
0.0000000001
40
0
40
0
40
0
40
1
40
1
40
1
10
26.225814304685578
20
-9.9628409605259698
30
0
10
26.086706074875718
20
-10.015907867492533
30
0
10
25.947951155117725
20
-10.015907867492533
30
0
0
LINE
5
967
100
AcDbEntity
8
0
100
AcDbLine
10
25.947951155117725
20
-10.015907867492533
30
0
11
25.556619675812367
21
-10.015907867492533
31
0
0
SPLINE
5
968
100
AcDbEntity
8
0
100
AcDbSpline
70
0
71
2
72
6
73
3
74
0
42
0.000000001
43
0.0000000001
44
0.0000000001
40
0
40
0
40
0
40
1
40
1
40
1
10
25.556619675812367
20
-10.015907867492533
30
0
10
25.528901920276912
20
-10.015907867492533
30
0
10
25.517868795465844
20
-9.9963141781071698
30
0
0
SPLINE
5
969
100
AcDbEntity
8
0
100
AcDbSpline
70
0
71
2
72
6
73
3
74
0
42
0.000000001
43
0.0000000001
44
0.0000000001
40
0
40
0
40
0
40
1
40
1
40
1
10
25.517868795465844
20
-9.9963141781071698
30
0
10
25.506835717587567
20
-9.9767206764529721
30
0
10
25.515645589148512
20
-9.9507897461426253
30
0
0
SPLINE
5
970
100
AcDbEntity
8
0
100
AcDbSpline
70
0
71
2
72
6
73
3
74
0
42
0.000000001
43
0.0000000001
44
0.0000000001
40
0
40
0
40
0
40
1
40
1
40
1
10
25.515645589148512
20
-9.9507897461426253
30
0
10
25.5360494793077
20
-9.8909078224370521
30
0
10
25.599172839701257
20
-9.8909078224370521
30
0
0
LINE
5
971
100
AcDbEntity
8
0
100
AcDbLine
10
25.599172839701257
20
-9.8909078224370521
30
0
11
25.990504272073824
21
-9.8909078224370521
31
0
0
SPLINE
5
972
100
AcDbEntity
8
0
100
AcDbSpline
70
0
71
2
72
6
73
3
74
0
42
0.000000001
43
0.0000000001
44
0.0000000001
40
0
40
0
40
0
40
1
40
1
40
1
10
25.990504272073824
20
-9.8909078224370521
30
0
10
26.102289451121898
20
-9.8909078224370521
30
0
10
26.212682697449697
20
-9.8489363904946163
30
0
0
SPLINE
5
973
100
AcDbEntity
8
0
100
AcDbSpline
70
0
71
2
72
6
73
3
74
0
42
0.000000001
43
0.0000000001
44
0.0000000001
40
0
40
0
40
0
40
1
40
1
40
1
10
26.212682697449697
20
-9.8489363904946163
30
0
10
26.323075756046329
20
-9.8069649585521805
30
0
10
26.422228035697401
20
-9.7328916851862886
30
0
0
SPLINE
5
974
100
AcDbEntity
8
0
100
AcDbSpline
70
0
71
2
72
6
73
3
74
0
42
0.000000001
43
0.0000000001
44
0.0000000001
40
0
40
0
40
0
40
1
40
1
40
1
10
26.422228035697401
20
-9.7328916851862886
30
0
10
26.521380315348473
20
-9.6588184118203966
30
0
10
26.597614562150614
20
-9.5598324619812018
30
0
0
SPLINE
5
975
100
AcDbEntity
8
0
100
AcDbSpline
70
0
71
2
72
6
73
3
74
0
42
0.000000001
43
0.0000000001
44
0.0000000001
40
0
40
0
40
0
40
1
40
1
40
1
10
26.597614562150614
20
-9.5598324619812018
30
0
10
26.673848808952755
20
-9.4608463244108432
30
0
10
26.712329379888583
20
-9.3477729341109637
30
0
0
LINE
5
976
100
AcDbEntity
8
0
100
AcDbLine
10
26.712329379888583
20
-9.3477729341109637
30
0
11
26.939099615686136
21
-8.6813833373671176
31
0
0
SPLINE
5
977
100
AcDbEntity
8
0
100
AcDbSpline
70
0
71
2
72
6
73
3
74
0
42
0.000000001
43
0.0000000001
44
0.0000000001
40
0
40
0
40
0
40
1
40
1
40
1
10
26.939099615686136
20
-8.6813833373671194
30
0
10
26.977081760379825
20
-8.5697643003997594
30
0
10
26.968292750444551
20
-8.4715055272268245
30
0
0
SPLINE
5
978
100
AcDbEntity
8
0
100
AcDbSpline
70
0
71
2
72
6
73
3
74
0
42
0.000000001
43
0.0000000001
44
0.0000000001
40
0
40
0
40
0
40
1
40
1
40
1
10
26.968292750444551
20
-8.4715055272268245
30
0
10
26.959503552778113
20
-8.3732466601883075
30
0
10
26.910883246177377
20
-8.2993395289031291
30
0
0
SPLINE
5
979
100
AcDbEntity
8
0
100
AcDbSpline
70
0
71
2
72
6
73
3
74
0
42
0.000000001
43
0.0000000001
44
0.0000000001
40
0
40
0
40
0
40
1
40
1
40
1
10
26.910883246177377
20
-8.2993395289031291
30
0
10
26.862262939576642
20
-8.2254325853491146
30
0
10
26.779816105342839
20
-8.1831701701014747
30
0
0
SPLINE
5
980
100
AcDbEntity
8
0
100
AcDbSpline
70
0
71
2
72
6
73
3
74
0
42
0.000000001
43
0.0000000001
44
0.0000000001
40
0
40
0
40
0
40
1
40
1
40
1
10
26.779816105342839
20
-8.1831701701014747
30
0
10
26.697369271109036
20
-8.1409079425850006
30
0
10
26.586041123581296
20
-8.1409079425849988
30
0
0
LINE
5
981
100
AcDbEntity
8
0
100
AcDbLine
10
26.586041123581303
20
-8.1409079425849988
30
0
11
26.194709691208732
21
-8.1409079425849988
31
0
0
SPLINE
5
982
100
AcDbEntity
8
0
100
AcDbSpline
70
0
71
2
72
6
73
3
74
0
42
0.000000001
43
0.0000000001
44
0.0000000001
40
0
40
0
40
0
40
1
40
1
40
1
10
26.194709691208732
20
-8.1409079425849988
30
0
10
26.131586401214363
20
-8.1409079425849988
30
0
10
26.15286291275962
20
-8.0783664314698722
30
0
0
SPLINE
5
983
100
AcDbEntity
8
0
100
AcDbSpline
70
0
71
2
72
6
73
3
74
0
42
0.000000001
43
0.0000000001
44
0.0000000001
40
0
40
0
40
0
40
1
40
1
40
1
10
26.15286291275962
20
-8.0783664314698722
30
0
10
26.160966328481603
20
-8.0545964745957761
30
0
10
26.185027268660903
20
-8.035252092197064
30
0
0
SPLINE
5
984
100
AcDbEntity
8
0
100
AcDbSpline
70
0
71
2
72
6
73
3
74
0
42
0.000000001
43
0.0000000001
44
0.0000000001
40
0
40
0
40
0
40
1
40
1
40
1
10
26.185027268660903
20
-8.035252092197064
30
0
10
26.209088021109036
20
-8.0159078975295195
30
0
10
26.237262902030409
20
-8.0159078975295195
30
0
0
LINE
5
985
100
AcDbEntity
8
0
100
AcDbLine
10
26.237262902030412
20
-8.0159078975295195
30
0
11
26.628594334402976
21
-8.0159078975295195
31
0
0
SPLINE
5
986
100
AcDbEntity
8
0
100
AcDbSpline
70
0
71
2
72
6
73
3
74
0
42
0.000000001
43
0.0000000001
44
0.0000000001
40
0
40
0
40
0
40
1
40
1
40
1
10
26.628594334402976
20
-8.0159078975295195
30
0
10
26.766933805093604
20
-8.0159078975295195
30
0
10
26.870511846951228
20
-8.0692656000701213
30
0
0
SPLINE
5
987
100
AcDbEntity
8
0
100
AcDbSpline
70
0
71
2
72
6
73
3
74
0
42
0.000000001
43
0.0000000001
44
0.0000000001
40
0
40
0
40
0
40
1
40
1
40
1
10
26.870511846951228
20
-8.0692656000701213
30
0
10
26.974089701077684
20
-8.1226233026107213
30
0
10
27.032870393771439
20
-8.2117606878213749
30
0
0
SPLINE
5
988
100
AcDbEntity
8
0
100
AcDbSpline
70
0
71
2
72
6
73
3
74
0
42
0.000000001
43
0.0000000001
44
0.0000000001
40
0
40
0
40
0
40
1
40
1
40
1
10
27.032870393771439
20
-8.2117606878213749
30
0
10
27.091651274196359
20
-8.3008978853008628
30
0
10
27.102372601009343
20
-8.423072200866077
30
0
0
SPLINE
5
989
100
AcDbEntity
8
0
100
AcDbSpline
70
0
71
2
72
6
73
3
74
0
42
0.000000001
43
0.0000000001
44
0.0000000001
40
0
40
0
40
0
40
1
40
1
40
1
10
27.102372601009343
20
-8.423072200866077
30
0
10
27.113094115553491
20
-8.5452463287001272
30
0
10
27.066593106070457
20
-8.6818404627530334
30
0
0
SPLINE
5
990
100
AcDbEntity
8
0
100
AcDbSpline
70
0
71
2
72
6
73
3
74
0
42
0.000000001
43
0.0000000001
44
0.0000000001
40
0
40
0
40
0
40
1
40
1
40
1
10
26.840113665846943
20
-9.3473158087250496
30
0
10
26.793114042390602
20
-9.4854058785634461
30
0
10
26.69867832052012
20
-9.6083072769293363
30
0
0
LINE
5
991
100
AcDbEntity
8
0
100
AcDbLine
10
27.066593106070457
20
-8.6818404627530334
30
0
11
26.840113665846943
21
-9.3473158087250496
31
0
0
SPLINE
5
992
100
AcDbEntity
8
0
100
AcDbSpline
70
0
71
2
72
6
73
3
74
0
42
0.000000001
43
0.0000000001
44
0.0000000001
40
0
40
0
40
0
40
1
40
1
40
1
10
25.397793150056611
20
-9.9962103627731196
30
0
10
25.371696101131949
20
-10.015907867492531
30
0
10
25.345349686554645
20
-10.015907867492531
30
0
0
SPLINE
5
993
100
AcDbEntity
8
0
100
AcDbSpline
70
0
71
2
72
6
73
3
74
0
42
0.000000001
43
0.0000000001
44
0.0000000001
40
0
40
0
40
0
40
1
40
1
40
1
10
25.345349686554645
20
-10.015907867492531
30
0
10
25.31721639981944
20
-10.015907867492531
30
0
10
25.306702750607347
20
-9.9962312009323959
30
0
0
SPLINE
5
994
100
AcDbEntity
8
0
100
AcDbSpline
70
0
71
2
72
6
73
3
74
0
42
0.000000001
43
0.0000000001
44
0.0000000001
40
0
40
0
40
0
40
1
40
1
40
1
10
25.306702750607347
20
-9.9962312009323959
30
0
10
25.296189089662054
20
-9.9765545343722604
30
0
10
25.305165185436099
20
-9.9501664786759978
30
0
0
LINE
5
995
100
AcDbEntity
8
0
100
AcDbLine
10
25.305165185436099
20
-9.9501664786759978
30
0
11
25.941967036513439
21
-8.0789896989364998
31
0
0
SPLINE
5
996
100
AcDbEntity
8
0
100
AcDbSpline
70
0
71
2
72
6
73
3
74
0
42
0.000000001
43
0.0000000001
44
0.0000000001
40
0
40
0
40
0
40
1
40
1
40
1
10
25.941967036513446
20
-8.0789896989364998
30
0
10
25.950236594316141
20
-8.0547626166764879
30
0
10
25.973819570950251
20
-8.0353352571030037
30
0
0
SPLINE
5
997
100
AcDbEntity
8
0
100
AcDbSpline
70
0
71
2
72
6
73
3
74
0
42
0.000000001
43
0.0000000001
44
0.0000000001
40
0
40
0
40
0
40
1
40
1
40
1
10
25.973819570950251
20
-8.0353352571030037
30
0
10
25.997402547584358
20
-8.0159078975295195
30
0
10
26.025992971438676
20
-8.0159078975295195
30
0
0
SPLINE
5
998
100
AcDbEntity
8
0
100
AcDbSpline
70
0
71
2
72
6
73
3
74
0
42
0.000000001
43
0.0000000001
44
0.0000000001
40
0
40
0
40
0
40
1
40
1
40
1
10
26.025992971438676
20
-8.0159078975295195
30
0
10
26.052754893749331
20
-8.0159078975295195
30
0
10
26.065304815971558
20
-8.035397583849667
30
0
0
SPLINE
5
999
100
AcDbEntity
8
0
100
AcDbSpline
70
0
71
2
72
6
73
3
74
0
42
0.000000001
43
0.0000000001
44
0.0000000001
40
0
40
0
40
0
40
1
40
1
40
1
10
26.065304815971558
20
-8.035397583849667
30
0
10
26.077854738193786
20
-8.0548872701698127
30
0
10
26.069626668978479
20
-8.0789896989364998
30
0
0
SPLINE
5
1000
100
AcDbEntity
8
0
100
AcDbSpline
70
0
71
2
72
6
73
3
74
0
42
0.000000001
43
0.0000000001
44
0.0000000001
40
0
40
0
40
0
40
1
40
1
40
1
10
25.432824770968338
20
-9.9501664786759978
30
0
10
25.423890222447671
20
-9.9765128580537077
30
0
10
25.397793150056611
20
-9.9962103627731196
30
0
0
LINE
5
1001
100
AcDbEntity
8
0
100
AcDbLine
10
26.069626668978479
20
-8.0789896989364998
30
0
11
25.432824770968345
21
-9.9501664786759978
31
0
0
SPLINE
5
1002
100
AcDbEntity
8
0
100
AcDbSpline
70
0
71
2
72
6
73
3
74
0
42
0.000000001
43
0.0000000001
44
0.0000000001
40
0
40
0
40
0
40
1
40
1
40
1
10
28.78875057689373
20
-8.0212270723486281
30
0
10
28.852580393126242
20
-8.0212270723486281
30
0
10
28.832010220087973
20
-8.0816907749334437
30
0
0
LINE
5
1003
100
AcDbEntity
8
0
100
AcDbLine
10
28.832010220087973
20
-8.0816907749334437
30
0
11
28.199779482071406
21
-9.9394866404504043
31
0
0
SPLINE
5
1004
100
AcDbEntity
8
0
100
AcDbSpline
70
0
71
2
72
6
73
3
74
0
42
0.000000001
43
0.0000000001
44
0.0000000001
40
0
40
0
40
0
40
1
40
1
40
1
10
28.199779482071403
20
-9.9394866404504043
30
0
10
28.178295105194092
20
-10.002609930444772
30
0
10
28.114465312427971
20
-10.002609930444772
30
0
0
SPLINE
5
1005
100
AcDbEntity
8
0
100
AcDbSpline
70
0
71
2
72
6
73
3
74
0
42
0.000000001
43
0.0000000001
44
0.0000000001
40
0
40
0
40
0
40
1
40
1
40
1
10
28.114465312427971
20
-10.002609930444772
30
0
10
28.050635531395049
20
-10.002609930444772
30
0
10
28.072119908272359
20
-9.9394866404504043
30
0
0
SPLINE
5
1006
100
AcDbEntity
8
0
100
AcDbSpline
70
0
71
2
72
6
73
3
74
0
42
0.000000001
43
0.0000000001
44
0.0000000001
40
0
40
0
40
0
40
1
40
1
40
1
10
28.70435058762294
20
-8.0816907749334437
30
0
10
28.724920760661213
20
-8.0212270723486281
30
0
10
28.78875057689373
20
-8.0212270723486281
30
0
0
LINE
5
1007
100
AcDbEntity
8
0
100
AcDbLine
10
28.072119908272359
20
-9.9394866404504043
30
0
11
28.704350587622933
21
-8.0816907749334437
31
0
0
SPLINE
5
1008
100
AcDbEntity
8
0
100
AcDbSpline
70
0
71
2
72
6
73
3
74
0
42
0.000000001
43
0.0000000001
44
0.0000000001
40
0
40
0
40
0
40
1
40
1
40
1
10
28.592108283188953
20
-9.0105888015575069
30
0
10
28.570374552392199
20
-9.0744185239244413
30
0
10
28.633497889319358
20
-9.0744185239244413
30
0
0
LINE
5
1009
100
AcDbEntity
8
0
100
AcDbLine
10
28.633497889319358
20
-9.0744185239244413
30
0
11
29.084877528276582
21
-9.0744185239244413
31
0
0
SPLINE
5
1010
100
AcDbEntity
8
0
100
AcDbSpline
70
0
71
2
72
6
73
3
74
0
42
0.000000001
43
0.0000000001
44
0.0000000001
40
0
40
0
40
0
40
1
40
1
40
1
10
29.084877528276582
20
-9.0744185239244413
30
0
10
29.167573763362618
20
-9.0744185239244413
30
0
10
29.230343837170704
20
-9.1062711522268263
30
0
0
SPLINE
5
1011
100
AcDbEntity
8
0
100
AcDbSpline
70
0
71
2
72
6
73
3
74
0
42
0.000000001
43
0.0000000001
44
0.0000000001
40
0
40
0
40
0
40
1
40
1
40
1
10
29.230343837170704
20
-9.1062711522268263
30
0
10
29.293113910978786
20
-9.1381236866636311
30
0
10
29.328166323116996
20
-9.1931020723486281
30
0
0
SPLINE
5
1012
100
AcDbEntity
8
0
100
AcDbSpline
70
0
71
2
72
6
73
3
74
0
42
0.000000001
43
0.0000000001
44
0.0000000001
40
0
40
0
40
0
40
1
40
1
40
1
10
29.328166323116996
20
-9.1931020723486281
30
0
10
29.363218641389626
20
-9.2480804580336269
30
0
10
29.370511715539411
20
-9.3204707215084586
30
0
0
SPLINE
5
1013
100
AcDbEntity
8
0
100
AcDbSpline
70
0
71
2
72
6
73
3
74
0
42
0.000000001
43
0.0000000001
44
0.0000000001
40
0
40
0
40
0
40
1
40
1
40
1
10
29.370511715539411
20
-9.3204707215084586
30
0
10
29.377804789689197
20
-9.392860984983292
30
0
10
29.349712979808182
20
-9.4754324727104198
30
0
0
LINE
5
1014
100
AcDbEntity
8
0
100
AcDbLine
10
29.349712979808182
20
-9.4754324727104198
30
0
11
29.191800751757047
21
-9.9395281290377948
31
0
0
SPLINE
5
1015
100
AcDbEntity
8
0
100
AcDbSpline
70
0
71
2
72
6
73
3
74
0
42
0.000000001
43
0.0000000001
44
0.0000000001
40
0
40
0
40
0
40
1
40
1
40
1
10
29.191800751757043
20
-9.939528129037793
30
0
10
29.182367636195863
20
-9.9672043959858616
30
0
10
29.195935624523973
20
-9.9849072570809003
30
0
0
SPLINE
5
1016
100
AcDbEntity
8
0
100
AcDbSpline
70
0
71
2
72
6
73
3
74
0
42
0.000000001
43
0.0000000001
44
0.0000000001
40
0
40
0
40
0
40
1
40
1
40
1
10
29.195935624523973
20
-9.9849072570809003
30
0
10
29.209503612852082
20
-10.002609930444773
30
0
10
29.232857932927647
20
-10.002609930444773
30
0
0
SPLINE
5
1017
100
AcDbEntity
8
0
100
AcDbSpline
70
0
71
2
72
6
73
3
74
0
42
0.000000001
43
0.0000000001
44
0.0000000001
40
0
40
0
40
0
40
1
40
1
40
1
10
29.232857932927647
20
-10.002609930444773
30
0
10
29.258373226439467
20
-10.002609930444773
30
0
10
29.284262574296843
20
-9.9847202768409122
30
0
0
SPLINE
5
1018
100
AcDbEntity
8
0
100
AcDbSpline
70
0
71
2
72
6
73
3
74
0
42
0.000000001
43
0.0000000001
44
0.0000000001
40
0
40
0
40
0
40
1
40
1
40
1
10
29.284262574296843
20
-9.9847202768409122
30
0
10
29.310151828288639
20
-9.9668304355058872
30
0
10
29.319460384222076
20
-9.9394866404504079
30
0
0
LINE
5
1019
100
AcDbEntity
8
0
100
AcDbLine
10
29.319460384222076
20
-9.9394866404504079
30
0
11
29.477538848219503
21
-9.4750170236430549
31
0
0
SPLINE
5
1020
100
AcDbEntity
8
0
100
AcDbSpline
70
0
71
2
72
6
73
3
74
0
42
0.000000001
43
0.0000000001
44
0.0000000001
40
0
40
0
40
0
40
1
40
1
40
1
10
29.477538848219506
20
-9.4750170236430549
30
0
10
29.504840966956436
20
-9.3947309751143386
30
0
10
29.505879871221591
20
-9.3189332032700012
30
0
0
SPLINE
5
1021
100
AcDbEntity
8
0
100
AcDbSpline
70
0
71
2
72
6
73
3
74
0
42
0.000000001
43
0.0000000001
44
0.0000000001
40
0
40
0
40
0
40
1
40
1
40
1
10
29.505879871221591
20
-9.3189332032700012
30
0
10
29.506918775486746
20
-9.243135243694498
30
0
10
29.484686430716692
20
-9.1805522439919844
30
0
0
SPLINE
5
1022
100
AcDbEntity
8
0
100
AcDbSpline
70
0
71
2
72
6
73
3
74
0
42
0.000000001
43
0.0000000001
44
0.0000000001
40
0
40
0
40
0
40
1
40
1
40
1
10
29.484686430716692
20
-9.1805522439919844
30
0
10
29.462454085946636
20
-9.1179690565583069
30
0
10
29.419215187046085
20
-9.0689123688653481
30
0
0
SPLINE
5
1023
100
AcDbEntity
8
0
100
AcDbSpline
70
0
71
2
72
6
73
3
74
0
42
0.000000001
43
0.0000000001
44
0.0000000001
40
0
40
0
40
0
40
1
40
1
40
1
10
29.419215187046085
20
-9.0689123688653481
30
0
10
29.375976288145534
20
-9.0198557750379731
30
0
10
29.32220304267199
20
-9.0120016663026394
30
0
0
SPLINE
5
1024
100
AcDbEntity
8
0
100
AcDbSpline
70
0
71
2
72
6
73
3
74
0
42
0.000000001
43
0.0000000001
44
0.0000000001
40
0
40
0
40
0
40
1
40
1
40
1
10
29.32220304267199
20
-9.0120016663026394
30
0
10
29.380214976246513
20
-9.0045631943658364
30
0
10
29.456864765981603
20
-8.955485762379185
30
0
0
SPLINE
5
1025
100
AcDbEntity
8
0
100
AcDbSpline
70
0
71
2
72
6
73
3
74
0
42
0.000000001
43
0.0000000001
44
0.0000000001
40
0
40
0
40
0
40
1
40
1
40
1
10
29.456864765981603
20
-8.955485762379185
30
0
10
29.533514461851109
20
-8.9064082365269517
30
0
10
29.598694909947678
20
-8.8434719267725725
30
0
0
SPLINE
5
1026
100
AcDbEntity
8
0
100
AcDbSpline
70
0
71
2
72
6
73
3
74
0
42
0.000000001
43
0.0000000001
44
0.0000000001
40
0
40
0
40
0
40
1
40
1
40
1
10
29.598694909947678
20
-8.8434719267725725
30
0
10
29.66387517031308
20
-8.7805356170181934
30
0
10
29.714884919177443
20
-8.7040728075230938
30
0
0
SPLINE
5
1027
100
AcDbEntity
8
0
100
AcDbSpline
70
0
71
2
72
6
73
3
74
0
42
0.000000001
43
0.0000000001
44
0.0000000001
40
0
40
0
40
0
40
1
40
1
40
1
10
29.714884919177443
20
-8.7040728075230938
30
0
10
29.76589485577297
20
-8.6276100918935761
30
0
10
29.793612611308426
20
-8.5461605794719606
30
0
0
SPLINE
5
1028
100
AcDbEntity
8
0
100
AcDbSpline
70
0
71
2
72
6
73
3
74
0
42
0.000000001
43
0.0000000001
44
0.0000000001
40
0
40
0
40
0
40
1
40
1
40
1
10
29.793612611308426
20
-8.5461605794719606
30
0
10
29.830389521925081
20
-8.4381152868204019
30
0
10
29.821143386603893
20
-8.3420797199647989
30
0
0
SPLINE
5
1029
100
AcDbEntity
8
0
100
AcDbSpline
70
0
71
2
72
6
73
3
74
0
42
0.000000001
43
0.0000000001
44
0.0000000001
40
0
40
0
40
0
40
1
40
1
40
1
10
29.821143386603893
20
-8.3420797199647989
30
0
10
29.811897063551537
20
-8.2460441531091959
30
0
10
29.765167585241127
20
-8.1751914078728216
30
0
0
SPLINE
5
1030
100
AcDbEntity
8
0
100
AcDbSpline
70
0
71
2
72
6
73
3
74
0
42
0.000000001
43
0.0000000001
44
0.0000000001
40
0
40
0
40
0
40
1
40
1
40
1
10
29.765167585241127
20
-8.1751914078728216
30
0
10
29.718437919199548
20
-8.1043386626364473
30
0
10
29.635617124485769
20
-8.0627828674925386
30
0
0
SPLINE
5
1031
100
AcDbEntity
8
0
100
AcDbSpline
70
0
71
2
72
6
73
3
74
0
42
0.000000001
43
0.0000000001
44
0.0000000001
40
0
40
0
40
0
40
1
40
1
40
1
10
29.635617124485769
20
-8.0627828674925386
30
0
10
29.552796517503158
20
-8.0212270723486299
30
0
10
29.443296777653494
20
-8.0212270723486299
30
0
0
LINE
5
1032
100
AcDbEntity
8
0
100
AcDbLine
10
29.443296777653501
20
-8.0212270723486299
30
0
11
28.991917091763479
21
-8.0212270723486299
31
0
0
SPLINE
5
1033
100
AcDbEntity
8
0
100
AcDbSpline
70
0
71
2
72
6
73
3
74
0
42
0.000000001
43
0.0000000001
44
0.0000000001
40
0
40
0
40
0
40
1
40
1
40
1
10
28.991917091763479
20
-8.0212270723486281
30
0
10
28.92879380176911
20
-8.0212270723486281
30
0
10
28.907974321744188
20
-8.0823972073060091
30
0
0
SPLINE
5
1034
100
AcDbEntity
8
0
100
AcDbSpline
70
0
71
2
72
6
73
3
74
0
42
0.000000001
43
0.0000000001
44
0.0000000001
40
0
40
0
40
0
40
1
40
1
40
1
10
28.907974321744188
20
-8.0823972073060091
30
0
10
28.886282173400403
20
-8.1462269296729435
30
0
10
28.949405463394768
20
-8.1462269296729435
30
0
0
LINE
5
1035
100
AcDbEntity
8
0
100
AcDbLine
10
28.949405463394768
20
-8.1462269296729435
30
0
11
29.400785149284786
21
-8.1462269296729435
31
0
0
SPLINE
5
1036
100
AcDbEntity
8
0
100
AcDbSpline
70
0
71
2
72
6
73
3
74
0
42
0.000000001
43
0.0000000001
44
0.0000000001
40
0
40
0
40
0
40
1
40
1
40
1
10
29.400785149284786
20
-8.1462269296729453
30
0
10
29.483522872958211
20
-8.1462269296729453
30
0
10
29.546292946766293
20
-8.1780588136816377
30
0
0
SPLINE
5
1037
100
AcDbEntity
8
0
100
AcDbSpline
70
0
71
2
72
6
73
3
74
0
42
0.000000001
43
0.0000000001
44
0.0000000001
40
0
40
0
40
0
40
1
40
1
40
1
10
29.546292946766293
20
-8.1780588136816377
30
0
10
29.609063114439962
20
-8.2098905099591661
30
0
10
29.644136177006281
20
-8.264723591722726
30
0
0
SPLINE
5
1038
100
AcDbEntity
8
0
100
AcDbSpline
70
0
71
2
72
6
73
3
74
0
42
0.000000001
43
0.0000000001
44
0.0000000001
40
0
40
0
40
0
40
1
40
1
40
1
10
29.644136177006281
20
-8.264723591722726
30
0
10
29.679209239572604
20
-8.3195564857551219
30
0
10
29.686543896175358
20
-8.3918220957366287
30
0
0
SPLINE
5
1039
100
AcDbEntity
8
0
100
AcDbSpline
70
0
71
2
72
6
73
3
74
0
42
0.000000001
43
0.0000000001
44
0.0000000001
40
0
40
0
40
0
40
1
40
1
40
1
10
29.686543896175358
20
-8.3918220957366287
30
0
10
29.693878552778113
20
-8.4640877995837176
30
0
10
29.665869813937455
20
-8.5464930513645516
30
0
0
SPLINE
5
1040
100
AcDbEntity
8
0
100
AcDbSpline
70
0
71
2
72
6
73
3
74
0
42
0.000000001
43
0.0000000001
44
0.0000000001
40
0
40
0
40
0
40
1
40
1
40
1
10
29.665869813937455
20
-8.5464930513645516
30
0
10
29.637320972536106
20
-8.6303527503434854
30
0
10
29.580264778320796
20
-8.7033040484038651
30
0
0
SPLINE
5
1041
100
AcDbEntity
8
0
100
AcDbSpline
70
0
71
2
72
6
73
3
74
0
42
0.000000001
43
0.0000000001
44
0.0000000001
40
0
40
0
40
0
40
1
40
1
40
1
10
29.580264778320796
20
-8.7033040484038651
30
0
10
29.52320858410549
20
-8.7762553464642448
30
0
10
29.450485942603649
20
-8.831337641348874
30
0
0
SPLINE
5
1042
100
AcDbEntity
8
0
100
AcDbSpline
70
0
71
2
72
6
73
3
74
0
42
0.000000001
43
0.0000000001
44
0.0000000001
40
0
40
0
40
0
40
1
40
1
40
1
10
29.450485942603649
20
-8.831337641348874
30
0
10
29.377763207236228
20
-8.8864199362335032
30
0
10
29.29417365340322
20
-8.9179192544840227
30
0
0
SPLINE
5
1043
100
AcDbEntity
8
0
100
AcDbSpline
70
0
71
2
72
6
73
3
74
0
42
0.000000001
43
0.0000000001
44
0.0000000001
40
0
40
0
40
0
40
1
40
1
40
1
10
29.29417365340322
20
-8.9179192544840227
30
0
10
29.210584005704629
20
-8.9494185727345439
30
0
10
29.127430739098259
20
-8.9494185727345439
30
0
0
SPLINE
5
1044
100
AcDbEntity
8
0
100
AcDbSpline
70
0
71
2
72
6
73
3
74
0
42
0.000000001
43
0.0000000001
44
0.0000000001
40
0
40
0
40
0
40
1
40
1
40
1
10
28.676051100141034
20
-8.9494185727345439
30
0
10
28.612927763213875
20
-8.9494185727345439
30
0
10
28.592108283188953
20
-9.0105888015575069
30
0
0
LINE
5
1045
100
AcDbEntity
8
0
100
AcDbLine
10
29.127430739098255
20
-8.9494185727345439
30
0
11
28.676051100141034
21
-8.9494185727345439
31
0
0
SPLINE
5
1046
100
AcDbEntity
8
0
100
AcDbSpline
70
0
71
2
72
6
73
3
74
0
42
0.000000001
43
0.0000000001
44
0.0000000001
40
0
40
0
40
0
40
1
40
1
40
1
10
30.652010921151234
20
-8.0353352571030108
30
0
10
30.67559389778534
20
-8.0159078975295266
30
0
10
30.704184227774075
20
-8.0159078975295266
30
0
0
LINE
5
1047
100
AcDbEntity
8
0
100
AcDbLine
10
30.704184227774075
20
-8.0159078975295266
30
0
11
30.735932946876829
21
-8.0159078975295266
31
0
0
LINE
5
1048
100
AcDbEntity
8
0
100
AcDbLine
10
30.735932946876829
20
-8.0159078975295266
30
0
11
30.711328033076015
21
-8.0159078975295266
31
0
0
LINE
5
1049
100
AcDbEntity
8
0
100
AcDbLine
10
30.717025039435924
20
-8.0159078975295266
30
0
11
31.812395647487854
21
-8.0159078975295266
31
0
0
SPLINE
5
1050
100
AcDbEntity
8
0
100
AcDbSpline
70
0
71
2
72
6
73
3
74
0
42
0.000000001
43
0.0000000001
44
0.0000000001
40
0
40
0
40
0
40
1
40
1
40
1
10
31.812395647487854
20
-8.0159078975295266
30
0
10
31.836498076254539
20
-8.0159078975295266
30
0
10
31.849463541409715
20
-8.0351067882756357
30
0
0
SPLINE
5
1051
100
AcDbEntity
8
0
100
AcDbSpline
70
0
71
2
72
6
73
3
74
0
42
0.000000001
43
0.0000000001
44
0.0000000001
40
0
40
0
40
0
40
1
40
1
40
1
10
31.849463541409715
20
-8.0351067882756357
30
0
10
31.862428818833724
20
-8.0543054912905809
30
0
10
31.854242425936967
20
-8.0783664314698793
30
0
0
SPLINE
5
1052
100
AcDbEntity
8
0
100
AcDbSpline
70
0
71
2
72
6
73
3
74
0
42
0.000000001
43
0.0000000001
44
0.0000000001
40
0
40
0
40
0
40
1
40
1
40
1
10
31.854242425936967
20
-8.0783664314698793
30
0
10
31.844809122644623
20
-8.1061671641801105
30
0
10
31.819003033558765
20
-8.1235375533825582
30
0
0
SPLINE
5
1053
100
AcDbEntity
8
0
100
AcDbSpline
70
0
71
2
72
6
73
3
74
0
42
0.000000001
43
0.0000000001
44
0.0000000001
40
0
40
0
40
0
40
1
40
1
40
1
10
31.819003033558765
20
-8.1235375533825582
30
0
10
31.793196756741747
20
-8.1409079425850077
30
0
10
31.769842436666178
20
-8.1409079425850077
30
0
0
LINE
5
1054
100
AcDbEntity
8
0
100
AcDbLine
10
31.769842436666178
20
-8.1409079425850077
30
0
11
30.726749138302303
21
-8.1409079425850059
31
0
0
LINE
5
1055
100
AcDbEntity
8
0
100
AcDbLine
10
30.726749138302303
20
-8.1409079425850059
30
0
11
30.131212239862041
21
-9.8909078224370592
31
0
0
LINE
5
1056
100
AcDbEntity
8
0
100
AcDbLine
10
30.131212239862041
20
-9.8909078224370592
30
0
11
31.174305679024286
21
-9.8909078224370592
31
0
0
SPLINE
5
1057
100
AcDbEntity
8
0
100
AcDbSpline
70
0
71
2
72
6
73
3
74
0
42
0.000000001
43
0.0000000001
44
0.0000000001
40
0
40
0
40
0
40
1
40
1
40
1
10
31.174305679024286
20
-9.8909078224370592
30
0
10
31.197950982405057
20
-9.8909078224370592
30
0
10
31.211809672441621
20
-9.9081535581461839
30
0
0
SPLINE
5
1058
100
AcDbEntity
8
0
100
AcDbSpline
70
0
71
2
72
6
73
3
74
0
42
0.000000001
43
0.0000000001
44
0.0000000001
40
0
40
0
40
0
40
1
40
1
40
1
10
31.211809672441621
20
-9.9081535581461839
30
0
10
31.225668550209349
20
-9.9253992938553068
30
0
10
31.217025031926671
20
-9.950789746142636
30
0
0
SPLINE
5
1059
100
AcDbEntity
8
0
100
AcDbSpline
70
0
71
2
72
6
73
3
74
0
42
0.000000001
43
0.0000000001
44
0.0000000001
40
0
40
0
40
0
40
1
40
1
40
1
10
31.217025031926671
20
-9.950789746142636
30
0
10
31.208090530338797
20
-9.9771363132515098
30
0
10
31.181785639548472
20
-9.9965219965064414
30
0
0
SPLINE
5
1060
100
AcDbEntity
8
0
100
AcDbSpline
70
0
71
2
72
6
73
3
74
0
42
0.000000001
43
0.0000000001
44
0.0000000001
40
0
40
0
40
0
40
1
40
1
40
1
10
31.181785639548472
20
-9.9965219965064414
30
0
10
31.155480748758148
20
-10.015907867492539
30
0
10
31.131752468202603
20
-10.015907867492539
30
0
0
LINE
5
1061
100
AcDbEntity
8
0
100
AcDbLine
10
31.131752468202603
20
-10.015907867492539
30
0
11
30.036381789751488
21
-10.015907867492539
31
0
0
SPLINE
5
1062
100
AcDbEntity
8
0
100
AcDbSpline
70
0
71
2
72
6
73
3
74
0
42
0.000000001
43
0.0000000001
44
0.0000000001
40
0
40
0
40
0
40
1
40
1
40
1
10
30.036381789751488
20
-10.015907867492539
30
0
10
30.022335896544178
20
-10.015907867492539
30
0
10
30.021504775478693
20
-10.014578167653344
30
0
0
SPLINE
5
1063
100
AcDbEntity
8
0
100
AcDbSpline
70
0
71
2
72
6
73
3
74
0
42
0.000000001
43
0.0000000001
44
0.0000000001
40
0
40
0
40
0
40
1
40
1
40
1
10
30.021504775478693
20
-10.014578167653344
30
0
10
30.020673689612799
20
-10.013248280082985
30
0
10
30.036007758872323
20
-10.013248280082985
30
0
0
LINE
5
1064
100
AcDbEntity
8
0
100
AcDbLine
10
30.036007758872323
20
-10.013248280082985
30
0
11
30.029982198613443
21
-10.015907867492539
31
0
0
SPLINE
5
1065
100
AcDbEntity
8
0
100
AcDbSpline
70
0
71
2
72
6
73
3
74
0
42
0.000000001
43
0.0000000001
44
0.0000000001
40
0
40
0
40
0
40
1
40
1
40
1
10
30.029982198613443
20
-10.015907867492539
30
0
10
29.995407750020423
20
-10.015907867492539
30
0
10
29.984894100808329
20
-9.996231200932403
30
0
0
SPLINE
5
1066
100
AcDbEntity
8
0
100
AcDbSpline
70
0
71
2
72
6
73
3
74
0
42
0.000000001
43
0.0000000001
44
0.0000000001
40
0
40
0
40
0
40
1
40
1
40
1
10
29.984894100808329
20
-9.996231200932403
30
0
10
29.974380439863037
20
-9.9765545343722675
30
0
10
29.983356523903883
20
-9.9501664786760049
30
0
0
SPLINE
5
1067
100
AcDbEntity
8
0
100
AcDbSpline
70
0
71
2
72
6
73
3
74
0
42
0.000000001
43
0.0000000001
44
0.0000000001
40
0
40
0
40
0
40
1
40
1
40
1
10
30.620158386714429
20
-8.0789896989365069
30
0
10
30.628427944517124
20
-8.054762616676495
30
0
10
30.652010921151234
20
-8.0353352571030108
30
0
0
LINE
5
1068
100
AcDbEntity
8
0
100
AcDbLine
10
29.983356523903883
20
-9.9501664786760049
30
0
11
30.620158386714422
21
-8.0789896989365069
31
0
0
SPLINE
5
1069
100
AcDbEntity
8
0
100
AcDbSpline
70
0
71
2
72
6
73
3
74
0
42
0.000000001
43
0.0000000001
44
0.0000000001
40
0
40
0
40
0
40
1
40
1
40
1
10
30.476312807897497
20
-9.0601441032237702
30
0
10
30.465279753485618
20
-9.0405505077039905
30
0
10
30.474089601580165
20
-9.0146196712592257
30
0
0
SPLINE
5
1070
100
AcDbEntity
8
0
100
AcDbSpline
70
0
71
2
72
6
73
3
74
0
42
0.000000001
43
0.0000000001
44
0.0000000001
40
0
40
0
40
0
40
1
40
1
40
1
10
30.474089601580165
20
-9.0146196712592257
30
0
10
30.481278719597526
20
-8.9934261368887434
30
0
10
30.505339518978452
20
-8.974081942221197
30
0
0
SPLINE
5
1071
100
AcDbEntity
8
0
100
AcDbSpline
70
0
71
2
72
6
73
3
74
0
42
0.000000001
43
0.0000000001
44
0.0000000001
40
0
40
0
40
0
40
1
40
1
40
1
10
30.505339518978452
20
-8.974081942221197
30
0
10
30.529400365292169
20
-8.9547376536880687
30
0
10
30.554957241256957
20
-8.9547376536880687
30
0
0
LINE
5
1072
100
AcDbEntity
8
0
100
AcDbLine
10
30.554957241256957
20
-8.9547376536880687
30
0
11
31.382043353887607
21
-8.9547376536880705
31
0
0
SPLINE
5
1073
100
AcDbEntity
8
0
100
AcDbSpline
70
0
71
2
72
6
73
3
74
0
42
0.000000001
43
0.0000000001
44
0.0000000001
40
0
40
0
40
0
40
1
40
1
40
1
10
31.382043353887607
20
-8.9547376536880705
30
0
10
31.40718468691945
20
-8.9547376536880705
30
0
10
31.418196809306473
20
-8.9743312492078502
30
0
0
SPLINE
5
1074
100
AcDbEntity
8
0
100
AcDbSpline
70
0
71
2
72
6
73
3
74
0
42
0.000000001
43
0.0000000001
44
0.0000000001
40
0
40
0
40
0
40
1
40
1
40
1
10
31.418196809306473
20
-8.9743312492078502
30
0
10
31.429209119424659
20
-8.9939248447276299
30
0
10
31.422186284286383
20
-9.0146196712592275
30
0
0
SPLINE
5
1075
100
AcDbEntity
8
0
100
AcDbSpline
70
0
71
2
72
6
73
3
74
0
42
0.000000001
43
0.0000000001
44
0.0000000001
40
0
40
0
40
0
40
1
40
1
40
1
10
31.422186284286383
20
-9.0146196712592275
30
0
10
31.413501089685159
20
-9.0400933823180765
30
0
10
31.388858370626618
20
-9.0599155405308132
30
0
0
SPLINE
5
1076
100
AcDbEntity
8
0
100
AcDbSpline
70
0
71
2
72
6
73
3
74
0
42
0.000000001
43
0.0000000001
44
0.0000000001
40
0
40
0
40
0
40
1
40
1
40
1
10
31.388858370626618
20
-9.0599155405308132
30
0
10
31.364215839299245
20
-9.0797376987435499
30
0
10
31.339531631653315
20
-9.0797376987435499
30
0
0
SPLINE
5
1077
100
AcDbEntity
8
0
100
AcDbSpline
70
0
71
2
72
6
73
3
74
0
42
0.000000001
43
0.0000000001
44
0.0000000001
40
0
40
0
40
0
40
1
40
1
40
1
10
30.51244561288825
20
-9.0797376987435481
30
0
10
30.487345909242169
20
-9.0797376987435481
30
0
10
30.476312807897497
20
-9.0601441032237702
30
0
0
LINE
5
1078
100
AcDbEntity
8
0
100
AcDbLine
10
31.339531631653315
20
-9.0797376987435499
30
0
11
30.51244561288825
21
-9.0797376987435481
31
0
0
SPLINE
5
1079
100
AcDbEntity
8
0
100
AcDbSpline
70
0
71
2
72
6
73
3
74
0
42
0.000000001
43
0.0000000001
44
0.0000000001
40
0
40
0
40
0
40
1
40
1
40
1
10
32.683676445311058
20
-8.0380986598466162
30
0
10
32.70800734290512
20
-8.0185674849390818
30
0
10
32.736473113266108
20
-8.0185674849390818
30
0
0
SPLINE
5
1080
100
AcDbEntity
8
0
100
AcDbSpline
70
0
71
2
72
6
73
3
74
0
42
0.000000001
43
0.0000000001
44
0.0000000001
40
0
40
0
40
0
40
1
40
1
40
1
10
32.736473113266108
20
-8.0185674849390818
30
0
10
32.764523340694154
20
-8.0185674849390818
30
0
10
32.775701792893052
20
-8.0383064782458788
30
0
0
SPLINE
5
1081
100
AcDbEntity
8
0
100
AcDbSpline
70
0
71
2
72
6
73
3
74
0
42
0.000000001
43
0.0000000001
44
0.0000000001
40
0
40
0
40
0
40
1
40
1
40
1
10
32.775701792893052
20
-8.0383064782458788
30
0
10
32.786880338957538
20
-8.0580454715526777
30
0
10
32.779732756460355
20
-8.0790311875238956
30
0
0
LINE
5
1082
100
AcDbEntity
8
0
100
AcDbLine
10
32.779732756460355
20
-8.0790311875238956
30
0
11
32.147460506390004
21
-9.936868541628245
31
0
0
SPLINE
5
1083
100
AcDbEntity
8
0
100
AcDbSpline
70
0
71
2
72
6
73
3
74
0
42
0.000000001
43
0.0000000001
44
0.0000000001
40
0
40
0
40
0
40
1
40
1
40
1
10
32.147460506390004
20
-9.936868541628245
30
0
10
32.138733799734993
20
-9.9625916535393273
30
0
10
32.113800285102414
20
-9.9826007919920521
30
0
0
SPLINE
5
1084
100
AcDbEntity
8
0
100
AcDbSpline
70
0
71
2
72
6
73
3
74
0
42
0.000000001
43
0.0000000001
44
0.0000000001
40
0
40
0
40
0
40
1
40
1
40
1
10
32.113800285102414
20
-9.9826007919920521
30
0
10
32.088866747003443
20
-10.002609930444777
30
0
10
32.061273691894101
20
-10.002609930444777
30
0
0
SPLINE
5
1085
100
AcDbEntity
8
0
100
AcDbSpline
70
0
71
2
72
6
73
3
74
0
42
0.000000001
43
0.0000000001
44
0.0000000001
40
0
40
0
40
0
40
1
40
1
40
1
10
32.061273691894101
20
-10.002609930444777
30
0
10
32.033265023452628
20
-10.002609930444777
30
0
10
32.02208652432094
20
-9.9828500989787035
30
0
0
SPLINE
5
1086
100
AcDbEntity
8
0
100
AcDbSpline
70
0
71
2
72
6
73
3
74
0
42
0.000000001
43
0.0000000001
44
0.0000000001
40
0
40
0
40
0
40
1
40
1
40
1
10
32.02208652432094
20
-9.9828500989787035
30
0
10
32.010908013456053
20
-9.96309026751263
30
0
10
32.019800932590961
20
-9.936868541628245
30
0
0
SPLINE
5
1087
100
AcDbEntity
8
0
100
AcDbSpline
70
0
71
2
72
6
73
3
74
0
42
0.000000001
43
0.0000000001
44
0.0000000001
40
0
40
0
40
0
40
1
40
1
40
1
10
32.652073217860902
20
-8.0790311875238956
30
0
10
32.659345453851415
20
-8.0576300224853146
30
0
10
32.683676445311058
20
-8.0380986598466162
30
0
0
LINE
5
1088
100
AcDbEntity
8
0
100
AcDbLine
10
32.019800932590961
20
-9.9368685416282432
30
0
11
32.652073217860895
21
-8.0790311875238956
31
0
0
SPLINE
5
1089
100
AcDbEntity
8
0
100
AcDbSpline
70
0
71
2
72
6
73
3
74
0
42
0.000000001
43
0.0000000001
44
0.0000000001
40
0
40
0
40
0
40
1
40
1
40
1
10
32.541576156199056
20
-9.0548250222702489
30
0
10
32.530522357493481
20
-9.035231426750471
30
0
10
32.539332205588032
20
-9.0093005903057062
30
0
0
SPLINE
5
1090
100
AcDbEntity
8
0
100
AcDbSpline
70
0
71
2
72
6
73
3
74
0
42
0.000000001
43
0.0000000001
44
0.0000000001
40
0
40
0
40
0
40
1
40
1
40
1
10
32.539332205588032
20
-9.0093005903057062
30
0
10
32.559736048814429
20
-8.9494185727345492
30
0
10
32.622859432674375
20
-8.9494185727345492
30
0
0
LINE
5
1091
100
AcDbEntity
8
0
100
AcDbLine
10
32.622859432674375
20
-8.9494185727345492
30
0
11
33.074239024698812
21
-8.9494185727345492
31
0
0
SPLINE
5
1092
100
AcDbEntity
8
0
100
AcDbSpline
70
0
71
2
72
6
73
3
74
0
42
0.000000001
43
0.0000000001
44
0.0000000001
40
0
40
0
40
0
40
1
40
1
40
1
10
33.074239024698812
20
-8.9494185727345492
30
0
10
33.157309220264821
20
-8.9494185727345492
30
0
10
33.240711793857841
20
-8.9178153452843958
30
0
0
SPLINE
5
1093
100
AcDbEntity
8
0
100
AcDbSpline
70
0
71
2
72
6
73
3
74
0
42
0.000000001
43
0.0000000001
44
0.0000000001
40
0
40
0
40
0
40
1
40
1
40
1
10
33.240711793857841
20
-8.9178153452843958
30
0
10
33.324114367450861
20
-8.8862121178342441
30
0
10
33.39702408305827
20
-8.831649275082194
30
0
0
SPLINE
5
1094
100
AcDbEntity
8
0
100
AcDbSpline
70
0
71
2
72
6
73
3
74
0
42
0.000000001
43
0.0000000001
44
0.0000000001
40
0
40
0
40
0
40
1
40
1
40
1
10
33.39702408305827
20
-8.831649275082194
30
0
10
33.469933798665686
20
-8.7770864323301421
30
0
10
33.527364141092136
20
-8.7027222695246298
30
0
0
SPLINE
5
1095
100
AcDbEntity
8
0
100
AcDbSpline
70
0
71
2
72
6
73
3
74
0
42
0.000000001
43
0.0000000001
44
0.0000000001
40
0
40
0
40
0
40
1
40
1
40
1
10
33.527364141092136
20
-8.7027222695246298
30
0
10
33.584794295787418
20
-8.6283581067191175
30
0
10
33.613550955588032
20
-8.5438334639550035
30
0
0
SPLINE
5
1096
100
AcDbEntity
8
0
100
AcDbSpline
70
0
71
2
72
6
73
3
74
0
42
0.000000001
43
0.0000000001
44
0.0000000001
40
0
40
0
40
0
40
1
40
1
40
1
10
33.613550955588032
20
-8.5438334639550035
30
0
10
33.641808813684179
20
-8.4608880157478996
30
0
10
33.634661325052576
20
-8.3885807294478418
30
0
0
SPLINE
5
1097
100
AcDbEntity
8
0
100
AcDbSpline
70
0
71
2
72
6
73
3
74
0
42
0.000000001
43
0.0000000001
44
0.0000000001
40
0
40
0
40
0
40
1
40
1
40
1
10
33.634661325052576
20
-8.3885807294478418
30
0
10
33.627513648689806
20
-8.316273630878948
30
0
10
33.591796292766418
20
-8.2618145095953643
30
0
0
SPLINE
5
1098
100
AcDbEntity
8
0
100
AcDbSpline
70
0
71
2
72
6
73
3
74
0
42
0.000000001
43
0.0000000001
44
0.0000000001
40
0
40
0
40
0
40
1
40
1
40
1
10
33.591796292766418
20
-8.2618145095953643
30
0
10
33.556079124574197
20
-8.2073555760429446
30
0
10
33.493620778365006
20
-8.1754615530187529
30
0
0
SPLINE
5
1099
100
AcDbEntity
8
0
100
AcDbSpline
70
0
71
2
72
6
73
3
74
0
42
0.000000001
43
0.0000000001
44
0.0000000001
40
0
40
0
40
0
40
1
40
1
40
1
10
33.493620778365006
20
-8.1754615530187529
30
0
10
33.431162244424655
20
-8.1435673422633972
30
0
10
33.348466103204203
20
-8.1435673422633972
30
0
0
LINE
5
1100
100
AcDbEntity
8
0
100
AcDbLine
10
33.348466103204196
20
-8.1435673422633972
30
0
11
32.897086417314185
21
-8.1435673422633972
31
0
0
SPLINE
5
1101
100
AcDbEntity
8
0
100
AcDbSpline
70
0
71
2
72
6
73
3
74
0
42
0.000000001
43
0.0000000001
44
0.0000000001
40
0
40
0
40
0
40
1
40
1
40
1
10
32.897086417314185
20
-8.1435673422633954
30
0
10
32.869410244231695
20
-8.1435673422633954
30
0
10
32.85835644552612
20
-8.1239738406091995
30
0
0
SPLINE
5
1102
100
AcDbEntity
8
0
100
AcDbSpline
70
0
71
2
72
6
73
3
74
0
42
0.000000001
43
0.0000000001
44
0.0000000001
40
0
40
0
40
0
40
1
40
1
40
1
10
32.85835644552612
20
-8.1239738406091995
30
0
10
32.847302552954964
20
-8.1043803389550018
30
0
10
32.85615398350248
20
-8.078449408644655
30
0
0
SPLINE
5
1103
100
AcDbEntity
8
0
100
AcDbSpline
70
0
71
2
72
6
73
3
74
0
42
0.000000001
43
0.0000000001
44
0.0000000001
40
0
40
0
40
0
40
1
40
1
40
1
10
32.85615398350248
20
-8.078449408644655
30
0
10
32.863343148452635
20
-8.0572558742741727
30
0
10
32.887424739060044
20
-8.0379116796066263
30
0
0
SPLINE
5
1104
100
AcDbEntity
8
0
100
AcDbSpline
70
0
71
2
72
6
73
3
74
0
42
0.000000001
43
0.0000000001
44
0.0000000001
40
0
40
0
40
0
40
1
40
1
40
1
10
32.887424739060044
20
-8.0379116796066263
30
0
10
32.911506329667461
20
-8.0185674849390818
30
0
10
32.939639628135858
20
-8.0185674849390818
30
0
0
LINE
5
1105
100
AcDbEntity
8
0
100
AcDbLine
10
32.939639628135858
20
-8.0185674849390818
30
0
11
33.391019314025876
21
-8.0185674849390818
31
0
0
SPLINE
5
1106
100
AcDbEntity
8
0
100
AcDbSpline
70
0
71
2
72
6
73
3
74
0
42
0.000000001
43
0.0000000001
44
0.0000000001
40
0
40
0
40
0
40
1
40
1
40
1
10
33.391019314025876
20
-8.0185674849390836
30
0
10
33.500518960009956
20
-8.0185674849390836
30
0
10
33.582965794243755
20
-8.0599571380022788
30
0
0
SPLINE
5
1107
100
AcDbEntity
8
0
100
AcDbSpline
70
0
71
2
72
6
73
3
74
0
42
0.000000001
43
0.0000000001
44
0.0000000001
40
0
40
0
40
0
40
1
40
1
40
1
10
33.582965794243755
20
-8.0599571380022788
30
0
10
33.665412628477561
20
-8.10134660333431
30
0
10
33.713783628091647
20
-8.1726564739566001
30
0
0
SPLINE
5
1108
100
AcDbEntity
8
0
100
AcDbSpline
70
0
71
2
72
6
73
3
74
0
42
0.000000001
43
0.0000000001
44
0.0000000001
40
0
40
0
40
0
40
1
40
1
40
1
10
33.713783628091647
20
-8.1726564739566001
30
0
10
33.762154627705726
20
-8.2439663445788884
30
0
10
33.769987898281784
20
-8.3401474030870943
30
0
0
SPLINE
5
1109
100
AcDbEntity
8
0
100
AcDbSpline
70
0
71
2
72
6
73
3
74
0
42
0.000000001
43
0.0000000001
44
0.0000000001
40
0
40
0
40
0
40
1
40
1
40
1
10
33.769987898281784
20
-8.3401474030870943
30
0
10
33.777821168857841
20
-8.4363284615952985
30
0
10
33.741210400321897
20
-8.5438750464079725
30
0
0
SPLINE
5
1110
100
AcDbEntity
8
0
100
AcDbSpline
70
0
71
2
72
6
73
3
74
0
42
0.000000001
43
0.0000000001
44
0.0000000001
40
0
40
0
40
0
40
1
40
1
40
1
10
33.741210400321897
20
-8.5438750464079725
30
0
10
33.704142694131207
20
-8.6527929135128119
30
0
10
33.630027744446757
20
-8.750033620579865
30
0
0
SPLINE
5
1111
100
AcDbEntity
8
0
100
AcDbSpline
70
0
71
2
72
6
73
3
74
0
42
0.000000001
43
0.0000000001
44
0.0000000001
40
0
40
0
40
0
40
1
40
1
40
1
10
33.630027744446757
20
-8.750033620579865
30
0
10
33.555912982493481
20
-8.8472743276469199
30
0
10
33.459108656518652
20
-8.9195399376284268
30
0
0
SPLINE
5
1112
100
AcDbEntity
8
0
100
AcDbSpline
70
0
71
2
72
6
73
3
74
0
42
0.000000001
43
0.0000000001
44
0.0000000001
40
0
40
0
40
0
40
1
40
1
40
1
10
33.459108656518652
20
-8.9195399376284268
30
0
10
33.362304236678234
20
-8.9918055476099337
30
0
10
33.251931828509711
20
-9.0331120357671892
30
0
0
SPLINE
5
1113
100
AcDbEntity
8
0
100
AcDbSpline
70
0
71
2
72
6
73
3
74
0
42
0.000000001
43
0.0000000001
44
0.0000000001
40
0
40
0
40
0
40
1
40
1
40
1
10
33.251931828509711
20
-9.0331120357671892
30
0
10
33.141559514206769
20
-9.0744185239244466
30
0
10
33.031685813877132
20
-9.0744185239244466
30
0
0
SPLINE
5
1114
100
AcDbEntity
8
0
100
AcDbSpline
70
0
71
2
72
6
73
3
74
0
42
0.000000001
43
0.0000000001
44
0.0000000001
40
0
40
0
40
0
40
1
40
1
40
1
10
32.580306221852702
20
-9.0744185239244466
30
0
10
32.552630048770212
20
-9.0744185239244466
30
0
10
32.541576156199056
20
-9.0548250222702489
30
0
0
LINE
5
1115
100
AcDbEntity
8
0
100
AcDbLine
10
33.031685813877132
20
-9.0744185239244466
30
0
11
32.580306221852702
21
-9.0744185239244466
31
0
0
SPLINE
5
1116
100
AcDbEntity
8
0
100
AcDbSpline
70
0
71
2
72
6
73
3
74
0
42
0.000000001
43
0.0000000001
44
0.0000000001
40
0
40
0
40
0
40
1
40
1
40
1
10
35.482955466282448
20
-6.4404735356314813
30
0
10
35.446798225002972
20
-6.4564092749015005
30
0
10
35.424498200962148
20
-6.5036348311374264
30
0
0
SPLINE
5
1117
100
AcDbEntity
8
0
100
AcDbSpline
70
0
71
2
72
6
73
3
74
0
42
0.000000001
43
0.0000000001
44
0.0000000001
40
0
40
0
40
0
40
1
40
1
40
1
10
35.424498200962148
20
-6.5036348311374264
30
0
10
35.407777814166124
20
-6.5355794730052814
30
0
10
35.391718482761789
20
-6.5932372329558877
30
0
0
SPLINE
5
1118
100
AcDbEntity
8
0
100
AcDbSpline
70
0
71
2
72
6
73
3
74
0
42
0.000000001
43
0.0000000001
44
0.0000000001
40
0
40
0
40
0
40
1
40
1
40
1
10
35.391718482761789
20
-6.5932372329558877
30
0
10
35.375658963502609
20
-6.6508950865243017
30
0
10
35.3728297185963
20
-6.6884174381002621
30
0
0
LINE
5
1119
100
AcDbEntity
8
0
100
AcDbLine
10
35.3728297185963
20
-6.6884174381002612
30
0
11
35.274150231909694
21
-6.6882872400142013
31
0
0
LINE
5
1120
100
AcDbEntity
8
0
100
AcDbLine
10
35.274150231909694
20
-6.6882872400142013
30
0
11
35.275248664368505
21
-5.8557653921569788
31
0
0
LINE
5
1121
100
AcDbEntity
8
0
100
AcDbLine
10
35.275248664368505
20
-5.8557653921569788
30
0
11
35.373928151055111
21
-5.8558955902430387
31
0
0
SPLINE
5
1122
100
AcDbEntity
8
0
100
AcDbSpline
70
0
71
2
72
6
73
3
74
0
42
0.000000001
43
0.0000000001
44
0.0000000001
40
0
40
0
40
0
40
1
40
1
40
1
10
35.373928151055104
20
-5.8558955902430387
30
0
10
35.375266765622371
20
-5.8948133097956932
30
0
10
35.387693866767762
20
-5.9566783553799283
30
0
0
SPLINE
5
1123
100
AcDbEntity
8
0
100
AcDbSpline
70
0
71
2
72
6
73
3
74
0
42
0.000000001
43
0.0000000001
44
0.0000000001
40
0
40
0
40
0
40
1
40
1
40
1
10
35.387693866767762
20
-5.9566783553799283
30
0
10
35.400120968160849
20
-6.0185432132331629
30
0
10
35.409813264163724
20
-6.0463530035667628
30
0
0
SPLINE
5
1124
100
AcDbEntity
8
0
100
AcDbSpline
70
0
71
2
72
6
73
3
74
0
42
0.000000001
43
0.0000000001
44
0.0000000001
40
0
40
0
40
0
40
1
40
1
40
1
10
35.409813264163724
20
-6.0463530035667628
30
0
10
35.42642912550896
20
-6.0936300932996348
30
0
10
35.466711861492605
20
-6.1110564627848518
30
0
0
SPLINE
5
1125
100
AcDbEntity
8
0
100
AcDbSpline
70
0
71
2
72
6
73
3
74
0
42
0.000000001
43
0.0000000001
44
0.0000000001
40
0
40
0
40
0
40
1
40
1
40
1
10
35.466711861492605
20
-6.1110564627848518
30
0
10
35.506994597723939
20
-6.1284826445390665
30
0
10
35.552859909561732
20
-6.128543159404094
30
0
0
LINE
5
1126
100
AcDbEntity
8
0
100
AcDbLine
10
35.552859909561732
20
-6.128543159404094
30
0
11
36.877389605980774
21
-6.1302907488696974
31
0
0
SPLINE
5
1127
100
AcDbEntity
8
0
100
AcDbSpline
70
0
71
2
72
6
73
3
74
0
42
0.000000001
43
0.0000000001
44
0.0000000001
40
0
40
0
40
0
40
1
40
1
40
1
10
36.877389605980774
20
-6.1302907488696983
30
0
10
36.969120041925351
20
-6.1304117783520606
30
0
10
37.019861571218399
20
-6.1214447199483022
30
0
0
SPLINE
5
1128
100
AcDbEntity
8
0
100
AcDbSpline
70
0
71
2
72
6
73
3
74
0
42
0.000000001
43
0.0000000001
44
0.0000000001
40
0
40
0
40
0
40
1
40
1
40
1
10
37.019861571218399
20
-6.1214447199483022
30
0
10
37.070603100511448
20
-6.1124776615445429
30
0
10
37.098444064989316
20
-6.079157917187171
30
0
0
SPLINE
5
1129
100
AcDbEntity
8
0
100
AcDbSpline
70
0
71
2
72
6
73
3
74
0
42
0.000000001
43
0.0000000001
44
0.0000000001
40
0
40
0
40
0
40
1
40
1
40
1
10
37.098444064989316
20
-6.079157917187171
30
0
10
37.123503650591573
20
-6.0472242780896011
30
0
10
37.131231306100858
20
-5.9839960497455786
30
0
0
SPLINE
5
1130
100
AcDbEntity
8
0
100
AcDbSpline
70
0
71
2
72
6
73
3
74
0
42
0.000000001
43
0.0000000001
44
0.0000000001
40
0
40
0
40
0
40
1
40
1
40
1
10
37.131231306100858
20
-5.9839960497455786
30
0
10
37.138958961610157
20
-5.9207678214015562
30
0
10
37.13910933131789
20
-5.8067998974356874
30
0
0
SPLINE
5
1131
100
AcDbEntity
8
0
100
AcDbSpline
70
0
71
2
72
6
73
3
74
0
42
0.000000001
43
0.0000000001
44
0.0000000001
40
0
40
0
40
0
40
1
40
1
40
1
10
37.13910933131789
20
-5.8067998974356874
30
0
10
37.139177181115414
20
-5.7553753074580767
30
0
10
37.136470799238822
20
-5.6997775443527532
30
0
0
SPLINE
5
1132
100
AcDbEntity
8
0
100
AcDbSpline
70
0
71
2
72
6
73
3
74
0
42
0.000000001
43
0.0000000001
44
0.0000000001
40
0
40
0
40
0
40
1
40
1
40
1
10
37.136470799238822
20
-5.6997775443527532
30
0
10
37.133764417362237
20
-5.6441797812474297
30
0
10
37.125491234434627
20
-5.5941341488327385
30
0
0
SPLINE
5
1133
100
AcDbEntity
8
0
100
AcDbSpline
70
0
71
2
72
6
73
3
74
0
42
0.000000001
43
0.0000000001
44
0.0000000001
40
0
40
0
40
0
40
1
40
1
40
1
10
37.125491234434627
20
-5.5941341488327385
30
0
10
37.117216405566829
20
-5.5454782892679475
30
0
10
37.102677045098453
20
-5.5044582084721485
30
0
0
SPLINE
5
1134
100
AcDbEntity
8
0
100
AcDbSpline
70
0
71
2
72
6
73
3
74
0
42
0.000000001
43
0.0000000001
44
0.0000000001
40
0
40
0
40
0
40
1
40
1
40
1
10
37.102677045098453
20
-5.5044582084721485
30
0
10
37.088137684134686
20
-5.4634385031383523
30
0
10
37.065925681265369
20
-5.4439512198484055
30
0
0
SPLINE
5
1135
100
AcDbEntity
8
0
100
AcDbSpline
70
0
71
2
72
6
73
3
74
0
42
0.000000001
43
0.0000000001
44
0.0000000001
40
0
40
0
40
0
40
1
40
1
40
1
10
37.065925681265369
20
-5.4439512198484055
30
0
10
37.002067571921621
20
-5.3868828101708646
30
0
10
36.872216359142129
20
-5.3109643336309853
30
0
0
SPLINE
5
1136
100
AcDbEntity
8
0
100
AcDbSpline
70
0
71
2
72
6
73
3
74
0
42
0.000000001
43
0.0000000001
44
0.0000000001
40
0
40
0
40
0
40
1
40
1
40
1
10
36.872216359142129
20
-5.3109643336309853
30
0
10
36.742364958631633
20
-5.2350458568434144
30
0
10
36.66179196375316
20
-5.2057525834961123
30
0
0
LINE
5
1137
100
AcDbEntity
8
0
100
AcDbLine
10
36.66179196375316
20
-5.2057525834961123
30
0
11
36.661922161839222
21
-5.1070730968095059
31
0
0
LINE
5
1138
100
AcDbEntity
8
0
100
AcDbLine
10
36.661922161839222
20
-5.1070730968095059
30
0
11
37.248385165924994
21
-5.1495425694579318
31
0
0
LINE
5
1139
100
AcDbEntity
8
0
100
AcDbLine
10
37.248385165924994
20
-5.1495425694579318
30
0
11
37.246351507156611
21
-6.6908893697980689
31
0
0
LINE
5
1140
100
AcDbEntity
8
0
100
AcDbLine
10
37.246351507156611
20
-6.6908893697980689
30
0
11
37.147672020469997
21
-6.6907591717120081
31
0
0
SPLINE
5
1141
100
AcDbEntity
8
0
100
AcDbSpline
70
0
71
2
72
6
73
3
74
0
42
0.000000001
43
0.0000000001
44
0.0000000001
40
0
40
0
40
0
40
1
40
1
40
1
10
37.147672020470004
20
-6.6907591717120081
30
0
10
37.144936298120342
20
-6.6573990843589774
30
0
10
37.138070496516967
20
-6.5941516013527259
30
0
0
SPLINE
5
1142
100
AcDbEntity
8
0
100
AcDbSpline
70
0
71
2
72
6
73
3
74
0
42
0.000000001
43
0.0000000001
44
0.0000000001
40
0
40
0
40
0
40
1
40
1
40
1
10
37.138070496516967
20
-6.5941516013527259
30
0
10
37.131204507182602
20
-6.530904118098781
30
0
10
37.12011877123512
20
-6.5058720392983913
30
0
0
SPLINE
5
1143
100
AcDbEntity
8
0
100
AcDbSpline
70
0
71
2
72
6
73
3
74
0
42
0.000000001
43
0.0000000001
44
0.0000000001
40
0
40
0
40
0
40
1
40
1
40
1
10
37.12011877123512
20
-6.5058720392983913
30
0
10
37.102105614376477
20
-6.4641525815174488
30
0
10
37.067384177934869
20
-6.4453437746102171
30
0
0
SPLINE
5
1144
100
AcDbEntity
8
0
100
AcDbSpline
70
0
71
2
72
6
73
3
74
0
42
0.000000001
43
0.0000000001
44
0.0000000001
40
0
40
0
40
0
40
1
40
1
40
1
10
37.067384177934869
20
-6.4453437746102171
30
0
10
37.032662553762243
20
-6.4265349674552921
30
0
10
36.978458418580225
20
-6.4264634503153655
30
0
0
SPLINE
5
1145
100
AcDbEntity
8
0
100
AcDbSpline
70
0
71
2
72
6
73
3
74
0
42
0.000000001
43
0.0000000001
44
0.0000000001
40
0
40
0
40
0
40
1
40
1
40
1
10
35.566367791754217
20
-6.424600332628696
30
0
10
35.519112707314221
20
-6.4245379840924661
30
0
10
35.482955466282448
20
-6.4404735356314813
30
0
0
LINE
5
1146
100
AcDbEntity
8
0
100
AcDbLine
10
36.978458418580225
20
-6.4264634503153655
30
0
11
35.566367791754217
21
-6.424600332628696
31
0
0
SPLINE
5
1147
100
AcDbEntity
8
0
100
AcDbSpline
70
0
71
2
72
6
73
3
74
0
42
0.000000001
43
0.0000000001
44
0.0000000001
40
0
40
0
40
0
40
1
40
1
40
1
10
35.485222015164169
20
-4.7226151018752169
30
0
10
35.4490647738847
20
-4.7385508411452353
30
0
10
35.426764749843869
20
-4.7857763973811611
30
0
0
SPLINE
5
1148
100
AcDbEntity
8
0
100
AcDbSpline
70
0
71
2
72
6
73
3
74
0
42
0.000000001
43
0.0000000001
44
0.0000000001
40
0
40
0
40
0
40
1
40
1
40
1
10
35.426764749843869
20
-4.7857763973811611
30
0
10
35.410044362800157
20
-4.8177212269800176
30
0
10
35.393985031395822
20
-4.8753789869306239
30
0
0
SPLINE
5
1149
100
AcDbEntity
8
0
100
AcDbSpline
70
0
71
2
72
6
73
3
74
0
42
0.000000001
43
0.0000000001
44
0.0000000001
40
0
40
0
40
0
40
1
40
1
40
1
10
35.393985031395822
20
-4.8753789869306239
30
0
10
35.377925512260489
20
-4.9330367466335385
30
0
10
35.375096267478028
20
-4.9705590043439969
30
0
0
LINE
5
1150
100
AcDbEntity
8
0
100
AcDbLine
10
35.375096267478028
20
-4.9705590043439969
30
0
11
35.276416780791422
21
-4.970428806257936
31
0
0
LINE
5
1151
100
AcDbEntity
8
0
100
AcDbLine
10
35.276416780791422
20
-4.970428806257936
30
0
11
35.27751521300253
21
-4.137907146131715
31
0
0
LINE
5
1152
100
AcDbEntity
8
0
100
AcDbLine
10
35.27751521300253
20
-4.137907146131715
30
0
11
35.376194699689137
21
-4.1380373442177758
31
0
0
SPLINE
5
1153
100
AcDbEntity
8
0
100
AcDbSpline
70
0
71
2
72
6
73
3
74
0
42
0.000000001
43
0.0000000001
44
0.0000000001
40
0
40
0
40
0
40
1
40
1
40
1
10
35.376194699689137
20
-4.1380373442177758
30
0
10
35.377533314256404
20
-4.1769550637704285
30
0
10
35.38996041564949
20
-4.2388199216236639
30
0
0
SPLINE
5
1154
100
AcDbEntity
8
0
100
AcDbSpline
70
0
71
2
72
6
73
3
74
0
42
0.000000001
43
0.0000000001
44
0.0000000001
40
0
40
0
40
0
40
1
40
1
40
1
10
35.38996041564949
20
-4.2388199216236639
30
0
10
35.402387517042577
20
-4.3006847794768985
30
0
10
35.412079812550068
20
-4.3284949452725012
30
0
0
SPLINE
5
1155
100
AcDbEntity
8
0
100
AcDbSpline
70
0
71
2
72
6
73
3
74
0
42
0.000000001
43
0.0000000001
44
0.0000000001
40
0
40
0
40
0
40
1
40
1
40
1
10
35.412079812550068
20
-4.3284949452725012
30
0
10
35.428695674142993
20
-4.375771847274371
30
0
10
35.468978410374326
20
-4.3931980290285866
30
0
0
SPLINE
5
1156
100
AcDbEntity
8
0
100
AcDbSpline
70
0
71
2
72
6
73
3
74
0
42
0.000000001
43
0.0000000001
44
0.0000000001
40
0
40
0
40
0
40
1
40
1
40
1
10
35.468978410374326
20
-4.3931980290285866
30
0
10
35.509261146110276
20
-4.4106245862448041
30
0
10
35.55512645794807
20
-4.4106851011098325
30
0
0
LINE
5
1157
100
AcDbEntity
8
0
100
AcDbLine
10
35.55512645794807
20
-4.4106851011098334
30
0
11
36.879656154367112
21
-4.4124326905754359
31
0
0
SPLINE
5
1158
100
AcDbEntity
8
0
100
AcDbSpline
70
0
71
2
72
6
73
3
74
0
42
0.000000001
43
0.0000000001
44
0.0000000001
40
0
40
0
40
0
40
1
40
1
40
1
10
36.879656154367112
20
-4.412432690575435
30
0
10
36.971386590311695
20
-4.4125537200577982
30
0
10
37.02212812010012
20
-4.403586286192037
30
0
0
SPLINE
5
1159
100
AcDbEntity
8
0
100
AcDbSpline
70
0
71
2
72
6
73
3
74
0
42
0.000000001
43
0.0000000001
44
0.0000000001
40
0
40
0
40
0
40
1
40
1
40
1
10
37.02212812010012
20
-4.403586286192037
30
0
10
37.072869648897786
20
-4.3946196032502804
30
0
10
37.100710613871044
20
-4.3612994834309058
30
0
0
SPLINE
5
1160
100
AcDbEntity
8
0
100
AcDbSpline
70
0
71
2
72
6
73
3
74
0
42
0.000000001
43
0.0000000001
44
0.0000000001
40
0
40
0
40
0
40
1
40
1
40
1
10
37.100710613871044
20
-4.3612994834309058
30
0
10
37.125770199225599
20
-4.3293660320643363
30
0
10
37.133497854734891
20
-4.2661378037203148
30
0
0
SPLINE
5
1161
100
AcDbEntity
8
0
100
AcDbSpline
70
0
71
2
72
6
73
3
74
0
42
0.000000001
43
0.0000000001
44
0.0000000001
40
0
40
0
40
0
40
1
40
1
40
1
10
37.133497854734891
20
-4.2661378037203148
30
0
10
37.141225510244183
20
-4.2029095753762933
30
0
10
37.141375880199611
20
-4.088941463679423
30
0
0
SPLINE
5
1162
100
AcDbEntity
8
0
100
AcDbSpline
70
0
71
2
72
6
73
3
74
0
42
0.000000001
43
0.0000000001
44
0.0000000001
40
0
40
0
40
0
40
1
40
1
40
1
10
37.141375880199611
20
-4.088941463679423
30
0
10
37.141443729749447
20
-4.037517061432812
30
0
10
37.138737348120543
20
-3.9819191105964871
30
0
0
SPLINE
5
1163
100
AcDbEntity
8
0
100
AcDbSpline
70
0
71
2
72
6
73
3
74
0
42
0.000000001
43
0.0000000001
44
0.0000000001
40
0
40
0
40
0
40
1
40
1
40
1
10
37.138737348120543
20
-3.9819191105964871
30
0
10
37.13603096599627
20
-3.926321535222165
30
0
10
37.127757783316355
20
-3.8762757150764742
30
0
0
SPLINE
5
1164
100
AcDbEntity
8
0
100
AcDbSpline
70
0
71
2
72
6
73
3
74
0
42
0.000000001
43
0.0000000001
44
0.0000000001
40
0
40
0
40
0
40
1
40
1
40
1
10
37.127757783316355
20
-3.8762757150764742
30
0
10
37.11948295444855
20
-3.8276198555116818
30
0
10
37.104943593484791
20
-3.7866001501778865
30
0
0
SPLINE
5
1165
100
AcDbEntity
8
0
100
AcDbSpline
70
0
71
2
72
6
73
3
74
0
42
0.000000001
43
0.0000000001
44
0.0000000001
40
0
40
0
40
0
40
1
40
1
40
1
10
37.104943593484791
20
-3.7866001501778865
30
0
10
37.090404233016415
20
-3.7455800693820867
30
0
10
37.068192230147091
20
-3.7260927860921402
30
0
0
SPLINE
5
1166
100
AcDbEntity
8
0
100
AcDbSpline
70
0
71
2
72
6
73
3
74
0
42
0.000000001
43
0.0000000001
44
0.0000000001
40
0
40
0
40
0
40
1
40
1
40
1
10
37.068192230147091
20
-3.7260927860921402
30
0
10
37.004334120555654
20
-3.6690245641456003
30
0
10
36.87448290802385
20
-3.5931058998747205
30
0
0
SPLINE
5
1167
100
AcDbEntity
8
0
100
AcDbSpline
70
0
71
2
72
6
73
3
74
0
42
0.000000001
43
0.0000000001
44
0.0000000001
40
0
40
0
40
0
40
1
40
1
40
1
10
36.87448290802385
20
-3.5931058998747205
30
0
10
36.744631507265666
20
-3.5171876108181506
30
0
10
36.664058512387186
20
-3.4878943374708475
30
0
0
LINE
5
1168
100
AcDbEntity
8
0
100
AcDbLine
10
36.664058512387186
20
-3.4878943374708475
30
0
11
36.664188710225559
21
-3.3892150385152431
31
0
0
LINE
5
1169
100
AcDbEntity
8
0
100
AcDbLine
10
36.664188710225559
20
-3.3892150385152431
30
0
11
37.250651714559019
21
-3.4316843234326684
31
0
0
LINE
5
1170
100
AcDbEntity
8
0
100
AcDbLine
10
37.250651714559019
20
-3.4316843234326684
30
0
11
37.248618056038332
21
-4.9730309360418046
31
0
0
LINE
5
1171
100
AcDbEntity
8
0
100
AcDbLine
10
37.248618056038332
20
-4.9730309360418046
30
0
11
37.149938569351725
21
-4.9729007379557437
31
0
0
SPLINE
5
1172
100
AcDbEntity
8
0
100
AcDbSpline
70
0
71
2
72
6
73
3
74
0
42
0.000000001
43
0.0000000001
44
0.0000000001
40
0
40
0
40
0
40
1
40
1
40
1
10
37.149938569351725
20
-4.9729007379557437
30
0
10
37.14720284650668
20
-4.9395410260647141
30
0
10
37.140337044903312
20
-4.8762935430584626
30
0
0
SPLINE
5
1173
100
AcDbEntity
8
0
100
AcDbSpline
70
0
71
2
72
6
73
3
74
0
42
0.000000001
43
0.0000000001
44
0.0000000001
40
0
40
0
40
0
40
1
40
1
40
1
10
37.140337044903312
20
-4.8762935430584626
30
0
10
37.13347105556894
20
-4.8130460598045186
30
0
10
37.122385320116841
20
-4.7880136055421261
30
0
0
SPLINE
5
1174
100
AcDbEntity
8
0
100
AcDbSpline
70
0
71
2
72
6
73
3
74
0
42
0.000000001
43
0.0000000001
44
0.0000000001
40
0
40
0
40
0
40
1
40
1
40
1
10
37.122385320116841
20
-4.7880136055421261
30
0
10
37.10437216301051
20
-4.7462943354921849
30
0
10
37.069650726568895
20
-4.7274855285849533
30
0
0
SPLINE
5
1175
100
AcDbEntity
8
0
100
AcDbSpline
70
0
71
2
72
6
73
3
74
0
42
0.000000001
43
0.0000000001
44
0.0000000001
40
0
40
0
40
0
40
1
40
1
40
1
10
37.069650726568895
20
-4.7274855285849533
30
0
10
37.034929102396276
20
-4.7086767214300282
30
0
10
36.98072496721425
20
-4.7086052042901017
30
0
0
SPLINE
5
1176
100
AcDbEntity
8
0
100
AcDbSpline
70
0
71
2
72
6
73
3
74
0
42
0.000000001
43
0.0000000001
44
0.0000000001
40
0
40
0
40
0
40
1
40
1
40
1
10
35.56863434038825
20
-4.7067420866034313
30
0
10
35.521379255948254
20
-4.7066797380672023
30
0
10
35.485222015164169
20
-4.7226151018752169
30
0
0
LINE
5
1177
100
AcDbEntity
8
0
100
AcDbLine
10
36.98072496721425
20
-4.7086052042901017
30
0
11
35.56863434038825
21
-4.7067420866034322
31
0
0
SPLINE
5
1178
100
AcDbEntity
8
0
100
AcDbSpline
70
0
71
2
72
6
73
3
74
0
42
0.000000001
43
0.0000000001
44
0.0000000001
40
0
40
0
40
0
40
1
40
1
40
1
10
35.523815403852439
20
-3.0085400758536385
30
0
10
35.386299842651262
20
-2.8819902975287772
30
0
10
35.311420723171238
20
-2.709712587827283
30
0
0
SPLINE
5
1179
100
AcDbEntity
8
0
100
AcDbSpline
70
0
71
2
72
6
73
3
74
0
42
0.000000001
43
0.0000000001
44
0.0000000001
40
0
40
0
40
0
40
1
40
1
40
1
10
35.311420723171238
20
-2.709712587827283
30
0
10
35.236541416455601
20
-2.5374345024160925
30
0
10
35.236799749840507
20
-2.3416389528212371
30
0
0
SPLINE
5
1180
100
AcDbEntity
8
0
100
AcDbSpline
70
0
71
2
72
6
73
3
74
0
42
0.000000001
43
0.0000000001
44
0.0000000001
40
0
40
0
40
0
40
1
40
1
40
1
10
35.236799749840507
20
-2.3416389528212371
30
0
10
35.236992095831475
20
-2.1958564438056438
30
0
10
35.273283976580004
20
-2.0778750132657251
30
0
0
SPLINE
5
1181
100
AcDbEntity
8
0
100
AcDbSpline
70
0
71
2
72
6
73
3
74
0
42
0.000000001
43
0.0000000001
44
0.0000000001
40
0
40
0
40
0
40
1
40
1
40
1
10
35.273283976580004
20
-2.0778750132657251
30
0
10
35.309575856833142
20
-1.9598939581878094
30
0
10
35.375040169177609
20
-1.8530699689616876
30
0
0
LINE
5
1182
100
AcDbEntity
8
0
100
AcDbLine
10
35.375040169177602
20
-1.8530699689616872
30
0
11
35.280605315293869
21
-1.7960049576117776
31
0
0
LINE
5
1183
100
AcDbEntity
8
0
100
AcDbLine
10
35.280605315293869
20
-1.7960049576117776
30
0
11
35.280752017906899
21
-1.6848163911193175
31
0
0
LINE
5
1184
100
AcDbEntity
8
0
100
AcDbLine
10
35.280752017906899
20
-1.6848163911193175
30
0
11
35.984033913941992
21
-1.6732361409740175
31
0
0
LINE
5
1185
100
AcDbEntity
8
0
100
AcDbLine
10
35.984033913941992
20
-1.6732361409740175
30
0
11
35.983883544481941
21
-1.7872038772088843
31
0
0
SPLINE
5
1186
100
AcDbEntity
8
0
100
AcDbSpline
70
0
71
2
72
6
73
3
74
0
42
0.000000001
43
0.0000000001
44
0.0000000001
40
0
40
0
40
0
40
1
40
1
40
1
10
35.983883544481948
20
-1.7872038772088847
30
0
10
35.881005147394625
20
-1.8092835135008245
30
0
10
35.760724261646274
20
-1.8535461767535224
30
0
0
SPLINE
5
1187
100
AcDbEntity
8
0
100
AcDbSpline
70
0
71
2
72
6
73
3
74
0
42
0.000000001
43
0.0000000001
44
0.0000000001
40
0
40
0
40
0
40
1
40
1
40
1
10
35.760724261646274
20
-1.8535461767535224
30
0
10
35.640443376393314
20
-1.8978084645442181
30
0
10
35.556973560615319
20
-1.9573968964752462
30
0
0
SPLINE
5
1188
100
AcDbEntity
8
0
100
AcDbSpline
70
0
71
2
72
6
73
3
74
0
42
0.000000001
43
0.0000000001
44
0.0000000001
40
0
40
0
40
0
40
1
40
1
40
1
10
35.556973560615319
20
-1.9573968964752462
30
0
10
35.462375672233598
20
-2.023898682915783
30
0
10
35.408745443419058
20
-2.1154498221824687
30
0
0
SPLINE
5
1189
100
AcDbEntity
8
0
100
AcDbSpline
70
0
71
2
72
6
73
3
74
0
42
0.000000001
43
0.0000000001
44
0.0000000001
40
0
40
0
40
0
40
1
40
1
40
1
10
35.408745443419058
20
-2.1154498221824687
30
0
10
35.355115214604517
20
-2.2070009614491539
30
0
10
35.354959544514493
20
-2.3249861411106307
30
0
0
SPLINE
5
1190
100
AcDbEntity
8
0
100
AcDbSpline
70
0
71
2
72
6
73
3
74
0
42
0.000000001
43
0.0000000001
44
0.0000000001
40
0
40
0
40
0
40
1
40
1
40
1
10
35.354959544514493
20
-2.3249861411106307
30
0
10
35.354781868388521
20
-2.4596500938465797
30
0
10
35.414435901229396
20
-2.5756405064055188
30
0
0
SPLINE
5
1191
100
AcDbEntity
8
0
100
AcDbSpline
70
0
71
2
72
6
73
3
74
0
42
0.000000001
43
0.0000000001
44
0.0000000001
40
0
40
0
40
0
40
1
40
1
40
1
10
35.414435901229396
20
-2.5756405064055188
30
0
10
35.474090121801275
20
-2.6916309192121517
30
0
10
35.590812981187092
20
-2.7764573846826659
30
0
0
SPLINE
5
1192
100
AcDbEntity
8
0
100
AcDbSpline
70
0
71
2
72
6
73
3
74
0
42
0.000000001
43
0.0000000001
44
0.0000000001
40
0
40
0
40
0
40
1
40
1
40
1
10
35.590812981187092
20
-2.7764573846826659
30
0
10
35.703393302763843
20
-2.8571306485112595
30
0
10
35.877194763928863
20
-2.9031709124093235
30
0
0
SPLINE
5
1193
100
AcDbEntity
8
0
100
AcDbSpline
70
0
71
2
72
6
73
3
74
0
42
0.000000001
43
0.0000000001
44
0.0000000001
40
0
40
0
40
0
40
1
40
1
40
1
10
35.877194763928863
20
-2.9031709124093235
30
0
10
36.050996225093876
20
-2.9492111763073874
30
0
10
36.265207153390207
20
-2.9494938070122481
30
0
0
SPLINE
5
1194
100
AcDbEntity
8
0
100
AcDbSpline
70
0
71
2
72
6
73
3
74
0
42
0.000000001
43
0.0000000001
44
0.0000000001
40
0
40
0
40
0
40
1
40
1
40
1
10
36.265207153390207
20
-2.9494938070122481
30
0
10
36.454357588734048
20
-2.9497433728084053
30
0
10
36.612299362769775
20
-2.9020562435165278
30
0
0
SPLINE
5
1195
100
AcDbEntity
8
0
100
AcDbSpline
70
0
71
2
72
6
73
3
74
0
42
0.000000001
43
0.0000000001
44
0.0000000001
40
0
40
0
40
0
40
1
40
1
40
1
10
36.612299362769775
20
-2.9020562435165278
30
0
10
36.770241137300893
20
-2.854368738762648
30
0
10
36.889972693553879
20
-2.7656629625078391
30
0
0
SPLINE
5
1196
100
AcDbEntity
8
0
100
AcDbSpline
70
0
71
2
72
6
73
3
74
0
42
0.000000001
43
0.0000000001
44
0.0000000001
40
0
40
0
40
0
40
1
40
1
40
1
10
36.889972693553879
20
-2.7656629625078391
30
0
10
37.008314261236663
20
-2.6769767536682787
30
0
10
37.07524181200634
20
-2.5555938777781884
30
0
0
SPLINE
5
1197
100
AcDbEntity
8
0
100
AcDbSpline
70
0
71
2
72
6
73
3
74
0
42
0.000000001
43
0.0000000001
44
0.0000000001
40
0
40
0
40
0
40
1
40
1
40
1
10
37.07524181200634
20
-2.5555938777781884
30
0
10
37.142169175045019
20
-2.434211001640405
30
0
10
37.142367022297286
20
-2.2842589870871954
30
0
0
SPLINE
5
1198
100
AcDbEntity
8
0
100
AcDbSpline
70
0
71
2
72
6
73
3
74
0
42
0.000000001
43
0.0000000001
44
0.0000000001
40
0
40
0
40
0
40
1
40
1
40
1
10
37.142367022297286
20
-2.2842589870871954
30
0
10
37.142515386434887
20
-2.1718111210383948
30
0
10
37.107198767313662
20
-2.077363074922725
30
0
0
SPLINE
5
1199
100
AcDbEntity
8
0
100
AcDbSpline
70
0
71
2
72
6
73
3
74
0
42
0.000000001
43
0.0000000001
44
0.0000000001
40
0
40
0
40
0
40
1
40
1
40
1
10
37.107198767313662
20
-2.077363074922725
30
0
10
37.071881960956823
20
-1.9829146530973587
30
0
10
37.013599735318323
20
-1.9134102046445884
30
0
0
SPLINE
5
1200
100
AcDbEntity
8
0
100
AcDbSpline
70
0
71
2
72
6
73
3
74
0
42
0.000000001
43
0.0000000001
44
0.0000000001
40
0
40
0
40
0
40
1
40
1
40
1
10
37.013599735318323
20
-1.9134102046445884
30
0
10
36.952537935743024
20
-1.8439238656455617
30
0
10
36.874775587886873
20
-1.7910616287385264
30
0
0
SPLINE
5
1201
100
AcDbEntity
8
0
100
AcDbSpline
70
0
71
2
72
6
73
3
74
0
42
0.000000001
43
0.0000000001
44
0.0000000001
40
0
40
0
40
0
40
1
40
1
40
1
10
36.874775587886873
20
-1.7910616287385264
30
0
10
36.797013616978887
20
-1.7381982659408699
30
0
10
36.705327134650673
20
-1.7047639948258564
30
0
0
LINE
5
1202
100
AcDbEntity
8
0
100
AcDbLine
10
36.705327134650673
20
-1.7047639948258564
30
0
11
36.755499485044638
21
-1.6005912461257528
31
0
0
SPLINE
5
1203
100
AcDbEntity
8
0
100
AcDbSpline
70
0
71
2
72
6
73
3
74
0
42
0.000000001
43
0.0000000001
44
0.0000000001
40
0
40
0
40
0
40
1
40
1
40
1
10
36.755499485044638
20
-1.6005912461257534
30
0
10
37.04860083842636
20
-1.7203968666285065
30
0
10
37.174122304899477
20
-1.9177592217345103
30
0
0
SPLINE
5
1204
100
AcDbEntity
8
0
100
AcDbSpline
70
0
71
2
72
6
73
3
74
0
42
0.000000001
43
0.0000000001
44
0.0000000001
40
0
40
0
40
0
40
1
40
1
40
1
10
37.174122304899477
20
-1.9177592217345103
30
0
10
37.299643959598995
20
-2.1151212016262053
30
0
10
37.299284825570481
20
-2.3873153840250891
30
0
0
SPLINE
5
1205
100
AcDbEntity
8
0
100
AcDbSpline
70
0
71
2
72
6
73
3
74
0
42
0.000000001
43
0.0000000001
44
0.0000000001
40
0
40
0
40
0
40
1
40
1
40
1
10
37.299284825570481
20
-2.3873153840250891
30
0
10
37.299052136336158
20
-2.5636747675992084
30
0
10
37.229302547473495
20
-2.7253703491684327
30
0
0
SPLINE
5
1206
100
AcDbEntity
8
0
100
AcDbSpline
70
0
71
2
72
6
73
3
74
0
42
0.000000001
43
0.0000000001
44
0.0000000001
40
0
40
0
40
0
40
1
40
1
40
1
10
37.229302547473495
20
-2.7253703491684327
30
0
10
37.159552958115441
20
-2.8870663061996602
30
0
10
37.028655008160655
20
-3.0118719759749863
30
0
0
SPLINE
5
1207
100
AcDbEntity
8
0
100
AcDbSpline
70
0
71
2
72
6
73
3
74
0
42
0.000000001
43
0.0000000001
44
0.0000000001
40
0
40
0
40
0
40
1
40
1
40
1
10
37.028655008160655
20
-3.0118719759749863
30
0
10
36.897758863392376
20
-3.1353094622132516
30
0
10
36.709206491377323
20
-3.208658124427707
30
0
0
SPLINE
5
1208
100
AcDbEntity
8
0
100
AcDbSpline
70
0
71
2
72
6
73
3
74
0
42
0.000000001
43
0.0000000001
44
0.0000000001
40
0
40
0
40
0
40
1
40
1
40
1
10
36.709206491377323
20
-3.208658124427707
30
0
10
36.520653932126649
20
-3.2820064109324671
30
0
10
36.28422682327767
20
-3.2816944681153863
30
0
0
SPLINE
5
1209
100
AcDbEntity
8
0
100
AcDbSpline
70
0
71
2
72
6
73
3
74
0
42
0.000000001
43
0.0000000001
44
0.0000000001
40
0
40
0
40
0
40
1
40
1
40
1
10
35.855248529164115
20
-3.2089209963691863
30
0
10
35.662718932469296
20
-3.1364598713867622
30
0
10
35.523815403852439
20
-3.0085400758536385
30
0
0
SPLINE
5
1210
100
AcDbEntity
8
0
100
AcDbSpline
70
0
71
2
72
6
73
3
74
0
42
0.000000001
43
0.0000000001
44
0.0000000001
40
0
40
0
40
0
40
1
40
1
40
1
10
36.28422682327767
20
-3.2816944681153863
30
0
10
36.047778219229052
20
-3.281382496937459
30
0
10
35.855248529164115
20
-3.2089209963691863
30
0
0
SPLINE
5
1211
100
AcDbEntity
8
0
100
AcDbSpline
70
0
71
2
72
6
73
3
74
0
42
0.000000001
43
0.0000000001
44
0.0000000001
40
0
40
0
40
0
40
1
40
1
40
1
10
35.252430506311605
20
-9.9396944588496776
30
0
10
35.245656884294398
20
-9.9904340625681112
30
0
10
35.179874006890479
20
-10.013248280082991
30
0
0
SPLINE
5
1212
100
AcDbEntity
8
0
100
AcDbSpline
70
0
71
2
72
6
73
3
74
0
42
0.000000001
43
0.0000000001
44
0.0000000001
40
0
40
0
40
0
40
1
40
1
40
1
10
35.179874006890479
20
-10.013248280082991
30
0
10
35.178876591212706
20
-10.013248280082991
30
0
10
35.175780716576519
20
-10.014578167653349
30
0
0
SPLINE
5
1213
100
AcDbEntity
8
0
100
AcDbSpline
70
0
71
2
72
6
73
3
74
0
42
0.000000001
43
0.0000000001
44
0.0000000001
40
0
40
0
40
0
40
1
40
1
40
1
10
35.175780716576519
20
-10.014578167653349
30
0
10
35.172684841940324
20
-10.015907867492544
30
0
10
35.163376286006887
20
-10.015907867492544
30
0
0
SPLINE
5
1214
100
AcDbEntity
8
0
100
AcDbSpline
70
0
71
2
72
6
73
3
74
0
42
0.000000001
43
0.0000000001
44
0.0000000001
40
0
40
0
40
0
40
1
40
1
40
1
10
35.163376286006887
20
-10.015907867492544
30
0
10
35.114548161006887
20
-10.015907867492544
30
0
10
35.120532185745589
20
-9.9563582279483942
30
0
0
LINE
5
1215
100
AcDbEntity
8
0
100
AcDbLine
10
35.120532185745589
20
-9.9563582279483942
30
0
11
35.126225414910259
21
-9.5159078750017905
31
0
0
LINE
5
1216
100
AcDbEntity
8
0
100
AcDbLine
10
35.126225414910259
20
-9.5159078750017905
30
0
11
34.469975366100158
21
-9.5159078750017887
31
0
0
SPLINE
5
1217
100
AcDbEntity
8
0
100
AcDbSpline
70
0
71
2
72
6
73
3
74
0
42
0.000000001
43
0.0000000001
44
0.0000000001
40
0
40
0
40
0
40
1
40
1
40
1
10
34.469975366100158
20
-9.5159078750017905
30
0
10
34.442257657497493
20
-9.5159078750017905
30
0
10
34.43122460308561
20
-9.4963143733475928
30
0
0
SPLINE
5
1218
100
AcDbEntity
8
0
100
AcDbSpline
70
0
71
2
72
6
73
3
74
0
42
0.000000001
43
0.0000000001
44
0.0000000001
40
0
40
0
40
0
40
1
40
1
40
1
10
34.43122460308561
20
-9.4963143733475928
30
0
10
34.420191501740945
20
-9.4767206839622311
30
0
10
34.429001349835488
20
-9.4507899413830501
30
0
0
SPLINE
5
1219
100
AcDbEntity
8
0
100
AcDbSpline
70
0
71
2
72
6
73
3
74
0
42
0.000000001
43
0.0000000001
44
0.0000000001
40
0
40
0
40
0
40
1
40
1
40
1
10
34.429001349835488
20
-9.4507899413830501
30
0
10
34.44936375140729
20
-9.3909078299463111
30
0
10
34.512487041401656
20
-9.3909078299463111
30
0
0
LINE
5
1220
100
AcDbEntity
8
0
100
AcDbLine
10
34.512487041401656
20
-9.3909078299463111
30
0
11
35.138151881934697
21
-9.3909078299463129
31
0
0
LINE
5
1221
100
AcDbEntity
8
0
100
AcDbLine
10
35.138151881934697
20
-9.3909078299463129
30
0
11
35.168903185359682
21
-8.2282168262520017
31
0
0
LINE
5
1222
100
AcDbEntity
8
0
100
AcDbLine
10
35.168903185359682
20
-8.2282168262520017
30
0
11
34.032392325096787
21
-9.9747675214159965
31
0
0
SPLINE
5
1223
100
AcDbEntity
8
0
100
AcDbSpline
70
0
71
2
72
6
73
3
74
0
42
0.000000001
43
0.0000000001
44
0.0000000001
40
0
40
0
40
0
40
1
40
1
40
1
10
34.032392325096787
20
-9.9747675214159965
30
0
10
34.017265933438154
20
-9.9952961120013004
30
0
10
33.98934040643622
20
-10.006890200998729
30
0
0
SPLINE
5
1224
100
AcDbEntity
8
0
100
AcDbSpline
70
0
71
2
72
6
73
3
74
0
42
0.000000001
43
0.0000000001
44
0.0000000001
40
0
40
0
40
0
40
1
40
1
40
1
10
33.98934040643622
20
-10.006890200998729
30
0
10
33.961414879434294
20
-10.018484289996156
30
0
10
33.941426555674447
20
-10.012666501203748
30
0
0
SPLINE
5
1225
100
AcDbEntity
8
0
100
AcDbSpline
70
0
71
2
72
6
73
3
74
0
42
0.000000001
43
0.0000000001
44
0.0000000001
40
0
40
0
40
0
40
1
40
1
40
1
10
33.941426555674447
20
-10.012666501203748
30
0
10
33.893304863047014
20
-9.9899354485948084
30
0
10
33.927089761294319
20
-9.932588458805462
30
0
0
LINE
5
1226
100
AcDbEntity
8
0
100
AcDbLine
10
33.927089761294319
20
-9.932588458805462
30
0
11
35.164581426218341
21
-8.0590428872304489
31
0
0
SPLINE
5
1227
100
AcDbEntity
8
0
100
AcDbSpline
70
0
71
2
72
6
73
3
74
0
42
0.000000001
43
0.0000000001
44
0.0000000001
40
0
40
0
40
0
40
1
40
1
40
1
10
35.164581426218348
20
-8.0590428872304489
30
0
10
35.192091363354535
20
-8.0159078975295301
30
0
10
35.241335031287484
20
-8.0159078975295301
30
0
0
SPLINE
5
1228
100
AcDbEntity
8
0
100
AcDbSpline
70
0
71
2
72
6
73
3
74
0
42
0.000000001
43
0.0000000001
44
0.0000000001
40
0
40
0
40
0
40
1
40
1
40
1
10
35.241335031287484
20
-8.0159078975295301
30
0
10
35.290246321193422
20
-8.0159078975295319
30
0
10
35.285384271760236
20
-8.0718836988922966
30
0
0
LINE
5
1229
100
AcDbEntity
8
0
100
AcDbLine
10
35.252804466791588
20
-9.9361621092556813
30
0
11
35.252430506311605
21
-9.9396944588496776
31
0
0
LINE
5
1230
100
AcDbEntity
8
0
100
AcDbLine
10
35.285384271760236
20
-8.0718836988922966
30
0
11
35.252804466791588
21
-9.9361621092556813
31
0
0
SPLINE
5
1231
100
AcDbEntity
8
0
100
AcDbSpline
70
0
71
2
72
6
73
3
74
0
42
0.000000001
43
0.0000000001
44
0.0000000001
40
0
40
0
40
0
40
1
40
1
40
1
10
36.143782675468628
20
-8.0380986598466215
30
0
10
36.168113573062691
20
-8.0185674849390871
30
0
10
36.196579343423679
20
-8.0185674849390871
30
0
0
SPLINE
5
1232
100
AcDbEntity
8
0
100
AcDbSpline
70
0
71
2
72
6
73
3
74
0
42
0.000000001
43
0.0000000001
44
0.0000000001
40
0
40
0
40
0
40
1
40
1
40
1
10
36.196579343423679
20
-8.0185674849390871
30
0
10
36.224629570851725
20
-8.0185674849390871
30
0
10
36.23580802305063
20
-8.038306478245886
30
0
0
SPLINE
5
1233
100
AcDbEntity
8
0
100
AcDbSpline
70
0
71
2
72
6
73
3
74
0
42
0.000000001
43
0.0000000001
44
0.0000000001
40
0
40
0
40
0
40
1
40
1
40
1
10
36.23580802305063
20
-8.038306478245886
30
0
10
36.246986569115109
20
-8.058045471552683
30
0
10
36.239838986617926
20
-8.0790311875239009
30
0
0
LINE
5
1234
100
AcDbEntity
8
0
100
AcDbLine
10
36.239838986617926
20
-8.0790311875239009
30
0
11
35.607566736547575
21
-9.9368685416282503
31
0
0
SPLINE
5
1235
100
AcDbEntity
8
0
100
AcDbSpline
70
0
71
2
72
6
73
3
74
0
42
0.000000001
43
0.0000000001
44
0.0000000001
40
0
40
0
40
0
40
1
40
1
40
1
10
35.607566736547575
20
-9.9368685416282503
30
0
10
35.598840029892564
20
-9.9625916535393326
30
0
10
35.573906515259985
20
-9.9826007919920574
30
0
0
SPLINE
5
1236
100
AcDbEntity
8
0
100
AcDbSpline
70
0
71
2
72
6
73
3
74
0
42
0.000000001
43
0.0000000001
44
0.0000000001
40
0
40
0
40
0
40
1
40
1
40
1
10
35.573906515259985
20
-9.9826007919920574
30
0
10
35.548972977161014
20
-10.002609930444784
30
0
10
35.521379922051672
20
-10.002609930444784
30
0
0
SPLINE
5
1237
100
AcDbEntity
8
0
100
AcDbSpline
70
0
71
2
72
6
73
3
74
0
42
0.000000001
43
0.0000000001
44
0.0000000001
40
0
40
0
40
0
40
1
40
1
40
1
10
35.521379922051672
20
-10.002609930444784
30
0
10
35.493371253610206
20
-10.002609930444784
30
0
10
35.482192754478511
20
-9.9828500989787088
30
0
0
SPLINE
5
1238
100
AcDbEntity
8
0
100
AcDbSpline
70
0
71
2
72
6
73
3
74
0
42
0.000000001
43
0.0000000001
44
0.0000000001
40
0
40
0
40
0
40
1
40
1
40
1
10
35.482192754478511
20
-9.9828500989787088
30
0
10
35.471014243613624
20
-9.9630902675126354
30
0
10
35.479907162748532
20
-9.9368685416282503
30
0
0
SPLINE
5
1239
100
AcDbEntity
8
0
100
AcDbSpline
70
0
71
2
72
6
73
3
74
0
42
0.000000001
43
0.0000000001
44
0.0000000001
40
0
40
0
40
0
40
1
40
1
40
1
10
36.112179448018473
20
-8.0790311875239009
30
0
10
36.119451684008986
20
-8.0576300224853199
30
0
10
36.143782675468628
20
-8.0380986598466215
30
0
0
LINE
5
1240
100
AcDbEntity
8
0
100
AcDbLine
10
35.479907162748532
20
-9.9368685416282485
30
0
11
36.112179448018473
21
-8.0790311875239009
31
0
0
SPLINE
5
1241
100
AcDbEntity
8
0
100
AcDbSpline
70
0
71
2
72
6
73
3
74
0
42
0.000000001
43
0.0000000001
44
0.0000000001
40
0
40
0
40
0
40
1
40
1
40
1
10
37.121197099493799
20
-8.0212270723486387
30
0
10
37.185026915726311
20
-8.0212270723486387
30
0
10
37.164456742688039
20
-8.0816907749334543
30
0
0
LINE
5
1242
100
AcDbEntity
8
0
100
AcDbLine
10
37.164456742688039
20
-8.0816907749334543
30
0
11
36.532226004671479
21
-9.939486640450415
31
0
0
SPLINE
5
1243
100
AcDbEntity
8
0
100
AcDbSpline
70
0
71
2
72
6
73
3
74
0
42
0.000000001
43
0.0000000001
44
0.0000000001
40
0
40
0
40
0
40
1
40
1
40
1
10
36.532226004671472
20
-9.939486640450415
30
0
10
36.510741627794161
20
-10.002609930444784
30
0
10
36.44691183502804
20
-10.002609930444784
30
0
0
SPLINE
5
1244
100
AcDbEntity
8
0
100
AcDbSpline
70
0
71
2
72
6
73
3
74
0
42
0.000000001
43
0.0000000001
44
0.0000000001
40
0
40
0
40
0
40
1
40
1
40
1
10
36.44691183502804
20
-10.002609930444784
30
0
10
36.383082053995118
20
-10.002609930444784
30
0
10
36.404566430872428
20
-9.939486640450415
30
0
0
SPLINE
5
1245
100
AcDbEntity
8
0
100
AcDbSpline
70
0
71
2
72
6
73
3
74
0
42
0.000000001
43
0.0000000001
44
0.0000000001
40
0
40
0
40
0
40
1
40
1
40
1
10
37.036797110223006
20
-8.0816907749334543
30
0
10
37.057367283261279
20
-8.0212270723486387
30
0
10
37.121197099493799
20
-8.0212270723486387
30
0
0
LINE
5
1246
100
AcDbEntity
8
0
100
AcDbLine
10
36.404566430872428
20
-9.939486640450415
30
0
11
37.036797110222999
21
-8.0816907749334543
31
0
0
SPLINE
5
1247
100
AcDbEntity
8
0
100
AcDbSpline
70
0
71
2
72
6
73
3
74
0
42
0.000000001
43
0.0000000001
44
0.0000000001
40
0
40
0
40
0
40
1
40
1
40
1
10
37.878739469366366
20
-8.1780588136816483
30
0
10
37.941509637040028
20
-8.2098905099591768
30
0
10
37.976582699606354
20
-8.2647235917227366
30
0
0
SPLINE
5
1248
100
AcDbEntity
8
0
100
AcDbSpline
70
0
71
2
72
6
73
3
74
0
42
0.000000001
43
0.0000000001
44
0.0000000001
40
0
40
0
40
0
40
1
40
1
40
1
10
37.976582699606354
20
-8.2647235917227366
30
0
10
38.011655762172673
20
-8.3195564857551325
30
0
10
38.018990418775424
20
-8.3918220957366394
30
0
0
SPLINE
5
1249
100
AcDbEntity
8
0
100
AcDbSpline
70
0
71
2
72
6
73
3
74
0
42
0.000000001
43
0.0000000001
44
0.0000000001
40
0
40
0
40
0
40
1
40
1
40
1
10
38.018990418775424
20
-8.3918220957366394
30
0
10
38.026325075378182
20
-8.46408779958373
30
0
10
37.99831633653752
20
-8.5464930513645623
30
0
0
SPLINE
5
1250
100
AcDbEntity
8
0
100
AcDbSpline
70
0
71
2
72
6
73
3
74
0
42
0.000000001
43
0.0000000001
44
0.0000000001
40
0
40
0
40
0
40
1
40
1
40
1
10
37.99831633653752
20
-8.5464930513645623
30
0
10
37.969767495136175
20
-8.630352750343496
30
0
10
37.912711300920868
20
-8.7033040484038757
30
0
0
SPLINE
5
1251
100
AcDbEntity
8
0
100
AcDbSpline
70
0
71
2
72
6
73
3
74
0
42
0.000000001
43
0.0000000001
44
0.0000000001
40
0
40
0
40
0
40
1
40
1
40
1
10
37.912711300920868
20
-8.7033040484038757
30
0
10
37.855655106705555
20
-8.7762553464642554
30
0
10
37.782932465203714
20
-8.8313376413488847
30
0
0
SPLINE
5
1252
100
AcDbEntity
8
0
100
AcDbSpline
70
0
71
2
72
6
73
3
74
0
42
0.000000001
43
0.0000000001
44
0.0000000001
40
0
40
0
40
0
40
1
40
1
40
1
10
37.782932465203714
20
-8.8313376413488847
30
0
10
37.710209729836293
20
-8.8864199362335139
30
0
10
37.626620176003286
20
-8.9179192544840333
30
0
0
SPLINE
5
1253
100
AcDbEntity
8
0
100
AcDbSpline
70
0
71
2
72
6
73
3
74
0
42
0.000000001
43
0.0000000001
44
0.0000000001
40
0
40
0
40
0
40
1
40
1
40
1
10
37.626620176003286
20
-8.9179192544840333
30
0
10
37.543030528304698
20
-8.9494185727345545
30
0
10
37.459877261698331
20
-8.9494185727345545
30
0
0
LINE
5
1254
100
AcDbEntity
8
0
100
AcDbLine
10
37.459877261698324
20
-8.9494185727345545
30
0
11
37.008497622741103
21
-8.9494185727345545
31
0
0
SPLINE
5
1255
100
AcDbEntity
8
0
100
AcDbSpline
70
0
71
2
72
6
73
3
74
0
42
0.000000001
43
0.0000000001
44
0.0000000001
40
0
40
0
40
0
40
1
40
1
40
1
10
37.008497622741103
20
-8.9494185727345545
30
0
10
36.945374285813941
20
-8.9494185727345545
30
0
10
36.924554805789022
20
-9.0105888015575175
30
0
0
SPLINE
5
1256
100
AcDbEntity
8
0
100
AcDbSpline
70
0
71
2
72
6
73
3
74
0
42
0.000000001
43
0.0000000001
44
0.0000000001
40
0
40
0
40
0
40
1
40
1
40
1
10
36.924554805789022
20
-9.0105888015575175
30
0
10
36.902821074992268
20
-9.0744185239244519
30
0
10
36.965944411919423
20
-9.0744185239244519
30
0
0
LINE
5
1257
100
AcDbEntity
8
0
100
AcDbLine
10
36.965944411919423
20
-9.0744185239244519
30
0
11
37.417324050876651
21
-9.0744185239244519
31
0
0
SPLINE
5
1258
100
AcDbEntity
8
0
100
AcDbSpline
70
0
71
2
72
6
73
3
74
0
42
0.000000001
43
0.0000000001
44
0.0000000001
40
0
40
0
40
0
40
1
40
1
40
1
10
37.417324050876651
20
-9.0744185239244519
30
0
10
37.500020285962684
20
-9.0744185239244519
30
0
10
37.562790359770773
20
-9.1062711522268387
30
0
0
SPLINE
5
1259
100
AcDbEntity
8
0
100
AcDbSpline
70
0
71
2
72
6
73
3
74
0
42
0.000000001
43
0.0000000001
44
0.0000000001
40
0
40
0
40
0
40
1
40
1
40
1
10
37.562790359770773
20
-9.1062711522268387
30
0
10
37.625560433578855
20
-9.1381236866636417
30
0
10
37.660612845717068
20
-9.1931020723486387
30
0
0
SPLINE
5
1260
100
AcDbEntity
8
0
100
AcDbSpline
70
0
71
2
72
6
73
3
74
0
42
0.000000001
43
0.0000000001
44
0.0000000001
40
0
40
0
40
0
40
1
40
1
40
1
10
37.660612845717068
20
-9.1931020723486387
30
0
10
37.695665163989695
20
-9.2480804580336375
30
0
10
37.70295823813948
20
-9.320470721508471
30
0
0
SPLINE
5
1261
100
AcDbEntity
8
0
100
AcDbSpline
70
0
71
2
72
6
73
3
74
0
42
0.000000001
43
0.0000000001
44
0.0000000001
40
0
40
0
40
0
40
1
40
1
40
1
10
37.70295823813948
20
-9.320470721508471
30
0
10
37.710251312289266
20
-9.3928609849833027
30
0
10
37.682159502408247
20
-9.4754324727104304
30
0
0
LINE
5
1262
100
AcDbEntity
8
0
100
AcDbLine
10
37.682159502408247
20
-9.4754324727104304
30
0
11
37.524247274357116
21
-9.9395281290378055
31
0
0
SPLINE
5
1263
100
AcDbEntity
8
0
100
AcDbSpline
70
0
71
2
72
6
73
3
74
0
42
0.000000001
43
0.0000000001
44
0.0000000001
40
0
40
0
40
0
40
1
40
1
40
1
10
37.524247274357108
20
-9.9395281290378037
30
0
10
37.514814158795936
20
-9.967204395985874
30
0
10
37.528382147124042
20
-9.984907257080911
30
0
0
SPLINE
5
1264
100
AcDbEntity
8
0
100
AcDbSpline
70
0
71
2
72
6
73
3
74
0
42
0.000000001
43
0.0000000001
44
0.0000000001
40
0
40
0
40
0
40
1
40
1
40
1
10
37.528382147124042
20
-9.984907257080911
30
0
10
37.541950135452147
20
-10.002609930444784
30
0
10
37.565304455527716
20
-10.002609930444784
30
0
0
SPLINE
5
1265
100
AcDbEntity
8
0
100
AcDbSpline
70
0
71
2
72
6
73
3
74
0
42
0.000000001
43
0.0000000001
44
0.0000000001
40
0
40
0
40
0
40
1
40
1
40
1
10
37.565304455527716
20
-10.002609930444784
30
0
10
37.590819749039532
20
-10.002609930444784
30
0
10
37.616709096896912
20
-9.9847202768409229
30
0
0
SPLINE
5
1266
100
AcDbEntity
8
0
100
AcDbSpline
70
0
71
2
72
6
73
3
74
0
42
0.000000001
43
0.0000000001
44
0.0000000001
40
0
40
0
40
0
40
1
40
1
40
1
10
37.616709096896912
20
-9.9847202768409229
30
0
10
37.642598350888711
20
-9.9668304355058979
30
0
10
37.651906906822141
20
-9.9394866404504185
30
0
0
LINE
5
1267
100
AcDbEntity
8
0
100
AcDbLine
10
37.651906906822141
20
-9.9394866404504185
30
0
11
37.809985370819568
21
-9.4750170236430673
31
0
0
SPLINE
5
1268
100
AcDbEntity
8
0
100
AcDbSpline
70
0
71
2
72
6
73
3
74
0
42
0.000000001
43
0.0000000001
44
0.0000000001
40
0
40
0
40
0
40
1
40
1
40
1
10
37.809985370819575
20
-9.4750170236430673
30
0
10
37.837287489556502
20
-9.3947309751143511
30
0
10
37.83832639382166
20
-9.3189332032700118
30
0
0
SPLINE
5
1269
100
AcDbEntity
8
0
100
AcDbSpline
70
0
71
2
72
6
73
3
74
0
42
0.000000001
43
0.0000000001
44
0.0000000001
40
0
40
0
40
0
40
1
40
1
40
1
10
37.83832639382166
20
-9.3189332032700118
30
0
10
37.839365298086818
20
-9.2431352436945087
30
0
10
37.817132953316758
20
-9.1805522439919951
30
0
0
SPLINE
5
1270
100
AcDbEntity
8
0
100
AcDbSpline
70
0
71
2
72
6
73
3
74
0
42
0.000000001
43
0.0000000001
44
0.0000000001
40
0
40
0
40
0
40
1
40
1
40
1
10
37.817132953316758
20
-9.1805522439919951
30
0
10
37.794900608546705
20
-9.1179690565583176
30
0
10
37.75166170964615
20
-9.0689123688653606
30
0
0
SPLINE
5
1271
100
AcDbEntity
8
0
100
AcDbSpline
70
0
71
2
72
6
73
3
74
0
42
0.000000001
43
0.0000000001
44
0.0000000001
40
0
40
0
40
0
40
1
40
1
40
1
10
37.75166170964615
20
-9.0689123688653606
30
0
10
37.708422810745603
20
-9.0198557750379837
30
0
10
37.654649565272059
20
-9.0120016663026501
30
0
0
SPLINE
5
1272
100
AcDbEntity
8
0
100
AcDbSpline
70
0
71
2
72
6
73
3
74
0
42
0.000000001
43
0.0000000001
44
0.0000000001
40
0
40
0
40
0
40
1
40
1
40
1
10
37.654649565272059
20
-9.0120016663026501
30
0
10
37.712661498846586
20
-9.0045631943658488
30
0
10
37.789311288581672
20
-8.9554857623791975
30
0
0
SPLINE
5
1273
100
AcDbEntity
8
0
100
AcDbSpline
70
0
71
2
72
6
73
3
74
0
42
0.000000001
43
0.0000000001
44
0.0000000001
40
0
40
0
40
0
40
1
40
1
40
1
10
37.789311288581672
20
-8.9554857623791975
30
0
10
37.865960984451178
20
-8.9064082365269641
30
0
10
37.931141432547747
20
-8.843471926772585
30
0
0
SPLINE
5
1274
100
AcDbEntity
8
0
100
AcDbSpline
70
0
71
2
72
6
73
3
74
0
42
0.000000001
43
0.0000000001
44
0.0000000001
40
0
40
0
40
0
40
1
40
1
40
1
10
37.931141432547747
20
-8.843471926772585
30
0
10
37.996321692913149
20
-8.7805356170182058
30
0
10
38.047331441777509
20
-8.7040728075231062
30
0
0
SPLINE
5
1275
100
AcDbEntity
8
0
100
AcDbSpline
70
0
71
2
72
6
73
3
74
0
42
0.000000001
43
0.0000000001
44
0.0000000001
40
0
40
0
40
0
40
1
40
1
40
1
10
38.047331441777509
20
-8.7040728075231062
30
0
10
38.098341378373036
20
-8.6276100918935885
30
0
10
38.126059133908491
20
-8.5461605794719731
30
0
0
SPLINE
5
1276
100
AcDbEntity
8
0
100
AcDbSpline
70
0
71
2
72
6
73
3
74
0
42
0.000000001
43
0.0000000001
44
0.0000000001
40
0
40
0
40
0
40
1
40
1
40
1
10
38.126059133908491
20
-8.5461605794719731
30
0
10
38.16283604452515
20
-8.4381152868204126
30
0
10
38.153589909203959
20
-8.3420797199648096
30
0
0
SPLINE
5
1277
100
AcDbEntity
8
0
100
AcDbSpline
70
0
71
2
72
6
73
3
74
0
42
0.000000001
43
0.0000000001
44
0.0000000001
40
0
40
0
40
0
40
1
40
1
40
1
10
38.153589909203959
20
-8.3420797199648096
30
0
10
38.144343586151606
20
-8.2460441531092066
30
0
10
38.097614107841196
20
-8.1751914078728323
30
0
0
SPLINE
5
1278
100
AcDbEntity
8
0
100
AcDbSpline
70
0
71
2
72
6
73
3
74
0
42
0.000000001
43
0.0000000001
44
0.0000000001
40
0
40
0
40
0
40
1
40
1
40
1
10
38.097614107841196
20
-8.1751914078728323
30
0
10
38.050884441799617
20
-8.104338662636458
30
0
10
37.968063647085842
20
-8.0627828674925492
30
0
0
SPLINE
5
1279
100
AcDbEntity
8
0
100
AcDbSpline
70
0
71
2
72
6
73
3
74
0
42
0.000000001
43
0.0000000001
44
0.0000000001
40
0
40
0
40
0
40
1
40
1
40
1
10
37.968063647085842
20
-8.0627828674925492
30
0
10
37.885243040103227
20
-8.0212270723486405
30
0
10
37.775743300253566
20
-8.0212270723486405
30
0
0
LINE
5
1280
100
AcDbEntity
8
0
100
AcDbLine
10
37.775743300253566
20
-8.0212270723486405
30
0
11
37.324363614363548
21
-8.0212270723486405
31
0
0
SPLINE
5
1281
100
AcDbEntity
8
0
100
AcDbSpline
70
0
71
2
72
6
73
3
74
0
42
0.000000001
43
0.0000000001
44
0.0000000001
40
0
40
0
40
0
40
1
40
1
40
1
10
37.324363614363548
20
-8.0212270723486387
30
0
10
37.261240324369176
20
-8.0212270723486387
30
0
10
37.240420844344257
20
-8.0823972073060215
30
0
0
SPLINE
5
1282
100
AcDbEntity
8
0
100
AcDbSpline
70
0
71
2
72
6
73
3
74
0
42
0.000000001
43
0.0000000001
44
0.0000000001
40
0
40
0
40
0
40
1
40
1
40
1
10
37.240420844344257
20
-8.0823972073060215
30
0
10
37.218728696000468
20
-8.1462269296729541
30
0
10
37.281851985994841
20
-8.1462269296729541
30
0
0
SPLINE
5
1283
100
AcDbEntity
8
0
100
AcDbSpline
70
0
71
2
72
6
73
3
74
0
42
0.000000001
43
0.0000000001
44
0.0000000001
40
0
40
0
40
0
40
1
40
1
40
1
10
37.733231671884859
20
-8.1462269296729559
30
0
10
37.815969395558277
20
-8.1462269296729559
30
0
10
37.878739469366366
20
-8.1780588136816483
30
0
0
LINE
5
1284
100
AcDbEntity
8
0
100
AcDbLine
10
37.281851985994841
20
-8.1462269296729541
30
0
11
37.733231671884859
21
-8.1462269296729541
31
0
0
ENDSEC
0
SECTION
2
OBJECTS
0
DICTIONARY
5
C
100
AcDbDictionary
3
ACAD_GROUP
350
D
3
ACAD_MLINESTYLE
350
17
0
DICTIONARY
5
D
100
AcDbDictionary
0
DICTIONARY
5
1A
330
C
100
AcDbDictionary
0
DICTIONARY
5
17
100
AcDbDictionary
0
ENDSEC
0
EOF
