  0
SECTION
  2
HEADER
  9
$ACADVER
  1
AC1009
  9
$DWGCODEPAGE
  3
ansi_1252
  9
$INSBASE
 10
0.0
 20
0.0
 30
0.0
  9
$EXTMIN
 10
0.0
 20
0.0
 30
0.0
  9
$EXTMAX
 10
12.23786163330078
 20
6.328937530517578
 30
0.8298706893472999
  9
$LIMMIN
 10
0.0
 20
0.0
  9
$LIMMAX
 10
12.0
 20
9.0
  9
$ORTHOMODE
 70
     0
  9
$REGENMODE
 70
     1
  9
$FILLMODE
 70
     1
  9
$QTEXTMODE
 70
     0
  9
$MIRRTEXT
 70
     1
  9
$DRAGMODE
 70
     2
  9
$LTSCALE
 40
1.0
  9
$OSMODE
 70
    37
  9
$ATTMODE
 70
     1
  9
$TEXTSIZE
 40
0.2
  9
$TRACEWID
 40
0.05
  9
$TEXTSTYLE
  7
STANDARD
  9
$CLAYER
  8
0
  9
$CELTYPE
  6
BYLAYER
  9
$CECOLOR
 62
   256
  9
$DIMSCALE
 40
1.0
  9
$DIMASZ
 40
0.18
  9
$DIMEXO
 40
0.0625
  9
$DIMDLI
 40
0.38
  9
$DIMRND
 40
0.0
  9
$DIMDLE
 40
0.0
  9
$DIMEXE
 40
0.18
  9
$DIMTP
 40
0.0
  9
$DIMTM
 40
0.0
  9
$DIMTXT
 40
0.18
  9
$DIMCEN
 40
0.09
  9
$DIMTSZ
 40
0.0
  9
$DIMTOL
 70
     0
  9
$DIMLIM
 70
     0
  9
$DIMTIH
 70
     1
  9
$DIMTOH
 70
     1
  9
$DIMSE1
 70
     0
  9
$DIMSE2
 70
     0
  9
$DIMTAD
 70
     0
  9
$DIMZIN
 70
     0
  9
$DIMBLK
  1

  9
$DIMASO
 70
     1
  9
$DIMSHO
 70
     1
  9
$DIMPOST
  1

  9
$DIMAPOST
  1

  9
$DIMALT
 70
     0
  9
$DIMALTD
 70
     2
  9
$DIMALTF
 40
25.4
  9
$DIMLFAC
 40
1.0
  9
$DIMTOFL
 70
     0
  9
$DIMTVP
 40
0.0
  9
$DIMTIX
 70
     0
  9
$DIMSOXD
 70
     0
  9
$DIMSAH
 70
     0
  9
$DIMBLK1
  1

  9
$DIMBLK2
  1

  9
$DIMSTYLE
  2
STANDARD
  9
$DIMCLRD
 70
     0
  9
$DIMCLRE
 70
     0
  9
$DIMCLRT
 70
     0
  9
$DIMTFAC
 40
1.0
  9
$DIMGAP
 40
0.09
  9
$LUNITS
 70
     2
  9
$LUPREC
 70
     4
  9
$SKETCHINC
 40
0.1
  9
$FILLETRAD
 40
0.5
  9
$AUNITS
 70
     0
  9
$AUPREC
 70
     0
  9
$MENU
  1
.
  9
$ELEVATION
 40
0.0
  9
$PELEVATION
 40
0.0
  9
$THICKNESS
 40
0.0
  9
$LIMCHECK
 70
     0
  9
$CHAMFERA
 40
0.0
  9
$CHAMFERB
 40
0.0
  9
$SKPOLY
 70
     0
  9
$TDCREATE
 40
2305814.272627315
  9
$TDUPDATE
 40
2459039.564302025
  9
$TDINDWG
 40
0.0000000116
  9
$TDUSRTIMER
 40
0.0000000116
  9
$USRTIMER
 70
     1
  9
$ANGBASE
 50
0.0
  9
$ANGDIR
 70
     0
  9
$PDMODE
 70
     0
  9
$PDSIZE
 40
0.0
  9
$PLINEWID
 40
0.0
  9
$COORDS
 70
     1
  9
$SPLFRAME
 70
     0
  9
$SPLINETYPE
 70
     6
  9
$SPLINESEGS
 70
     8
  9
$ATTDIA
 70
     0
  9
$ATTREQ
 70
     1
  9
$HANDLING
 70
     1
  9
$HANDSEED
  5
AA1
  9
$SURFTAB1
 70
     6
  9
$SURFTAB2
 70
     6
  9
$SURFTYPE
 70
     6
  9
$SURFU
 70
     6
  9
$SURFV
 70
     6
  9
$UCSNAME
  2

  9
$UCSORG
 10
0.0
 20
0.0
 30
0.0
  9
$UCSXDIR
 10
1.0
 20
0.0
 30
0.0
  9
$UCSYDIR
 10
0.0
 20
1.0
 30
0.0
  9
$PUCSNAME
  2

  9
$PUCSORG
 10
0.0
 20
0.0
 30
0.0
  9
$PUCSXDIR
 10
1.0
 20
0.0
 30
0.0
  9
$PUCSYDIR
 10
0.0
 20
1.0
 30
0.0
  9
$USERI1
 70
     0
  9
$USERI2
 70
     0
  9
$USERI3
 70
     0
  9
$USERI4
 70
     0
  9
$USERI5
 70
     0
  9
$USERR1
 40
0.0
  9
$USERR2
 40
0.0
  9
$USERR3
 40
0.0
  9
$USERR4
 40
0.0
  9
$USERR5
 40
0.0
  9
$WORLDVIEW
 70
     1
  9
$SHADEDGE
 70
     3
  9
$SHADEDIF
 70
    70
  9
$TILEMODE
 70
     1
  9
$MAXACTVP
 70
    64
  9
$PLIMCHECK
 70
     0
  9
$PEXTMIN
 10
1.000000000000000E+20
 20
1.000000000000000E+20
 30
1.000000000000000E+20
  9
$PEXTMAX
 10
-1.000000000000000E+20
 20
-1.000000000000000E+20
 30
-1.000000000000000E+20
  9
$PLIMMIN
 10
0.0
 20
0.0
  9
$PLIMMAX
 10
12.0
 20
9.0
  9
$UNITMODE
 70
     0
  9
$VISRETAIN
 70
     1
  9
$PLINEGEN
 70
     0
  9
$PSLTSCALE
 70
     1
  0
ENDSEC
  0
SECTION
  2
TABLES
  0
TABLE
  2
VPORT
 70
     1
  0
VPORT
  2
*ACTIVE
 70
     0
 10
0.0
 20
0.0
 11
1.0
 21
1.0
 12
10.42990654205607
 22
4.5
 13
0.0
 23
0.0
 14
0.5
 24
0.5
 15
0.5
 25
0.5
 16
0.0
 26
0.0
 36
1.0
 17
0.0
 27
0.0
 37
0.0
 40
9.0
 41
1.972972972850329
 42
50.0
 43
0.0
 44
0.0
 50
0.0
 51
0.0
 71
     0
 72
   100
 73
     1
 74
     3
 75
     0
 76
     0
 77
     0
 78
     0
  0
ENDTAB
  0
TABLE
  2
LTYPE
 70
    11
  0
LTYPE
  2
CONTINUOUS
 70
     0
  3
Solid line
 72
    65
 73
     0
 40
0.0
  0
LTYPE
  2
BORDER
 70
     0
  3
__ __ . __ __ . __ 
 72
    65
 73
     6
 40
0.875
 49
0.25
 49
-0.125
 49
0.25
 49
-0.125
 49
0.0
 49
-0.125
  0
LTYPE
  2
CENTER
 70
     0
  3
___ _ ___ _ ___ _ _
 72
    65
 73
     4
 40
1.125
 49
0.75
 49
-0.125
 49
0.125
 49
-0.125
  0
LTYPE
  2
DASHDOT
 70
     0
  3
_._._._._._._._._._
 72
    65
 73
     4
 40
0.5
 49
0.25
 49
-0.125
 49
0.0
 49
-0.125
  0
LTYPE
  2
DASHED
 70
     0
  3
_ _ _ _ _ _ _ _ _ _
 72
    65
 73
     2
 40
0.375
 49
0.25
 49
-0.125
  0
LTYPE
  2
DIVIDE
 70
     0
  3
__..__..__..__..__.
 72
    65
 73
     6
 40
0.625
 49
0.25
 49
-0.125
 49
0.0
 49
-0.125
 49
0.0
 49
-0.125
  0
LTYPE
  2
DOT
 70
     0
  3
...................
 72
    65
 73
     2
 40
0.125
 49
0.0
 49
-0.125
  0
LTYPE
  2
HIDDEN
 70
     0
  3
__ __ __ __ __ __ _
 72
    65
 73
     2
 40
0.1875
 49
0.125
 49
-0.0625
  0
LTYPE
  2
PHANTOM
 70
     0
  3
___ _ _ ___ _ _ ___
 72
    65
 73
     6
 40
1.25
 49
0.625
 49
-0.125
 49
0.125
 49
-0.125
 49
0.125
 49
-0.125
  0
LTYPE
  2
CUTTING
 70
     0
  3
________ _ _ ______
 72
    65
 73
     6
 40
1.4675
 49
1.0
 49
-0.0725
 49
0.125
 49
-0.0725
 49
0.125
 49
-0.0725
  0
LTYPE
  2
STITCH
 70
     0
  3
_ _ _ _ _ _ _ _ _ _
 72
    65
 73
     2
 40
0.145
 49
0.0725
 49
-0.0725
  0
ENDTAB
  0
TABLE
  2
LAYER
 70
     2
  0
LAYER
  2
0
 70
     0
 62
     7
  6
CONTINUOUS
  0
LAYER
  2
LAYER1
 70
     0
 62
     7
  6
CONTINUOUS
  0
ENDTAB
  0
TABLE
  2
STYLE
 70
     1
  0
STYLE
  2
STANDARD
 70
     0
 40
0.0
 41
1.0
 50
0.0
 71
     0
 42
0.2
  3
txt
  4

  0
ENDTAB
  0
TABLE
  2
VIEW
 70
     0
  0
ENDTAB
  0
TABLE
  2
UCS
 70
     0
  0
ENDTAB
  0
TABLE
  2
APPID
 70
     2
  0
APPID
  2
ACAD
 70
     0
  0
APPID
  2
ENCORE_SOFTWARE_VIACAD
 70
     0
  0
ENDTAB
  0
TABLE
  2
DIMSTYLE
 70
     1
  0
DIMSTYLE
  2
STANDARD
 70
     0
  3

  4

  5

  6

  7

 40
1.0
 41
0.18
 42
0.0625
 43
0.38
 44
0.18
 45
0.0
 46
0.0
 47
0.0
 48
0.0
140
0.18
141
0.09
142
0.0
143
25.4
144
1.0
145
0.0
146
1.0
147
0.09
 71
     0
 72
     0
 73
     1
 74
     1
 75
     0
 76
     0
 77
     0
 78
     0
170
     0
171
     2
172
     0
173
     0
174
     0
175
     0
176
     0
177
     0
178
     0
  0
ENDTAB
  0
ENDSEC
  0
SECTION
  2
BLOCKS
  0
BLOCK
  8
0
  2
$MODEL_SPACE
 70
     0
 10
0.0
 20
0.0
 30
0.0
  3
$MODEL_SPACE
  1

  0
ENDBLK
  5
21
  8
0
  0
BLOCK
 67
     1
  8
0
  2
$PAPER_SPACE
 70
     0
 10
0.0
 20
0.0
 30
0.0
  3
$PAPER_SPACE
  1

  0
ENDBLK
  5
1D
 67
     1
  8
0
  0
ENDSEC
  0
SECTION
  2
ENTITIES
  0
POLYLINE
  5
7A
  8
LAYER1
 62
    18
 10
0.0
 20
0.0
 30
0.0
 66
     1
 70
     8
  0
VERTEX
  5
7B
  8
LAYER1
 62
    18
 10
0.2378615289926529
 20
0.3289374709129333
 30
0.0
 70
    32
  0
VERTEX
  5
7C
  8
LAYER1
 62
    18
 10
12.23786163330078
 20
0.3289374709129333
 30
0.0
 70
    32
  0
VERTEX
  5
7D
  8
LAYER1
 62
    18
 10
12.23786163330078
 20
6.328937530517578
 30
0.0
 70
    32
  0
VERTEX
  5
7E
  8
LAYER1
 62
    18
 10
0.2378615289926529
 20
6.328937530517578
 30
0.0
 70
    32
  0
VERTEX
  5
7F
  8
LAYER1
 62
    18
 10
0.2378615289926529
 20
0.3289374709129333
 30
0.0
 70
    32
  0
SEQEND
  5
80
  8
LAYER1
 62
    18
  0
CIRCLE
  5
81
  8
LAYER1
 62
    18
 10
0.5951637671478869
 20
6.003090759597215
 30
0.0
 40
0.1249999999999998
  0
CIRCLE
  5
82
  8
LAYER1
 62
    18
 10
11.89548356587393
 20
5.999345325807016
 30
0.0
 40
0.1250000000000004
  0
LINE
  5
83
  8
LAYER1
 62
    18
 10
1.04750727824632
 20
4.173616039762749
 30
0.0
 11
0.9755072515434389
 21
3.937616038332237
 31
0.0
  0
LINE
  5
84
  8
LAYER1
 62
    18
 10
0.9755072515434389
 20
3.937616038332237
 30
0.0
 11
0.52350711039964
 21
3.937616038332237
 31
0.0
  0
LINE
  5
85
  8
LAYER1
 62
    18
 10
1.061507217211163
 20
5.369616019735588
 30
0.0
 11
1.54750727824632
 21
5.369616019735588
 31
0.0
  0
LINE
  5
86
  8
LAYER1
 62
    18
 10
2.083507530016339
 20
3.937616038332237
 30
0.0
 11
1.619507304949201
 21
3.937616038332237
 31
0.0
  0
LINE
  5
87
  8
LAYER1
 62
    18
 10
1.619507304949201
 20
3.937616038332237
 30
0.0
 11
1.54750727824632
 21
4.173616039762749
 31
0.0
  0
LINE
  5
88
  8
LAYER1
 62
    18
 10
1.54750727824632
 20
4.173616039762749
 30
0.0
 11
1.04750727824632
 21
4.173616039762749
 31
0.0
  0
LINE
  5
89
  8
LAYER1
 62
    18
 10
1.141507140917218
 20
4.483616042146934
 30
0.0
 11
1.453507415575421
 21
4.483616042146934
 31
0.0
  0
LINE
  5
8A
  8
LAYER1
 62
    18
 10
2.665507308763898
 20
5.369616019735588
 30
0.0
 11
2.665507308763898
 21
4.289616036424889
 31
0.0
  0
LINE
  5
8B
  8
LAYER1
 62
    18
 10
2.665507308763898
 20
4.289616036424889
 30
0.0
 11
3.357507221025861
 21
4.289616036424889
 31
0.0
  0
LINE
  5
8C
  8
LAYER1
 62
    18
 10
3.357507221025861
 20
4.289616036424889
 30
0.0
 11
3.357507221025861
 21
3.937616038332237
 31
0.0
  0
LINE
  5
8D
  8
LAYER1
 62
    18
 10
3.357507221025861
 20
3.937616038332237
 30
0.0
 11
2.223507396501935
 21
3.937616038332237
 31
0.0
  0
LINE
  5
8E
  8
LAYER1
 62
    18
 10
2.223507396501935
 20
3.937616038332237
 30
0.0
 11
2.223507396501935
 21
5.369616019735588
 31
0.0
  0
LINE
  5
8F
  8
LAYER1
 62
    18
 10
2.223507396501935
 20
5.369616019735588
 30
0.0
 11
2.665507308763898
 21
5.369616019735588
 31
0.0
  0
POLYLINE
  5
90
  8
LAYER1
 62
    18
 10
0.0
 20
0.0
 30
0.0
 66
     1
 70
     8
  0
VERTEX
  5
91
  8
LAYER1
 62
    18
 10
4.38750743083421
 20
5.369616019735588
 30
0.0
 70
    32
  0
VERTEX
  5
92
  8
LAYER1
 62
    18
 10
4.514224238390362
 20
5.358399321345342
 30
0.0
 70
    32
  0
VERTEX
  5
93
  8
LAYER1
 62
    18
 10
4.619814419359601
 20
5.324749226174607
 30
0.0
 70
    32
  0
VERTEX
  5
94
  8
LAYER1
 62
    18
 10
4.706507674974835
 20
5.26661603451754
 30
0.0
 70
    32
  0
SEQEND
  5
95
  8
LAYER1
 62
    18
  0
POLYLINE
  5
96
  8
LAYER1
 62
    18
 10
0.0
 20
0.0
 30
0.0
 66
     1
 70
     8
  0
VERTEX
  5
97
  8
LAYER1
 62
    18
 10
4.706507674974835
 20
5.26661603451754
 30
0.0
 70
    32
  0
VERTEX
  5
98
  8
LAYER1
 62
    18
 10
4.767679808611309
 20
5.193517742014778
 30
0.0
 70
    32
  0
VERTEX
  5
99
  8
LAYER1
 62
    18
 10
4.804676128954329
 20
5.11018284499432
 30
0.0
 70
    32
  0
VERTEX
  5
9A
  8
LAYER1
 62
    18
 10
4.817507736009992
 20
5.013616043339027
 30
0.0
 70
    32
  0
SEQEND
  5
9B
  8
LAYER1
 62
    18
  0
POLYLINE
  5
9C
  8
LAYER1
 62
    18
 10
0.0
 20
0.0
 30
0.0
 66
     1
 70
     8
  0
VERTEX
  5
9D
  8
LAYER1
 62
    18
 10
4.817507736009992
 20
5.013616043339027
 30
0.0
 70
    32
  0
VERTEX
  5
9E
  8
LAYER1
 62
    18
 10
4.808795744318402
 20
4.933274247811092
 30
0.0
 70
    32
  0
VERTEX
  5
9F
  8
LAYER1
 62
    18
 10
4.782659769243635
 20
4.861208849582924
 30
0.0
 70
    32
  0
VERTEX
  5
A0
  8
LAYER1
 62
    18
 10
4.737507812303937
 20
4.795616048584236
 30
0.0
 70
    32
  0
SEQEND
  5
A1
  8
LAYER1
 62
    18
  0
POLYLINE
  5
A2
  8
LAYER1
 62
    18
 10
0.0
 20
0.0
 30
0.0
 66
     1
 70
     8
  0
VERTEX
  5
A3
  8
LAYER1
 62
    18
 10
4.737507812303937
 20
4.795616048584236
 30
0.0
 70
    32
  0
VERTEX
  5
A4
  8
LAYER1
 62
    18
 10
4.697742761320507
 20
4.757745244835419
 30
0.0
 70
    32
  0
VERTEX
  5
A5
  8
LAYER1
 62
    18
 10
4.647087668795026
 20
4.725972842086209
 30
0.0
 70
    32
  0
VERTEX
  5
A6
  8
LAYER1
 62
    18
 10
4.583507530016339
 20
4.69961604029919
 30
0.0
 70
    32
  0
SEQEND
  5
A7
  8
LAYER1
 62
    18
  0
POLYLINE
  5
A8
  8
LAYER1
 62
    18
 10
0.0
 20
0.0
 30
0.0
 66
     1
 70
     8
  0
VERTEX
  5
A9
  8
LAYER1
 62
    18
 10
4.583507530016339
 20
4.69961604029919
 30
0.0
 70
    32
  0
VERTEX
  5
AA
  8
LAYER1
 62
    18
 10
4.676326780599988
 20
4.668873243041812
 30
0.0
 70
    32
  0
VERTEX
  5
AB
  8
LAYER1
 62
    18
 10
4.751504159731304
 20
4.626804844739391
 30
0.0
 70
    32
  0
VERTEX
  5
AC
  8
LAYER1
 62
    18
 10
4.81050776652757
 20
4.571616045395388
 30
0.0
 70
    32
  0
SEQEND
  5
AD
  8
LAYER1
 62
    18
  0
POLYLINE
  5
AE
  8
LAYER1
 62
    18
 10
0.0
 20
0.0
 30
0.0
 66
     1
 70
     8
  0
VERTEX
  5
AF
  8
LAYER1
 62
    18
 10
4.81050776652757
 20
4.571616045395388
 30
0.0
 70
    32
  0
VERTEX
  5
B0
  8
LAYER1
 62
    18
 10
4.850738041300213
 20
4.507206645483999
 30
0.0
 70
    32
  0
VERTEX
  5
B1
  8
LAYER1
 62
    18
 10
4.87506892604295
 20
4.432778445553137
 30
0.0
 70
    32
  0
VERTEX
  5
B2
  8
LAYER1
 62
    18
 10
4.883507720751203
 20
4.345616045604004
 30
0.0
 70
    32
  0
SEQEND
  5
B3
  8
LAYER1
 62
    18
  0
POLYLINE
  5
B4
  8
LAYER1
 62
    18
 10
0.0
 20
0.0
 30
0.0
 66
     1
 70
     8
  0
VERTEX
  5
B5
  8
LAYER1
 62
    18
 10
4.883507720751203
 20
4.345616045604004
 30
0.0
 70
    32
  0
VERTEX
  5
B6
  8
LAYER1
 62
    18
 10
4.877844915766156
 20
4.274200745152784
 30
0.0
 70
    32
  0
VERTEX
  5
B7
  8
LAYER1
 62
    18
 10
4.860856500811016
 20
4.207794848362459
 30
0.0
 70
    32
  0
VERTEX
  5
B8
  8
LAYER1
 62
    18
 10
4.831507674974835
 20
4.144616055498375
 30
0.0
 70
    32
  0
SEQEND
  5
B9
  8
LAYER1
 62
    18
  0
POLYLINE
  5
BA
  8
LAYER1
 62
    18
 10
0.0
 20
0.0
 30
0.0
 66
     1
 70
     8
  0
VERTEX
  5
BB
  8
LAYER1
 62
    18
 10
4.831507674974835
 20
4.144616055498375
 30
0.0
 70
    32
  0
VERTEX
  5
BC
  8
LAYER1
 62
    18
 10
4.793049433130657
 20
4.089905357871308
 30
0.0
 70
    32
  0
VERTEX
  5
BD
  8
LAYER1
 62
    18
 10
4.746314768022932
 20
4.043253247366203
 30
0.0
 70
    32
  0
VERTEX
  5
BE
  8
LAYER1
 62
    18
 10
4.689507476610578
 20
4.003616023073448
 30
0.0
 70
    32
  0
SEQEND
  5
BF
  8
LAYER1
 62
    18
  0
POLYLINE
  5
C0
  8
LAYER1
 62
    18
 10
0.0
 20
0.0
 30
0.0
 66
     1
 70
     8
  0
VERTEX
  5
C1
  8
LAYER1
 62
    18
 10
4.689507476610578
 20
4.003616023073448
 30
0.0
 70
    32
  0
VERTEX
  5
C2
  8
LAYER1
 62
    18
 10
4.675303516321705
 20
3.996832052826329
 30
0.0
 70
    32
  0
VERTEX
  5
C3
  8
LAYER1
 62
    18
 10
4.64330068697236
 20
3.983301662547122
 30
0.0
 70
    32
  0
VERTEX
  5
C4
  8
LAYER1
 62
    18
 10
4.586768186290247
 20
3.968325149868909
 30
0.0
 70
    32
  0
VERTEX
  5
C5
  8
LAYER1
 62
    18
 10
4.544777204483919
 20
3.961170295000324
 30
0.0
 70
    32
  0
VERTEX
  5
C6
  8
LAYER1
 62
    18
 10
4.455691307415522
 20
3.949144431557438
 30
0.0
 70
    32
  0
VERTEX
  5
C7
  8
LAYER1
 62
    18
 10
4.389745657149303
 20
3.941880530525718
 30
0.0
 70
    32
  0
VERTEX
  5
C8
  8
LAYER1
 62
    18
 10
4.323507301134503
 20
3.937616038332237
 30
0.0
 70
    32
  0
VERTEX
  5
C9
  8
LAYER1
 62
    18
 10
4.242705938223216
 20
3.937616038332237
 30
0.0
 70
    32
  0
VERTEX
  5
CA
  8
LAYER1
 62
    18
 10
4.068840654812887
 20
3.937616038332237
 30
0.0
 70
    32
  0
VERTEX
  5
CB
  8
LAYER1
 62
    18
 10
3.946653221933342
 20
3.937616038332237
 30
0.0
 70
    32
  0
VERTEX
  5
CC
  8
LAYER1
 62
    18
 10
3.814174008491269
 20
3.937616038332237
 30
0.0
 70
    32
  0
VERTEX
  5
CD
  8
LAYER1
 62
    18
 10
3.798626863788404
 20
3.937616038332237
 30
0.0
 70
    32
  0
VERTEX
  5
CE
  8
LAYER1
 62
    18
 10
3.761620274252171
 20
3.937616038332237
 30
0.0
 70
    32
  0
VERTEX
  5
CF
  8
LAYER1
 62
    18
 10
3.724613684715935
 20
3.937616038332237
 30
0.0
 70
    32
  0
VERTEX
  5
D0
  8
LAYER1
 62
    18
 10
3.687607095179701
 20
3.937616038332237
 30
0.0
 70
    32
  0
VERTEX
  5
D1
  8
LAYER1
 62
    18
 10
3.669103800411584
 20
3.937616038332236
 30
0.0
 70
    32
  0
VERTEX
  5
D2
  8
LAYER1
 62
    18
 10
3.616440576840789
 20
3.937616038332237
 30
0.0
 70
    32
  0
VERTEX
  5
D3
  8
LAYER1
 62
    18
 10
3.605053933906563
 20
3.937616038332237
 30
0.0
 70
    32
  0
VERTEX
  5
D4
  8
LAYER1
 62
    18
 10
3.55950736216966
 20
3.937616038332237
 30
0.0
 70
    32
  0
SEQEND
  5
D5
  8
LAYER1
 62
    18
  0
LINE
  5
D6
  8
LAYER1
 62
    18
 10
3.55950736216966
 20
5.369616019735588
 30
0.0
 11
4.38750743083421
 21
5.369616019735588
 31
0.0
  0
POLYLINE
  5
D7
  8
LAYER1
 62
    18
 10
0.0
 20
0.0
 30
0.0
 66
     1
 70
     8
  0
VERTEX
  5
D8
  8
LAYER1
 62
    18
 10
4.197507373613751
 20
4.807616043100609
 30
0.0
 70
    32
  0
VERTEX
  5
D9
  8
LAYER1
 62
    18
 10
4.259286712021267
 20
4.811536442931844
 30
0.0
 70
    32
  0
VERTEX
  5
DA
  8
LAYER1
 62
    18
 10
4.307344606394208
 20
4.82329764242555
 30
0.0
 70
    32
  0
VERTEX
  5
DB
  8
LAYER1
 62
    18
 10
4.342507354540265
 20
4.843616041550888
 30
0.0
 70
    32
  0
SEQEND
  5
DC
  8
LAYER1
 62
    18
  0
POLYLINE
  5
DD
  8
LAYER1
 62
    18
 10
0.0
 20
0.0
 30
0.0
 66
     1
 70
     8
  0
VERTEX
  5
DE
  8
LAYER1
 62
    18
 10
4.342507354540265
 20
4.843616041550888
 30
0.0
 70
    32
  0
VERTEX
  5
DF
  8
LAYER1
 62
    18
 10
4.365102393574154
 20
4.870643042280628
 30
0.0
 70
    32
  0
VERTEX
  5
E0
  8
LAYER1
 62
    18
 10
4.378767656702435
 20
4.904204046515478
 30
0.0
 70
    32
  0
VERTEX
  5
E1
  8
LAYER1
 62
    18
 10
4.383507243914044
 20
4.945616054544701
 30
0.0
 70
    32
  0
SEQEND
  5
E2
  8
LAYER1
 62
    18
  0
POLYLINE
  5
E3
  8
LAYER1
 62
    18
 10
0.0
 20
0.0
 30
0.0
 66
     1
 70
     8
  0
VERTEX
  5
E4
  8
LAYER1
 62
    18
 10
4.383507243914044
 20
4.945616054544701
 30
0.0
 70
    32
  0
VERTEX
  5
E5
  8
LAYER1
 62
    18
 10
4.379042355961239
 20
4.984697945135189
 30
0.0
 70
    32
  0
VERTEX
  5
E6
  8
LAYER1
 62
    18
 10
4.365647692102826
 20
5.01746364239837
 30
0.0
 70
    32
  0
VERTEX
  5
E7
  8
LAYER1
 62
    18
 10
4.342507354540265
 20
5.044616046557678
 30
0.0
 70
    32
  0
SEQEND
  5
E8
  8
LAYER1
 62
    18
  0
POLYLINE
  5
E9
  8
LAYER1
 62
    18
 10
0.0
 20
0.0
 30
0.0
 66
     1
 70
     8
  0
VERTEX
  5
EA
  8
LAYER1
 62
    18
 10
4.342507354540265
 20
5.044616046557678
 30
0.0
 70
    32
  0
VERTEX
  5
EB
  8
LAYER1
 62
    18
 10
4.33160080822696
 20
5.051639920227491
 30
0.0
 70
    32
  0
VERTEX
  5
EC
  8
LAYER1
 62
    18
 10
4.30632209478266
 20
5.06503642047688
 30
0.0
 70
    32
  0
VERTEX
  5
ED
  8
LAYER1
 62
    18
 10
4.257998370013393
 20
5.076148757258548
 30
0.0
 70
    32
  0
VERTEX
  5
EE
  8
LAYER1
 62
    18
 10
4.221894719570918
 20
5.078852603857205
 30
0.0
 70
    32
  0
VERTEX
  5
EF
  8
LAYER1
 62
    18
 10
4.201507560533917
 20
5.079616057882561
 30
0.0
 70
    32
  0
VERTEX
  5
F0
  8
LAYER1
 62
    18
 10
4.136174194139874
 20
5.079616057882561
 30
0.0
 70
    32
  0
VERTEX
  5
F1
  8
LAYER1
 62
    18
 10
4.122290685676172
 20
5.079616057882561
 30
0.0
 70
    32
  0
VERTEX
  5
F2
  8
LAYER1
 62
    18
 10
4.070840827745832
 20
5.079616057882561
 30
0.0
 70
    32
  0
VERTEX
  5
F3
  8
LAYER1
 62
    18
 10
4.051304804224096
 20
5.079616057882561
 30
0.0
 70
    32
  0
VERTEX
  5
F4
  8
LAYER1
 62
    18
 10
4.034130800646982
 20
5.079616057882562
 30
0.0
 70
    32
  0
VERTEX
  5
F5
  8
LAYER1
 62
    18
 10
4.022681464928903
 20
5.079616057882561
 30
0.0
 70
    32
  0
VERTEX
  5
F6
  8
LAYER1
 62
    18
 10
4.005507461351788
 20
5.079616057882561
 30
0.0
 70
    32
  0
SEQEND
  5
F7
  8
LAYER1
 62
    18
  0
LINE
  5
F8
  8
LAYER1
 62
    18
 10
4.005507461351788
 20
4.807616043100609
 30
0.0
 11
4.197507373613751
 21
4.807616043100609
 31
0.0
  0
POLYLINE
  5
F9
  8
LAYER1
 62
    18
 10
0.0
 20
0.0
 30
0.0
 66
     1
 70
     8
  0
VERTEX
  5
FA
  8
LAYER1
 62
    18
 10
4.231507293505109
 20
4.245616036663307
 30
0.0
 70
    32
  0
VERTEX
  5
FB
  8
LAYER1
 62
    18
 10
4.299450925797855
 20
4.250080937598003
 30
0.0
 70
    32
  0
VERTEX
  5
FC
  8
LAYER1
 62
    18
 10
4.352802029127515
 20
4.263475640402092
 30
0.0
 70
    32
  0
VERTEX
  5
FD
  8
LAYER1
 62
    18
 10
4.392507306856549
 20
4.286616045246376
 30
0.0
 70
    32
  0
SEQEND
  5
FE
  8
LAYER1
 62
    18
  0
POLYLINE
  5
FF
  8
LAYER1
 62
    18
 10
0.0
 20
0.0
 30
0.0
 66
     1
 70
     8
  0
VERTEX
  5
100
  8
LAYER1
 62
    18
 10
4.392507306856549
 20
4.286616045246376
 30
0.0
 70
    32
  0
VERTEX
  5
101
  8
LAYER1
 62
    18
 10
4.418409100407994
 20
4.316616348756208
 30
0.0
 70
    32
  0
VERTEX
  5
102
  8
LAYER1
 62
    18
 10
4.434074256987012
 20
4.352497247956051
 30
0.0
 70
    32
  0
VERTEX
  5
103
  8
LAYER1
 62
    18
 10
4.439507476610578
 20
4.395616042623772
 30
0.0
 70
    32
  0
SEQEND
  5
104
  8
LAYER1
 62
    18
  0
POLYLINE
  5
105
  8
LAYER1
 62
    18
 10
0.0
 20
0.0
 30
0.0
 66
     1
 70
     8
  0
VERTEX
  5
106
  8
LAYER1
 62
    18
 10
4.439507476610578
 20
4.395616042623772
 30
0.0
 70
    32
  0
VERTEX
  5
107
  8
LAYER1
 62
    18
 10
4.434498076195156
 20
4.434031342152982
 30
0.0
 70
    32
  0
VERTEX
  5
108
  8
LAYER1
 62
    18
 10
4.419469874948895
 20
4.467437242078139
 30
0.0
 70
    32
  0
VERTEX
  5
109
  8
LAYER1
 62
    18
 10
4.39350747279588
 20
4.496616042415155
 30
0.0
 70
    32
  0
SEQEND
  5
10A
  8
LAYER1
 62
    18
  0
POLYLINE
  5
10B
  8
LAYER1
 62
    18
 10
0.0
 20
0.0
 30
0.0
 66
     1
 70
     8
  0
VERTEX
  5
10C
  8
LAYER1
 62
    18
 10
4.39350747279588
 20
4.496616042415155
 30
0.0
 70
    32
  0
VERTEX
  5
10D
  8
LAYER1
 62
    18
 10
4.381052958327514
 20
4.504453831986453
 30
0.0
 70
    32
  0
VERTEX
  5
10E
  8
LAYER1
 62
    18
 10
4.351854418761769
 20
4.519512212102905
 30
0.0
 70
    32
  0
VERTEX
  5
10F
  8
LAYER1
 62
    18
 10
4.295664131624624
 20
4.531776289887882
 30
0.0
 70
    32
  0
VERTEX
  5
110
  8
LAYER1
 62
    18
 10
4.253460709637175
 20
4.53475916916716
 30
0.0
 70
    32
  0
VERTEX
  5
111
  8
LAYER1
 62
    18
 10
4.229507438463605
 20
4.535616043219818
 30
0.0
 70
    32
  0
VERTEX
  5
112
  8
LAYER1
 62
    18
 10
4.154840779426332
 20
4.535616043219818
 30
0.0
 70
    32
  0
VERTEX
  5
113
  8
LAYER1
 62
    18
 10
4.139794229987576
 20
4.535616043219818
 30
0.0
 70
    32
  0
VERTEX
  5
114
  8
LAYER1
 62
    18
 10
4.080174120389067
 20
4.535616043219818
 30
0.0
 70
    32
  0
VERTEX
  5
115
  8
LAYER1
 62
    18
 10
4.058168939248175
 20
4.535616043219818
 30
0.0
 70
    32
  0
VERTEX
  5
116
  8
LAYER1
 62
    18
 10
4.038420885037032
 20
4.535616043219818
 30
0.0
 70
    32
  0
VERTEX
  5
117
  8
LAYER1
 62
    18
 10
4.025255515562935
 20
4.535616043219818
 30
0.0
 70
    32
  0
VERTEX
  5
118
  8
LAYER1
 62
    18
 10
4.005507461351788
 20
4.535616043219818
 30
0.0
 70
    32
  0
SEQEND
  5
119
  8
LAYER1
 62
    18
  0
LINE
  5
11A
  8
LAYER1
 62
    18
 10
4.005507461351788
 20
4.245616036663307
 30
0.0
 11
4.231507293505109
 21
4.245616036663307
 31
0.0
  0
POLYLINE
  5
11B
  8
LAYER1
 62
    18
 10
0.0
 20
0.0
 30
0.0
 66
     1
 70
     8
  0
VERTEX
  5
11C
  8
LAYER1
 62
    18
 10
5.119507781786359
 20
5.369616019735588
 30
0.0
 70
    32
  0
VERTEX
  5
11D
  8
LAYER1
 62
    18
 10
5.365507747792672
 20
5.369593803149217
 30
0.0
 70
    32
  0
VERTEX
  5
11E
  8
LAYER1
 62
    18
 10
5.611507533218667
 20
5.369438286018542
 30
0.0
 70
    32
  0
VERTEX
  5
11F
  8
LAYER1
 62
    18
 10
5.898937443564105
 20
5.368674134325355
 30
0.0
 70
    32
  0
VERTEX
  5
120
  8
LAYER1
 62
    18
 10
5.975026363302406
 20
5.366183576376466
 30
0.0
 70
    32
  0
VERTEX
  5
121
  8
LAYER1
 62
    18
 10
6.079914558209653
 20
5.35533956188659
 30
0.0
 70
    32
  0
VERTEX
  5
122
  8
LAYER1
 62
    18
 10
6.119316157841705
 20
5.347335439860054
 30
0.0
 70
    32
  0
VERTEX
  5
123
  8
LAYER1
 62
    18
 10
6.142252669789434
 20
5.341820812453535
 30
0.0
 70
    32
  0
VERTEX
  5
124
  8
LAYER1
 62
    18
 10
6.170507423204816
 20
5.334616023311867
 30
0.0
 70
    32
  0
SEQEND
  5
125
  8
LAYER1
 62
    18
  0
POLYLINE
  5
126
  8
LAYER1
 62
    18
 10
0.0
 20
0.0
 30
0.0
 66
     1
 70
     8
  0
VERTEX
  5
127
  8
LAYER1
 62
    18
 10
6.170507423204816
 20
5.334616023311867
 30
0.0
 70
    32
  0
VERTEX
  5
128
  8
LAYER1
 62
    18
 10
6.237764835066235
 20
5.304873126814616
 30
0.0
 70
    32
  0
VERTEX
  5
129
  8
LAYER1
 62
    18
 10
6.295656798738873
 20
5.26184443260218
 30
0.0
 70
    32
  0
VERTEX
  5
12A
  8
LAYER1
 62
    18
 10
6.345507613939679
 20
5.203616040954842
 30
0.0
 70
    32
  0
SEQEND
  5
12B
  8
LAYER1
 62
    18
  0
POLYLINE
  5
12C
  8
LAYER1
 62
    18
 10
0.0
 20
0.0
 30
0.0
 66
     1
 70
     8
  0
VERTEX
  5
12D
  8
LAYER1
 62
    18
 10
6.345507613939679
 20
5.203616040954842
 30
0.0
 70
    32
  0
VERTEX
  5
12E
  8
LAYER1
 62
    18
 10
6.381880205530559
 20
5.135900047902121
 30
0.0
 70
    32
  0
VERTEX
  5
12F
  8
LAYER1
 62
    18
 10
6.403878000444806
 20
5.059472050175918
 30
0.0
 70
    32
  0
VERTEX
  5
130
  8
LAYER1
 62
    18
 10
6.41150759868089
 20
4.971616047630562
 30
0.0
 70
    32
  0
SEQEND
  5
131
  8
LAYER1
 62
    18
  0
POLYLINE
  5
132
  8
LAYER1
 62
    18
 10
0.0
 20
0.0
 30
0.0
 66
     1
 70
     8
  0
VERTEX
  5
133
  8
LAYER1
 62
    18
 10
6.41150759868089
 20
4.971616047630562
 30
0.0
 70
    32
  0
VERTEX
  5
134
  8
LAYER1
 62
    18
 10
6.405953685802853
 20
4.89611864509034
 30
0.0
 70
    32
  0
VERTEX
  5
135
  8
LAYER1
 62
    18
 10
6.389291947168745
 20
4.828026443763925
 30
0.0
 70
    32
  0
VERTEX
  5
136
  8
LAYER1
 62
    18
 10
6.360507480425275
 20
4.765616043666853
 30
0.0
 70
    32
  0
SEQEND
  5
137
  8
LAYER1
 62
    18
  0
POLYLINE
  5
138
  8
LAYER1
 62
    18
 10
0.0
 20
0.0
 30
0.0
 66
     1
 70
     8
  0
VERTEX
  5
139
  8
LAYER1
 62
    18
 10
6.360507480425275
 20
4.765616043666853
 30
0.0
 70
    32
  0
VERTEX
  5
13A
  8
LAYER1
 62
    18
 10
6.322818082851802
 20
4.712340843957765
 30
0.0
 70
    32
  0
VERTEX
  5
13B
  8
LAYER1
 62
    18
 10
6.277070046228802
 20
4.666035243768348
 30
0.0
 70
    32
  0
VERTEX
  5
13C
  8
LAYER1
 62
    18
 10
6.221507064623273
 20
4.625616043070806
 30
0.0
 70
    32
  0
SEQEND
  5
13D
  8
LAYER1
 62
    18
  0
POLYLINE
  5
13E
  8
LAYER1
 62
    18
 10
0.0
 20
0.0
 30
0.0
 66
     1
 70
     8
  0
VERTEX
  5
13F
  8
LAYER1
 62
    18
 10
6.221507064623273
 20
4.625616043070806
 30
0.0
 70
    32
  0
VERTEX
  5
140
  8
LAYER1
 62
    18
 10
6.178871221727764
 20
4.604265043569551
 30
0.0
 70
    32
  0
VERTEX
  5
141
  8
LAYER1
 62
    18
 10
6.127523179430401
 20
4.585092043816774
 30
0.0
 70
    32
  0
VERTEX
  5
142
  8
LAYER1
 62
    18
 10
6.065506927294171
 20
4.567616043808414
 30
0.0
 70
    32
  0
SEQEND
  5
143
  8
LAYER1
 62
    18
  0
POLYLINE
  5
144
  8
LAYER1
 62
    18
 10
0.0
 20
0.0
 30
0.0
 66
     1
 70
     8
  0
VERTEX
  5
145
  8
LAYER1
 62
    18
 10
6.065506927294171
 20
4.567616043808414
 30
0.0
 70
    32
  0
VERTEX
  5
146
  8
LAYER1
 62
    18
 10
6.11241319255296
 20
4.550456044373298
 30
0.0
 70
    32
  0
VERTEX
  5
147
  8
LAYER1
 62
    18
 10
6.15017189769212
 20
4.533296045546709
 30
0.0
 70
    32
  0
VERTEX
  5
148
  8
LAYER1
 62
    18
 10
6.179507247728742
 20
4.515616047392143
 30
0.0
 70
    32
  0
SEQEND
  5
149
  8
LAYER1
 62
    18
  0
POLYLINE
  5
14A
  8
LAYER1
 62
    18
 10
0.0
 20
0.0
 30
0.0
 66
     1
 70
     8
  0
VERTEX
  5
14B
  8
LAYER1
 62
    18
 10
6.179507247728742
 20
4.515616047392143
 30
0.0
 70
    32
  0
VERTEX
  5
14C
  8
LAYER1
 62
    18
 10
6.192413324727321
 20
4.504203400114249
 30
0.0
 70
    32
  0
VERTEX
  5
14D
  8
LAYER1
 62
    18
 10
6.216784945502109
 20
4.479837858888282
 30
0.0
 70
    32
  0
VERTEX
  5
14E
  8
LAYER1
 62
    18
 10
6.250986683068397
 20
4.439724923576987
 30
0.0
 70
    32
  0
VERTEX
  5
14F
  8
LAYER1
 62
    18
 10
6.284228153184067
 20
4.397653407354119
 30
0.0
 70
    32
  0
VERTEX
  5
150
  8
LAYER1
 62
    18
 10
6.304317496927551
 20
4.367318837328722
 30
0.0
 70
    32
  0
VERTEX
  5
151
  8
LAYER1
 62
    18
 10
6.313507072252667
 20
4.35161604286219
 30
0.0
 70
    32
  0
VERTEX
  5
152
  8
LAYER1
 62
    18
 10
6.384840639554101
 20
4.213616041352205
 30
0.0
 70
    32
  0
VERTEX
  5
153
  8
LAYER1
 62
    18
 10
6.421548222875428
 20
4.142602537536179
 30
0.0
 70
    32
  0
VERTEX
  5
154
  8
LAYER1
 62
    18
 10
6.456174206855534
 20
4.075616039842217
 30
0.0
 70
    32
  0
VERTEX
  5
155
  8
LAYER1
 62
    18
 10
6.462062168953661
 20
4.064225346664083
 30
0.0
 70
    32
  0
VERTEX
  5
156
  8
LAYER1
 62
    18
 10
6.47219065547322
 20
4.044631048946059
 30
0.0
 70
    32
  0
VERTEX
  5
157
  8
LAYER1
 62
    18
 10
6.482319141992781
 20
4.025036751228036
 30
0.0
 70
    32
  0
VERTEX
  5
158
  8
LAYER1
 62
    18
 10
6.492447628512338
 20
4.005442453510012
 30
0.0
 70
    32
  0
VERTEX
  5
159
  8
LAYER1
 62
    18
 10
6.497511871772116
 20
3.995645304651
 30
0.0
 70
    32
  0
VERTEX
  5
15A
  8
LAYER1
 62
    18
 10
6.511925487203798
 20
3.967761111744582
 30
0.0
 70
    32
  0
VERTEX
  5
15B
  8
LAYER1
 62
    18
 10
6.515041944594431
 20
3.961732097062113
 30
0.0
 70
    32
  0
VERTEX
  5
15C
  8
LAYER1
 62
    18
 10
6.527507774156964
 20
3.937616038332237
 30
0.0
 70
    32
  0
SEQEND
  5
15D
  8
LAYER1
 62
    18
  0
LINE
  5
15E
  8
LAYER1
 62
    18
 10
6.527507774156964
 20
3.937616038332237
 30
0.0
 11
6.027507774156964
 21
3.937616038332237
 31
0.0
  0
POLYLINE
  5
15F
  8
LAYER1
 62
    18
 10
0.0
 20
0.0
 30
0.0
 66
     1
 70
     8
  0
VERTEX
  5
160
  8
LAYER1
 62
    18
 10
6.027507774156964
 20
3.937616038332237
 30
0.0
 70
    32
  0
VERTEX
  5
161
  8
LAYER1
 62
    18
 10
5.94882149232991
 20
4.082938756512878
 30
0.0
 70
    32
  0
VERTEX
  5
162
  8
LAYER1
 62
    18
 10
5.860823520343864
 20
4.245114175315003
 30
0.0
 70
    32
  0
VERTEX
  5
163
  8
LAYER1
 62
    18
 10
5.828492170996082
 20
4.304534387913224
 30
0.0
 70
    32
  0
VERTEX
  5
164
  8
LAYER1
 62
    18
 10
5.789128938489936
 20
4.376716267140417
 30
0.0
 70
    32
  0
VERTEX
  5
165
  8
LAYER1
 62
    18
 10
5.764652927398708
 20
4.41987955881241
 30
0.0
 70
    32
  0
VERTEX
  5
166
  8
LAYER1
 62
    18
 10
5.73843529398012
 20
4.457384315187454
 30
0.0
 70
    32
  0
VERTEX
  5
167
  8
LAYER1
 62
    18
 10
5.734477758277237
 20
4.461807324268793
 30
0.0
 70
    32
  0
VERTEX
  5
168
  8
LAYER1
 62
    18
 10
5.719949373868833
 20
4.476028249796464
 30
0.0
 70
    32
  0
VERTEX
  5
169
  8
LAYER1
 62
    18
 10
5.711507789415753
 20
4.483616042146934
 30
0.0
 70
    32
  0
SEQEND
  5
16A
  8
LAYER1
 62
    18
  0
POLYLINE
  5
16B
  8
LAYER1
 62
    18
 10
0.0
 20
0.0
 30
0.0
 66
     1
 70
     8
  0
VERTEX
  5
16C
  8
LAYER1
 62
    18
 10
5.711507789415753
 20
4.483616042146934
 30
0.0
 70
    32
  0
VERTEX
  5
16D
  8
LAYER1
 62
    18
 10
5.678520758718884
 20
4.502353443165227
 30
0.0
 70
    32
  0
VERTEX
  5
16E
  8
LAYER1
 62
    18
 10
5.642920109743512
 20
4.513685643781079
 30
0.0
 70
    32
  0
VERTEX
  5
16F
  8
LAYER1
 62
    18
 10
5.603507034105695
 20
4.517616043994678
 30
0.0
 70
    32
  0
SEQEND
  5
170
  8
LAYER1
 62
    18
  0
LINE
  5
171
  8
LAYER1
 62
    18
 10
5.603507034105695
 20
4.517616043994678
 30
0.0
 11
5.563507072252667
 21
4.517616043994678
 31
0.0
  0
LINE
  5
172
  8
LAYER1
 62
    18
 10
5.563507072252667
 20
4.517616043994678
 30
0.0
 11
5.563507072252667
 21
3.937616038332237
 31
0.0
  0
LINE
  5
173
  8
LAYER1
 62
    18
 10
5.563507072252667
 20
3.937616038332237
 30
0.0
 11
5.119507781786359
 21
3.937616038332237
 31
0.0
  0
POLYLINE
  5
174
  8
LAYER1
 62
    18
 10
0.0
 20
0.0
 30
0.0
 66
     1
 70
     8
  0
VERTEX
  5
175
  8
LAYER1
 62
    18
 10
5.74950694255296
 20
4.787616047272934
 30
0.0
 70
    32
  0
VERTEX
  5
176
  8
LAYER1
 62
    18
 10
5.769394971181979
 20
4.789310766097809
 30
0.0
 70
    32
  0
VERTEX
  5
177
  8
LAYER1
 62
    18
 10
5.808911812982925
 20
4.79505549042263
 30
0.0
 70
    32
  0
VERTEX
  5
178
  8
LAYER1
 62
    18
 10
5.848006711175333
 20
4.803293854719195
 30
0.0
 70
    32
  0
VERTEX
  5
179
  8
LAYER1
 62
    18
 10
5.881340698243364
 20
4.811439836262894
 30
0.0
 70
    32
  0
VERTEX
  5
17A
  8
LAYER1
 62
    18
 10
5.907769326119175
 20
4.82262242054894
 30
0.0
 70
    32
  0
VERTEX
  5
17B
  8
LAYER1
 62
    18
 10
5.929803775063536
 20
4.841038631819439
 30
0.0
 70
    32
  0
VERTEX
  5
17C
  8
LAYER1
 62
    18
 10
5.939507476610578
 20
4.851616050312771
 30
0.0
 70
    32
  0
SEQEND
  5
17D
  8
LAYER1
 62
    18
  0
POLYLINE
  5
17E
  8
LAYER1
 62
    18
 10
0.0
 20
0.0
 30
0.0
 66
     1
 70
     8
  0
VERTEX
  5
17F
  8
LAYER1
 62
    18
 10
5.939507476610578
 20
4.851616050312771
 30
0.0
 70
    32
  0
VERTEX
  5
180
  8
LAYER1
 62
    18
 10
5.954938209337627
 20
4.876682851176066
 30
0.0
 70
    32
  0
VERTEX
  5
181
  8
LAYER1
 62
    18
 10
5.964270568651594
 20
4.904363245976819
 30
0.0
 70
    32
  0
VERTEX
  5
182
  8
LAYER1
 62
    18
 10
5.967507354540265
 20
4.935616034279121
 30
0.0
 70
    32
  0
SEQEND
  5
183
  8
LAYER1
 62
    18
  0
POLYLINE
  5
184
  8
LAYER1
 62
    18
 10
0.0
 20
0.0
 30
0.0
 66
     1
 70
     8
  0
VERTEX
  5
185
  8
LAYER1
 62
    18
 10
5.967507354540265
 20
4.935616034279121
 30
0.0
 70
    32
  0
VERTEX
  5
186
  8
LAYER1
 62
    18
 10
5.962715738338863
 20
4.978222346813334
 30
0.0
 70
    32
  0
VERTEX
  5
187
  8
LAYER1
 62
    18
 10
5.948340889734663
 20
5.013641254518284
 30
0.0
 70
    32
  0
VERTEX
  5
188
  8
LAYER1
 62
    18
 10
5.923507205767072
 20
5.042616057405723
 30
0.0
 70
    32
  0
SEQEND
  5
189
  8
LAYER1
 62
    18
  0
POLYLINE
  5
18A
  8
LAYER1
 62
    18
 10
0.0
 20
0.0
 30
0.0
 66
     1
 70
     8
  0
VERTEX
  5
18B
  8
LAYER1
 62
    18
 10
5.923507205767072
 20
5.042616057405723
 30
0.0
 70
    32
  0
VERTEX
  5
18C
  8
LAYER1
 62
    18
 10
5.911252845436903
 20
5.050066482466309
 30
0.0
 70
    32
  0
VERTEX
  5
18D
  8
LAYER1
 62
    18
 10
5.882009747172573
 20
5.064545569362142
 30
0.0
 70
    32
  0
VERTEX
  5
18E
  8
LAYER1
 62
    18
 10
5.825160523006701
 20
5.07600299445825
 30
0.0
 70
    32
  0
VERTEX
  5
18F
  8
LAYER1
 62
    18
 10
5.782118893851429
 20
5.078790536569038
 30
0.0
 70
    32
  0
VERTEX
  5
190
  8
LAYER1
 62
    18
 10
5.757507316393292
 20
5.079616057882561
 30
0.0
 70
    32
  0
VERTEX
  5
191
  8
LAYER1
 62
    18
 10
5.692840568346417
 20
5.079616057882561
 30
0.0
 70
    32
  0
VERTEX
  5
192
  8
LAYER1
 62
    18
 10
5.628173820299542
 20
5.079616057882561
 30
0.0
 70
    32
  0
VERTEX
  5
193
  8
LAYER1
 62
    18
 10
5.612339353951867
 20
5.079616057882561
 30
0.0
 70
    32
  0
VERTEX
  5
194
  8
LAYER1
 62
    18
 10
5.594027248314666
 20
5.079616057882561
 30
0.0
 70
    32
  0
VERTEX
  5
195
  8
LAYER1
 62
    18
 10
5.581819177889868
 20
5.079616057882561
 30
0.0
 70
    32
  0
VERTEX
  5
196
  8
LAYER1
 62
    18
 10
5.563507072252667
 20
5.079616057882561
 30
0.0
 70
    32
  0
SEQEND
  5
197
  8
LAYER1
 62
    18
  0
LINE
  5
198
  8
LAYER1
 62
    18
 10
5.563507072252667
 20
4.787616047272934
 30
0.0
 11
5.74950694255296
 21
4.787616047272934
 31
0.0
  0
LINE
  5
199
  8
LAYER1
 62
    18
 10
7.131506912035382
 20
5.369616019735588
 30
0.0
 11
7.131506912035382
 21
3.937616038332237
 31
0.0
  0
LINE
  5
19A
  8
LAYER1
 62
    18
 10
7.131506912035382
 20
3.937616038332237
 30
0.0
 11
6.687507621569074
 21
3.937616038332237
 31
0.0
  0
LINE
  5
19B
  8
LAYER1
 62
    18
 10
6.687507621569074
 20
3.937616038332237
 30
0.0
 11
6.687507621569074
 21
5.369616019735588
 31
0.0
  0
LINE
  5
19C
  8
LAYER1
 62
    18
 10
6.687507621569074
 20
5.369616019735588
 30
0.0
 11
7.131506912035382
 21
5.369616019735588
 31
0.0
  0
LINE
  5
19D
  8
LAYER1
 62
    18
 10
8.167507163805407
 20
4.753616037974609
 30
0.0
 11
8.8515071790642
 21
4.753616037974609
 31
0.0
  0
LINE
  5
19E
  8
LAYER1
 62
    18
 10
8.8515071790642
 20
4.753616037974609
 30
0.0
 11
8.8515071790642
 21
4.143616038570656
 31
0.0
  0
POLYLINE
  5
19F
  8
LAYER1
 62
    18
 10
0.0
 20
0.0
 30
0.0
 66
     1
 70
     8
  0
VERTEX
  5
1A0
  8
LAYER1
 62
    18
 10
8.8515071790642
 20
4.143616038570656
 30
0.0
 70
    32
  0
VERTEX
  5
1A1
  8
LAYER1
 62
    18
 10
8.727047621912405
 20
4.064541452298416
 30
0.0
 70
    32
  0
VERTEX
  5
1A2
  8
LAYER1
 62
    18
 10
8.612389081377433
 20
4.004197658548607
 30
0.0
 70
    32
  0
VERTEX
  5
1A3
  8
LAYER1
 62
    18
 10
8.504507056993887
 20
3.961616057167305
 30
0.0
 70
    32
  0
SEQEND
  5
1A4
  8
LAYER1
 62
    18
  0
POLYLINE
  5
1A5
  8
LAYER1
 62
    18
 10
0.0
 20
0.0
 30
0.0
 66
     1
 70
     8
  0
VERTEX
  5
1A6
  8
LAYER1
 62
    18
 10
8.504507056993887
 20
3.961616057167305
 30
0.0
 70
    32
  0
VERTEX
  5
1A7
  8
LAYER1
 62
    18
 10
8.398639828295153
 20
3.935163252831353
 30
0.0
 70
    32
  0
VERTEX
  5
1A8
  8
LAYER1
 62
    18
 10
8.280358172411368
 20
3.919164850209011
 30
0.0
 70
    32
  0
VERTEX
  5
1A9
  8
LAYER1
 62
    18
 10
8.145507804674548
 20
3.913616049299492
 30
0.0
 70
    32
  0
SEQEND
  5
1AA
  8
LAYER1
 62
    18
  0
POLYLINE
  5
1AB
  8
LAYER1
 62
    18
 10
0.0
 20
0.0
 30
0.0
 66
     1
 70
     8
  0
VERTEX
  5
1AC
  8
LAYER1
 62
    18
 10
8.145507804674548
 20
3.913616049299492
 30
0.0
 70
    32
  0
VERTEX
  5
1AD
  8
LAYER1
 62
    18
 10
7.987995163387693
 20
3.923090349026872
 30
0.0
 70
    32
  0
VERTEX
  5
1AE
  8
LAYER1
 62
    18
 10
7.850738115686815
 20
3.951513248209013
 30
0.0
 70
    32
  0
VERTEX
  5
1AF
  8
LAYER1
 62
    18
 10
7.73050736598436
 20
4.000616046796097
 30
0.0
 70
    32
  0
SEQEND
  5
1B0
  8
LAYER1
 62
    18
  0
POLYLINE
  5
1B1
  8
LAYER1
 62
    18
 10
0.0
 20
0.0
 30
0.0
 66
     1
 70
     8
  0
VERTEX
  5
1B2
  8
LAYER1
 62
    18
 10
7.73050736598436
 20
4.000616046796097
 30
0.0
 70
    32
  0
VERTEX
  5
1B3
  8
LAYER1
 62
    18
 10
7.632197157616057
 20
4.06729254524122
 30
0.0
 70
    32
  0
VERTEX
  5
1B4
  8
LAYER1
 62
    18
 10
7.549786235422532
 20
4.152482043881072
 30
0.0
 70
    32
  0
VERTEX
  5
1B5
  8
LAYER1
 62
    18
 10
7.481507293505109
 20
4.259616042683376
 30
0.0
 70
    32
  0
SEQEND
  5
1B6
  8
LAYER1
 62
    18
  0
POLYLINE
  5
1B7
  8
LAYER1
 62
    18
 10
0.0
 20
0.0
 30
0.0
 66
     1
 70
     8
  0
VERTEX
  5
1B8
  8
LAYER1
 62
    18
 10
7.481507293505109
 20
4.259616042683376
 30
0.0
 70
    32
  0
VERTEX
  5
1B9
  8
LAYER1
 62
    18
 10
7.433010329527296
 20
4.378581042108042
 30
0.0
 70
    32
  0
VERTEX
  5
1BA
  8
LAYER1
 62
    18
 10
7.403679830355085
 20
4.50843604250635
 30
0.0
 70
    32
  0
VERTEX
  5
1BB
  8
LAYER1
 62
    18
 10
7.393506995958722
 20
4.653616043935074
 30
0.0
 70
    32
  0
SEQEND
  5
1BC
  8
LAYER1
 62
    18
  0
POLYLINE
  5
1BD
  8
LAYER1
 62
    18
 10
0.0
 20
0.0
 30
0.0
 66
     1
 70
     8
  0
VERTEX
  5
1BE
  8
LAYER1
 62
    18
 10
7.393506995958722
 20
4.653616043935074
 30
0.0
 70
    32
  0
VERTEX
  5
1BF
  8
LAYER1
 62
    18
 10
7.404070309252178
 20
4.801413149935854
 30
0.0
 70
    32
  0
VERTEX
  5
1C0
  8
LAYER1
 62
    18
 10
7.435760249132549
 20
4.935924451730504
 30
0.0
 70
    32
  0
VERTEX
  5
1C1
  8
LAYER1
 62
    18
 10
7.490507118029035
 20
5.060616049180283
 30
0.0
 70
    32
  0
SEQEND
  5
1C2
  8
LAYER1
 62
    18
  0
POLYLINE
  5
1C3
  8
LAYER1
 62
    18
 10
0.0
 20
0.0
 30
0.0
 66
     1
 70
     8
  0
VERTEX
  5
1C4
  8
LAYER1
 62
    18
 10
7.490507118029035
 20
5.060616049180283
 30
0.0
 70
    32
  0
VERTEX
  5
1C5
  8
LAYER1
 62
    18
 10
7.564219271177686
 20
5.165757342448188
 30
0.0
 70
    32
  0
VERTEX
  5
1C6
  8
LAYER1
 62
    18
 10
7.657315569490828
 20
5.252821231535925
 30
0.0
 70
    32
  0
VERTEX
  5
1C7
  8
LAYER1
 62
    18
 10
7.773507110399644
 20
5.323616015920891
 30
0.0
 70
    32
  0
SEQEND
  5
1C8
  8
LAYER1
 62
    18
  0
POLYLINE
  5
1C9
  8
LAYER1
 62
    18
 10
0.0
 20
0.0
 30
0.0
 66
     1
 70
     8
  0
VERTEX
  5
1CA
  8
LAYER1
 62
    18
 10
7.773507110399644
 20
5.323616015920891
 30
0.0
 70
    32
  0
VERTEX
  5
1CB
  8
LAYER1
 62
    18
 10
7.88075709151689
 20
5.362193044827237
 30
0.0
 70
    32
  0
VERTEX
  5
1CC
  8
LAYER1
 62
    18
 10
8.009787155718247
 20
5.385524062309517
 30
0.0
 70
    32
  0
VERTEX
  5
1CD
  8
LAYER1
 62
    18
 10
8.165507308763903
 20
5.393616068372978
 30
0.0
 70
    32
  0
SEQEND
  5
1CE
  8
LAYER1
 62
    18
  0
POLYLINE
  5
1CF
  8
LAYER1
 62
    18
 10
0.0
 20
0.0
 30
0.0
 66
     1
 70
     8
  0
VERTEX
  5
1D0
  8
LAYER1
 62
    18
 10
8.165507308763903
 20
5.393616068372978
 30
0.0
 70
    32
  0
VERTEX
  5
1D1
  8
LAYER1
 62
    18
 10
8.308417145723745
 20
5.388933366996898
 30
0.0
 70
    32
  0
VERTEX
  5
1D2
  8
LAYER1
 62
    18
 10
8.425626576036855
 20
5.374885262868656
 30
0.0
 70
    32
  0
VERTEX
  5
1D3
  8
LAYER1
 62
    18
 10
8.519507400316641
 20
5.350616055736793
 30
0.0
 70
    32
  0
SEQEND
  5
1D4
  8
LAYER1
 62
    18
  0
POLYLINE
  5
1D5
  8
LAYER1
 62
    18
 10
0.0
 20
0.0
 30
0.0
 66
     1
 70
     8
  0
VERTEX
  5
1D6
  8
LAYER1
 62
    18
 10
8.519507400316641
 20
5.350616055736793
 30
0.0
 70
    32
  0
VERTEX
  5
1D7
  8
LAYER1
 62
    18
 10
8.592922532505437
 20
5.317117748383535
 30
0.0
 70
    32
  0
VERTEX
  5
1D8
  8
LAYER1
 62
    18
 10
8.657407888788626
 20
5.273382843003525
 30
0.0
 70
    32
  0
VERTEX
  5
1D9
  8
LAYER1
 62
    18
 10
8.714507571978018
 20
5.21761603952433
 30
0.0
 70
    32
  0
SEQEND
  5
1DA
  8
LAYER1
 62
    18
  0
POLYLINE
  5
1DB
  8
LAYER1
 62
    18
 10
0.0
 20
0.0
 30
0.0
 66
     1
 70
     8
  0
VERTEX
  5
1DC
  8
LAYER1
 62
    18
 10
8.714507571978018
 20
5.21761603952433
 30
0.0
 70
    32
  0
VERTEX
  5
1DD
  8
LAYER1
 62
    18
 10
8.761298345608157
 20
5.15277103911127
 30
0.0
 70
    32
  0
VERTEX
  5
1DE
  8
LAYER1
 62
    18
 10
8.80003048018877
 20
5.077036042592777
 30
0.0
 70
    32
  0
VERTEX
  5
1DF
  8
LAYER1
 62
    18
 10
8.831507674974844
 20
4.987616050253166
 30
0.0
 70
    32
  0
SEQEND
  5
1E0
  8
LAYER1
 62
    18
  0
LINE
  5
1E1
  8
LAYER1
 62
    18
 10
8.831507674974844
 20
4.987616050253166
 30
0.0
 11
8.40550707988207
 21
4.911616045246376
 31
0.0
  0
POLYLINE
  5
1E2
  8
LAYER1
 62
    18
 10
0.0
 20
0.0
 30
0.0
 66
     1
 70
     8
  0
VERTEX
  5
1E3
  8
LAYER1
 62
    18
 10
8.40550707988207
 20
4.911616045246376
 30
0.0
 70
    32
  0
VERTEX
  5
1E4
  8
LAYER1
 62
    18
 10
8.384317797178667
 20
4.961488939658655
 30
0.0
 70
    32
  0
VERTEX
  5
1E5
  8
LAYER1
 62
    18
 10
8.355069979280874
 20
5.002867639575256
 30
0.0
 70
    32
  0
VERTEX
  5
1E6
  8
LAYER1
 62
    18
 10
8.31650733165209
 20
5.036616045246376
 30
0.0
 70
    32
  0
SEQEND
  5
1E7
  8
LAYER1
 62
    18
  0
POLYLINE
  5
1E8
  8
LAYER1
 62
    18
 10
0.0
 20
0.0
 30
0.0
 66
     1
 70
     8
  0
VERTEX
  5
1E9
  8
LAYER1
 62
    18
 10
8.31650733165209
 20
5.036616045246376
 30
0.0
 70
    32
  0
VERTEX
  5
1EA
  8
LAYER1
 62
    18
 10
8.27111592568819
 20
5.060313352210177
 30
0.0
 70
    32
  0
VERTEX
  5
1EB
  8
LAYER1
 62
    18
 10
8.218101345247668
 20
5.074645256421817
 30
0.0
 70
    32
  0
VERTEX
  5
1EC
  8
LAYER1
 62
    18
 10
8.155507079882067
 20
5.079616057882561
 30
0.0
 70
    32
  0
SEQEND
  5
1ED
  8
LAYER1
 62
    18
  0
POLYLINE
  5
1EE
  8
LAYER1
 62
    18
 10
0.0
 20
0.0
 30
0.0
 66
     1
 70
     8
  0
VERTEX
  5
1EF
  8
LAYER1
 62
    18
 10
8.155507079882067
 20
5.079616057882561
 30
0.0
 70
    32
  0
VERTEX
  5
1F0
  8
LAYER1
 62
    18
 10
8.065681134075565
 20
5.068617156688227
 30
0.0
 70
    32
  0
VERTEX
  5
1F1
  8
LAYER1
 62
    18
 10
7.988923175806444
 20
5.035620453105224
 30
0.0
 70
    32
  0
VERTEX
  5
1F2
  8
LAYER1
 62
    18
 10
7.923507205767076
 20
4.978616046915306
 30
0.0
 70
    32
  0
SEQEND
  5
1F3
  8
LAYER1
 62
    18
  0
POLYLINE
  5
1F4
  8
LAYER1
 62
    18
 10
0.0
 20
0.0
 30
0.0
 66
     1
 70
     8
  0
VERTEX
  5
1F5
  8
LAYER1
 62
    18
 10
7.923507205767076
 20
4.978616046915306
 30
0.0
 70
    32
  0
VERTEX
  5
1F6
  8
LAYER1
 62
    18
 10
7.876112624687592
 20
4.899214741442455
 30
0.0
 70
    32
  0
VERTEX
  5
1F7
  8
LAYER1
 62
    18
 10
7.847448836130538
 20
4.794330839500679
 30
0.0
 70
    32
  0
VERTEX
  5
1F8
  8
LAYER1
 62
    18
 10
7.837507240099352
 20
4.65961604119326
 30
0.0
 70
    32
  0
SEQEND
  5
1F9
  8
LAYER1
 62
    18
  0
POLYLINE
  5
1FA
  8
LAYER1
 62
    18
 10
0.0
 20
0.0
 30
0.0
 66
     1
 70
     8
  0
VERTEX
  5
1FB
  8
LAYER1
 62
    18
 10
7.837507240099352
 20
4.65961604119326
 30
0.0
 70
    32
  0
VERTEX
  5
1FC
  8
LAYER1
 62
    18
 10
7.846981528467572
 20
4.520870843898607
 30
0.0
 70
    32
  0
VERTEX
  5
1FD
  8
LAYER1
 62
    18
 10
7.875404393572253
 20
4.4108752432027
 30
0.0
 70
    32
  0
VERTEX
  5
1FE
  8
LAYER1
 62
    18
 10
7.924507133287828
 20
4.327616038928284
 30
0.0
 70
    32
  0
SEQEND
  5
1FF
  8
LAYER1
 62
    18
  0
POLYLINE
  5
200
  8
LAYER1
 62
    18
 10
0.0
 20
0.0
 30
0.0
 66
     1
 70
     8
  0
VERTEX
  5
201
  8
LAYER1
 62
    18
 10
7.924507133287828
 20
4.327616038928284
 30
0.0
 70
    32
  0
VERTEX
  5
202
  8
LAYER1
 62
    18
 10
7.989441189379135
 20
4.272506034001066
 30
0.0
 70
    32
  0
VERTEX
  5
203
  8
LAYER1
 62
    18
 10
8.069403498644274
 20
4.239176031021131
 30
0.0
 70
    32
  0
VERTEX
  5
204
  8
LAYER1
 62
    18
 10
8.167507163805407
 20
4.227616029987587
 30
0.0
 70
    32
  0
SEQEND
  5
205
  8
LAYER1
 62
    18
  0
POLYLINE
  5
206
  8
LAYER1
 62
    18
 10
0.0
 20
0.0
 30
0.0
 66
     1
 70
     8
  0
VERTEX
  5
207
  8
LAYER1
 62
    18
 10
8.167507163805407
 20
4.227616029987587
 30
0.0
 70
    32
  0
VERTEX
  5
208
  8
LAYER1
 62
    18
 10
8.215693943972031
 20
4.22990293137665
 30
0.0
 70
    32
  0
VERTEX
  5
209
  8
LAYER1
 62
    18
 10
8.262573811144279
 20
4.236763635543836
 30
0.0
 70
    32
  0
VERTEX
  5
20A
  8
LAYER1
 62
    18
 10
8.309507362169668
 20
4.248616042742981
 30
0.0
 70
    32
  0
SEQEND
  5
20B
  8
LAYER1
 62
    18
  0
POLYLINE
  5
20C
  8
LAYER1
 62
    18
 10
0.0
 20
0.0
 30
0.0
 66
     1
 70
     8
  0
VERTEX
  5
20D
  8
LAYER1
 62
    18
 10
8.309507362169668
 20
4.248616042742981
 30
0.0
 70
    32
  0
VERTEX
  5
20E
  8
LAYER1
 62
    18
 10
8.356347522062702
 20
4.26585194826658
 30
0.0
 70
    32
  0
VERTEX
  5
20F
  8
LAYER1
 62
    18
 10
8.407108213228629
 20
4.289839648000253
 30
0.0
 70
    32
  0
VERTEX
  5
210
  8
LAYER1
 62
    18
 10
8.463507644457266
 20
4.321616041670097
 30
0.0
 70
    32
  0
SEQEND
  5
211
  8
LAYER1
 62
    18
  0
LINE
  5
212
  8
LAYER1
 62
    18
 10
8.463507644457266
 20
4.321616041670097
 30
0.0
 11
8.463507644457266
 21
4.455616045007957
 31
0.0
  0
LINE
  5
213
  8
LAYER1
 62
    18
 10
8.463507644457266
 20
4.455616045007957
 30
0.0
 11
8.167507163805407
 21
4.455616045007957
 31
0.0
  0
LINE
  5
214
  8
LAYER1
 62
    18
 10
8.167507163805407
 20
4.455616045007957
 30
0.0
 11
8.167507163805407
 21
4.753616037974609
 31
0.0
  0
LINE
  5
215
  8
LAYER1
 62
    18
 10
9.557507507128168
 20
5.369616019735588
 30
0.0
 11
9.557507507128168
 21
4.86961604953791
 31
0.0
  0
LINE
  5
216
  8
LAYER1
 62
    18
 10
9.557507507128168
 20
4.86961604953791
 30
0.0
 11
10.04150771312182
 21
4.86961604953791
 31
0.0
  0
LINE
  5
217
  8
LAYER1
 62
    18
 10
10.04150771312182
 20
4.86961604953791
 30
0.0
 11
10.04150771312182
 21
5.369616019735588
 31
0.0
  0
LINE
  5
218
  8
LAYER1
 62
    18
 10
10.04150771312182
 20
5.369616019735588
 30
0.0
 11
10.48550700358813
 21
5.369616019735588
 31
0.0
  0
LINE
  5
219
  8
LAYER1
 62
    18
 10
10.48550700358813
 20
5.369616019735588
 30
0.0
 11
10.48550700358813
 21
3.937616038332237
 31
0.0
  0
LINE
  5
21A
  8
LAYER1
 62
    18
 10
10.48550700358813
 20
3.937616038332237
 30
0.0
 11
10.04150771312182
 21
3.937616038332237
 31
0.0
  0
LINE
  5
21B
  8
LAYER1
 62
    18
 10
10.04150771312182
 20
3.937616038332237
 30
0.0
 11
10.04150771312182
 21
4.517616043994678
 31
0.0
  0
LINE
  5
21C
  8
LAYER1
 62
    18
 10
10.04150771312182
 20
4.517616043994678
 30
0.0
 11
9.557507507128168
 21
4.517616043994678
 31
0.0
  0
LINE
  5
21D
  8
LAYER1
 62
    18
 10
9.557507507128168
 20
4.517616043994678
 30
0.0
 11
9.557507507128168
 21
3.937616038332237
 31
0.0
  0
LINE
  5
21E
  8
LAYER1
 62
    18
 10
9.557507507128168
 20
3.937616038332237
 30
0.0
 11
9.115507118029043
 21
3.937616038332237
 31
0.0
  0
LINE
  5
21F
  8
LAYER1
 62
    18
 10
9.115507118029043
 20
3.937616038332237
 30
0.0
 11
9.115507118029043
 21
5.369616019735588
 31
0.0
  0
LINE
  5
220
  8
LAYER1
 62
    18
 10
9.115507118029043
 20
5.369616019735588
 30
0.0
 11
9.557507507128168
 21
5.369616019735588
 31
0.0
  0
LINE
  5
221
  8
LAYER1
 62
    18
 10
12.02550696544116
 20
5.369616019735588
 30
0.0
 11
12.02550696544116
 21
5.015616047392143
 31
0.0
  0
LINE
  5
222
  8
LAYER1
 62
    18
 10
12.02550696544116
 20
5.015616047392143
 30
0.0
 11
11.57350730113452
 21
5.015616047392143
 31
0.0
  0
LINE
  5
223
  8
LAYER1
 62
    18
 10
11.57350730113452
 20
5.015616047392143
 30
0.0
 11
11.57350730113452
 21
3.937616038332237
 31
0.0
  0
LINE
  5
224
  8
LAYER1
 62
    18
 10
11.57350730113452
 20
3.937616038332237
 30
0.0
 11
11.13150691203539
 21
3.937616038332237
 31
0.0
  0
LINE
  5
225
  8
LAYER1
 62
    18
 10
11.13150691203539
 20
3.937616038332237
 30
0.0
 11
11.13150691203539
 21
5.015616047392143
 31
0.0
  0
LINE
  5
226
  8
LAYER1
 62
    18
 10
11.13150691203539
 20
5.015616047392143
 30
0.0
 11
10.67950724772875
 21
5.015616047392143
 31
0.0
  0
LINE
  5
227
  8
LAYER1
 62
    18
 10
10.67950724772875
 20
5.015616047392143
 30
0.0
 11
10.67950724772875
 21
5.369616019735588
 31
0.0
  0
LINE
  5
228
  8
LAYER1
 62
    18
 10
10.67950724772875
 20
5.369616019735588
 30
0.0
 11
12.02550696544116
 21
5.369616019735588
 31
0.0
  0
LINE
  5
229
  8
LAYER1
 62
    18
 10
1.545287124437726
 20
2.671551811704887
 30
0.0
 11
1.344286910814679
 21
2.671551811704887
 31
0.0
  0
LINE
  5
22A
  8
LAYER1
 62
    18
 10
1.344286910814679
 20
2.671551811704887
 30
0.0
 11
1.344286910814679
 21
3.147551763067497
 31
0.0
  0
POLYLINE
  5
22B
  8
LAYER1
 62
    18
 10
0.0
 20
0.0
 30
0.0
 66
     1
 70
     8
  0
VERTEX
  5
22C
  8
LAYER1
 62
    18
 10
1.344286910814679
 20
3.147551763067497
 30
0.0
 70
    32
  0
VERTEX
  5
22D
  8
LAYER1
 62
    18
 10
1.312328174180425
 20
3.124710841498627
 30
0.0
 70
    32
  0
VERTEX
  5
22E
  8
LAYER1
 62
    18
 10
1.281131682295239
 20
3.105027998743309
 30
0.0
 70
    32
  0
VERTEX
  5
22F
  8
LAYER1
 62
    18
 10
1.249787084383405
 20
3.088051784048332
 30
0.0
 70
    32
  0
SEQEND
  5
230
  8
LAYER1
 62
    18
  0
POLYLINE
  5
231
  8
LAYER1
 62
    18
 10
0.0
 20
0.0
 30
0.0
 66
     1
 70
     8
  0
VERTEX
  5
232
  8
LAYER1
 62
    18
 10
1.249787084383405
 20
3.088051784048332
 30
0.0
 70
    32
  0
VERTEX
  5
233
  8
LAYER1
 62
    18
 10
1.217197885722554
 20
3.073365122995629
 30
0.0
 70
    32
  0
VERTEX
  5
234
  8
LAYER1
 62
    18
 10
1.179490342611706
 20
3.059005190191521
 30
0.0
 70
    32
  0
VERTEX
  5
235
  8
LAYER1
 62
    18
 10
1.135286800188458
 20
3.044551837454094
 30
0.0
 70
    32
  0
SEQEND
  5
236
  8
LAYER1
 62
    18
  0
LINE
  5
237
  8
LAYER1
 62
    18
 10
1.135286800188458
 20
3.044551837454094
 30
0.0
 11
1.135286800188458
 21
3.206551778326286
 31
0.0
  0
POLYLINE
  5
238
  8
LAYER1
 62
    18
 10
0.0
 20
0.0
 30
0.0
 66
     1
 70
     8
  0
VERTEX
  5
239
  8
LAYER1
 62
    18
 10
1.135286800188458
 20
3.206551778326286
 30
0.0
 70
    32
  0
VERTEX
  5
23A
  8
LAYER1
 62
    18
 10
1.197597529906666
 20
3.229747474537148
 30
0.0
 70
    32
  0
VERTEX
  5
23B
  8
LAYER1
 62
    18
 10
1.249889406866467
 20
3.255774573240531
 30
0.0
 70
    32
  0
VERTEX
  5
23C
  8
LAYER1
 62
    18
 10
1.293287030977643
 20
3.285551774511589
 30
0.0
 70
    32
  0
SEQEND
  5
23D
  8
LAYER1
 62
    18
  0
POLYLINE
  5
23E
  8
LAYER1
 62
    18
 10
0.0
 20
0.0
 30
0.0
 66
     1
 70
     8
  0
VERTEX
  5
23F
  8
LAYER1
 62
    18
 10
1.293287030977643
 20
3.285551774511589
 30
0.0
 70
    32
  0
VERTEX
  5
240
  8
LAYER1
 62
    18
 10
1.327633434886372
 20
3.318307572148099
 30
0.0
 70
    32
  0
VERTEX
  5
241
  8
LAYER1
 62
    18
 10
1.356752654165662
 20
3.355854960022224
 30
0.0
 70
    32
  0
VERTEX
  5
242
  8
LAYER1
 62
    18
 10
1.381287090105451
 20
3.399551737318291
 30
0.0
 70
    32
  0
SEQEND
  5
243
  8
LAYER1
 62
    18
  0
LINE
  5
244
  8
LAYER1
 62
    18
 10
1.381287090105451
 20
3.399551737318291
 30
0.0
 11
1.545287124437726
 21
3.399551737318291
 31
0.0
  0
LINE
  5
245
  8
LAYER1
 62
    18
 10
1.545287124437726
 20
3.399551737318291
 30
0.0
 11
1.545287124437726
 21
2.671551811704887
 31
0.0
  0
LINE
  5
246
  8
LAYER1
 62
    18
 10
2.212286941332257
 20
2.671551811704887
 30
0.0
 11
2.01128672770921
 21
2.671551811704887
 31
0.0
  0
LINE
  5
247
  8
LAYER1
 62
    18
 10
2.01128672770921
 20
2.671551811704887
 30
0.0
 11
2.01128672770921
 21
3.147551763067497
 31
0.0
  0
POLYLINE
  5
248
  8
LAYER1
 62
    18
 10
0.0
 20
0.0
 30
0.0
 66
     1
 70
     8
  0
VERTEX
  5
249
  8
LAYER1
 62
    18
 10
2.01128672770921
 20
3.147551763067497
 30
0.0
 70
    32
  0
VERTEX
  5
24A
  8
LAYER1
 62
    18
 10
1.979327991074955
 20
3.124710841498627
 30
0.0
 70
    32
  0
VERTEX
  5
24B
  8
LAYER1
 62
    18
 10
1.94813149918977
 20
3.105027998743309
 30
0.0
 70
    32
  0
VERTEX
  5
24C
  8
LAYER1
 62
    18
 10
1.916786901277936
 20
3.088051784048332
 30
0.0
 70
    32
  0
SEQEND
  5
24D
  8
LAYER1
 62
    18
  0
POLYLINE
  5
24E
  8
LAYER1
 62
    18
 10
0.0
 20
0.0
 30
0.0
 66
     1
 70
     8
  0
VERTEX
  5
24F
  8
LAYER1
 62
    18
 10
1.916786901277936
 20
3.088051784048332
 30
0.0
 70
    32
  0
VERTEX
  5
250
  8
LAYER1
 62
    18
 10
1.884197754544652
 20
3.073365122995629
 30
0.0
 70
    32
  0
VERTEX
  5
251
  8
LAYER1
 62
    18
 10
1.846490367216504
 20
3.059005190191521
 30
0.0
 70
    32
  0
VERTEX
  5
252
  8
LAYER1
 62
    18
 10
1.802287093920148
 20
3.044551837454094
 30
0.0
 70
    32
  0
SEQEND
  5
253
  8
LAYER1
 62
    18
  0
LINE
  5
254
  8
LAYER1
 62
    18
 10
1.802287093920148
 20
3.044551837454094
 30
0.0
 11
1.802287093920148
 21
3.206551778326286
 31
0.0
  0
POLYLINE
  5
255
  8
LAYER1
 62
    18
 10
0.0
 20
0.0
 30
0.0
 66
     1
 70
     8
  0
VERTEX
  5
256
  8
LAYER1
 62
    18
 10
1.802287093920148
 20
3.206551778326286
 30
0.0
 70
    32
  0
VERTEX
  5
257
  8
LAYER1
 62
    18
 10
1.864597560853397
 20
3.229747474537148
 30
0.0
 70
    32
  0
VERTEX
  5
258
  8
LAYER1
 62
    18
 10
1.916889278883374
 20
3.255774573240531
 30
0.0
 70
    32
  0
VERTEX
  5
259
  8
LAYER1
 62
    18
 10
1.960286847872174
 20
3.285551774511589
 30
0.0
 70
    32
  0
SEQEND
  5
25A
  8
LAYER1
 62
    18
  0
POLYLINE
  5
25B
  8
LAYER1
 62
    18
 10
0.0
 20
0.0
 30
0.0
 66
     1
 70
     8
  0
VERTEX
  5
25C
  8
LAYER1
 62
    18
 10
1.960286847872174
 20
3.285551774511589
 30
0.0
 70
    32
  0
VERTEX
  5
25D
  8
LAYER1
 62
    18
 10
1.994633251780904
 20
3.318307572148099
 30
0.0
 70
    32
  0
VERTEX
  5
25E
  8
LAYER1
 62
    18
 10
2.023752471060194
 20
3.355854960022224
 30
0.0
 70
    32
  0
VERTEX
  5
25F
  8
LAYER1
 62
    18
 10
2.048286906999982
 20
3.399551737318291
 30
0.0
 70
    32
  0
SEQEND
  5
260
  8
LAYER1
 62
    18
  0
LINE
  5
261
  8
LAYER1
 62
    18
 10
2.048286906999982
 20
3.399551737318291
 30
0.0
 11
2.212286941332257
 21
3.399551737318291
 31
0.0
  0
LINE
  5
262
  8
LAYER1
 62
    18
 10
2.212286941332257
 20
3.399551737318291
 30
0.0
 11
2.212286941332257
 21
2.671551811704887
 31
0.0
  0
POLYLINE
  5
263
  8
LAYER1
 62
    18
 10
0.0
 20
0.0
 30
0.0
 66
     1
 70
     8
  0
VERTEX
  5
264
  8
LAYER1
 62
    18
 10
2.501786939424909
 20
3.318051743517174
 30
0.0
 70
    32
  0
VERTEX
  5
265
  8
LAYER1
 62
    18
 10
2.558627754611409
 20
3.362966390100969
 30
0.0
 70
    32
  0
VERTEX
  5
266
  8
LAYER1
 62
    18
 10
2.63213030843202
 20
3.390130338034881
 30
0.0
 70
    32
  0
VERTEX
  5
267
  8
LAYER1
 62
    18
 10
2.725286952776349
 20
3.399551737318291
 30
0.0
 70
    32
  0
SEQEND
  5
268
  8
LAYER1
 62
    18
  0
POLYLINE
  5
269
  8
LAYER1
 62
    18
 10
0.0
 20
0.0
 30
0.0
 66
     1
 70
     8
  0
VERTEX
  5
26A
  8
LAYER1
 62
    18
 10
2.725286952776349
 20
3.399551737318291
 30
0.0
 70
    32
  0
VERTEX
  5
26B
  8
LAYER1
 62
    18
 10
2.770526627964413
 20
3.397591543082251
 30
0.0
 70
    32
  0
VERTEX
  5
26C
  8
LAYER1
 62
    18
 10
2.809885713953412
 20
3.39171096037413
 30
0.0
 70
    32
  0
VERTEX
  5
26D
  8
LAYER1
 62
    18
 10
2.844286910814679
 20
3.381551790247215
 30
0.0
 70
    32
  0
SEQEND
  5
26E
  8
LAYER1
 62
    18
  0
POLYLINE
  5
26F
  8
LAYER1
 62
    18
 10
0.0
 20
0.0
 30
0.0
 66
     1
 70
     8
  0
VERTEX
  5
270
  8
LAYER1
 62
    18
 10
2.844286910814679
 20
3.381551790247215
 30
0.0
 70
    32
  0
VERTEX
  5
271
  8
LAYER1
 62
    18
 10
2.872850063747799
 20
3.36852836718346
 30
0.0
 70
    32
  0
VERTEX
  5
272
  8
LAYER1
 62
    18
 10
2.897819517511762
 20
3.353218028126014
 30
0.0
 70
    32
  0
VERTEX
  5
273
  8
LAYER1
 62
    18
 10
2.919786922258771
 20
3.335051822672142
 30
0.0
 70
    32
  0
SEQEND
  5
274
  8
LAYER1
 62
    18
  0
POLYLINE
  5
275
  8
LAYER1
 62
    18
 10
0.0
 20
0.0
 30
0.0
 66
     1
 70
     8
  0
VERTEX
  5
276
  8
LAYER1
 62
    18
 10
2.919786922258771
 20
3.335051822672142
 30
0.0
 70
    32
  0
VERTEX
  5
277
  8
LAYER1
 62
    18
 10
2.937895672101414
 20
3.315915113345636
 30
0.0
 70
    32
  0
VERTEX
  5
278
  8
LAYER1
 62
    18
 10
2.953281911558545
 20
3.296125012431396
 30
0.0
 70
    32
  0
VERTEX
  5
279
  8
LAYER1
 62
    18
 10
2.966286889833844
 20
3.275051820287956
 30
0.0
 70
    32
  0
SEQEND
  5
27A
  8
LAYER1
 62
    18
  0
POLYLINE
  5
27B
  8
LAYER1
 62
    18
 10
0.0
 20
0.0
 30
0.0
 66
     1
 70
     8
  0
VERTEX
  5
27C
  8
LAYER1
 62
    18
 10
2.947287074846662
 20
2.750051784525169
 30
0.0
 70
    32
  0
VERTEX
  5
27D
  8
LAYER1
 62
    18
 10
2.893381555838024
 20
2.70017720325376
 30
0.0
 70
    32
  0
VERTEX
  5
27E
  8
LAYER1
 62
    18
 10
2.818784978670514
 20
2.67001353434111
 30
0.0
 70
    32
  0
VERTEX
  5
27F
  8
LAYER1
 62
    18
 10
2.720286838335431
 20
2.659551727781547
 30
0.0
 70
    32
  0
SEQEND
  5
280
  8
LAYER1
 62
    18
  0
POLYLINE
  5
281
  8
LAYER1
 62
    18
 10
0.0
 20
0.0
 30
0.0
 66
     1
 70
     8
  0
VERTEX
  5
282
  8
LAYER1
 62
    18
 10
2.720286838335431
 20
2.659551727781547
 30
0.0
 70
    32
  0
VERTEX
  5
283
  8
LAYER1
 62
    18
 10
2.664589617652333
 20
2.662709832558884
 30
0.0
 70
    32
  0
VERTEX
  5
284
  8
LAYER1
 62
    18
 10
2.616297527594007
 20
2.672184146890892
 30
0.0
 70
    32
  0
VERTEX
  5
285
  8
LAYER1
 62
    18
 10
2.574287168306745
 20
2.688551771650566
 30
0.0
 70
    32
  0
SEQEND
  5
286
  8
LAYER1
 62
    18
  0
POLYLINE
  5
287
  8
LAYER1
 62
    18
 10
0.0
 20
0.0
 30
0.0
 66
     1
 70
     8
  0
VERTEX
  5
288
  8
LAYER1
 62
    18
 10
2.574287168306745
 20
2.688551771650566
 30
0.0
 70
    32
  0
VERTEX
  5
289
  8
LAYER1
 62
    18
 10
2.539614036149418
 20
2.71052319011475
 30
0.0
 70
    32
  0
VERTEX
  5
28A
  8
LAYER1
 62
    18
 10
2.509514632124341
 20
2.738157387600197
 30
0.0
 70
    32
  0
VERTEX
  5
28B
  8
LAYER1
 62
    18
 10
2.483286849779523
 20
2.772551763067497
 30
0.0
 70
    32
  0
SEQEND
  5
28C
  8
LAYER1
 62
    18
  0
LINE
  5
28D
  8
LAYER1
 62
    18
 10
2.4282870214409
 20
3.032551753530754
 30
0.0
 11
2.4282870214409
 21
3.031551826010002
 31
0.0
  0
POLYLINE
  5
28E
  8
LAYER1
 62
    18
 10
0.0
 20
0.0
 30
0.0
 66
     1
 70
     8
  0
VERTEX
  5
28F
  8
LAYER1
 62
    18
 10
2.649286977571881
 20
2.845551776895775
 30
0.0
 70
    32
  0
VERTEX
  5
290
  8
LAYER1
 62
    18
 10
2.667522739095127
 20
2.817996770326151
 30
0.0
 70
    32
  0
VERTEX
  5
291
  8
LAYER1
 62
    18
 10
2.690550116819775
 20
2.801331766352905
 30
0.0
 70
    32
  0
VERTEX
  5
292
  8
LAYER1
 62
    18
 10
2.719286910814679
 20
2.795551764974846
 30
0.0
 70
    32
  0
SEQEND
  5
293
  8
LAYER1
 62
    18
  0
POLYLINE
  5
294
  8
LAYER1
 62
    18
 10
0.0
 20
0.0
 30
0.0
 66
     1
 70
     8
  0
VERTEX
  5
295
  8
LAYER1
 62
    18
 10
2.719286910814679
 20
2.795551764974846
 30
0.0
 70
    32
  0
VERTEX
  5
296
  8
LAYER1
 62
    18
 10
2.738766868633664
 20
2.797838667986645
 30
0.0
 70
    32
  0
VERTEX
  5
297
  8
LAYER1
 62
    18
 10
2.756286560816205
 20
2.804699377022041
 30
0.0
 70
    32
  0
VERTEX
  5
298
  8
LAYER1
 62
    18
 10
2.772286884111798
 20
2.816551792631401
 30
0.0
 70
    32
  0
SEQEND
  5
299
  8
LAYER1
 62
    18
  0
POLYLINE
  5
29A
  8
LAYER1
 62
    18
 10
0.0
 20
0.0
 30
0.0
 66
     1
 70
     8
  0
VERTEX
  5
29B
  8
LAYER1
 62
    18
 10
2.772286884111798
 20
2.816551792631401
 30
0.0
 70
    32
  0
VERTEX
  5
29C
  8
LAYER1
 62
    18
 10
2.785554464692508
 20
2.833134308288349
 30
0.0
 70
    32
  0
VERTEX
  5
29D
  8
LAYER1
 62
    18
 10
2.796317422956861
 20
2.855161818752541
 30
0.0
 70
    32
  0
VERTEX
  5
29E
  8
LAYER1
 62
    18
 10
2.804786912722028
 20
2.883551824102653
 30
0.0
 70
    32
  0
SEQEND
  5
29F
  8
LAYER1
 62
    18
  0
POLYLINE
  5
2A0
  8
LAYER1
 62
    18
 10
0.0
 20
0.0
 30
0.0
 66
     1
 70
     8
  0
VERTEX
  5
2A1
  8
LAYER1
 62
    18
 10
2.79128693751756
 20
3.218551802644981
 30
0.0
 70
    32
  0
VERTEX
  5
2A2
  8
LAYER1
 62
    18
 10
2.772724368280804
 20
3.24555568346168
 30
0.0
 70
    32
  0
VERTEX
  5
2A3
  8
LAYER1
 62
    18
 10
2.748716882128155
 20
3.261887371859802
 30
0.0
 70
    32
  0
VERTEX
  5
2A4
  8
LAYER1
 62
    18
 10
2.718286983293927
 20
3.267551767835869
 30
0.0
 70
    32
  0
SEQEND
  5
2A5
  8
LAYER1
 62
    18
  0
POLYLINE
  5
2A6
  8
LAYER1
 62
    18
 10
0.0
 20
0.0
 30
0.0
 66
     1
 70
     8
  0
VERTEX
  5
2A7
  8
LAYER1
 62
    18
 10
2.718286983293927
 20
3.267551767835869
 30
0.0
 70
    32
  0
VERTEX
  5
2A8
  8
LAYER1
 62
    18
 10
2.688887156099712
 20
3.26210676653768
 30
0.0
 70
    32
  0
VERTEX
  5
2A9
  8
LAYER1
 62
    18
 10
2.665368021959699
 20
3.245771762643113
 30
0.0
 70
    32
  0
VERTEX
  5
2AA
  8
LAYER1
 62
    18
 10
2.647286884111798
 20
3.21755175591494
 30
0.0
 70
    32
  0
SEQEND
  5
2AB
  8
LAYER1
 62
    18
  0
POLYLINE
  5
2AC
  8
LAYER1
 62
    18
 10
0.0
 20
0.0
 30
0.0
 66
     1
 70
     8
  0
VERTEX
  5
2AD
  8
LAYER1
 62
    18
 10
3.100286952776349
 20
3.213551747808708
 30
0.0
 70
    32
  0
VERTEX
  5
2AE
  8
LAYER1
 62
    18
 10
3.12020422961179
 20
3.268377963814988
 30
0.0
 70
    32
  0
VERTEX
  5
2AF
  8
LAYER1
 62
    18
 10
3.14959574288789
 20
3.31405656777407
 30
0.0
 70
    32
  0
VERTEX
  5
2B0
  8
LAYER1
 62
    18
 10
3.189787141603864
 20
3.3515517592528
 30
0.0
 70
    32
  0
SEQEND
  5
2B1
  8
LAYER1
 62
    18
  0
POLYLINE
  5
2B2
  8
LAYER1
 62
    18
 10
0.0
 20
0.0
 30
0.0
 66
     1
 70
     8
  0
VERTEX
  5
2B3
  8
LAYER1
 62
    18
 10
3.189787141603864
 20
3.3515517592528
 30
0.0
 70
    32
  0
VERTEX
  5
2B4
  8
LAYER1
 62
    18
 10
3.239721034974491
 20
3.378004547164692
 30
0.0
 70
    32
  0
VERTEX
  5
2B5
  8
LAYER1
 62
    18
 10
3.301742783064283
 20
3.39400293985392
 30
0.0
 70
    32
  0
VERTEX
  5
2B6
  8
LAYER1
 62
    18
 10
3.378286830706037
 20
3.399551737318291
 30
0.0
 70
    32
  0
SEQEND
  5
2B7
  8
LAYER1
 62
    18
  0
POLYLINE
  5
2B8
  8
LAYER1
 62
    18
 10
0.0
 20
0.0
 30
0.0
 66
     1
 70
     8
  0
VERTEX
  5
2B9
  8
LAYER1
 62
    18
 10
3.378286830706037
 20
3.399551737318291
 30
0.0
 70
    32
  0
VERTEX
  5
2BA
  8
LAYER1
 62
    18
 10
3.462247269911206
 20
3.39388893882419
 30
0.0
 70
    32
  0
VERTEX
  5
2BB
  8
LAYER1
 62
    18
 10
3.52932813434068
 20
3.376900543341888
 30
0.0
 70
    32
  0
VERTEX
  5
2BC
  8
LAYER1
 62
    18
 10
3.58078717402879
 20
3.347551751146568
 30
0.0
 70
    32
  0
SEQEND
  5
2BD
  8
LAYER1
 62
    18
  0
POLYLINE
  5
2BE
  8
LAYER1
 62
    18
 10
0.0
 20
0.0
 30
0.0
 66
     1
 70
     8
  0
VERTEX
  5
2BF
  8
LAYER1
 62
    18
 10
3.58078717402879
 20
3.347551751146568
 30
0.0
 70
    32
  0
VERTEX
  5
2C0
  8
LAYER1
 62
    18
 10
3.61523092402879
 20
3.310291459182753
 30
0.0
 70
    32
  0
VERTEX
  5
2C1
  8
LAYER1
 62
    18
 10
3.63606217402879
 20
3.267150565037979
 30
0.0
 70
    32
  0
VERTEX
  5
2C2
  8
LAYER1
 62
    18
 10
3.64328717402879
 20
3.216551768789543
 30
0.0
 70
    32
  0
SEQEND
  5
2C3
  8
LAYER1
 62
    18
  0
POLYLINE
  5
2C4
  8
LAYER1
 62
    18
 10
0.0
 20
0.0
 30
0.0
 66
     1
 70
     8
  0
VERTEX
  5
2C5
  8
LAYER1
 62
    18
 10
3.64328717402879
 20
3.216551768789543
 30
0.0
 70
    32
  0
VERTEX
  5
2C6
  8
LAYER1
 62
    18
 10
3.640510217589772
 20
3.186566354034199
 30
0.0
 70
    32
  0
VERTEX
  5
2C7
  8
LAYER1
 62
    18
 10
3.632179348272717
 20
3.158650019130959
 30
0.0
 70
    32
  0
VERTEX
  5
2C8
  8
LAYER1
 62
    18
 10
3.617787114900983
 20
3.132051813612236
 30
0.0
 70
    32
  0
SEQEND
  5
2C9
  8
LAYER1
 62
    18
  0
POLYLINE
  5
2CA
  8
LAYER1
 62
    18
 10
0.0
 20
0.0
 30
0.0
 66
     1
 70
     8
  0
VERTEX
  5
2CB
  8
LAYER1
 62
    18
 10
3.617787114900983
 20
3.132051813612236
 30
0.0
 70
    32
  0
VERTEX
  5
2CC
  8
LAYER1
 62
    18
 10
3.598180119437611
 20
3.108336350784553
 30
0.0
 70
    32
  0
VERTEX
  5
2CD
  8
LAYER1
 62
    18
 10
3.573019211096204
 20
3.086689993772759
 30
0.0
 70
    32
  0
VERTEX
  5
2CE
  8
LAYER1
 62
    18
 10
3.54128693751756
 20
3.066551792631401
 30
0.0
 70
    32
  0
SEQEND
  5
2CF
  8
LAYER1
 62
    18
  0
POLYLINE
  5
2D0
  8
LAYER1
 62
    18
 10
0.0
 20
0.0
 30
0.0
 66
     1
 70
     8
  0
VERTEX
  5
2D1
  8
LAYER1
 62
    18
 10
3.54128693751756
 20
3.066551792631401
 30
0.0
 70
    32
  0
VERTEX
  5
2D2
  8
LAYER1
 62
    18
 10
3.566828870672619
 20
3.059516191551937
 30
0.0
 70
    32
  0
VERTEX
  5
2D3
  8
LAYER1
 62
    18
 10
3.588014911837018
 20
3.051609375725044
 30
0.0
 70
    32
  0
VERTEX
  5
2D4
  8
LAYER1
 62
    18
 10
3.605287067217267
 20
3.042551743994011
 30
0.0
 70
    32
  0
SEQEND
  5
2D5
  8
LAYER1
 62
    18
  0
POLYLINE
  5
2D6
  8
LAYER1
 62
    18
 10
0.0
 20
0.0
 30
0.0
 66
     1
 70
     8
  0
VERTEX
  5
2D7
  8
LAYER1
 62
    18
 10
3.605287067217267
 20
3.042551743994011
 30
0.0
 70
    32
  0
VERTEX
  5
2D8
  8
LAYER1
 62
    18
 10
3.626753481048977
 20
3.026507167241825
 30
0.0
 70
    32
  0
VERTEX
  5
2D9
  8
LAYER1
 62
    18
 10
3.644952923960126
 20
3.007413377819313
 30
0.0
 70
    32
  0
VERTEX
  5
2DA
  8
LAYER1
 62
    18
 10
3.66028689555589
 20
2.984551775465263
 30
0.0
 70
    32
  0
SEQEND
  5
2DB
  8
LAYER1
 62
    18
  0
POLYLINE
  5
2DC
  8
LAYER1
 62
    18
 10
0.0
 20
0.0
 30
0.0
 66
     1
 70
     8
  0
VERTEX
  5
2DD
  8
LAYER1
 62
    18
 10
3.66028689555589
 20
2.984551775465263
 30
0.0
 70
    32
  0
VERTEX
  5
2DE
  8
LAYER1
 62
    18
 10
3.671308885044491
 20
2.959267173300042
 30
0.0
 70
    32
  0
VERTEX
  5
2DF
  8
LAYER1
 62
    18
 10
3.677974878687299
 20
2.930933384428276
 30
0.0
 70
    32
  0
VERTEX
  5
2E0
  8
LAYER1
 62
    18
 10
3.680286876482404
 20
2.898551809797539
 30
0.0
 70
    32
  0
SEQEND
  5
2E1
  8
LAYER1
 62
    18
  0
POLYLINE
  5
2E2
  8
LAYER1
 62
    18
 10
0.0
 20
0.0
 30
0.0
 66
     1
 70
     8
  0
VERTEX
  5
2E3
  8
LAYER1
 62
    18
 10
3.680286876482404
 20
2.898551809797539
 30
0.0
 70
    32
  0
VERTEX
  5
2E4
  8
LAYER1
 62
    18
 10
3.676747623366749
 20
2.858121839306607
 30
0.0
 70
    32
  0
VERTEX
  5
2E5
  8
LAYER1
 62
    18
 10
3.666129864019788
 20
2.818671975670112
 30
0.0
 70
    32
  0
VERTEX
  5
2E6
  8
LAYER1
 62
    18
 10
3.647786847872174
 20
2.779051768789543
 30
0.0
 70
    32
  0
SEQEND
  5
2E7
  8
LAYER1
 62
    18
  0
POLYLINE
  5
2E8
  8
LAYER1
 62
    18
 10
0.0
 20
0.0
 30
0.0
 66
     1
 70
     8
  0
VERTEX
  5
2E9
  8
LAYER1
 62
    18
 10
3.647786847872174
 20
2.779051768789543
 30
0.0
 70
    32
  0
VERTEX
  5
2EA
  8
LAYER1
 62
    18
 10
3.623178750175869
 20
2.743987614188446
 30
0.0
 70
    32
  0
VERTEX
  5
2EB
  8
LAYER1
 62
    18
 10
3.59225449485246
 20
2.714695156679405
 30
0.0
 70
    32
  0
VERTEX
  5
2EC
  8
LAYER1
 62
    18
 10
3.553786985201276
 20
2.690551745901359
 30
0.0
 70
    32
  0
SEQEND
  5
2ED
  8
LAYER1
 62
    18
  0
POLYLINE
  5
2EE
  8
LAYER1
 62
    18
 10
0.0
 20
0.0
 30
0.0
 66
     1
 70
     8
  0
VERTEX
  5
2EF
  8
LAYER1
 62
    18
 10
3.553786985201276
 20
2.690551745901359
 30
0.0
 70
    32
  0
VERTEX
  5
2F0
  8
LAYER1
 62
    18
 10
3.509004385108387
 20
2.673467635915531
 30
0.0
 70
    32
  0
VERTEX
  5
2F1
  8
LAYER1
 62
    18
 10
3.455836365789807
 20
2.663135329876198
 30
0.0
 70
    32
  0
VERTEX
  5
2F2
  8
LAYER1
 62
    18
 10
3.39228676967088
 20
2.659551727781547
 30
0.0
 70
    32
  0
SEQEND
  5
2F3
  8
LAYER1
 62
    18
  0
POLYLINE
  5
2F4
  8
LAYER1
 62
    18
 10
0.0
 20
0.0
 30
0.0
 66
     1
 70
     8
  0
VERTEX
  5
2F5
  8
LAYER1
 62
    18
 10
3.39228676967088
 20
2.659551727781547
 30
0.0
 70
    32
  0
VERTEX
  5
2F6
  8
LAYER1
 62
    18
 10
3.33212609691087
 20
2.662056427989258
 30
0.0
 70
    32
  0
VERTEX
  5
2F7
  8
LAYER1
 62
    18
 10
3.281004144091046
 20
2.669570528612388
 30
0.0
 70
    32
  0
VERTEX
  5
2F8
  8
LAYER1
 62
    18
 10
3.237786762041486
 20
2.682551729688896
 30
0.0
 70
    32
  0
SEQEND
  5
2F9
  8
LAYER1
 62
    18
  0
POLYLINE
  5
2FA
  8
LAYER1
 62
    18
 10
0.0
 20
0.0
 30
0.0
 66
     1
 70
     8
  0
VERTEX
  5
2FB
  8
LAYER1
 62
    18
 10
3.237786762041486
 20
2.682551729688896
 30
0.0
 70
    32
  0
VERTEX
  5
2FC
  8
LAYER1
 62
    18
 10
3.202729233712589
 20
2.700073086503996
 30
0.0
 70
    32
  0
VERTEX
  5
2FD
  8
LAYER1
 62
    18
 10
3.1721365933365
 20
2.722277154431595
 30
0.0
 70
    32
  0
VERTEX
  5
2FE
  8
LAYER1
 62
    18
 10
3.145286790651715
 20
2.750051784525169
 30
0.0
 70
    32
  0
SEQEND
  5
2FF
  8
LAYER1
 62
    18
  0
POLYLINE
  5
300
  8
LAYER1
 62
    18
 10
0.0
 20
0.0
 30
0.0
 66
     1
 70
     8
  0
VERTEX
  5
301
  8
LAYER1
 62
    18
 10
3.145286790651715
 20
2.750051784525169
 30
0.0
 70
    32
  0
VERTEX
  5
302
  8
LAYER1
 62
    18
 10
3.123269185370838
 20
2.781872054139628
 30
0.0
 70
    32
  0
VERTEX
  5
303
  8
LAYER1
 62
    18
 10
3.104736387152112
 20
2.818592793116821
 30
0.0
 70
    32
  0
VERTEX
  5
304
  8
LAYER1
 62
    18
 10
3.089286796373761
 20
2.861551749716057
 30
0.0
 70
    32
  0
SEQEND
  5
305
  8
LAYER1
 62
    18
  0
LINE
  5
306
  8
LAYER1
 62
    18
 10
3.089286796373761
 20
2.861551749716057
 30
0.0
 11
3.288287154955304
 21
2.88755177260424
 31
0.0
  0
POLYLINE
  5
307
  8
LAYER1
 62
    18
 10
0.0
 20
0.0
 30
0.0
 66
     1
 70
     8
  0
VERTEX
  5
308
  8
LAYER1
 62
    18
 10
3.288287154955304
 20
2.88755177260424
 30
0.0
 70
    32
  0
VERTEX
  5
309
  8
LAYER1
 62
    18
 10
3.297568202752506
 20
2.851926651386275
 30
0.0
 70
    32
  0
VERTEX
  5
30A
  8
LAYER1
 62
    18
 10
3.309571864790357
 20
2.82425121220137
 30
0.0
 70
    32
  0
VERTEX
  5
30B
  8
LAYER1
 62
    18
 10
3.324786893648541
 20
2.80405180455233
 30
0.0
 70
    32
  0
SEQEND
  5
30C
  8
LAYER1
 62
    18
  0
POLYLINE
  5
30D
  8
LAYER1
 62
    18
 10
0.0
 20
0.0
 30
0.0
 66
     1
 70
     8
  0
VERTEX
  5
30E
  8
LAYER1
 62
    18
 10
3.324786893648541
 20
2.80405180455233
 30
0.0
 70
    32
  0
VERTEX
  5
30F
  8
LAYER1
 62
    18
 10
3.342427127808964
 20
2.791100940624728
 30
0.0
 70
    32
  0
VERTEX
  5
310
  8
LAYER1
 62
    18
 10
3.363007656568922
 20
2.783268382201447
 30
0.0
 70
    32
  0
VERTEX
  5
311
  8
LAYER1
 62
    18
 10
3.387287132067121
 20
2.780551779279961
 30
0.0
 70
    32
  0
SEQEND
  5
312
  8
LAYER1
 62
    18
  0
POLYLINE
  5
313
  8
LAYER1
 62
    18
 10
0.0
 20
0.0
 30
0.0
 66
     1
 70
     8
  0
VERTEX
  5
314
  8
LAYER1
 62
    18
 10
3.387287132067121
 20
2.780551779279961
 30
0.0
 70
    32
  0
VERTEX
  5
315
  8
LAYER1
 62
    18
 10
3.412216959590351
 20
2.783764330110802
 30
0.0
 70
    32
  0
VERTEX
  5
316
  8
LAYER1
 62
    18
 10
3.434206492514051
 20
2.793401982603325
 30
0.0
 70
    32
  0
VERTEX
  5
317
  8
LAYER1
 62
    18
 10
3.453787080568707
 20
2.810051786909355
 30
0.0
 70
    32
  0
SEQEND
  5
318
  8
LAYER1
 62
    18
  0
POLYLINE
  5
319
  8
LAYER1
 62
    18
 10
0.0
 20
0.0
 30
0.0
 66
     1
 70
     8
  0
VERTEX
  5
31A
  8
LAYER1
 62
    18
 10
3.453787080568707
 20
2.810051786909355
 30
0.0
 70
    32
  0
VERTEX
  5
31B
  8
LAYER1
 62
    18
 10
3.468391223210728
 20
2.831536438725247
 30
0.0
 70
    32
  0
VERTEX
  5
31C
  8
LAYER1
 62
    18
 10
3.477223668760693
 20
2.85705038410212
 30
0.0
 70
    32
  0
VERTEX
  5
31D
  8
LAYER1
 62
    18
 10
3.480287067217267
 20
2.88755177260424
 30
0.0
 70
    32
  0
SEQEND
  5
31E
  8
LAYER1
 62
    18
  0
POLYLINE
  5
31F
  8
LAYER1
 62
    18
 10
0.0
 20
0.0
 30
0.0
 66
     1
 70
     8
  0
VERTEX
  5
320
  8
LAYER1
 62
    18
 10
3.480287067217267
 20
2.88755177260424
 30
0.0
 70
    32
  0
VERTEX
  5
321
  8
LAYER1
 62
    18
 10
3.477510110778248
 20
2.918101559165968
 30
0.0
 70
    32
  0
VERTEX
  5
322
  8
LAYER1
 62
    18
 10
3.469179241461194
 20
2.943750824437393
 30
0.0
 70
    32
  0
VERTEX
  5
323
  8
LAYER1
 62
    18
 10
3.454787008089459
 20
2.96505181790377
 30
0.0
 70
    32
  0
SEQEND
  5
324
  8
LAYER1
 62
    18
  0
POLYLINE
  5
325
  8
LAYER1
 62
    18
 10
0.0
 20
0.0
 30
0.0
 66
     1
 70
     8
  0
VERTEX
  5
326
  8
LAYER1
 62
    18
 10
3.454787008089459
 20
2.96505181790377
 30
0.0
 70
    32
  0
VERTEX
  5
327
  8
LAYER1
 62
    18
 10
3.435942309302724
 20
2.980207053450598
 30
0.0
 70
    32
  0
VERTEX
  5
328
  8
LAYER1
 62
    18
 10
3.413068290991223
 20
2.989372794709458
 30
0.0
 70
    32
  0
VERTEX
  5
329
  8
LAYER1
 62
    18
 10
3.385286800188458
 20
2.992551791677727
 30
0.0
 70
    32
  0
SEQEND
  5
32A
  8
LAYER1
 62
    18
  0
POLYLINE
  5
32B
  8
LAYER1
 62
    18
 10
0.0
 20
0.0
 30
0.0
 66
     1
 70
     8
  0
VERTEX
  5
32C
  8
LAYER1
 62
    18
 10
3.385286800188458
 20
2.992551791677727
 30
0.0
 70
    32
  0
VERTEX
  5
32D
  8
LAYER1
 62
    18
 10
3.368146742576992
 20
2.991244995520367
 30
0.0
 70
    32
  0
VERTEX
  5
32E
  8
LAYER1
 62
    18
 10
3.347086257547772
 20
2.987324607048286
 30
0.0
 70
    32
  0
VERTEX
  5
32F
  8
LAYER1
 62
    18
 10
3.32128714732591
 20
2.980551826963676
 30
0.0
 70
    32
  0
SEQEND
  5
330
  8
LAYER1
 62
    18
  0
LINE
  5
331
  8
LAYER1
 62
    18
 10
3.32128714732591
 20
2.980551826963676
 30
0.0
 11
3.331286899370587
 21
3.122551786909355
 31
0.0
  0
POLYLINE
  5
332
  8
LAYER1
 62
    18
 10
0.0
 20
0.0
 30
0.0
 66
     1
 70
     8
  0
VERTEX
  5
333
  8
LAYER1
 62
    18
 10
3.331286899370587
 20
3.122551786909355
 30
0.0
 70
    32
  0
VERTEX
  5
334
  8
LAYER1
 62
    18
 10
3.341635789579785
 20
3.121449601099743
 30
0.0
 70
    32
  0
VERTEX
  5
335
  8
LAYER1
 62
    18
 10
3.350242198366558
 20
3.120783009681953
 30
0.0
 70
    32
  0
VERTEX
  5
336
  8
LAYER1
 62
    18
 10
3.357286922258771
 20
3.120551812658562
 30
0.0
 70
    32
  0
SEQEND
  5
337
  8
LAYER1
 62
    18
  0
POLYLINE
  5
338
  8
LAYER1
 62
    18
 10
0.0
 20
0.0
 30
0.0
 66
     1
 70
     8
  0
VERTEX
  5
339
  8
LAYER1
 62
    18
 10
3.357286922258771
 20
3.120551812658562
 30
0.0
 70
    32
  0
VERTEX
  5
33A
  8
LAYER1
 62
    18
 10
3.381060183615125
 20
3.123274310062183
 30
0.0
 70
    32
  0
VERTEX
  5
33B
  8
LAYER1
 62
    18
 10
3.402219826692975
 20
3.131441802273049
 30
0.0
 70
    32
  0
VERTEX
  5
33C
  8
LAYER1
 62
    18
 10
3.421287051958478
 20
3.145551788816704
 30
0.0
 70
    32
  0
SEQEND
  5
33D
  8
LAYER1
 62
    18
  0
POLYLINE
  5
33E
  8
LAYER1
 62
    18
 10
0.0
 20
0.0
 30
0.0
 66
     1
 70
     8
  0
VERTEX
  5
33F
  8
LAYER1
 62
    18
 10
3.421287051958478
 20
3.145551788816704
 30
0.0
 70
    32
  0
VERTEX
  5
340
  8
LAYER1
 62
    18
 10
3.435615664572155
 20
3.163031879935517
 30
0.0
 70
    32
  0
VERTEX
  5
341
  8
LAYER1
 62
    18
 10
3.444281472200787
 20
3.182472184763206
 30
0.0
 70
    32
  0
VERTEX
  5
342
  8
LAYER1
 62
    18
 10
3.447287074846662
 20
3.204551804075493
 30
0.0
 70
    32
  0
SEQEND
  5
343
  8
LAYER1
 62
    18
  0
POLYLINE
  5
344
  8
LAYER1
 62
    18
 10
0.0
 20
0.0
 30
0.0
 66
     1
 70
     8
  0
VERTEX
  5
345
  8
LAYER1
 62
    18
 10
3.447287074846662
 20
3.204551804075493
 30
0.0
 70
    32
  0
VERTEX
  5
346
  8
LAYER1
 62
    18
 10
3.445163522977269
 20
3.2243105259874
 30
0.0
 70
    32
  0
VERTEX
  5
347
  8
LAYER1
 62
    18
 10
3.438792867369092
 20
3.241346763477577
 30
0.0
 70
    32
  0
VERTEX
  5
348
  8
LAYER1
 62
    18
 10
3.427787057680524
 20
3.256051766882194
 30
0.0
 70
    32
  0
SEQEND
  5
349
  8
LAYER1
 62
    18
  0
POLYLINE
  5
34A
  8
LAYER1
 62
    18
 10
0.0
 20
0.0
 30
0.0
 66
     1
 70
     8
  0
VERTEX
  5
34B
  8
LAYER1
 62
    18
 10
3.427787057680524
 20
3.256051766882194
 30
0.0
 70
    32
  0
VERTEX
  5
34C
  8
LAYER1
 62
    18
 10
3.413338006944096
 20
3.266798226342453
 30
0.0
 70
    32
  0
VERTEX
  5
34D
  8
LAYER1
 62
    18
 10
3.395730877394117
 20
3.273297582063927
 30
0.0
 70
    32
  0
VERTEX
  5
34E
  8
LAYER1
 62
    18
 10
3.374287120623029
 20
3.275551784048332
 30
0.0
 70
    32
  0
SEQEND
  5
34F
  8
LAYER1
 62
    18
  0
POLYLINE
  5
350
  8
LAYER1
 62
    18
 10
0.0
 20
0.0
 30
0.0
 66
     1
 70
     8
  0
VERTEX
  5
351
  8
LAYER1
 62
    18
 10
3.374287120623029
 20
3.275551784048332
 30
0.0
 70
    32
  0
VERTEX
  5
352
  8
LAYER1
 62
    18
 10
3.352657105845845
 20
3.273264881036534
 30
0.0
 70
    32
  0
VERTEX
  5
353
  8
LAYER1
 62
    18
 10
3.333967489523328
 20
3.266404172001137
 30
0.0
 70
    32
  0
VERTEX
  5
354
  8
LAYER1
 62
    18
 10
3.31778692416612
 20
3.254551756391777
 30
0.0
 70
    32
  0
SEQEND
  5
355
  8
LAYER1
 62
    18
  0
POLYLINE
  5
356
  8
LAYER1
 62
    18
 10
0.0
 20
0.0
 30
0.0
 66
     1
 70
     8
  0
VERTEX
  5
357
  8
LAYER1
 62
    18
 10
3.31778692416612
 20
3.254551756391777
 30
0.0
 70
    32
  0
VERTEX
  5
358
  8
LAYER1
 62
    18
 10
3.305067155808842
 20
3.237206944058193
 30
0.0
 70
    32
  0
VERTEX
  5
359
  8
LAYER1
 62
    18
 10
3.295287682051098
 20
3.212892543564094
 30
0.0
 70
    32
  0
VERTEX
  5
35A
  8
LAYER1
 62
    18
 10
3.288287154955304
 20
3.180551755438103
 30
0.0
 70
    32
  0
SEQEND
  5
35B
  8
LAYER1
 62
    18
  0
LINE
  5
35C
  8
LAYER1
 62
    18
 10
3.288287154955304
 20
3.180551755438103
 30
0.0
 11
3.100286952776349
 21
3.213551747808708
 31
0.0
  0
LINE
  5
35D
  8
LAYER1
 62
    18
 10
3.742287151140607
 20
2.805551755438103
 30
0.0
 11
3.742287151140607
 21
2.969551789770378
 31
0.0
  0
LINE
  5
35E
  8
LAYER1
 62
    18
 10
3.742287151140607
 20
2.969551789770378
 30
0.0
 11
4.104287139696515
 21
3.399551737318291
 31
0.0
  0
LINE
  5
35F
  8
LAYER1
 62
    18
 10
4.104287139696515
 20
3.399551737318291
 30
0.0
 11
4.277286998552716
 21
3.399551737318291
 31
0.0
  0
LINE
  5
360
  8
LAYER1
 62
    18
 10
4.277286998552716
 20
2.959551799307121
 30
0.0
 11
4.367287151140607
 21
2.959551799307121
 31
0.0
  0
LINE
  5
361
  8
LAYER1
 62
    18
 10
4.367287151140607
 20
2.959551799307121
 30
0.0
 11
4.367287151140607
 21
2.805551755438103
 31
0.0
  0
LINE
  5
362
  8
LAYER1
 62
    18
 10
4.367287151140607
 20
2.805551755438103
 30
0.0
 11
4.277286998552716
 21
2.805551755438103
 31
0.0
  0
LINE
  5
363
  8
LAYER1
 62
    18
 10
4.277286998552716
 20
2.805551755438103
 30
0.0
 11
4.277286998552716
 21
2.671551811704887
 31
0.0
  0
LINE
  5
364
  8
LAYER1
 62
    18
 10
4.277286998552716
 20
2.671551811704887
 30
0.0
 11
4.104287139696515
 21
2.671551811704887
 31
0.0
  0
LINE
  5
365
  8
LAYER1
 62
    18
 10
4.104287139696515
 20
2.671551811704887
 30
0.0
 11
4.104287139696515
 21
2.805551755438103
 31
0.0
  0
LINE
  5
366
  8
LAYER1
 62
    18
 10
4.104287139696515
 20
2.805551755438103
 30
0.0
 11
3.742287151140607
 21
2.805551755438103
 31
0.0
  0
LINE
  5
367
  8
LAYER1
 62
    18
 10
4.104287139696515
 20
3.185551750669731
 30
0.0
 11
3.913287154955304
 21
2.959551799307121
 31
0.0
  0
LINE
  5
368
  8
LAYER1
 62
    18
 10
3.913287154955304
 20
2.959551799307121
 30
0.0
 11
4.104287139696515
 21
2.959551799307121
 31
0.0
  0
LINE
  5
369
  8
LAYER1
 62
    18
 10
5.38628672770921
 20
3.38755177260424
 30
0.0
 11
5.38628672770921
 21
3.234551775465263
 31
0.0
  0
LINE
  5
36A
  8
LAYER1
 62
    18
 10
5.38628672770921
 20
3.234551775465263
 30
0.0
 11
5.016286842150128
 21
3.234551775465263
 31
0.0
  0
LINE
  5
36B
  8
LAYER1
 62
    18
 10
5.016286842150128
 20
3.234551775465263
 30
0.0
 11
5.016286842150128
 21
3.120551812658562
 31
0.0
  0
LINE
  5
36C
  8
LAYER1
 62
    18
 10
5.016286842150128
 20
3.120551812658562
 30
0.0
 11
5.359287254137433
 21
3.120551812658562
 31
0.0
  0
LINE
  5
36D
  8
LAYER1
 62
    18
 10
5.359287254137433
 20
3.120551812658562
 30
0.0
 11
5.359287254137433
 21
2.974551785002006
 31
0.0
  0
LINE
  5
36E
  8
LAYER1
 62
    18
 10
5.359287254137433
 20
2.974551785002006
 30
0.0
 11
5.016286842150128
 21
2.974551785002006
 31
0.0
  0
LINE
  5
36F
  8
LAYER1
 62
    18
 10
5.016286842150128
 20
2.974551785002006
 30
0.0
 11
5.016286842150128
 21
2.83355175257708
 31
0.0
  0
LINE
  5
370
  8
LAYER1
 62
    18
 10
5.016286842150128
 20
2.83355175257708
 30
0.0
 11
5.397287360948956
 21
2.83355175257708
 31
0.0
  0
LINE
  5
371
  8
LAYER1
 62
    18
 10
5.397287360948956
 20
2.83355175257708
 30
0.0
 11
5.397287360948956
 21
2.671551811704887
 31
0.0
  0
LINE
  5
372
  8
LAYER1
 62
    18
 10
5.397287360948956
 20
2.671551811704887
 30
0.0
 11
4.794286720079816
 21
2.671551811704887
 31
0.0
  0
LINE
  5
373
  8
LAYER1
 62
    18
 10
4.794286720079816
 20
2.671551811704887
 30
0.0
 11
4.794286720079816
 21
3.38755177260424
 31
0.0
  0
LINE
  5
374
  8
LAYER1
 62
    18
 10
4.794286720079816
 20
3.38755177260424
 30
0.0
 11
5.38628672770921
 21
3.38755177260424
 31
0.0
  0
POLYLINE
  5
375
  8
LAYER1
 62
    18
 10
0.0
 20
0.0
 30
0.0
 66
     1
 70
     8
  0
VERTEX
  5
376
  8
LAYER1
 62
    18
 10
5.688286773485578
 20
2.921551811704887
 30
0.0
 70
    32
  0
VERTEX
  5
377
  8
LAYER1
 62
    18
 10
5.694431346697247
 20
2.890505404649033
 30
0.0
 70
    32
  0
VERTEX
  5
378
  8
LAYER1
 62
    18
 10
5.70362510661546
 20
2.864686182222618
 30
0.0
 70
    32
  0
VERTEX
  5
379
  8
LAYER1
 62
    18
 10
5.716286651415265
 20
2.843551743040337
 30
0.0
 70
    32
  0
SEQEND
  5
37A
  8
LAYER1
 62
    18
  0
POLYLINE
  5
37B
  8
LAYER1
 62
    18
 10
0.0
 20
0.0
 30
0.0
 66
     1
 70
     8
  0
VERTEX
  5
37C
  8
LAYER1
 62
    18
 10
5.716286651415265
 20
2.843551743040337
 30
0.0
 70
    32
  0
VERTEX
  5
37D
  8
LAYER1
 62
    18
 10
5.741884940142072
 20
2.819854452500595
 30
0.0
 70
    32
  0
VERTEX
  5
37E
  8
LAYER1
 62
    18
 10
5.773799282640852
 20
2.805522558222069
 30
0.0
 70
    32
  0
VERTEX
  5
37F
  8
LAYER1
 62
    18
 10
5.813286773485578
 20
2.800551760206474
 30
0.0
 70
    32
  0
SEQEND
  5
380
  8
LAYER1
 62
    18
  0
POLYLINE
  5
381
  8
LAYER1
 62
    18
 10
0.0
 20
0.0
 30
0.0
 66
     1
 70
     8
  0
VERTEX
  5
382
  8
LAYER1
 62
    18
 10
5.813286773485578
 20
2.800551760206474
 30
0.0
 70
    32
  0
VERTEX
  5
383
  8
LAYER1
 62
    18
 10
5.842516688961423
 20
2.802947561816229
 30
0.0
 70
    32
  0
VERTEX
  5
384
  8
LAYER1
 62
    18
 10
5.866845992273724
 20
2.810134966645493
 30
0.0
 70
    32
  0
VERTEX
  5
385
  8
LAYER1
 62
    18
 10
5.886786929888165
 20
2.822551774988426
 30
0.0
 70
    32
  0
SEQEND
  5
386
  8
LAYER1
 62
    18
  0
POLYLINE
  5
387
  8
LAYER1
 62
    18
 10
0.0
 20
0.0
 30
0.0
 66
     1
 70
     8
  0
VERTEX
  5
388
  8
LAYER1
 62
    18
 10
5.886786929888165
 20
2.822551774988426
 30
0.0
 70
    32
  0
VERTEX
  5
389
  8
LAYER1
 62
    18
 10
5.900839881081021
 20
2.837942980019106
 30
0.0
 70
    32
  0
VERTEX
  5
38A
  8
LAYER1
 62
    18
 10
5.909338971323406
 20
2.855076575598968
 30
0.0
 70
    32
  0
VERTEX
  5
38B
  8
LAYER1
 62
    18
 10
5.912286750597394
 20
2.874551761160149
 30
0.0
 70
    32
  0
SEQEND
  5
38C
  8
LAYER1
 62
    18
  0
POLYLINE
  5
38D
  8
LAYER1
 62
    18
 10
0.0
 20
0.0
 30
0.0
 66
     1
 70
     8
  0
VERTEX
  5
38E
  8
LAYER1
 62
    18
 10
5.912286750597394
 20
2.874551761160149
 30
0.0
 70
    32
  0
VERTEX
  5
38F
  8
LAYER1
 62
    18
 10
5.90967313231889
 20
2.891827294645561
 30
0.0
 70
    32
  0
VERTEX
  5
390
  8
LAYER1
 62
    18
 10
5.901832277483381
 20
2.908013803205742
 30
0.0
 70
    32
  0
VERTEX
  5
391
  8
LAYER1
 62
    18
 10
5.888286582750714
 20
2.923551785955681
 30
0.0
 70
    32
  0
SEQEND
  5
392
  8
LAYER1
 62
    18
  0
POLYLINE
  5
393
  8
LAYER1
 62
    18
 10
0.0
 20
0.0
 30
0.0
 66
     1
 70
     8
  0
VERTEX
  5
394
  8
LAYER1
 62
    18
 10
5.888286582750714
 20
2.923551785955681
 30
0.0
 70
    32
  0
VERTEX
  5
395
  8
LAYER1
 62
    18
 10
5.880785336112464
 20
2.928596040695797
 30
0.0
 70
    32
  0
VERTEX
  5
396
  8
LAYER1
 62
    18
 10
5.861675001822787
 20
2.939699344832608
 30
0.0
 70
    32
  0
VERTEX
  5
397
  8
LAYER1
 62
    18
 10
5.823311873347421
 20
2.953146797406023
 30
0.0
 70
    32
  0
VERTEX
  5
398
  8
LAYER1
 62
    18
 10
5.763746160780723
 20
2.968490382523618
 30
0.0
 70
    32
  0
VERTEX
  5
399
  8
LAYER1
 62
    18
 10
5.693244648235238
 20
2.987956856007977
 30
0.0
 70
    32
  0
VERTEX
  5
39A
  8
LAYER1
 62
    18
 10
5.622728045834293
 20
3.016318574157835
 30
0.0
 70
    32
  0
VERTEX
  5
39B
  8
LAYER1
 62
    18
 10
5.605652699486967
 20
3.02622304731621
 30
0.0
 70
    32
  0
VERTEX
  5
39C
  8
LAYER1
 62
    18
 10
5.591073651192946
 20
3.035758499468078
 30
0.0
 70
    32
  0
VERTEX
  5
39D
  8
LAYER1
 62
    18
 10
5.584226276807865
 20
3.040486433997287
 30
0.0
 70
    32
  0
VERTEX
  5
39E
  8
LAYER1
 62
    18
 10
5.567286483568585
 20
3.052551734457268
 30
0.0
 70
    32
  0
SEQEND
  5
39F
  8
LAYER1
 62
    18
  0
POLYLINE
  5
3A0
  8
LAYER1
 62
    18
 10
0.0
 20
0.0
 30
0.0
 66
     1
 70
     8
  0
VERTEX
  5
3A1
  8
LAYER1
 62
    18
 10
5.567286483568585
 20
3.052551734457268
 30
0.0
 70
    32
  0
VERTEX
  5
3A2
  8
LAYER1
 62
    18
 10
5.533118657774365
 20
3.09145874455954
 30
0.0
 70
    32
  0
VERTEX
  5
3A3
  8
LAYER1
 62
    18
 10
5.512454284090436
 20
3.136899748430504
 30
0.0
 70
    32
  0
VERTEX
  5
3A4
  8
LAYER1
 62
    18
 10
5.505287162584699
 20
3.190551745901359
 30
0.0
 70
    32
  0
SEQEND
  5
3A5
  8
LAYER1
 62
    18
  0
POLYLINE
  5
3A6
  8
LAYER1
 62
    18
 10
0.0
 20
0.0
 30
0.0
 66
     1
 70
     8
  0
VERTEX
  5
3A7
  8
LAYER1
 62
    18
 10
5.505287162584699
 20
3.190551745901359
 30
0.0
 70
    32
  0
VERTEX
  5
3A8
  8
LAYER1
 62
    18
 10
5.508771969646846
 20
3.226198378900541
 30
0.0
 70
    32
  0
VERTEX
  5
3A9
  8
LAYER1
 62
    18
 10
5.519226390833294
 20
3.26053818977858
 30
0.0
 70
    32
  0
VERTEX
  5
3AA
  8
LAYER1
 62
    18
 10
5.537287227434552
 20
3.294551777849449
 30
0.0
 70
    32
  0
SEQEND
  5
3AB
  8
LAYER1
 62
    18
  0
POLYLINE
  5
3AC
  8
LAYER1
 62
    18
 10
0.0
 20
0.0
 30
0.0
 66
     1
 70
     8
  0
VERTEX
  5
3AD
  8
LAYER1
 62
    18
 10
5.537287227434552
 20
3.294551777849449
 30
0.0
 70
    32
  0
VERTEX
  5
3AE
  8
LAYER1
 62
    18
 10
5.561892025370037
 20
3.324604858354582
 30
0.0
 70
    32
  0
VERTEX
  5
3AF
  8
LAYER1
 62
    18
 10
5.593466333574689
 20
3.350084145818008
 30
0.0
 70
    32
  0
VERTEX
  5
3B0
  8
LAYER1
 62
    18
 10
5.633286945146954
 20
3.371551740179314
 30
0.0
 70
    32
  0
SEQEND
  5
3B1
  8
LAYER1
 62
    18
  0
POLYLINE
  5
3B2
  8
LAYER1
 62
    18
 10
0.0
 20
0.0
 30
0.0
 66
     1
 70
     8
  0
VERTEX
  5
3B3
  8
LAYER1
 62
    18
 10
5.633286945146954
 20
3.371551740179314
 30
0.0
 70
    32
  0
VERTEX
  5
3B4
  8
LAYER1
 62
    18
 10
5.680754004520809
 20
3.386982538602604
 30
0.0
 70
    32
  0
VERTEX
  5
3B5
  8
LAYER1
 62
    18
 10
5.738675640863812
 20
3.396314937649025
 30
0.0
 70
    32
  0
VERTEX
  5
3B6
  8
LAYER1
 62
    18
 10
5.80928706340257
 20
3.399551737318291
 30
0.0
 70
    32
  0
SEQEND
  5
3B7
  8
LAYER1
 62
    18
  0
POLYLINE
  5
3B8
  8
LAYER1
 62
    18
 10
0.0
 20
0.0
 30
0.0
 66
     1
 70
     8
  0
VERTEX
  5
3B9
  8
LAYER1
 62
    18
 10
5.80928706340257
 20
3.399551737318291
 30
0.0
 70
    32
  0
VERTEX
  5
3BA
  8
LAYER1
 62
    18
 10
5.892628612560666
 20
3.393997837422146
 30
0.0
 70
    32
  0
VERTEX
  5
3BB
  8
LAYER1
 62
    18
 10
5.961813149256146
 20
3.377336137733711
 30
0.0
 70
    32
  0
VERTEX
  5
3BC
  8
LAYER1
 62
    18
 10
6.01828717402879
 20
3.348551738271965
 30
0.0
 70
    32
  0
SEQEND
  5
3BD
  8
LAYER1
 62
    18
  0
POLYLINE
  5
3BE
  8
LAYER1
 62
    18
 10
0.0
 20
0.0
 30
0.0
 66
     1
 70
     8
  0
VERTEX
  5
3BF
  8
LAYER1
 62
    18
 10
6.01828717402879
 20
3.348551738271965
 30
0.0
 70
    32
  0
VERTEX
  5
3C0
  8
LAYER1
 62
    18
 10
6.059490982098019
 20
3.308248840043797
 30
0.0
 70
    32
  0
VERTEX
  5
3C1
  8
LAYER1
 62
    18
 10
6.088062371057903
 20
3.254660144100441
 30
0.0
 70
    32
  0
VERTEX
  5
3C2
  8
LAYER1
 62
    18
 10
6.104287139696515
 20
3.185551750669731
 30
0.0
 70
    32
  0
SEQEND
  5
3C3
  8
LAYER1
 62
    18
  0
LINE
  5
3C4
  8
LAYER1
 62
    18
 10
6.104287139696515
 20
3.185551750669731
 30
0.0
 11
5.896286956591046
 21
3.173551785955681
 31
0.0
  0
POLYLINE
  5
3C5
  8
LAYER1
 62
    18
 10
0.0
 20
0.0
 30
0.0
 66
     1
 70
     8
  0
VERTEX
  5
3C6
  8
LAYER1
 62
    18
 10
5.896286956591046
 20
3.173551785955681
 30
0.0
 70
    32
  0
VERTEX
  5
3C7
  8
LAYER1
 62
    18
 10
5.888937655968105
 20
3.202951501230253
 30
0.0
 70
    32
  0
VERTEX
  5
3C8
  8
LAYER1
 62
    18
 10
5.877450247568524
 20
3.226470614323868
 30
0.0
 70
    32
  0
VERTEX
  5
3C9
  8
LAYER1
 62
    18
 10
5.861286632341779
 20
3.244551825533165
 30
0.0
 70
    32
  0
SEQEND
  5
3CA
  8
LAYER1
 62
    18
  0
POLYLINE
  5
3CB
  8
LAYER1
 62
    18
 10
0.0
 20
0.0
 30
0.0
 66
     1
 70
     8
  0
VERTEX
  5
3CC
  8
LAYER1
 62
    18
 10
5.861286632341779
 20
3.244551825533165
 30
0.0
 70
    32
  0
VERTEX
  5
3CD
  8
LAYER1
 62
    18
 10
5.841397611183558
 20
3.256676033679499
 30
0.0
 70
    32
  0
VERTEX
  5
3CE
  8
LAYER1
 62
    18
 10
5.8173704822487
 20
3.264008638606324
 30
0.0
 70
    32
  0
VERTEX
  5
3CF
  8
LAYER1
 62
    18
 10
5.788287154955304
 20
3.266551840315117
 30
0.0
 70
    32
  0
SEQEND
  5
3D0
  8
LAYER1
 62
    18
  0
POLYLINE
  5
3D1
  8
LAYER1
 62
    18
 10
0.0
 20
0.0
 30
0.0
 66
     1
 70
     8
  0
VERTEX
  5
3D2
  8
LAYER1
 62
    18
 10
5.788287154955304
 20
3.266551840315117
 30
0.0
 70
    32
  0
VERTEX
  5
3D3
  8
LAYER1
 62
    18
 10
5.764670447344219
 20
3.264754984239592
 30
0.0
 70
    32
  0
VERTEX
  5
3D4
  8
LAYER1
 62
    18
 10
5.745300999254621
 20
3.259364416013016
 30
0.0
 70
    32
  0
VERTEX
  5
3D5
  8
LAYER1
 62
    18
 10
5.729786865038312
 20
3.250051784525169
 30
0.0
 70
    32
  0
SEQEND
  5
3D6
  8
LAYER1
 62
    18
  0
POLYLINE
  5
3D7
  8
LAYER1
 62
    18
 10
0.0
 20
0.0
 30
0.0
 66
     1
 70
     8
  0
VERTEX
  5
3D8
  8
LAYER1
 62
    18
 10
5.729786865038312
 20
3.250051784525169
 30
0.0
 70
    32
  0
VERTEX
  5
3D9
  8
LAYER1
 62
    18
 10
5.719040536970532
 20
3.238453916553511
 30
0.0
 70
    32
  0
VERTEX
  5
3DA
  8
LAYER1
 62
    18
 10
5.712541260713971
 20
3.225440386281265
 30
0.0
 70
    32
  0
VERTEX
  5
3DB
  8
LAYER1
 62
    18
 10
5.710287086290753
 20
3.210551846037163
 30
0.0
 70
    32
  0
SEQEND
  5
3DC
  8
LAYER1
 62
    18
  0
POLYLINE
  5
3DD
  8
LAYER1
 62
    18
 10
0.0
 20
0.0
 30
0.0
 66
     1
 70
     8
  0
VERTEX
  5
3DE
  8
LAYER1
 62
    18
 10
5.710287086290753
 20
3.210551846037163
 30
0.0
 70
    32
  0
VERTEX
  5
3DF
  8
LAYER1
 62
    18
 10
5.712029463858045
 20
3.199658509061588
 30
0.0
 70
    32
  0
VERTEX
  5
3E0
  8
LAYER1
 62
    18
 10
5.717256596559919
 20
3.189418602619423
 30
0.0
 70
    32
  0
VERTEX
  5
3E1
  8
LAYER1
 62
    18
 10
5.726286880297101
 20
3.179551827917351
 30
0.0
 70
    32
  0
SEQEND
  5
3E2
  8
LAYER1
 62
    18
  0
POLYLINE
  5
3E3
  8
LAYER1
 62
    18
 10
0.0
 20
0.0
 30
0.0
 66
     1
 70
     8
  0
VERTEX
  5
3E4
  8
LAYER1
 62
    18
 10
5.726286880297101
 20
3.179551827917351
 30
0.0
 70
    32
  0
VERTEX
  5
3E5
  8
LAYER1
 62
    18
 10
5.731094371777084
 20
3.176358317260198
 30
0.0
 70
    32
  0
VERTEX
  5
3E6
  8
LAYER1
 62
    18
 10
5.743491055576019
 20
3.169313713889156
 30
0.0
 70
    32
  0
VERTEX
  5
3E7
  8
LAYER1
 62
    18
 10
5.768647999778516
 20
3.161047177040794
 30
0.0
 70
    32
  0
VERTEX
  5
3E8
  8
LAYER1
 62
    18
 10
5.817564158526623
 20
3.149629086212577
 30
0.0
 70
    32
  0
VERTEX
  5
3E9
  8
LAYER1
 62
    18
 10
5.881374932837221
 20
3.134427946158625
 30
0.0
 70
    32
  0
VERTEX
  5
3EA
  8
LAYER1
 62
    18
 10
5.913565815213049
 20
3.12581050077742
 30
0.0
 70
    32
  0
VERTEX
  5
3EB
  8
LAYER1
 62
    18
 10
5.950927377122134
 20
3.113944878997348
 30
0.0
 70
    32
  0
VERTEX
  5
3EC
  8
LAYER1
 62
    18
 10
5.990557983001835
 20
3.09808675681521
 30
0.0
 70
    32
  0
VERTEX
  5
3ED
  8
LAYER1
 62
    18
 10
5.99421242379142
 20
3.096502354465211
 30
0.0
 70
    32
  0
VERTEX
  5
3EE
  8
LAYER1
 62
    18
 10
6.007786742967999
 20
3.090551781664146
 30
0.0
 70
    32
  0
SEQEND
  5
3EF
  8
LAYER1
 62
    18
  0
POLYLINE
  5
3F0
  8
LAYER1
 62
    18
 10
0.0
 20
0.0
 30
0.0
 66
     1
 70
     8
  0
VERTEX
  5
3F1
  8
LAYER1
 62
    18
 10
6.007786742967999
 20
3.090551781664146
 30
0.0
 70
    32
  0
VERTEX
  5
3F2
  8
LAYER1
 62
    18
 10
6.045334151691831
 20
3.067743827215685
 30
0.0
 70
    32
  0
VERTEX
  5
3F3
  8
LAYER1
 62
    18
 10
6.075476377863323
 20
3.041559970793976
 30
0.0
 70
    32
  0
VERTEX
  5
3F4
  8
LAYER1
 62
    18
 10
6.098786823076642
 20
3.011051762113823
 30
0.0
 70
    32
  0
SEQEND
  5
3F5
  8
LAYER1
 62
    18
  0
POLYLINE
  5
3F6
  8
LAYER1
 62
    18
 10
0.0
 20
0.0
 30
0.0
 66
     1
 70
     8
  0
VERTEX
  5
3F7
  8
LAYER1
 62
    18
 10
6.098786823076642
 20
3.011051762113823
 30
0.0
 70
    32
  0
VERTEX
  5
3F8
  8
LAYER1
 62
    18
 10
6.114493217224512
 20
2.978449402568592
 30
0.0
 70
    32
  0
VERTEX
  5
3F9
  8
LAYER1
 62
    18
 10
6.123992293924726
 20
2.943342342815651
 30
0.0
 70
    32
  0
VERTEX
  5
3FA
  8
LAYER1
 62
    18
 10
6.127286903185285
 20
2.904551732549919
 30
0.0
 70
    32
  0
SEQEND
  5
3FB
  8
LAYER1
 62
    18
  0
POLYLINE
  5
3FC
  8
LAYER1
 62
    18
 10
0.0
 20
0.0
 30
0.0
 66
     1
 70
     8
  0
VERTEX
  5
3FD
  8
LAYER1
 62
    18
 10
6.127286903185285
 20
2.904551732549919
 30
0.0
 70
    32
  0
VERTEX
  5
3FE
  8
LAYER1
 62
    18
 10
6.123148691553508
 20
2.860209692029013
 30
0.0
 70
    32
  0
VERTEX
  5
3FF
  8
LAYER1
 62
    18
 10
6.110734056658186
 20
2.818263420663131
 30
0.0
 70
    32
  0
VERTEX
  5
400
  8
LAYER1
 62
    18
 10
6.089286796373761
 20
2.77755181790377
 30
0.0
 70
    32
  0
SEQEND
  5
401
  8
LAYER1
 62
    18
  0
POLYLINE
  5
402
  8
LAYER1
 62
    18
 10
0.0
 20
0.0
 30
0.0
 66
     1
 70
     8
  0
VERTEX
  5
403
  8
LAYER1
 62
    18
 10
6.089286796373761
 20
2.77755181790377
 30
0.0
 70
    32
  0
VERTEX
  5
404
  8
LAYER1
 62
    18
 10
6.060885282940303
 20
2.742320999024166
 30
0.0
 70
    32
  0
VERTEX
  5
405
  8
LAYER1
 62
    18
 10
6.025840883631146
 20
2.713188579521431
 30
0.0
 70
    32
  0
VERTEX
  5
406
  8
LAYER1
 62
    18
 10
5.982786647600568
 20
2.689551758775963
 30
0.0
 70
    32
  0
SEQEND
  5
407
  8
LAYER1
 62
    18
  0
POLYLINE
  5
408
  8
LAYER1
 62
    18
 10
0.0
 20
0.0
 30
0.0
 66
     1
 70
     8
  0
VERTEX
  5
409
  8
LAYER1
 62
    18
 10
5.982786647600568
 20
2.689551758775963
 30
0.0
 70
    32
  0
VERTEX
  5
40A
  8
LAYER1
 62
    18
 10
5.933710664505396
 20
2.673018741694941
 30
0.0
 70
    32
  0
VERTEX
  5
40B
  8
LAYER1
 62
    18
 10
5.876902770609297
 20
2.663019731364502
 30
0.0
 70
    32
  0
VERTEX
  5
40C
  8
LAYER1
 62
    18
 10
5.810286514086163
 20
2.659551727781547
 30
0.0
 70
    32
  0
SEQEND
  5
40D
  8
LAYER1
 62
    18
  0
POLYLINE
  5
40E
  8
LAYER1
 62
    18
 10
0.0
 20
0.0
 30
0.0
 66
     1
 70
     8
  0
VERTEX
  5
40F
  8
LAYER1
 62
    18
 10
5.810286514086163
 20
2.659551727781547
 30
0.0
 70
    32
  0
VERTEX
  5
410
  8
LAYER1
 62
    18
 10
5.70230926064912
 20
2.667229179547085
 30
0.0
 70
    32
  0
VERTEX
  5
411
  8
LAYER1
 62
    18
 10
5.618616452974713
 20
2.690261534843696
 30
0.0
 70
    32
  0
VERTEX
  5
412
  8
LAYER1
 62
    18
 10
5.557786933702863
 20
2.730051743994011
 30
0.0
 70
    32
  0
SEQEND
  5
413
  8
LAYER1
 62
    18
  0
POLYLINE
  5
414
  8
LAYER1
 62
    18
 10
0.0
 20
0.0
 30
0.0
 66
     1
 70
     8
  0
VERTEX
  5
415
  8
LAYER1
 62
    18
 10
5.557786933702863
 20
2.730051743994011
 30
0.0
 70
    32
  0
VERTEX
  5
416
  8
LAYER1
 62
    18
 10
5.517954096788801
 20
2.780665507290615
 30
0.0
 70
    32
  0
VERTEX
  5
417
  8
LAYER1
 62
    18
 10
5.491516079515851
 20
2.839446775779976
 30
0.0
 70
    32
  0
VERTEX
  5
418
  8
LAYER1
 62
    18
 10
5.478286735338605
 20
2.908551800260796
 30
0.0
 70
    32
  0
SEQEND
  5
419
  8
LAYER1
 62
    18
  0
LINE
  5
41A
  8
LAYER1
 62
    18
 10
5.478286735338605
 20
2.908551800260796
 30
0.0
 11
5.478286735338605
 21
2.907551753530754
 31
0.0
  0
LINE
  5
41B
  8
LAYER1
 62
    18
 10
5.478286735338605
 20
2.907551753530754
 30
0.0
 11
5.688286773485578
 21
2.921551811704887
 31
0.0
  0
LINE
  5
41C
  8
LAYER1
 62
    18
 10
6.861287109178937
 20
3.38755177260424
 30
0.0
 11
6.861287109178937
 21
3.210551846037163
 31
0.0
  0
LINE
  5
41D
  8
LAYER1
 62
    18
 10
6.861287109178937
 20
3.210551846037163
 30
0.0
 11
6.635287277025617
 21
3.210551846037163
 31
0.0
  0
LINE
  5
41E
  8
LAYER1
 62
    18
 10
6.635287277025617
 20
3.210551846037163
 30
0.0
 11
6.635287277025617
 21
2.671551811704887
 31
0.0
  0
LINE
  5
41F
  8
LAYER1
 62
    18
 10
6.635287277025617
 20
2.671551811704887
 30
0.0
 11
6.414286605638898
 21
2.671551811704887
 31
0.0
  0
LINE
  5
420
  8
LAYER1
 62
    18
 10
6.414286605638898
 20
2.671551811704887
 30
0.0
 11
6.414286605638898
 21
3.210551846037163
 31
0.0
  0
LINE
  5
421
  8
LAYER1
 62
    18
 10
6.414286605638898
 20
3.210551846037163
 30
0.0
 11
6.188286773485578
 21
3.210551846037163
 31
0.0
  0
LINE
  5
422
  8
LAYER1
 62
    18
 10
6.188286773485578
 20
3.210551846037163
 30
0.0
 11
6.188286773485578
 21
3.38755177260424
 31
0.0
  0
LINE
  5
423
  8
LAYER1
 62
    18
 10
6.188286773485578
 20
3.38755177260424
 30
0.0
 11
6.861287109178937
 21
3.38755177260424
 31
0.0
  0
LINE
  5
424
  8
LAYER1
 62
    18
 10
7.150286666674054
 20
2.789551842222465
 30
0.0
 11
7.114287368578351
 21
2.671551811704887
 31
0.0
  0
LINE
  5
425
  8
LAYER1
 62
    18
 10
7.114287368578351
 20
2.671551811704887
 30
0.0
 11
6.888286582750714
 21
2.671551811704887
 31
0.0
  0
LINE
  5
426
  8
LAYER1
 62
    18
 10
7.157286636156476
 20
3.38755177260424
 30
0.0
 11
7.400286666674054
 21
3.38755177260424
 31
0.0
  0
LINE
  5
427
  8
LAYER1
 62
    18
 10
7.668287269396226
 20
2.671551811704887
 30
0.0
 11
7.436286918444074
 21
2.671551811704887
 31
0.0
  0
LINE
  5
428
  8
LAYER1
 62
    18
 10
7.436286918444074
 20
2.671551811704887
 30
0.0
 11
7.400286666674054
 21
2.789551842222465
 31
0.0
  0
LINE
  5
429
  8
LAYER1
 62
    18
 10
7.400286666674054
 20
2.789551842222465
 30
0.0
 11
7.150286666674054
 21
2.789551842222465
 31
0.0
  0
LINE
  5
42A
  8
LAYER1
 62
    18
 10
7.197286598009503
 20
2.944551813612236
 30
0.0
 11
7.353286735338605
 21
2.944551813612236
 31
0.0
  0
POLYLINE
  5
42B
  8
LAYER1
 62
    18
 10
0.0
 20
0.0
 30
0.0
 66
     1
 70
     8
  0
VERTEX
  5
42C
  8
LAYER1
 62
    18
 10
8.409286491197989
 20
2.905551779279961
 30
0.0
 70
    32
  0
VERTEX
  5
42D
  8
LAYER1
 62
    18
 10
8.393690984434528
 20
2.854977647338166
 30
0.0
 70
    32
  0
VERTEX
  5
42E
  8
LAYER1
 62
    18
 10
8.373303809542104
 20
2.810175212488426
 30
0.0
 70
    32
  0
VERTEX
  5
42F
  8
LAYER1
 62
    18
 10
8.347287170214102
 20
2.770051825056328
 30
0.0
 70
    32
  0
SEQEND
  5
430
  8
LAYER1
 62
    18
  0
POLYLINE
  5
431
  8
LAYER1
 62
    18
 10
0.0
 20
0.0
 30
0.0
 66
     1
 70
     8
  0
VERTEX
  5
432
  8
LAYER1
 62
    18
 10
8.347287170214102
 20
2.770051825056328
 30
0.0
 70
    32
  0
VERTEX
  5
433
  8
LAYER1
 62
    18
 10
8.317389241213245
 20
2.736967677811636
 30
0.0
 70
    32
  0
VERTEX
  5
434
  8
LAYER1
 62
    18
 10
8.283135212511464
 20
2.709655214677109
 30
0.0
 70
    32
  0
VERTEX
  5
435
  8
LAYER1
 62
    18
 10
8.243287078661364
 20
2.687551784525169
 30
0.0
 70
    32
  0
SEQEND
  5
436
  8
LAYER1
 62
    18
  0
POLYLINE
  5
437
  8
LAYER1
 62
    18
 10
0.0
 20
0.0
 30
0.0
 66
     1
 70
     8
  0
VERTEX
  5
438
  8
LAYER1
 62
    18
 10
8.243287078661364
 20
2.687551784525169
 30
0.0
 70
    32
  0
VERTEX
  5
439
  8
LAYER1
 62
    18
 10
8.19855541400377
 20
2.67212095325376
 30
0.0
 70
    32
  0
VERTEX
  5
43A
  8
LAYER1
 62
    18
 10
8.146200782579822
 20
2.66278853434111
 30
0.0
 70
    32
  0
VERTEX
  5
43B
  8
LAYER1
 62
    18
 10
8.084286681932848
 20
2.659551727781547
 30
0.0
 70
    32
  0
SEQEND
  5
43C
  8
LAYER1
 62
    18
  0
POLYLINE
  5
43D
  8
LAYER1
 62
    18
 10
0.0
 20
0.0
 30
0.0
 66
     1
 70
     8
  0
VERTEX
  5
43E
  8
LAYER1
 62
    18
 10
8.084286681932848
 20
2.659551727781547
 30
0.0
 70
    32
  0
VERTEX
  5
43F
  8
LAYER1
 62
    18
 10
8.012300398106017
 20
2.663254332039608
 30
0.0
 70
    32
  0
VERTEX
  5
440
  8
LAYER1
 62
    18
 10
7.949461778253954
 20
2.674362144813789
 30
0.0
 70
    32
  0
VERTEX
  5
441
  8
LAYER1
 62
    18
 10
7.894286624712389
 20
2.693551766882194
 30
0.0
 70
    32
  0
SEQEND
  5
442
  8
LAYER1
 62
    18
  0
POLYLINE
  5
443
  8
LAYER1
 62
    18
 10
0.0
 20
0.0
 30
0.0
 66
     1
 70
     8
  0
VERTEX
  5
444
  8
LAYER1
 62
    18
 10
7.894286624712389
 20
2.693551766882194
 30
0.0
 70
    32
  0
VERTEX
  5
445
  8
LAYER1
 62
    18
 10
7.84762470068399
 20
2.721600138638272
 30
0.0
 70
    32
  0
VERTEX
  5
446
  8
LAYER1
 62
    18
 10
7.80531877250139
 20
2.760865202293648
 30
0.0
 70
    32
  0
VERTEX
  5
447
  8
LAYER1
 62
    18
 10
7.766286842150132
 20
2.81305180789019
 30
0.0
 70
    32
  0
SEQEND
  5
448
  8
LAYER1
 62
    18
  0
POLYLINE
  5
449
  8
LAYER1
 62
    18
 10
0.0
 20
0.0
 30
0.0
 66
     1
 70
     8
  0
VERTEX
  5
44A
  8
LAYER1
 62
    18
 10
7.766286842150132
 20
2.81305180789019
 30
0.0
 70
    32
  0
VERTEX
  5
44B
  8
LAYER1
 62
    18
 10
7.736527496809403
 20
2.874654560706868
 30
0.0
 70
    32
  0
VERTEX
  5
44C
  8
LAYER1
 62
    18
 10
7.718529329866806
 20
2.946602816639198
 30
0.0
 70
    32
  0
VERTEX
  5
44D
  8
LAYER1
 62
    18
 10
7.712286941332261
 20
3.031551826010002
 30
0.0
 70
    32
  0
SEQEND
  5
44E
  8
LAYER1
 62
    18
  0
POLYLINE
  5
44F
  8
LAYER1
 62
    18
 10
0.0
 20
0.0
 30
0.0
 66
     1
 70
     8
  0
VERTEX
  5
450
  8
LAYER1
 62
    18
 10
7.712286941332261
 20
3.031551826010002
 30
0.0
 70
    32
  0
VERTEX
  5
451
  8
LAYER1
 62
    18
 10
7.722577998394408
 20
3.139496434710278
 30
0.0
 70
    32
  0
VERTEX
  5
452
  8
LAYER1
 62
    18
 10
7.753451169580858
 20
3.229690357742562
 30
0.0
 70
    32
  0
VERTEX
  5
453
  8
LAYER1
 62
    18
 10
7.806787006182115
 20
3.304051744947685
 30
0.0
 70
    32
  0
SEQEND
  5
454
  8
LAYER1
 62
    18
  0
POLYLINE
  5
455
  8
LAYER1
 62
    18
 10
0.0
 20
0.0
 30
0.0
 66
     1
 70
     8
  0
VERTEX
  5
456
  8
LAYER1
 62
    18
 10
7.806787006182115
 20
3.304051744947685
 30
0.0
 70
    32
  0
VERTEX
  5
457
  8
LAYER1
 62
    18
 10
7.877705728477873
 20
3.356681790743126
 30
0.0
 70
    32
  0
VERTEX
  5
458
  8
LAYER1
 62
    18
 10
7.965721809763351
 20
3.388511938200249
 30
0.0
 70
    32
  0
VERTEX
  5
459
  8
LAYER1
 62
    18
 10
8.074287406725329
 20
3.399551737318291
 30
0.0
 70
    32
  0
SEQEND
  5
45A
  8
LAYER1
 62
    18
  0
POLYLINE
  5
45B
  8
LAYER1
 62
    18
 10
0.0
 20
0.0
 30
0.0
 66
     1
 70
     8
  0
VERTEX
  5
45C
  8
LAYER1
 62
    18
 10
8.074287406725329
 20
3.399551737318291
 30
0.0
 70
    32
  0
VERTEX
  5
45D
  8
LAYER1
 62
    18
 10
8.15712529468004
 20
3.393616689083828
 30
0.0
 70
    32
  0
VERTEX
  5
45E
  8
LAYER1
 62
    18
 10
8.22743991527025
 20
3.37581154438044
 30
0.0
 70
    32
  0
VERTEX
  5
45F
  8
LAYER1
 62
    18
 10
8.286787025255606
 20
3.345051753530754
 30
0.0
 70
    32
  0
SEQEND
  5
460
  8
LAYER1
 62
    18
  0
POLYLINE
  5
461
  8
LAYER1
 62
    18
 10
0.0
 20
0.0
 30
0.0
 66
     1
 70
     8
  0
VERTEX
  5
462
  8
LAYER1
 62
    18
 10
8.286787025255606
 20
3.345051753530754
 30
0.0
 70
    32
  0
VERTEX
  5
463
  8
LAYER1
 62
    18
 10
8.333635572237416
 20
3.302602216515793
 30
0.0
 70
    32
  0
VERTEX
  5
464
  8
LAYER1
 62
    18
 10
8.371880759996817
 20
3.247193584070457
 30
0.0
 70
    32
  0
VERTEX
  5
465
  8
LAYER1
 62
    18
 10
8.402286521715567
 20
3.176551806936516
 30
0.0
 70
    32
  0
SEQEND
  5
466
  8
LAYER1
 62
    18
  0
LINE
  5
467
  8
LAYER1
 62
    18
 10
8.402286521715567
 20
3.176551806936516
 30
0.0
 11
8.207286826891345
 21
3.133551824102653
 31
0.0
  0
POLYLINE
  5
468
  8
LAYER1
 62
    18
 10
0.0
 20
0.0
 30
0.0
 66
     1
 70
     8
  0
VERTEX
  5
469
  8
LAYER1
 62
    18
 10
8.207286826891345
 20
3.133551824102653
 30
0.0
 70
    32
  0
VERTEX
  5
46A
  8
LAYER1
 62
    18
 10
8.200468891615312
 20
3.153371618340267
 30
0.0
 70
    32
  0
VERTEX
  5
46B
  8
LAYER1
 62
    18
 10
8.193215387911241
 20
3.169271011123909
 30
0.0
 70
    32
  0
VERTEX
  5
46C
  8
LAYER1
 62
    18
 10
8.185286514086169
 20
3.181551802168144
 30
0.0
 70
    32
  0
SEQEND
  5
46D
  8
LAYER1
 62
    18
  0
POLYLINE
  5
46E
  8
LAYER1
 62
    18
 10
0.0
 20
0.0
 30
0.0
 66
     1
 70
     8
  0
VERTEX
  5
46F
  8
LAYER1
 62
    18
 10
8.185286514086169
 20
3.181551802168144
 30
0.0
 70
    32
  0
VERTEX
  5
470
  8
LAYER1
 62
    18
 10
8.172426612896363
 20
3.196799436328663
 30
0.0
 70
    32
  0
VERTEX
  5
471
  8
LAYER1
 62
    18
 10
8.157606446070115
 20
3.209542370281471
 30
0.0
 70
    32
  0
VERTEX
  5
472
  8
LAYER1
 62
    18
 10
8.140286914629382
 20
3.220051753530754
 30
0.0
 70
    32
  0
SEQEND
  5
473
  8
LAYER1
 62
    18
  0
POLYLINE
  5
474
  8
LAYER1
 62
    18
 10
0.0
 20
0.0
 30
0.0
 66
     1
 70
     8
  0
VERTEX
  5
475
  8
LAYER1
 62
    18
 10
8.140286914629382
 20
3.220051753530754
 30
0.0
 70
    32
  0
VERTEX
  5
476
  8
LAYER1
 62
    18
 10
8.121813542789855
 20
3.227491589865937
 30
0.0
 70
    32
  0
VERTEX
  5
477
  8
LAYER1
 62
    18
 10
8.102033361811085
 20
3.231991131601585
 30
0.0
 70
    32
  0
VERTEX
  5
478
  8
LAYER1
 62
    18
 10
8.08028697184984
 20
3.233551728735222
 30
0.0
 70
    32
  0
SEQEND
  5
479
  8
LAYER1
 62
    18
  0
POLYLINE
  5
47A
  8
LAYER1
 62
    18
 10
0.0
 20
0.0
 30
0.0
 66
     1
 70
     8
  0
VERTEX
  5
47B
  8
LAYER1
 62
    18
 10
8.08028697184984
 20
3.233551728735222
 30
0.0
 70
    32
  0
VERTEX
  5
47C
  8
LAYER1
 62
    18
 10
8.03404725827638
 20
3.22701773496653
 30
0.0
 70
    32
  0
VERTEX
  5
47D
  8
LAYER1
 62
    18
 10
7.995648399538438
 20
3.207415753660454
 30
0.0
 70
    32
  0
VERTEX
  5
47E
  8
LAYER1
 62
    18
 10
7.964286796373766
 20
3.173551785955681
 30
0.0
 70
    32
  0
SEQEND
  5
47F
  8
LAYER1
 62
    18
  0
POLYLINE
  5
480
  8
LAYER1
 62
    18
 10
0.0
 20
0.0
 30
0.0
 66
     1
 70
     8
  0
VERTEX
  5
481
  8
LAYER1
 62
    18
 10
7.964286796373766
 20
3.173551785955681
 30
0.0
 70
    32
  0
VERTEX
  5
482
  8
LAYER1
 62
    18
 10
7.947753943533342
 20
3.138297901401772
 30
0.0
 70
    32
  0
VERTEX
  5
483
  8
LAYER1
 62
    18
 10
7.937755032534045
 20
3.091936191091789
 30
0.0
 70
    32
  0
VERTEX
  5
484
  8
LAYER1
 62
    18
 10
7.934287063402574
 20
3.032551753530754
 30
0.0
 70
    32
  0
SEQEND
  5
485
  8
LAYER1
 62
    18
  0
POLYLINE
  5
486
  8
LAYER1
 62
    18
 10
0.0
 20
0.0
 30
0.0
 66
     1
 70
     8
  0
VERTEX
  5
487
  8
LAYER1
 62
    18
 10
7.934287063402574
 20
3.032551753530754
 30
0.0
 70
    32
  0
VERTEX
  5
488
  8
LAYER1
 62
    18
 10
7.93820743889276
 20
2.962179273436321
 30
0.0
 70
    32
  0
VERTEX
  5
489
  8
LAYER1
 62
    18
 10
7.949968565363327
 20
2.908141777763618
 30
0.0
 70
    32
  0
VERTEX
  5
48A
  8
LAYER1
 62
    18
 10
7.970286838335435
 20
2.86955176592852
 30
0.0
 70
    32
  0
SEQEND
  5
48B
  8
LAYER1
 62
    18
  0
POLYLINE
  5
48C
  8
LAYER1
 62
    18
 10
0.0
 20
0.0
 30
0.0
 66
     1
 70
     8
  0
VERTEX
  5
48D
  8
LAYER1
 62
    18
 10
7.970286838335435
 20
2.86955176592852
 30
0.0
 70
    32
  0
VERTEX
  5
48E
  8
LAYER1
 62
    18
 10
7.997313712639254
 20
2.845303349635853
 30
0.0
 70
    32
  0
VERTEX
  5
48F
  8
LAYER1
 62
    18
 10
8.030874632639328
 20
2.830638139782204
 30
0.0
 70
    32
  0
VERTEX
  5
490
  8
LAYER1
 62
    18
 10
8.072286598009509
 20
2.825551736364616
 30
0.0
 70
    32
  0
SEQEND
  5
491
  8
LAYER1
 62
    18
  0
POLYLINE
  5
492
  8
LAYER1
 62
    18
 10
0.0
 20
0.0
 30
0.0
 66
     1
 70
     8
  0
VERTEX
  5
493
  8
LAYER1
 62
    18
 10
8.072286598009509
 20
2.825551736364616
 30
0.0
 70
    32
  0
VERTEX
  5
494
  8
LAYER1
 62
    18
 10
8.110545499367156
 20
2.829417691765083
 30
0.0
 70
    32
  0
VERTEX
  5
495
  8
LAYER1
 62
    18
 10
8.142161307138842
 20
2.841015557966484
 30
0.0
 70
    32
  0
VERTEX
  5
496
  8
LAYER1
 62
    18
 10
8.167787067217272
 20
2.861051785955681
 30
0.0
 70
    32
  0
SEQEND
  5
497
  8
LAYER1
 62
    18
  0
POLYLINE
  5
498
  8
LAYER1
 62
    18
 10
0.0
 20
0.0
 30
0.0
 66
     1
 70
     8
  0
VERTEX
  5
499
  8
LAYER1
 62
    18
 10
8.167787067217272
 20
2.861051785955681
 30
0.0
 70
    32
  0
VERTEX
  5
49A
  8
LAYER1
 62
    18
 10
8.187331238979738
 20
2.888021058819546
 30
0.0
 70
    32
  0
VERTEX
  5
49B
  8
LAYER1
 62
    18
 10
8.203064031214158
 20
2.922068811950935
 30
0.0
 70
    32
  0
VERTEX
  5
49C
  8
LAYER1
 62
    18
 10
8.215287200731677
 20
2.96455179453875
 30
0.0
 70
    32
  0
SEQEND
  5
49D
  8
LAYER1
 62
    18
  0
LINE
  5
49E
  8
LAYER1
 62
    18
 10
8.215287200731677
 20
2.96455179453875
 30
0.0
 11
8.409286491197989
 21
2.905551779279961
 31
0.0
  0
LINE
  5
49F
  8
LAYER1
 62
    18
 10
8.747286788744375
 20
3.38755177260424
 30
0.0
 11
8.747286788744375
 21
2.671551811704887
 31
0.0
  0
LINE
  5
4A0
  8
LAYER1
 62
    18
 10
8.747286788744375
 20
2.671551811704887
 30
0.0
 11
8.525286666674063
 21
2.671551811704887
 31
0.0
  0
LINE
  5
4A1
  8
LAYER1
 62
    18
 10
8.525286666674063
 20
2.671551811704887
 30
0.0
 11
8.525286666674063
 21
3.38755177260424
 31
0.0
  0
LINE
  5
4A2
  8
LAYER1
 62
    18
 10
8.525286666674063
 20
3.38755177260424
 30
0.0
 11
8.747286788744375
 21
3.38755177260424
 31
0.0
  0
LINE
  5
4A3
  8
LAYER1
 62
    18
 10
9.095287315172598
 20
2.789551842222465
 30
0.0
 11
9.059287063402579
 21
2.671551811704887
 31
0.0
  0
LINE
  5
4A4
  8
LAYER1
 62
    18
 10
9.059287063402579
 20
2.671551811704887
 30
0.0
 11
8.833287231249258
 21
2.671551811704887
 31
0.0
  0
LINE
  5
4A5
  8
LAYER1
 62
    18
 10
9.10228728465502
 20
3.38755177260424
 30
0.0
 11
9.345287315172602
 21
3.38755177260424
 31
0.0
  0
LINE
  5
4A6
  8
LAYER1
 62
    18
 10
9.613286964220453
 20
2.671551811704887
 30
0.0
 11
9.381286613268305
 21
2.671551811704887
 31
0.0
  0
LINE
  5
4A7
  8
LAYER1
 62
    18
 10
9.381286613268305
 20
2.671551811704887
 30
0.0
 11
9.345287315172602
 21
2.789551842222465
 31
0.0
  0
LINE
  5
4A8
  8
LAYER1
 62
    18
 10
9.345287315172602
 20
2.789551842222465
 30
0.0
 11
9.095287315172598
 21
2.789551842222465
 31
0.0
  0
LINE
  5
4A9
  8
LAYER1
 62
    18
 10
9.142287246508047
 20
2.944551813612236
 30
0.0
 11
9.298287383837152
 21
2.944551813612236
 31
0.0
  0
LINE
  5
4AA
  8
LAYER1
 62
    18
 10
10.23728655986254
 20
3.38755177260424
 30
0.0
 11
10.23728655986254
 21
2.847551810751213
 31
0.0
  0
LINE
  5
4AB
  8
LAYER1
 62
    18
 10
10.23728655986254
 20
2.847551810751213
 30
0.0
 11
10.58328723124926
 21
2.847551810751213
 31
0.0
  0
LINE
  5
4AC
  8
LAYER1
 62
    18
 10
10.58328723124926
 20
2.847551810751213
 30
0.0
 11
10.58328723124926
 21
2.671551811704887
 31
0.0
  0
LINE
  5
4AD
  8
LAYER1
 62
    18
 10
10.58328723124926
 20
2.671551811704887
 30
0.0
 11
10.01628684215014
 21
2.671551811704887
 31
0.0
  0
LINE
  5
4AE
  8
LAYER1
 62
    18
 10
10.01628684215014
 20
2.671551811704887
 30
0.0
 11
10.01628684215014
 21
3.38755177260424
 31
0.0
  0
LINE
  5
4AF
  8
LAYER1
 62
    18
 10
10.01628684215014
 20
3.38755177260424
 30
0.0
 11
10.23728655986254
 21
3.38755177260424
 31
0.0
  0
LINE
  5
4B0
  8
LAYER1
 62
    18
 10
10.89228724650805
 20
3.38755177260424
 30
0.0
 11
11.1602868955559
 21
2.992551791677727
 31
0.0
  0
LINE
  5
4B1
  8
LAYER1
 62
    18
 10
11.1602868955559
 20
2.992551791677727
 30
0.0
 11
11.1602868955559
 21
3.38755177260424
 31
0.0
  0
LINE
  5
4B2
  8
LAYER1
 62
    18
 10
11.1602868955559
 20
3.38755177260424
 30
0.0
 11
11.36928652934496
 21
3.38755177260424
 31
0.0
  0
LINE
  5
4B3
  8
LAYER1
 62
    18
 10
11.36928652934496
 20
3.38755177260424
 30
0.0
 11
11.36928652934496
 21
2.671551811704887
 31
0.0
  0
LINE
  5
4B4
  8
LAYER1
 62
    18
 10
11.36928652934496
 20
2.671551811704887
 30
0.0
 11
11.1602868955559
 21
2.671551811704887
 31
0.0
  0
LINE
  5
4B5
  8
LAYER1
 62
    18
 10
11.1602868955559
 20
2.671551811704887
 30
0.0
 11
10.89328669719164
 21
3.064551818380608
 31
0.0
  0
LINE
  5
4B6
  8
LAYER1
 62
    18
 10
10.89328669719164
 20
3.064551818380608
 30
0.0
 11
10.89328669719164
 21
2.671551811704887
 31
0.0
  0
LINE
  5
4B7
  8
LAYER1
 62
    18
 10
10.89328669719164
 20
2.671551811704887
 30
0.0
 11
10.68528651408618
 21
2.671551811704887
 31
0.0
  0
LINE
  5
4B8
  8
LAYER1
 62
    18
 10
10.68528651408618
 20
2.671551811704887
 30
0.0
 11
10.68528651408618
 21
3.38755177260424
 31
0.0
  0
LINE
  5
4B9
  8
LAYER1
 62
    18
 10
10.68528651408618
 20
3.38755177260424
 30
0.0
 11
10.89228724650805
 21
3.38755177260424
 31
0.0
  0
LINE
  5
4BA
  8
LAYER1
 62
    18
 10
1.859905235094464
 20
1.435248839864983
 30
0.0
 11
1.597905151171124
 21
1.85024880171801
 31
0.0
  0
LINE
  5
4BB
  8
LAYER1
 62
    18
 10
1.597905151171124
 20
1.85024880171801
 30
0.0
 11
1.766905299944318
 21
1.85024880171801
 31
0.0
  0
LINE
  5
4BC
  8
LAYER1
 62
    18
 10
1.766905299944318
 20
1.85024880171801
 30
0.0
 11
1.935905448717511
 21
1.566248881826652
 31
0.0
  0
LINE
  5
4BD
  8
LAYER1
 62
    18
 10
1.935905448717511
 20
1.566248881826652
 30
0.0
 11
2.100905410570538
 21
1.85024880171801
 31
0.0
  0
LINE
  5
4BE
  8
LAYER1
 62
    18
 10
2.100905410570538
 20
1.85024880171801
 30
0.0
 11
2.26790522746507
 21
1.85024880171801
 31
0.0
  0
LINE
  5
4BF
  8
LAYER1
 62
    18
 10
2.26790522746507
 20
1.85024880171801
 30
0.0
 11
2.004905216020978
 21
1.434248912344231
 31
0.0
  0
LINE
  5
4C0
  8
LAYER1
 62
    18
 10
2.004905216020978
 20
1.434248912344231
 30
0.0
 11
2.004905216020978
 21
1.134248960027946
 31
0.0
  0
LINE
  5
4C1
  8
LAYER1
 62
    18
 10
2.004905216020978
 20
1.134248960027946
 30
0.0
 11
1.859905235094464
 21
1.134248960027946
 31
0.0
  0
LINE
  5
4C2
  8
LAYER1
 62
    18
 10
1.859905235094464
 20
1.134248960027946
 30
0.0
 11
1.859905235094464
 21
1.435248839864983
 31
0.0
  0
POLYLINE
  5
4C3
  8
LAYER1
 62
    18
 10
0.0
 20
0.0
 30
0.0
 66
     1
 70
     8
  0
VERTEX
  5
4C4
  8
LAYER1
 62
    18
 10
2.483905307573712
 20
1.85024880171801
 30
0.0
 70
    32
  0
VERTEX
  5
4C5
  8
LAYER1
 62
    18
 10
2.483904025375653
 20
1.720915464608113
 30
0.0
 70
    32
  0
VERTEX
  5
4C6
  8
LAYER1
 62
    18
 10
2.483889508511143
 20
1.55152001919537
 30
0.0
 70
    32
  0
VERTEX
  5
4C7
  8
LAYER1
 62
    18
 10
2.483882944583443
 20
1.514836408101497
 30
0.0
 70
    32
  0
VERTEX
  5
4C8
  8
LAYER1
 62
    18
 10
2.483874100493913
 20
1.448765766449641
 30
0.0
 70
    32
  0
VERTEX
  5
4C9
  8
LAYER1
 62
    18
 10
2.484150764900695
 20
1.415741719700464
 30
0.0
 70
    32
  0
VERTEX
  5
4CA
  8
LAYER1
 62
    18
 10
2.484582843175353
 20
1.39924213902405
 30
0.0
 70
    32
  0
VERTEX
  5
4CB
  8
LAYER1
 62
    18
 10
2.485347957368894
 20
1.382183766145749
 30
0.0
 70
    32
  0
VERTEX
  5
4CC
  8
LAYER1
 62
    18
 10
2.486328780401169
 20
1.367551199700278
 30
0.0
 70
    32
  0
VERTEX
  5
4CD
  8
LAYER1
 62
    18
 10
2.48890542201463
 20
1.342248904714836
 30
0.0
 70
    32
  0
SEQEND
  5
4CE
  8
LAYER1
 62
    18
  0
POLYLINE
  5
4CF
  8
LAYER1
 62
    18
 10
0.0
 20
0.0
 30
0.0
 66
     1
 70
     8
  0
VERTEX
  5
4D0
  8
LAYER1
 62
    18
 10
2.48890542201463
 20
1.342248904714836
 30
0.0
 70
    32
  0
VERTEX
  5
4D1
  8
LAYER1
 62
    18
 10
2.498173348659909
 20
1.315114692590488
 30
0.0
 70
    32
  0
VERTEX
  5
4D2
  8
LAYER1
 62
    18
 10
2.512777455896771
 20
1.291791937885536
 30
0.0
 70
    32
  0
VERTEX
  5
4D3
  8
LAYER1
 62
    18
 10
2.533405296129621
 20
1.271748888502373
 30
0.0
 70
    32
  0
SEQEND
  5
4D4
  8
LAYER1
 62
    18
  0
POLYLINE
  5
4D5
  8
LAYER1
 62
    18
 10
0.0
 20
0.0
 30
0.0
 66
     1
 70
     8
  0
VERTEX
  5
4D6
  8
LAYER1
 62
    18
 10
2.533405296129621
 20
1.271748888502373
 30
0.0
 70
    32
  0
VERTEX
  5
4D7
  8
LAYER1
 62
    18
 10
2.558952307171261
 20
1.257144680164112
 30
0.0
 70
    32
  0
VERTEX
  5
4D8
  8
LAYER1
 62
    18
 10
2.590053179163373
 20
1.248312194881691
 30
0.0
 70
    32
  0
VERTEX
  5
4D9
  8
LAYER1
 62
    18
 10
2.627905360979474
 20
1.245248782644524
 30
0.0
 70
    32
  0
SEQEND
  5
4DA
  8
LAYER1
 62
    18
  0
POLYLINE
  5
4DB
  8
LAYER1
 62
    18
 10
0.0
 20
0.0
 30
0.0
 66
     1
 70
     8
  0
VERTEX
  5
4DC
  8
LAYER1
 62
    18
 10
2.627905360979474
 20
1.245248782644524
 30
0.0
 70
    32
  0
VERTEX
  5
4DD
  8
LAYER1
 62
    18
 10
2.664843832439816
 20
1.247971293030037
 30
0.0
 70
    32
  0
VERTEX
  5
4DE
  8
LAYER1
 62
    18
 10
2.695139418024457
 20
1.256138824186577
 30
0.0
 70
    32
  0
VERTEX
  5
4DF
  8
LAYER1
 62
    18
 10
2.719405166429913
 20
1.270248878011955
 30
0.0
 70
    32
  0
SEQEND
  5
4E0
  8
LAYER1
 62
    18
  0
POLYLINE
  5
4E1
  8
LAYER1
 62
    18
 10
0.0
 20
0.0
 30
0.0
 66
     1
 70
     8
  0
VERTEX
  5
4E2
  8
LAYER1
 62
    18
 10
2.719405166429913
 20
1.270248878011955
 30
0.0
 70
    32
  0
VERTEX
  5
4E3
  8
LAYER1
 62
    18
 10
2.73692153131429
 20
1.288055724129929
 30
0.0
 70
    32
  0
VERTEX
  5
4E4
  8
LAYER1
 62
    18
 10
2.749210711569226
 20
1.308476136598839
 30
0.0
 70
    32
  0
VERTEX
  5
4E5
  8
LAYER1
 62
    18
 10
2.756405107302106
 20
1.332248914251579
 30
0.0
 70
    32
  0
SEQEND
  5
4E6
  8
LAYER1
 62
    18
  0
POLYLINE
  5
4E7
  8
LAYER1
 62
    18
 10
0.0
 20
0.0
 30
0.0
 66
     1
 70
     8
  0
VERTEX
  5
4E8
  8
LAYER1
 62
    18
 10
2.756405107302106
 20
1.332248914251579
 30
0.0
 70
    32
  0
VERTEX
  5
4E9
  8
LAYER1
 62
    18
 10
2.758827400905175
 20
1.352478125715757
 30
0.0
 70
    32
  0
VERTEX
  5
4EA
  8
LAYER1
 62
    18
 10
2.761881600091168
 20
1.393112154241188
 30
0.0
 70
    32
  0
VERTEX
  5
4EB
  8
LAYER1
 62
    18
 10
2.762767263250228
 20
1.433869444504978
 30
0.0
 70
    32
  0
VERTEX
  5
4EC
  8
LAYER1
 62
    18
 10
2.762905113024152
 20
1.454248893270744
 30
0.0
 70
    32
  0
VERTEX
  5
4ED
  8
LAYER1
 62
    18
 10
2.762905113024152
 20
1.586248862753167
 30
0.0
 70
    32
  0
VERTEX
  5
4EE
  8
LAYER1
 62
    18
 10
2.762905113024152
 20
1.674033808317803
 30
0.0
 70
    32
  0
VERTEX
  5
4EF
  8
LAYER1
 62
    18
 10
2.762905113024152
 20
1.718248832235589
 30
0.0
 70
    32
  0
VERTEX
  5
4F0
  8
LAYER1
 62
    18
 10
2.762905113024152
 20
1.741410129323764
 30
0.0
 70
    32
  0
VERTEX
  5
4F1
  8
LAYER1
 62
    18
 10
2.762905113024152
 20
1.775098289826745
 30
0.0
 70
    32
  0
VERTEX
  5
4F2
  8
LAYER1
 62
    18
 10
2.762905113024152
 20
1.791942370078235
 30
0.0
 70
    32
  0
VERTEX
  5
4F3
  8
LAYER1
 62
    18
 10
2.762905113024152
 20
1.800364410203981
 30
0.0
 70
    32
  0
VERTEX
  5
4F4
  8
LAYER1
 62
    18
 10
2.762905113024152
 20
1.824334832100332
 30
0.0
 70
    32
  0
VERTEX
  5
4F5
  8
LAYER1
 62
    18
 10
2.762905113024151
 20
1.829517626023868
 30
0.0
 70
    32
  0
VERTEX
  5
4F6
  8
LAYER1
 62
    18
 10
2.762905113024152
 20
1.85024880171801
 30
0.0
 70
    32
  0
SEQEND
  5
4F7
  8
LAYER1
 62
    18
  0
LINE
  5
4F8
  8
LAYER1
 62
    18
 10
2.762905113024152
 20
1.85024880171801
 30
0.0
 11
2.907905093950665
 21
1.85024880171801
 31
0.0
  0
POLYLINE
  5
4F9
  8
LAYER1
 62
    18
 10
0.0
 20
0.0
 30
0.0
 66
     1
 70
     8
  0
VERTEX
  5
4FA
  8
LAYER1
 62
    18
 10
2.907905093950665
 20
1.85024880171801
 30
0.0
 70
    32
  0
VERTEX
  5
4FB
  8
LAYER1
 62
    18
 10
2.907904535509203
 20
1.724915492551891
 30
0.0
 70
    32
  0
VERTEX
  5
4FC
  8
LAYER1
 62
    18
 10
2.907898783597903
 20
1.568983411458755
 30
0.0
 70
    32
  0
VERTEX
  5
4FD
  8
LAYER1
 62
    18
 10
2.907890803565759
 20
1.480872946298901
 30
0.0
 70
    32
  0
VERTEX
  5
4FE
  8
LAYER1
 62
    18
 10
2.907265946073624
 20
1.408124988887855
 30
0.0
 70
    32
  0
VERTEX
  5
4FF
  8
LAYER1
 62
    18
 10
2.90622869831577
 20
1.382454354756241
 30
0.0
 70
    32
  0
VERTEX
  5
500
  8
LAYER1
 62
    18
 10
2.905585845097375
 20
1.371815810095811
 30
0.0
 70
    32
  0
VERTEX
  5
501
  8
LAYER1
 62
    18
 10
2.904183812161677
 20
1.353693224621151
 30
0.0
 70
    32
  0
VERTEX
  5
502
  8
LAYER1
 62
    18
 10
2.900746335201525
 20
1.32152422714101
 30
0.0
 70
    32
  0
VERTEX
  5
503
  8
LAYER1
 62
    18
 10
2.896405212206281
 20
1.29124890566851
 30
0.0
 70
    32
  0
SEQEND
  5
504
  8
LAYER1
 62
    18
  0
POLYLINE
  5
505
  8
LAYER1
 62
    18
 10
0.0
 20
0.0
 30
0.0
 66
     1
 70
     8
  0
VERTEX
  5
506
  8
LAYER1
 62
    18
 10
2.896405212206281
 20
1.29124890566851
 30
0.0
 70
    32
  0
VERTEX
  5
507
  8
LAYER1
 62
    18
 10
2.886637266368306
 20
1.258065707180752
 30
0.0
 70
    32
  0
VERTEX
  5
508
  8
LAYER1
 62
    18
 10
2.87251327275697
 20
1.228476233825935
 30
0.0
 70
    32
  0
VERTEX
  5
509
  8
LAYER1
 62
    18
 10
2.853405229372418
 20
1.201748836050285
 30
0.0
 70
    32
  0
SEQEND
  5
50A
  8
LAYER1
 62
    18
  0
POLYLINE
  5
50B
  8
LAYER1
 62
    18
 10
0.0
 20
0.0
 30
0.0
 66
     1
 70
     8
  0
VERTEX
  5
50C
  8
LAYER1
 62
    18
 10
2.853405229372418
 20
1.201748836050285
 30
0.0
 70
    32
  0
VERTEX
  5
50D
  8
LAYER1
 62
    18
 10
2.830328272623456
 20
1.179237903545155
 30
0.0
 70
    32
  0
VERTEX
  5
50E
  8
LAYER1
 62
    18
 10
2.802677535814679
 20
1.15988507581736
 30
0.0
 70
    32
  0
VERTEX
  5
50F
  8
LAYER1
 62
    18
 10
2.769405118746198
 20
1.143248903761162
 30
0.0
 70
    32
  0
SEQEND
  5
510
  8
LAYER1
 62
    18
  0
POLYLINE
  5
511
  8
LAYER1
 62
    18
 10
0.0
 20
0.0
 30
0.0
 66
     1
 70
     8
  0
VERTEX
  5
512
  8
LAYER1
 62
    18
 10
2.769405118746198
 20
1.143248903761162
 30
0.0
 70
    32
  0
VERTEX
  5
513
  8
LAYER1
 62
    18
 10
2.731215859336293
 20
1.131124728462948
 30
0.0
 70
    32
  0
VERTEX
  5
514
  8
LAYER1
 62
    18
 10
2.685948093695081
 20
1.123792143402351
 30
0.0
 70
    32
  0
VERTEX
  5
515
  8
LAYER1
 62
    18
 10
2.631905071062482
 20
1.121248948583855
 30
0.0
 70
    32
  0
SEQEND
  5
516
  8
LAYER1
 62
    18
  0
POLYLINE
  5
517
  8
LAYER1
 62
    18
 10
0.0
 20
0.0
 30
0.0
 66
     1
 70
     8
  0
VERTEX
  5
518
  8
LAYER1
 62
    18
 10
2.631905071062482
 20
1.121248948583855
 30
0.0
 70
    32
  0
VERTEX
  5
519
  8
LAYER1
 62
    18
 10
2.569921306414043
 20
1.12380809484507
 30
0.0
 70
    32
  0
VERTEX
  5
51A
  8
LAYER1
 62
    18
 10
2.518609695238508
 20
1.131485533628715
 30
0.0
 70
    32
  0
VERTEX
  5
51B
  8
LAYER1
 62
    18
 10
2.47690533809129
 20
1.144748914251579
 30
0.0
 70
    32
  0
SEQEND
  5
51C
  8
LAYER1
 62
    18
  0
POLYLINE
  5
51D
  8
LAYER1
 62
    18
 10
0.0
 20
0.0
 30
0.0
 66
     1
 70
     8
  0
VERTEX
  5
51E
  8
LAYER1
 62
    18
 10
2.47690533809129
 20
1.144748914251579
 30
0.0
 70
    32
  0
VERTEX
  5
51F
  8
LAYER1
 62
    18
 10
2.444375583905614
 20
1.161837943980946
 30
0.0
 70
    32
  0
VERTEX
  5
520
  8
LAYER1
 62
    18
 10
2.416746286100781
 20
1.182085078487648
 30
0.0
 70
    32
  0
VERTEX
  5
521
  8
LAYER1
 62
    18
 10
2.393405191225446
 20
1.206248867521538
 30
0.0
 70
    32
  0
SEQEND
  5
522
  8
LAYER1
 62
    18
  0
POLYLINE
  5
523
  8
LAYER1
 62
    18
 10
0.0
 20
0.0
 30
0.0
 66
     1
 70
     8
  0
VERTEX
  5
524
  8
LAYER1
 62
    18
 10
2.393405191225446
 20
1.206248867521538
 30
0.0
 70
    32
  0
VERTEX
  5
525
  8
LAYER1
 62
    18
 10
2.375507572574055
 20
1.231764466712727
 30
0.0
 70
    32
  0
VERTEX
  5
526
  8
LAYER1
 62
    18
 10
2.362074945730603
 20
1.258151280651344
 30
0.0
 70
    32
  0
VERTEX
  5
527
  8
LAYER1
 62
    18
 10
2.352905265612042
 20
1.286248910436882
 30
0.0
 70
    32
  0
SEQEND
  5
528
  8
LAYER1
 62
    18
  0
POLYLINE
  5
529
  8
LAYER1
 62
    18
 10
0.0
 20
0.0
 30
0.0
 66
     1
 70
     8
  0
VERTEX
  5
52A
  8
LAYER1
 62
    18
 10
2.352905265612042
 20
1.286248910436882
 30
0.0
 70
    32
  0
VERTEX
  5
52B
  8
LAYER1
 62
    18
 10
2.347917634263772
 20
1.31629731363636
 30
0.0
 70
    32
  0
VERTEX
  5
52C
  8
LAYER1
 62
    18
 10
2.341293419033096
 20
1.376849753277062
 30
0.0
 70
    32
  0
VERTEX
  5
52D
  8
LAYER1
 62
    18
 10
2.339230789441026
 20
1.437778748017681
 30
0.0
 70
    32
  0
VERTEX
  5
52E
  8
LAYER1
 62
    18
 10
2.338905326647199
 20
1.468248832235588
 30
0.0
 70
    32
  0
VERTEX
  5
52F
  8
LAYER1
 62
    18
 10
2.338905326647199
 20
1.595582155396395
 30
0.0
 70
    32
  0
VERTEX
  5
530
  8
LAYER1
 62
    18
 10
2.338905326647199
 20
1.658206382171998
 30
0.0
 70
    32
  0
VERTEX
  5
531
  8
LAYER1
 62
    18
 10
2.338905326647199
 20
1.722915478557205
 30
0.0
 70
    32
  0
VERTEX
  5
532
  8
LAYER1
 62
    18
 10
2.338905326647199
 20
1.731634366116061
 30
0.0
 70
    32
  0
VERTEX
  5
533
  8
LAYER1
 62
    18
 10
2.338905326647199
 20
1.768348358088093
 30
0.0
 70
    32
  0
VERTEX
  5
534
  8
LAYER1
 62
    18
 10
2.338905326647199
 20
1.786705354074109
 30
0.0
 70
    32
  0
VERTEX
  5
535
  8
LAYER1
 62
    18
 10
2.338905326647199
 20
1.795883852067117
 30
0.0
 70
    32
  0
VERTEX
  5
536
  8
LAYER1
 62
    18
 10
2.338905326647199
 20
1.822007269431831
 30
0.0
 70
    32
  0
VERTEX
  5
537
  8
LAYER1
 62
    18
 10
2.338905326647199
 20
1.827655575889067
 30
0.0
 70
    32
  0
VERTEX
  5
538
  8
LAYER1
 62
    18
 10
2.338905326647199
 20
1.85024880171801
 30
0.0
 70
    32
  0
SEQEND
  5
539
  8
LAYER1
 62
    18
  0
LINE
  5
53A
  8
LAYER1
 62
    18
 10
2.338905326647199
 20
1.85024880171801
 30
0.0
 11
2.483905307573712
 21
1.85024880171801
 31
0.0
  0
POLYLINE
  5
53B
  8
LAYER1
 62
    18
 10
0.0
 20
0.0
 30
0.0
 66
     1
 70
     8
  0
VERTEX
  5
53C
  8
LAYER1
 62
    18
 10
3.658905021471417
 20
1.355248916158928
 30
0.0
 70
    32
  0
VERTEX
  5
53D
  8
LAYER1
 62
    18
 10
3.633102543324863
 20
1.283957348821415
 30
0.0
 70
    32
  0
VERTEX
  5
53E
  8
LAYER1
 62
    18
 10
3.597934565061964
 20
1.225842687092079
 30
0.0
 70
    32
  0
VERTEX
  5
53F
  8
LAYER1
 62
    18
 10
3.551905385775006
 20
1.179748880872978
 30
0.0
 70
    32
  0
SEQEND
  5
540
  8
LAYER1
 62
    18
  0
POLYLINE
  5
541
  8
LAYER1
 62
    18
 10
0.0
 20
0.0
 30
0.0
 66
     1
 70
     8
  0
VERTEX
  5
542
  8
LAYER1
 62
    18
 10
3.551905385775006
 20
1.179748880872978
 30
0.0
 70
    32
  0
VERTEX
  5
543
  8
LAYER1
 62
    18
 10
3.497940440387165
 20
1.148060628245129
 30
0.0
 70
    32
  0
VERTEX
  5
544
  8
LAYER1
 62
    18
 10
3.43504566716615
 20
1.12889587665583
 30
0.0
 70
    32
  0
VERTEX
  5
545
  8
LAYER1
 62
    18
 10
3.360905162615216
 20
1.122248876104607
 30
0.0
 70
    32
  0
SEQEND
  5
546
  8
LAYER1
 62
    18
  0
POLYLINE
  5
547
  8
LAYER1
 62
    18
 10
0.0
 20
0.0
 30
0.0
 66
     1
 70
     8
  0
VERTEX
  5
548
  8
LAYER1
 62
    18
 10
3.360905162615216
 20
1.122248876104607
 30
0.0
 70
    32
  0
VERTEX
  5
549
  8
LAYER1
 62
    18
 10
3.27263031525079
 20
1.132866622469677
 30
0.0
 70
    32
  0
VERTEX
  5
54A
  8
LAYER1
 62
    18
 10
3.195245405573285
 20
1.164719861564888
 30
0.0
 70
    32
  0
VERTEX
  5
54B
  8
LAYER1
 62
    18
 10
3.126905433458722
 20
1.219748842726005
 30
0.0
 70
    32
  0
SEQEND
  5
54C
  8
LAYER1
 62
    18
  0
POLYLINE
  5
54D
  8
LAYER1
 62
    18
 10
0.0
 20
0.0
 30
0.0
 66
     1
 70
     8
  0
VERTEX
  5
54E
  8
LAYER1
 62
    18
 10
3.126905433458722
 20
1.219748842726005
 30
0.0
 70
    32
  0
VERTEX
  5
54F
  8
LAYER1
 62
    18
 10
3.076204229254162
 20
1.291885190532459
 30
0.0
 70
    32
  0
VERTEX
  5
550
  8
LAYER1
 62
    18
 10
3.045540626711285
 20
1.379594278011574
 30
0.0
 70
    32
  0
VERTEX
  5
551
  8
LAYER1
 62
    18
 10
3.034905425829328
 20
1.486248958120598
 30
0.0
 70
    32
  0
SEQEND
  5
552
  8
LAYER1
 62
    18
  0
POLYLINE
  5
553
  8
LAYER1
 62
    18
 10
0.0
 20
0.0
 30
0.0
 66
     1
 70
     8
  0
VERTEX
  5
554
  8
LAYER1
 62
    18
 10
3.034905425829328
 20
1.486248958120598
 30
0.0
 70
    32
  0
VERTEX
  5
555
  8
LAYER1
 62
    18
 10
3.044978672713673
 20
1.595676900968804
 30
0.0
 70
    32
  0
VERTEX
  5
556
  8
LAYER1
 62
    18
 10
3.075198413366712
 20
1.68768086043383
 30
0.0
 70
    32
  0
VERTEX
  5
557
  8
LAYER1
 62
    18
 10
3.127405397219098
 20
1.764248836050285
 30
0.0
 70
    32
  0
SEQEND
  5
558
  8
LAYER1
 62
    18
  0
POLYLINE
  5
559
  8
LAYER1
 62
    18
 10
0.0
 20
0.0
 30
0.0
 66
     1
 70
     8
  0
VERTEX
  5
55A
  8
LAYER1
 62
    18
 10
3.127405397219098
 20
1.764248836050285
 30
0.0
 70
    32
  0
VERTEX
  5
55B
  8
LAYER1
 62
    18
 10
3.194717141837513
 20
1.818807723436608
 30
0.0
 70
    32
  0
VERTEX
  5
55C
  8
LAYER1
 62
    18
 10
3.274552413458264
 20
1.851804415807976
 30
0.0
 70
    32
  0
VERTEX
  5
55D
  8
LAYER1
 62
    18
 10
3.3699054639763
 20
1.863248813162102
 30
0.0
 70
    32
  0
SEQEND
  5
55E
  8
LAYER1
 62
    18
  0
POLYLINE
  5
55F
  8
LAYER1
 62
    18
 10
0.0
 20
0.0
 30
0.0
 66
     1
 70
     8
  0
VERTEX
  5
560
  8
LAYER1
 62
    18
 10
3.3699054639763
 20
1.863248813162102
 30
0.0
 70
    32
  0
VERTEX
  5
561
  8
LAYER1
 62
    18
 10
3.451580423063671
 20
1.854754631648315
 30
0.0
 70
    32
  0
VERTEX
  5
562
  8
LAYER1
 62
    18
 10
3.522365340608991
 20
1.829272087106956
 30
0.0
 70
    32
  0
VERTEX
  5
563
  8
LAYER1
 62
    18
 10
3.583905212206281
 20
1.78524898291613
 30
0.0
 70
    32
  0
SEQEND
  5
564
  8
LAYER1
 62
    18
  0
POLYLINE
  5
565
  8
LAYER1
 62
    18
 10
0.0
 20
0.0
 30
0.0
 66
     1
 70
     8
  0
VERTEX
  5
566
  8
LAYER1
 62
    18
 10
3.583905212206281
 20
1.78524898291613
 30
0.0
 70
    32
  0
VERTEX
  5
567
  8
LAYER1
 62
    18
 10
3.613522823614513
 20
1.750532958588852
 30
0.0
 70
    32
  0
VERTEX
  5
568
  8
LAYER1
 62
    18
 10
3.637695310396588
 20
1.707104890642418
 30
0.0
 70
    32
  0
VERTEX
  5
569
  8
LAYER1
 62
    18
 10
3.656905166429913
 20
1.653248775015129
 30
0.0
 70
    32
  0
SEQEND
  5
56A
  8
LAYER1
 62
    18
  0
LINE
  5
56B
  8
LAYER1
 62
    18
 10
3.656905166429913
 20
1.653248775015129
 30
0.0
 11
3.513905040544904
 21
1.619248855123772
 31
0.0
  0
POLYLINE
  5
56C
  8
LAYER1
 62
    18
 10
0.0
 20
0.0
 30
0.0
 66
     1
 70
     8
  0
VERTEX
  5
56D
  8
LAYER1
 62
    18
 10
3.513905040544904
 20
1.619248855123772
 30
0.0
 70
    32
  0
VERTEX
  5
56E
  8
LAYER1
 62
    18
 10
3.502384738392269
 20
1.653595259032501
 30
0.0
 70
    32
  0
VERTEX
  5
56F
  8
LAYER1
 62
    18
 10
3.484983847040571
 20
1.68271447831179
 30
0.0
 70
    32
  0
VERTEX
  5
570
  8
LAYER1
 62
    18
 10
3.460905067247785
 20
1.707248914251579
 30
0.0
 70
    32
  0
SEQEND
  5
571
  8
LAYER1
 62
    18
  0
POLYLINE
  5
572
  8
LAYER1
 62
    18
 10
0.0
 20
0.0
 30
0.0
 66
     1
 70
     8
  0
VERTEX
  5
573
  8
LAYER1
 62
    18
 10
3.460905067247785
 20
1.707248914251579
 30
0.0
 70
    32
  0
VERTEX
  5
574
  8
LAYER1
 62
    18
 10
3.432544878715908
 20
1.724884149990333
 30
0.0
 70
    32
  0
VERTEX
  5
575
  8
LAYER1
 62
    18
 10
3.400264262766278
 20
1.73554977160479
 30
0.0
 70
    32
  0
VERTEX
  5
576
  8
LAYER1
 62
    18
 10
3.36290501765672
 20
1.739248979101433
 30
0.0
 70
    32
  0
SEQEND
  5
577
  8
LAYER1
 62
    18
  0
POLYLINE
  5
578
  8
LAYER1
 62
    18
 10
0.0
 20
0.0
 30
0.0
 66
     1
 70
     8
  0
VERTEX
  5
579
  8
LAYER1
 62
    18
 10
3.36290501765672
 20
1.739248979101433
 30
0.0
 70
    32
  0
VERTEX
  5
57A
  8
LAYER1
 62
    18
 10
3.313426510948574
 20
1.733041674635662
 30
0.0
 70
    32
  0
VERTEX
  5
57B
  8
LAYER1
 62
    18
 10
3.270590890116132
 20
1.71441976123835
 30
0.0
 70
    32
  0
VERTEX
  5
57C
  8
LAYER1
 62
    18
 10
3.233405105394757
 20
1.682248938093437
 30
0.0
 70
    32
  0
SEQEND
  5
57D
  8
LAYER1
 62
    18
  0
POLYLINE
  5
57E
  8
LAYER1
 62
    18
 10
0.0
 20
0.0
 30
0.0
 66
     1
 70
     8
  0
VERTEX
  5
57F
  8
LAYER1
 62
    18
 10
3.233405105394757
 20
1.682248938093437
 30
0.0
 70
    32
  0
VERTEX
  5
580
  8
LAYER1
 62
    18
 10
3.206125661701596
 20
1.636897013209118
 30
0.0
 70
    32
  0
VERTEX
  5
581
  8
LAYER1
 62
    18
 10
3.189627315515912
 20
1.576081292686714
 30
0.0
 70
    32
  0
VERTEX
  5
582
  8
LAYER1
 62
    18
 10
3.183905116838849
 20
1.497248876104607
 30
0.0
 70
    32
  0
SEQEND
  5
583
  8
LAYER1
 62
    18
  0
POLYLINE
  5
584
  8
LAYER1
 62
    18
 10
0.0
 20
0.0
 30
0.0
 66
     1
 70
     8
  0
VERTEX
  5
585
  8
LAYER1
 62
    18
 10
3.183905116838849
 20
1.497248876104607
 30
0.0
 70
    32
  0
VERTEX
  5
586
  8
LAYER1
 62
    18
 10
3.189241219539082
 20
1.416037570784344
 30
0.0
 70
    32
  0
VERTEX
  5
587
  8
LAYER1
 62
    18
 10
3.205249527639783
 20
1.351923546562447
 30
0.0
 70
    32
  0
VERTEX
  5
588
  8
LAYER1
 62
    18
 10
3.232905141634381
 20
1.303748953352226
 30
0.0
 70
    32
  0
SEQEND
  5
589
  8
LAYER1
 62
    18
  0
POLYLINE
  5
58A
  8
LAYER1
 62
    18
 10
0.0
 20
0.0
 30
0.0
 66
     1
 70
     8
  0
VERTEX
  5
58B
  8
LAYER1
 62
    18
 10
3.232905141634381
 20
1.303748953352226
 30
0.0
 70
    32
  0
VERTEX
  5
58C
  8
LAYER1
 62
    18
 10
3.268403262776769
 20
1.272060700724377
 30
0.0
 70
    32
  0
VERTEX
  5
58D
  8
LAYER1
 62
    18
 10
3.310217593473828
 20
1.252895949135079
 30
0.0
 70
    32
  0
VERTEX
  5
58E
  8
LAYER1
 62
    18
 10
3.359905235094464
 20
1.246248948583855
 30
0.0
 70
    32
  0
SEQEND
  5
58F
  8
LAYER1
 62
    18
  0
POLYLINE
  5
590
  8
LAYER1
 62
    18
 10
0.0
 20
0.0
 30
0.0
 66
     1
 70
     8
  0
VERTEX
  5
591
  8
LAYER1
 62
    18
 10
3.359905235094464
 20
1.246248948583855
 30
0.0
 70
    32
  0
VERTEX
  5
592
  8
LAYER1
 62
    18
 10
3.396388417453204
 20
1.250223796091332
 30
0.0
 70
    32
  0
VERTEX
  5
593
  8
LAYER1
 62
    18
 10
3.429277848715222
 20
1.262148338613762
 30
0.0
 70
    32
  0
VERTEX
  5
594
  8
LAYER1
 62
    18
 10
3.459405175966657
 20
1.282748925695671
 30
0.0
 70
    32
  0
SEQEND
  5
595
  8
LAYER1
 62
    18
  0
POLYLINE
  5
596
  8
LAYER1
 62
    18
 10
0.0
 20
0.0
 30
0.0
 66
     1
 70
     8
  0
VERTEX
  5
597
  8
LAYER1
 62
    18
 10
3.459405175966657
 20
1.282748925695671
 30
0.0
 70
    32
  0
VERTEX
  5
598
  8
LAYER1
 62
    18
 10
3.484235958737766
 20
1.311467162666573
 30
0.0
 70
    32
  0
VERTEX
  5
599
  8
LAYER1
 62
    18
 10
3.503948500914014
 20
1.349441903791679
 30
0.0
 70
    32
  0
VERTEX
  5
59A
  8
LAYER1
 62
    18
 10
3.518905154985822
 20
1.39824889899279
 30
0.0
 70
    32
  0
SEQEND
  5
59B
  8
LAYER1
 62
    18
  0
LINE
  5
59C
  8
LAYER1
 62
    18
 10
3.518905154985822
 20
1.39824889899279
 30
0.0
 11
3.658905021471417
 21
1.355248916158928
 31
0.0
  0
LINE
  5
59D
  8
LAYER1
 62
    18
 10
4.271905414385236
 20
1.134248960027946
 30
0.0
 11
4.209905139727033
 21
1.297248828420891
 31
0.0
  0
LINE
  5
59E
  8
LAYER1
 62
    18
 10
4.209905139727033
 20
1.297248828420891
 30
0.0
 11
3.922905437273419
 21
1.297248828420891
 31
0.0
  0
LINE
  5
59F
  8
LAYER1
 62
    18
 10
3.922905437273419
 20
1.297248828420891
 30
0.0
 11
3.86290501765672
 21
1.134248960027946
 31
0.0
  0
LINE
  5
5A0
  8
LAYER1
 62
    18
 10
3.86290501765672
 20
1.134248960027946
 30
0.0
 11
3.709905139727033
 21
1.134248960027946
 31
0.0
  0
LINE
  5
5A1
  8
LAYER1
 62
    18
 10
3.98790501765672
 20
1.85024880171801
 30
0.0
 11
4.140905372423566
 21
1.85024880171801
 31
0.0
  0
LINE
  5
5A2
  8
LAYER1
 62
    18
 10
4.427905074877179
 20
1.134248960027946
 30
0.0
 11
4.271905414385236
 21
1.134248960027946
 31
0.0
  0
LINE
  5
5A3
  8
LAYER1
 62
    18
 10
3.966905109209454
 20
1.418248879919304
 30
0.0
 11
4.162905208391583
 21
1.418248879919304
 31
0.0
  0
LINE
  5
5A4
  8
LAYER1
 62
    18
 10
4.499905578417218
 20
1.85024880171801
 30
0.0
 11
4.644905082506574
 21
1.85024880171801
 31
0.0
  0
LINE
  5
5A5
  8
LAYER1
 62
    18
 10
4.644905082506574
 20
1.85024880171801
 30
0.0
 11
4.644905082506574
 21
1.134248960027946
 31
0.0
  0
LINE
  5
5A6
  8
LAYER1
 62
    18
 10
4.644905082506574
 20
1.134248960027946
 30
0.0
 11
4.499905578417218
 21
1.134248960027946
 31
0.0
  0
LINE
  5
5A7
  8
LAYER1
 62
    18
 10
4.499905578417218
 20
1.134248960027946
 30
0.0
 11
4.499905578417218
 21
1.85024880171801
 31
0.0
  0
POLYLINE
  5
5A8
  8
LAYER1
 62
    18
 10
0.0
 20
0.0
 30
0.0
 66
     1
 70
     8
  0
VERTEX
  5
5A9
  8
LAYER1
 62
    18
 10
4.782905570787824
 20
1.85024880171801
 30
0.0
 70
    32
  0
VERTEX
  5
5AA
  8
LAYER1
 62
    18
 10
4.860238697097135
 20
1.850236244946845
 30
0.0
 70
    32
  0
VERTEX
  5
5AB
  8
LAYER1
 62
    18
 10
4.963261287902602
 20
1.850089516391016
 30
0.0
 70
    32
  0
VERTEX
  5
5AC
  8
LAYER1
 62
    18
 10
5.085322037222197
 20
1.849169592813463
 30
0.0
 70
    32
  0
VERTEX
  5
5AD
  8
LAYER1
 62
    18
 10
5.142855050303837
 20
1.846175469623393
 30
0.0
 70
    32
  0
VERTEX
  5
5AE
  8
LAYER1
 62
    18
 10
5.16030921508009
 20
1.843877954453943
 30
0.0
 70
    32
  0
VERTEX
  5
5AF
  8
LAYER1
 62
    18
 10
5.174318072867631
 20
1.841535323527169
 30
0.0
 70
    32
  0
VERTEX
  5
5B0
  8
LAYER1
 62
    18
 10
5.186904899401105
 20
1.839248883734001
 30
0.0
 70
    32
  0
SEQEND
  5
5B1
  8
LAYER1
 62
    18
  0
POLYLINE
  5
5B2
  8
LAYER1
 62
    18
 10
0.0
 20
0.0
 30
0.0
 66
     1
 70
     8
  0
VERTEX
  5
5B3
  8
LAYER1
 62
    18
 10
5.186904899401105
 20
1.839248883734001
 30
0.0
 70
    32
  0
VERTEX
  5
5B4
  8
LAYER1
 62
    18
 10
5.225041761536037
 20
1.824550663683667
 30
0.0
 70
    32
  0
VERTEX
  5
5B5
  8
LAYER1
 62
    18
 10
5.258931260294355
 20
1.801576046333565
 30
0.0
 70
    32
  0
VERTEX
  5
5B6
  8
LAYER1
 62
    18
 10
5.28940533809129
 20
1.769248831281914
 30
0.0
 70
    32
  0
SEQEND
  5
5B7
  8
LAYER1
 62
    18
  0
POLYLINE
  5
5B8
  8
LAYER1
 62
    18
 10
0.0
 20
0.0
 30
0.0
 66
     1
 70
     8
  0
VERTEX
  5
5B9
  8
LAYER1
 62
    18
 10
5.28940533809129
 20
1.769248831281914
 30
0.0
 70
    32
  0
VERTEX
  5
5BA
  8
LAYER1
 62
    18
 10
5.312275775761044
 20
1.730232916090741
 30
0.0
 70
    32
  0
VERTEX
  5
5BB
  8
LAYER1
 62
    18
 10
5.326107597345745
 20
1.684465196953071
 30
0.0
 70
    32
  0
VERTEX
  5
5BC
  8
LAYER1
 62
    18
 10
5.330904952806867
 20
1.63024877310778
 30
0.0
 70
    32
  0
SEQEND
  5
5BD
  8
LAYER1
 62
    18
  0
POLYLINE
  5
5BE
  8
LAYER1
 62
    18
 10
0.0
 20
0.0
 30
0.0
 66
     1
 70
     8
  0
VERTEX
  5
5BF
  8
LAYER1
 62
    18
 10
5.330904952806867
 20
1.63024877310778
 30
0.0
 70
    32
  0
VERTEX
  5
5C0
  8
LAYER1
 62
    18
 10
5.328291386455929
 20
1.58897568619038
 30
0.0
 70
    32
  0
VERTEX
  5
5C1
  8
LAYER1
 62
    18
 10
5.320450687403119
 20
1.552276405296578
 30
0.0
 70
    32
  0
VERTEX
  5
5C2
  8
LAYER1
 62
    18
 10
5.306905261797345
 20
1.519248831281914
 30
0.0
 70
    32
  0
SEQEND
  5
5C3
  8
LAYER1
 62
    18
  0
POLYLINE
  5
5C4
  8
LAYER1
 62
    18
 10
0.0
 20
0.0
 30
0.0
 66
     1
 70
     8
  0
VERTEX
  5
5C5
  8
LAYER1
 62
    18
 10
5.306905261797345
 20
1.519248831281914
 30
0.0
 70
    32
  0
VERTEX
  5
5C6
  8
LAYER1
 62
    18
 10
5.28970418457452
 20
1.491672411475434
 30
0.0
 70
    32
  0
VERTEX
  5
5C7
  8
LAYER1
 62
    18
 10
5.269780545038616
 20
1.468343095407738
 30
0.0
 70
    32
  0
VERTEX
  5
5C8
  8
LAYER1
 62
    18
 10
5.246405593676007
 20
1.44874893427874
 30
0.0
 70
    32
  0
SEQEND
  5
5C9
  8
LAYER1
 62
    18
  0
POLYLINE
  5
5CA
  8
LAYER1
 62
    18
 10
0.0
 20
0.0
 30
0.0
 66
     1
 70
     8
  0
VERTEX
  5
5CB
  8
LAYER1
 62
    18
 10
5.246405593676007
 20
1.44874893427874
 30
0.0
 70
    32
  0
VERTEX
  5
5CC
  8
LAYER1
 62
    18
 10
5.222152244657909
 20
1.433715810535206
 30
0.0
 70
    32
  0
VERTEX
  5
5CD
  8
LAYER1
 62
    18
 10
5.197572167391217
 20
1.422276359997047
 30
0.0
 70
    32
  0
VERTEX
  5
5CE
  8
LAYER1
 62
    18
 10
5.171905509752667
 20
1.414248931417717
 30
0.0
 70
    32
  0
SEQEND
  5
5CF
  8
LAYER1
 62
    18
  0
POLYLINE
  5
5D0
  8
LAYER1
 62
    18
 10
0.0
 20
0.0
 30
0.0
 66
     1
 70
     8
  0
VERTEX
  5
5D1
  8
LAYER1
 62
    18
 10
5.171905509752667
 20
1.414248931417717
 30
0.0
 70
    32
  0
VERTEX
  5
5D2
  8
LAYER1
 62
    18
 10
5.147075294955176
 20
1.410731495789251
 30
0.0
 70
    32
  0
VERTEX
  5
5D3
  8
LAYER1
 62
    18
 10
5.097147233800585
 20
1.405996253911525
 30
0.0
 70
    32
  0
VERTEX
  5
5D4
  8
LAYER1
 62
    18
 10
5.015607768563828
 20
1.404439293096039
 30
0.0
 70
    32
  0
VERTEX
  5
5D5
  8
LAYER1
 62
    18
 10
4.959238280010309
 20
1.404286808598319
 30
0.0
 70
    32
  0
VERTEX
  5
5D6
  8
LAYER1
 62
    18
 10
4.940129252232596
 20
1.404255403460191
 30
0.0
 70
    32
  0
VERTEX
  5
5D7
  8
LAYER1
 62
    18
 10
4.927905074877179
 20
1.40424894095446
 30
0.0
 70
    32
  0
SEQEND
  5
5D8
  8
LAYER1
 62
    18
  0
LINE
  5
5D9
  8
LAYER1
 62
    18
 10
4.927905074877179
 20
1.40424894095446
 30
0.0
 11
4.927905074877179
 21
1.134248960027946
 31
0.0
  0
LINE
  5
5DA
  8
LAYER1
 62
    18
 10
4.927905074877179
 20
1.134248960027946
 30
0.0
 11
4.782905570787824
 21
1.134248960027946
 31
0.0
  0
POLYLINE
  5
5DB
  8
LAYER1
 62
    18
 10
0.0
 20
0.0
 30
0.0
 66
     1
 70
     8
  0
VERTEX
  5
5DC
  8
LAYER1
 62
    18
 10
4.927905074877179
 20
1.525248992452873
 30
0.0
 70
    32
  0
VERTEX
  5
5DD
  8
LAYER1
 62
    18
 10
4.954238559378272
 20
1.525256549684869
 30
0.0
 70
    32
  0
VERTEX
  5
5DE
  8
LAYER1
 62
    18
 10
4.99720855119459
 20
1.525386751393952
 30
0.0
 70
    32
  0
VERTEX
  5
5DF
  8
LAYER1
 62
    18
 10
5.052756131377779
 20
1.526348172531121
 30
0.0
 70
    32
  0
VERTEX
  5
5E0
  8
LAYER1
 62
    18
 10
5.090875420465535
 20
1.529613192452211
 30
0.0
 70
    32
  0
VERTEX
  5
5E1
  8
LAYER1
 62
    18
 10
5.111807988021137
 20
1.534361681113421
 30
0.0
 70
    32
  0
VERTEX
  5
5E2
  8
LAYER1
 62
    18
 10
5.120405189318097
 20
1.536748993406547
 30
0.0
 70
    32
  0
SEQEND
  5
5E3
  8
LAYER1
 62
    18
  0
POLYLINE
  5
5E4
  8
LAYER1
 62
    18
 10
0.0
 20
0.0
 30
0.0
 66
     1
 70
     8
  0
VERTEX
  5
5E5
  8
LAYER1
 62
    18
 10
5.120405189318097
 20
1.536748993406547
 30
0.0
 70
    32
  0
VERTEX
  5
5E6
  8
LAYER1
 62
    18
 10
5.137908170265591
 20
1.545700236246838
 30
0.0
 70
    32
  0
VERTEX
  5
5E7
  8
LAYER1
 62
    18
 10
5.152797636789716
 20
1.557373963508858
 30
0.0
 70
    32
  0
VERTEX
  5
5E8
  8
LAYER1
 62
    18
 10
5.165404788774884
 20
1.572248923788322
 30
0.0
 70
    32
  0
SEQEND
  5
5E9
  8
LAYER1
 62
    18
  0
POLYLINE
  5
5EA
  8
LAYER1
 62
    18
 10
0.0
 20
0.0
 30
0.0
 66
     1
 70
     8
  0
VERTEX
  5
5EB
  8
LAYER1
 62
    18
 10
5.165404788774884
 20
1.572248923788322
 30
0.0
 70
    32
  0
VERTEX
  5
5EC
  8
LAYER1
 62
    18
 10
5.174497936672603
 20
1.588851199851288
 30
0.0
 70
    32
  0
VERTEX
  5
5ED
  8
LAYER1
 62
    18
 10
5.179997385401167
 20
1.606978121195091
 30
0.0
 70
    32
  0
VERTEX
  5
5EE
  8
LAYER1
 62
    18
 10
5.181904784960187
 20
1.627248990545525
 30
0.0
 70
    32
  0
SEQEND
  5
5EF
  8
LAYER1
 62
    18
  0
POLYLINE
  5
5F0
  8
LAYER1
 62
    18
 10
0.0
 20
0.0
 30
0.0
 66
     1
 70
     8
  0
VERTEX
  5
5F1
  8
LAYER1
 62
    18
 10
5.181904784960187
 20
1.627248990545525
 30
0.0
 70
    32
  0
VERTEX
  5
5F2
  8
LAYER1
 62
    18
 10
5.17940011071626
 20
1.652069912979854
 30
0.0
 70
    32
  0
VERTEX
  5
5F3
  8
LAYER1
 62
    18
 10
5.171886087984479
 20
1.673732730636848
 30
0.0
 70
    32
  0
VERTEX
  5
5F4
  8
LAYER1
 62
    18
 10
5.158905021471417
 20
1.69274889231707
 30
0.0
 70
    32
  0
SEQEND
  5
5F5
  8
LAYER1
 62
    18
  0
POLYLINE
  5
5F6
  8
LAYER1
 62
    18
 10
0.0
 20
0.0
 30
0.0
 66
     1
 70
     8
  0
VERTEX
  5
5F7
  8
LAYER1
 62
    18
 10
5.158905021471417
 20
1.69274889231707
 30
0.0
 70
    32
  0
VERTEX
  5
5F8
  8
LAYER1
 62
    18
 10
5.142418368429578
 20
1.707455313775791
 30
0.0
 70
    32
  0
VERTEX
  5
5F9
  8
LAYER1
 62
    18
 10
5.123318097109234
 20
1.717914657459511
 30
0.0
 70
    32
  0
VERTEX
  5
5FA
  8
LAYER1
 62
    18
 10
5.100905410570538
 20
1.724248874197258
 30
0.0
 70
    32
  0
SEQEND
  5
5FB
  8
LAYER1
 62
    18
  0
POLYLINE
  5
5FC
  8
LAYER1
 62
    18
 10
0.0
 20
0.0
 30
0.0
 66
     1
 70
     8
  0
VERTEX
  5
5FD
  8
LAYER1
 62
    18
 10
5.100905410570538
 20
1.724248874197258
 30
0.0
 70
    32
  0
VERTEX
  5
5FE
  8
LAYER1
 62
    18
 10
5.043574888508957
 20
1.728918697946684
 30
0.0
 70
    32
  0
VERTEX
  5
5FF
  8
LAYER1
 62
    18
 10
4.985175872710535
 20
1.72955552808979
 30
0.0
 70
    32
  0
VERTEX
  5
600
  8
LAYER1
 62
    18
 10
4.962397691278047
 20
1.729372729684663
 30
0.0
 70
    32
  0
VERTEX
  5
601
  8
LAYER1
 62
    18
 10
4.936505174445601
 20
1.729232935148401
 30
0.0
 70
    32
  0
VERTEX
  5
602
  8
LAYER1
 62
    18
 10
4.927905074877179
 20
1.729248988638176
 30
0.0
 70
    32
  0
SEQEND
  5
603
  8
LAYER1
 62
    18
  0
LINE
  5
604
  8
LAYER1
 62
    18
 10
5.938905708116925
 20
1.134248960027946
 30
0.0
 11
5.876905433458722
 21
1.297248828420891
 31
0.0
  0
LINE
  5
605
  8
LAYER1
 62
    18
 10
5.876905433458722
 20
1.297248828420891
 30
0.0
 11
5.589904777330792
 21
1.297248828420891
 31
0.0
  0
LINE
  5
606
  8
LAYER1
 62
    18
 10
5.589904777330792
 20
1.297248828420891
 30
0.0
 11
5.52990531138841
 21
1.134248960027946
 31
0.0
  0
LINE
  5
607
  8
LAYER1
 62
    18
 10
5.52990531138841
 20
1.134248960027946
 30
0.0
 11
5.376905433458722
 21
1.134248960027946
 31
0.0
  0
LINE
  5
608
  8
LAYER1
 62
    18
 10
5.65490531138841
 20
1.85024880171801
 30
0.0
 11
5.807905189318097
 21
1.85024880171801
 31
0.0
  0
LINE
  5
609
  8
LAYER1
 62
    18
 10
6.09490489177171
 20
1.134248960027946
 30
0.0
 11
5.938905708116925
 21
1.134248960027946
 31
0.0
  0
LINE
  5
60A
  8
LAYER1
 62
    18
 10
5.633905402941144
 20
1.418248879919304
 30
0.0
 11
5.829905502123273
 21
1.418248879919304
 31
0.0
  0
POLYLINE
  5
60B
  8
LAYER1
 62
    18
 10
0.0
 20
0.0
 30
0.0
 66
     1
 70
     8
  0
VERTEX
  5
60C
  8
LAYER1
 62
    18
 10
6.303905479235089
 20
1.271248805532707
 30
0.0
 70
    32
  0
VERTEX
  5
60D
  8
LAYER1
 62
    18
 10
6.303900717586744
 20
1.238582203890614
 30
0.0
 70
    32
  0
VERTEX
  5
60E
  8
LAYER1
 62
    18
 10
6.303832361245773
 20
1.190035308861649
 30
0.0
 70
    32
  0
VERTEX
  5
60F
  8
LAYER1
 62
    18
 10
6.30328737976632
 20
1.143629039847021
 30
0.0
 70
    32
  0
VERTEX
  5
610
  8
LAYER1
 62
    18
 10
6.302084857370639
 20
1.125630950464134
 30
0.0
 70
    32
  0
VERTEX
  5
611
  8
LAYER1
 62
    18
 10
6.29730843025807
 20
1.094253297902561
 30
0.0
 70
    32
  0
VERTEX
  5
612
  8
LAYER1
 62
    18
 10
6.296042191283385
 20
1.088175959480705
 30
0.0
 70
    32
  0
VERTEX
  5
613
  8
LAYER1
 62
    18
 10
6.293905250353253
 20
1.078748810301079
 30
0.0
 70
    32
  0
SEQEND
  5
614
  8
LAYER1
 62
    18
  0
POLYLINE
  5
615
  8
LAYER1
 62
    18
 10
0.0
 20
0.0
 30
0.0
 66
     1
 70
     8
  0
VERTEX
  5
616
  8
LAYER1
 62
    18
 10
6.293905250353253
 20
1.078748810301079
 30
0.0
 70
    32
  0
VERTEX
  5
617
  8
LAYER1
 62
    18
 10
6.285290465492642
 20
1.056795564124836
 30
0.0
 70
    32
  0
VERTEX
  5
618
  8
LAYER1
 62
    18
 10
6.272646413034833
 20
1.036475829372658
 30
0.0
 70
    32
  0
VERTEX
  5
619
  8
LAYER1
 62
    18
 10
6.255404941362775
 20
1.01724885703112
 30
0.0
 70
    32
  0
SEQEND
  5
61A
  8
LAYER1
 62
    18
  0
POLYLINE
  5
61B
  8
LAYER1
 62
    18
 10
0.0
 20
0.0
 30
0.0
 66
     1
 70
     8
  0
VERTEX
  5
61C
  8
LAYER1
 62
    18
 10
6.255404941362775
 20
1.01724885703112
 30
0.0
 70
    32
  0
VERTEX
  5
61D
  8
LAYER1
 62
    18
 10
6.234906982941066
 20
1.000626780829681
 30
0.0
 70
    32
  0
VERTEX
  5
61E
  8
LAYER1
 62
    18
 10
6.211033213419354
 20
0.9864004867651595
 30
0.0
 70
    32
  0
VERTEX
  5
61F
  8
LAYER1
 62
    18
 10
6.182905189318097
 20
0.9742488741972579
 30
0.0
 70
    32
  0
SEQEND
  5
620
  8
LAYER1
 62
    18
  0
LINE
  5
621
  8
LAYER1
 62
    18
 10
6.182905189318097
 20
0.9742488741972579
 30
0.0
 11
6.15590571574632
 21
1.031248795995964
 31
0.0
  0
POLYLINE
  5
622
  8
LAYER1
 62
    18
 10
0.0
 20
0.0
 30
0.0
 66
     1
 70
     8
  0
VERTEX
  5
623
  8
LAYER1
 62
    18
 10
6.15590571574632
 20
1.031248795995964
 30
0.0
 70
    32
  0
VERTEX
  5
624
  8
LAYER1
 62
    18
 10
6.18040623368684
 20
1.041577886066689
 30
0.0
 70
    32
  0
VERTEX
  5
625
  8
LAYER1
 62
    18
 10
6.199788562960064
 20
1.054084922132744
 30
0.0
 70
    32
  0
VERTEX
  5
626
  8
LAYER1
 62
    18
 10
6.214405051988996
 20
1.069248902807487
 30
0.0
 70
    32
  0
SEQEND
  5
627
  8
LAYER1
 62
    18
  0
POLYLINE
  5
628
  8
LAYER1
 62
    18
 10
0.0
 20
0.0
 30
0.0
 66
     1
 70
     8
  0
VERTEX
  5
629
  8
LAYER1
 62
    18
 10
6.214405051988996
 20
1.069248902807487
 30
0.0
 70
    32
  0
VERTEX
  5
62A
  8
LAYER1
 62
    18
 10
6.224158203977979
 20
1.086940177831902
 30
0.0
 70
    32
  0
VERTEX
  5
62B
  8
LAYER1
 62
    18
 10
6.230317760652936
 20
1.108334096060051
 30
0.0
 70
    32
  0
VERTEX
  5
62C
  8
LAYER1
 62
    18
 10
6.23290538005296
 20
1.134248960027946
 30
0.0
 70
    32
  0
SEQEND
  5
62D
  8
LAYER1
 62
    18
  0
LINE
  5
62E
  8
LAYER1
 62
    18
 10
6.23290538005296
 20
1.134248960027946
 30
0.0
 11
6.166905395311749
 21
1.134248960027946
 31
0.0
  0
LINE
  5
62F
  8
LAYER1
 62
    18
 10
6.166905395311749
 20
1.134248960027946
 30
0.0
 11
6.166905395311749
 21
1.271248805532707
 31
0.0
  0
LINE
  5
630
  8
LAYER1
 62
    18
 10
6.166905395311749
 20
1.271248805532707
 30
0.0
 11
6.303905479235089
 21
1.271248805532707
 31
0.0
  0
POLYLINE
  5
631
  8
LAYER1
 62
    18
 10
0.0
 20
0.0
 30
0.0
 66
     1
 70
     8
  0
VERTEX
  5
632
  8
LAYER1
 62
    18
 10
7.325904838365949
 20
1.355248916158928
 30
0.0
 70
    32
  0
VERTEX
  5
633
  8
LAYER1
 62
    18
 10
7.300102386183179
 20
1.283957348821415
 30
0.0
 70
    32
  0
VERTEX
  5
634
  8
LAYER1
 62
    18
 10
7.264934485811628
 20
1.225842687092079
 30
0.0
 70
    32
  0
VERTEX
  5
635
  8
LAYER1
 62
    18
 10
7.218905441088117
 20
1.179748880872978
 30
0.0
 70
    32
  0
SEQEND
  5
636
  8
LAYER1
 62
    18
  0
POLYLINE
  5
637
  8
LAYER1
 62
    18
 10
0.0
 20
0.0
 30
0.0
 66
     1
 70
     8
  0
VERTEX
  5
638
  8
LAYER1
 62
    18
 10
7.218905441088117
 20
1.179748880872978
 30
0.0
 70
    32
  0
VERTEX
  5
639
  8
LAYER1
 62
    18
 10
7.164940627092754
 20
1.148060628245129
 30
0.0
 70
    32
  0
VERTEX
  5
63A
  8
LAYER1
 62
    18
 10
7.102045933336651
 20
1.12889587665583
 30
0.0
 70
    32
  0
VERTEX
  5
63B
  8
LAYER1
 62
    18
 10
7.027905456346906
 20
1.122248876104607
 30
0.0
 70
    32
  0
SEQEND
  5
63C
  8
LAYER1
 62
    18
  0
POLYLINE
  5
63D
  8
LAYER1
 62
    18
 10
0.0
 20
0.0
 30
0.0
 66
     1
 70
     8
  0
VERTEX
  5
63E
  8
LAYER1
 62
    18
 10
7.027905456346906
 20
1.122248876104607
 30
0.0
 70
    32
  0
VERTEX
  5
63F
  8
LAYER1
 62
    18
 10
6.93963034619752
 20
1.132866622469677
 30
0.0
 70
    32
  0
VERTEX
  5
640
  8
LAYER1
 62
    18
 10
6.862245277590191
 20
1.164719861564888
 30
0.0
 70
    32
  0
VERTEX
  5
641
  8
LAYER1
 62
    18
 10
6.793905250353253
 20
1.219748842726005
 30
0.0
 70
    32
  0
SEQEND
  5
642
  8
LAYER1
 62
    18
  0
POLYLINE
  5
643
  8
LAYER1
 62
    18
 10
0.0
 20
0.0
 30
0.0
 66
     1
 70
     8
  0
VERTEX
  5
644
  8
LAYER1
 62
    18
 10
6.793905250353253
 20
1.219748842726005
 30
0.0
 70
    32
  0
VERTEX
  5
645
  8
LAYER1
 62
    18
 10
6.743204046148692
 20
1.291885190532459
 30
0.0
 70
    32
  0
VERTEX
  5
646
  8
LAYER1
 62
    18
 10
6.712540443605816
 20
1.379594278011574
 30
0.0
 70
    32
  0
VERTEX
  5
647
  8
LAYER1
 62
    18
 10
6.701905242723859
 20
1.486248958120598
 30
0.0
 70
    32
  0
SEQEND
  5
648
  8
LAYER1
 62
    18
  0
POLYLINE
  5
649
  8
LAYER1
 62
    18
 10
0.0
 20
0.0
 30
0.0
 66
     1
 70
     8
  0
VERTEX
  5
64A
  8
LAYER1
 62
    18
 10
6.701905242723859
 20
1.486248958120598
 30
0.0
 70
    32
  0
VERTEX
  5
64B
  8
LAYER1
 62
    18
 10
6.711978515571987
 20
1.595676900968804
 30
0.0
 70
    32
  0
VERTEX
  5
64C
  8
LAYER1
 62
    18
 10
6.742198334116376
 20
1.68768086043383
 30
0.0
 70
    32
  0
VERTEX
  5
64D
  8
LAYER1
 62
    18
 10
6.794405452532208
 20
1.764248836050285
 30
0.0
 70
    32
  0
SEQEND
  5
64E
  8
LAYER1
 62
    18
  0
POLYLINE
  5
64F
  8
LAYER1
 62
    18
 10
0.0
 20
0.0
 30
0.0
 66
     1
 70
     8
  0
VERTEX
  5
650
  8
LAYER1
 62
    18
 10
6.794405452532208
 20
1.764248836050285
 30
0.0
 70
    32
  0
VERTEX
  5
651
  8
LAYER1
 62
    18
 10
6.861717276615535
 20
1.818807723436608
 30
0.0
 70
    32
  0
VERTEX
  5
652
  8
LAYER1
 62
    18
 10
6.9415524719185
 20
1.851804415807976
 30
0.0
 70
    32
  0
VERTEX
  5
653
  8
LAYER1
 62
    18
 10
7.036905280870831
 20
1.863248813162102
 30
0.0
 70
    32
  0
SEQEND
  5
654
  8
LAYER1
 62
    18
  0
POLYLINE
  5
655
  8
LAYER1
 62
    18
 10
0.0
 20
0.0
 30
0.0
 66
     1
 70
     8
  0
VERTEX
  5
656
  8
LAYER1
 62
    18
 10
7.036905280870831
 20
1.863248813162102
 30
0.0
 70
    32
  0
VERTEX
  5
657
  8
LAYER1
 62
    18
 10
7.118580239958204
 20
1.854754631648315
 30
0.0
 70
    32
  0
VERTEX
  5
658
  8
LAYER1
 62
    18
 10
7.189365157503522
 20
1.829272087106956
 30
0.0
 70
    32
  0
VERTEX
  5
659
  8
LAYER1
 62
    18
 10
7.250905029100812
 20
1.78524898291613
 30
0.0
 70
    32
  0
SEQEND
  5
65A
  8
LAYER1
 62
    18
  0
POLYLINE
  5
65B
  8
LAYER1
 62
    18
 10
0.0
 20
0.0
 30
0.0
 66
     1
 70
     8
  0
VERTEX
  5
65C
  8
LAYER1
 62
    18
 10
7.250905029100812
 20
1.78524898291613
 30
0.0
 70
    32
  0
VERTEX
  5
65D
  8
LAYER1
 62
    18
 10
7.280522429651652
 20
1.750532958588852
 30
0.0
 70
    32
  0
VERTEX
  5
65E
  8
LAYER1
 62
    18
 10
7.304694913286603
 20
1.707104890642418
 30
0.0
 70
    32
  0
VERTEX
  5
65F
  8
LAYER1
 62
    18
 10
7.323904983324445
 20
1.653248775015129
 30
0.0
 70
    32
  0
SEQEND
  5
660
  8
LAYER1
 62
    18
  0
LINE
  5
661
  8
LAYER1
 62
    18
 10
7.323904983324445
 20
1.653248775015129
 30
0.0
 11
7.180905334276593
 21
1.619248855123772
 31
0.0
  0
POLYLINE
  5
662
  8
LAYER1
 62
    18
 10
0.0
 20
0.0
 30
0.0
 66
     1
 70
     8
  0
VERTEX
  5
663
  8
LAYER1
 62
    18
 10
7.180905334276593
 20
1.619248855123772
 30
0.0
 70
    32
  0
VERTEX
  5
664
  8
LAYER1
 62
    18
 10
7.169384769338999
 20
1.653595259032501
 30
0.0
 70
    32
  0
VERTEX
  5
665
  8
LAYER1
 62
    18
 10
7.151983719057478
 20
1.68271447831179
 30
0.0
 70
    32
  0
VERTEX
  5
666
  8
LAYER1
 62
    18
 10
7.127904884142316
 20
1.707248914251579
 30
0.0
 70
    32
  0
SEQEND
  5
667
  8
LAYER1
 62
    18
  0
POLYLINE
  5
668
  8
LAYER1
 62
    18
 10
0.0
 20
0.0
 30
0.0
 66
     1
 70
     8
  0
VERTEX
  5
669
  8
LAYER1
 62
    18
 10
7.127904884142316
 20
1.707248914251579
 30
0.0
 70
    32
  0
VERTEX
  5
66A
  8
LAYER1
 62
    18
 10
7.099544747538006
 20
1.724884149990333
 30
0.0
 70
    32
  0
VERTEX
  5
66B
  8
LAYER1
 62
    18
 10
7.067264287371076
 20
1.73554977160479
 30
0.0
 70
    32
  0
VERTEX
  5
66C
  8
LAYER1
 62
    18
 10
7.02990531138841
 20
1.739248979101433
 30
0.0
 70
    32
  0
SEQEND
  5
66D
  8
LAYER1
 62
    18
  0
POLYLINE
  5
66E
  8
LAYER1
 62
    18
 10
0.0
 20
0.0
 30
0.0
 66
     1
 70
     8
  0
VERTEX
  5
66F
  8
LAYER1
 62
    18
 10
7.02990531138841
 20
1.739248979101433
 30
0.0
 70
    32
  0
VERTEX
  5
670
  8
LAYER1
 62
    18
 10
6.980426804680263
 20
1.733041674635662
 30
0.0
 70
    32
  0
VERTEX
  5
671
  8
LAYER1
 62
    18
 10
6.937591183847822
 20
1.71441976123835
 30
0.0
 70
    32
  0
VERTEX
  5
672
  8
LAYER1
 62
    18
 10
6.900405399126447
 20
1.682248938093437
 30
0.0
 70
    32
  0
SEQEND
  5
673
  8
LAYER1
 62
    18
  0
POLYLINE
  5
674
  8
LAYER1
 62
    18
 10
0.0
 20
0.0
 30
0.0
 66
     1
 70
     8
  0
VERTEX
  5
675
  8
LAYER1
 62
    18
 10
6.900405399126447
 20
1.682248938093437
 30
0.0
 70
    32
  0
VERTEX
  5
676
  8
LAYER1
 62
    18
 10
6.873125955433283
 20
1.636897013209118
 30
0.0
 70
    32
  0
VERTEX
  5
677
  8
LAYER1
 62
    18
 10
6.856627609247601
 20
1.576081292686714
 30
0.0
 70
    32
  0
VERTEX
  5
678
  8
LAYER1
 62
    18
 10
6.850905410570538
 20
1.497248876104607
 30
0.0
 70
    32
  0
SEQEND
  5
679
  8
LAYER1
 62
    18
  0
POLYLINE
  5
67A
  8
LAYER1
 62
    18
 10
0.0
 20
0.0
 30
0.0
 66
     1
 70
     8
  0
VERTEX
  5
67B
  8
LAYER1
 62
    18
 10
6.850905410570538
 20
1.497248876104607
 30
0.0
 70
    32
  0
VERTEX
  5
67C
  8
LAYER1
 62
    18
 10
6.856241487306987
 20
1.416037570784344
 30
0.0
 70
    32
  0
VERTEX
  5
67D
  8
LAYER1
 62
    18
 10
6.872249717516338
 20
1.351923546562447
 30
0.0
 70
    32
  0
VERTEX
  5
67E
  8
LAYER1
 62
    18
 10
6.899905196947492
 20
1.303748953352226
 30
0.0
 70
    32
  0
SEQEND
  5
67F
  8
LAYER1
 62
    18
  0
POLYLINE
  5
680
  8
LAYER1
 62
    18
 10
0.0
 20
0.0
 30
0.0
 66
     1
 70
     8
  0
VERTEX
  5
681
  8
LAYER1
 62
    18
 10
6.899905196947492
 20
1.303748953352226
 30
0.0
 70
    32
  0
VERTEX
  5
682
  8
LAYER1
 62
    18
 10
6.935403186697398
 20
1.272060700724377
 30
0.0
 70
    32
  0
VERTEX
  5
683
  8
LAYER1
 62
    18
 10
6.977217437929548
 20
1.252895949135079
 30
0.0
 70
    32
  0
VERTEX
  5
684
  8
LAYER1
 62
    18
 10
7.026905051988996
 20
1.246248948583855
 30
0.0
 70
    32
  0
SEQEND
  5
685
  8
LAYER1
 62
    18
  0
POLYLINE
  5
686
  8
LAYER1
 62
    18
 10
0.0
 20
0.0
 30
0.0
 66
     1
 70
     8
  0
VERTEX
  5
687
  8
LAYER1
 62
    18
 10
7.026905051988996
 20
1.246248948583855
 30
0.0
 70
    32
  0
VERTEX
  5
688
  8
LAYER1
 62
    18
 10
7.06338847116891
 20
1.250223796091332
 30
0.0
 70
    32
  0
VERTEX
  5
689
  8
LAYER1
 62
    18
 10
7.096277983469404
 20
1.262148338613762
 30
0.0
 70
    32
  0
VERTEX
  5
68A
  8
LAYER1
 62
    18
 10
7.126405231279767
 20
1.282748925695671
 30
0.0
 70
    32
  0
SEQEND
  5
68B
  8
LAYER1
 62
    18
  0
POLYLINE
  5
68C
  8
LAYER1
 62
    18
 10
0.0
 20
0.0
 30
0.0
 66
     1
 70
     8
  0
VERTEX
  5
68D
  8
LAYER1
 62
    18
 10
7.126405231279767
 20
1.282748925695671
 30
0.0
 70
    32
  0
VERTEX
  5
68E
  8
LAYER1
 62
    18
 10
7.151235934585964
 20
1.311467162666573
 30
0.0
 70
    32
  0
VERTEX
  5
68F
  8
LAYER1
 62
    18
 10
7.170948553079999
 20
1.349441903791679
 30
0.0
 70
    32
  0
VERTEX
  5
690
  8
LAYER1
 62
    18
 10
7.185905448717511
 20
1.39824889899279
 30
0.0
 70
    32
  0
SEQEND
  5
691
  8
LAYER1
 62
    18
  0
LINE
  5
692
  8
LAYER1
 62
    18
 10
7.185905448717511
 20
1.39824889899279
 30
0.0
 11
7.325904838365949
 21
1.355248916158928
 31
0.0
  0
LINE
  5
693
  8
LAYER1
 62
    18
 10
7.93890570811693
 20
1.134248960027946
 30
0.0
 11
7.876905433458727
 21
1.297248828420891
 31
0.0
  0
LINE
  5
694
  8
LAYER1
 62
    18
 10
7.876905433458727
 20
1.297248828420891
 30
0.0
 11
7.589904777330796
 21
1.297248828420891
 31
0.0
  0
LINE
  5
695
  8
LAYER1
 62
    18
 10
7.589904777330796
 20
1.297248828420891
 30
0.0
 11
7.52990531138841
 21
1.134248960027946
 31
0.0
  0
LINE
  5
696
  8
LAYER1
 62
    18
 10
7.52990531138841
 20
1.134248960027946
 30
0.0
 11
7.376905433458722
 21
1.134248960027946
 31
0.0
  0
LINE
  5
697
  8
LAYER1
 62
    18
 10
7.654905311388413
 20
1.85024880171801
 30
0.0
 11
7.807905189318102
 21
1.85024880171801
 31
0.0
  0
LINE
  5
698
  8
LAYER1
 62
    18
 10
8.094904891771716
 20
1.134248960027946
 30
0.0
 11
7.93890570811693
 21
1.134248960027946
 31
0.0
  0
LINE
  5
699
  8
LAYER1
 62
    18
 10
7.633905402941147
 20
1.418248879919304
 30
0.0
 11
7.829905502123277
 21
1.418248879919304
 31
0.0
  0
POLYLINE
  5
69A
  8
LAYER1
 62
    18
 10
0.0
 20
0.0
 30
0.0
 66
     1
 70
     8
  0
VERTEX
  5
69B
  8
LAYER1
 62
    18
 10
8.556904784960196
 20
1.3152489543059
 30
0.0
 70
    32
  0
VERTEX
  5
69C
  8
LAYER1
 62
    18
 10
8.561838345951482
 20
1.290530232010139
 30
0.0
 70
    32
  0
VERTEX
  5
69D
  8
LAYER1
 62
    18
 10
8.570038877863333
 20
1.270494233808769
 30
0.0
 70
    32
  0
VERTEX
  5
69E
  8
LAYER1
 62
    18
 10
8.581904880327627
 20
1.254748809347404
 30
0.0
 70
    32
  0
SEQEND
  5
69F
  8
LAYER1
 62
    18
  0
POLYLINE
  5
6A0
  8
LAYER1
 62
    18
 10
0.0
 20
0.0
 30
0.0
 66
     1
 70
     8
  0
VERTEX
  5
6A1
  8
LAYER1
 62
    18
 10
8.581904880327627
 20
1.254748809347404
 30
0.0
 70
    32
  0
VERTEX
  5
6A2
  8
LAYER1
 62
    18
 10
8.596629513019963
 20
1.244002349887146
 30
0.0
 70
    32
  0
VERTEX
  5
6A3
  8
LAYER1
 62
    18
 10
8.614403436273978
 20
1.237502994165672
 30
0.0
 70
    32
  0
VERTEX
  5
6A4
  8
LAYER1
 62
    18
 10
8.635905257982657
 20
1.235248792181267
 30
0.0
 70
    32
  0
SEQEND
  5
6A5
  8
LAYER1
 62
    18
  0
POLYLINE
  5
6A6
  8
LAYER1
 62
    18
 10
0.0
 20
0.0
 30
0.0
 66
     1
 70
     8
  0
VERTEX
  5
6A7
  8
LAYER1
 62
    18
 10
8.635905257982657
 20
1.235248792181267
 30
0.0
 70
    32
  0
VERTEX
  5
6A8
  8
LAYER1
 62
    18
 10
8.662263907904073
 20
1.239550341973557
 30
0.0
 70
    32
  0
VERTEX
  5
6A9
  8
LAYER1
 62
    18
 10
8.685900099367544
 20
1.252454991350426
 30
0.0
 70
    32
  0
VERTEX
  5
6AA
  8
LAYER1
 62
    18
 10
8.707405082506583
 20
1.274748790273918
 30
0.0
 70
    32
  0
SEQEND
  5
6AB
  8
LAYER1
 62
    18
  0
POLYLINE
  5
6AC
  8
LAYER1
 62
    18
 10
0.0
 20
0.0
 30
0.0
 66
     1
 70
     8
  0
VERTEX
  5
6AD
  8
LAYER1
 62
    18
 10
8.707405082506583
 20
1.274748790273918
 30
0.0
 70
    32
  0
VERTEX
  5
6AE
  8
LAYER1
 62
    18
 10
8.724533777422351
 20
1.309911955008759
 30
0.0
 70
    32
  0
VERTEX
  5
6AF
  8
LAYER1
 62
    18
 10
8.736979852098866
 20
1.36326145173098
 30
0.0
 70
    32
  0
VERTEX
  5
6B0
  8
LAYER1
 62
    18
 10
8.744905463976309
 20
1.437248933325066
 30
0.0
 70
    32
  0
SEQEND
  5
6B1
  8
LAYER1
 62
    18
  0
POLYLINE
  5
6B2
  8
LAYER1
 62
    18
 10
0.0
 20
0.0
 30
0.0
 66
     1
 70
     8
  0
VERTEX
  5
6B3
  8
LAYER1
 62
    18
 10
8.744905463976309
 20
1.437248933325066
 30
0.0
 70
    32
  0
VERTEX
  5
6B4
  8
LAYER1
 62
    18
 10
8.708304828543113
 20
1.404182964859261
 30
0.0
 70
    32
  0
VERTEX
  5
6B5
  8
LAYER1
 62
    18
 10
8.66582370776598
 20
1.384184983930839
 30
0.0
 70
    32
  0
VERTEX
  5
6B6
  8
LAYER1
 62
    18
 10
8.615904800218985
 20
1.377248990545525
 30
0.0
 70
    32
  0
SEQEND
  5
6B7
  8
LAYER1
 62
    18
  0
POLYLINE
  5
6B8
  8
LAYER1
 62
    18
 10
0.0
 20
0.0
 30
0.0
 66
     1
 70
     8
  0
VERTEX
  5
6B9
  8
LAYER1
 62
    18
 10
8.615904800218985
 20
1.377248990545525
 30
0.0
 70
    32
  0
VERTEX
  5
6BA
  8
LAYER1
 62
    18
 10
8.562418866962833
 20
1.384327483794941
 30
0.0
 70
    32
  0
VERTEX
  5
6BB
  8
LAYER1
 62
    18
 10
8.514159858698292
 20
1.40556296354319
 30
0.0
 70
    32
  0
VERTEX
  5
6BC
  8
LAYER1
 62
    18
 10
8.469905368608877
 20
1.442248928556694
 30
0.0
 70
    32
  0
SEQEND
  5
6BD
  8
LAYER1
 62
    18
  0
POLYLINE
  5
6BE
  8
LAYER1
 62
    18
 10
0.0
 20
0.0
 30
0.0
 66
     1
 70
     8
  0
VERTEX
  5
6BF
  8
LAYER1
 62
    18
 10
8.473405353350088
 20
1.787748920927299
 30
0.0
 70
    32
  0
VERTEX
  5
6C0
  8
LAYER1
 62
    18
 10
8.51984142393534
 20
1.824397108242763
 30
0.0
 70
    32
  0
VERTEX
  5
6C1
  8
LAYER1
 62
    18
 10
8.574009197611257
 20
1.846561580810798
 30
0.0
 70
    32
  0
VERTEX
  5
6C2
  8
LAYER1
 62
    18
 10
8.63790511302416
 20
1.854248988638176
 30
0.0
 70
    32
  0
SEQEND
  5
6C3
  8
LAYER1
 62
    18
  0
POLYLINE
  5
6C4
  8
LAYER1
 62
    18
 10
0.0
 20
0.0
 30
0.0
 66
     1
 70
     8
  0
VERTEX
  5
6C5
  8
LAYER1
 62
    18
 10
8.63790511302416
 20
1.854248988638176
 30
0.0
 70
    32
  0
VERTEX
  5
6C6
  8
LAYER1
 62
    18
 10
8.705598145241183
 20
1.845046930537475
 30
0.0
 70
    32
  0
VERTEX
  5
6C7
  8
LAYER1
 62
    18
 10
8.764796969980644
 20
1.817440756235374
 30
0.0
 70
    32
  0
VERTEX
  5
6C8
  8
LAYER1
 62
    18
 10
8.81690549067919
 20
1.769748914251579
 30
0.0
 70
    32
  0
SEQEND
  5
6C9
  8
LAYER1
 62
    18
  0
POLYLINE
  5
6CA
  8
LAYER1
 62
    18
 10
0.0
 20
0.0
 30
0.0
 66
     1
 70
     8
  0
VERTEX
  5
6CB
  8
LAYER1
 62
    18
 10
8.886905662340567
 20
1.492249000082268
 30
0.0
 70
    32
  0
VERTEX
  5
6CC
  8
LAYER1
 62
    18
 10
8.879010387415331
 20
1.374207984016194
 30
0.0
 70
    32
  0
VERTEX
  5
6CD
  8
LAYER1
 62
    18
 10
8.855324562639638
 20
1.280124971065773
 30
0.0
 70
    32
  0
VERTEX
  5
6CE
  8
LAYER1
 62
    18
 10
8.814405433458731
 20
1.208248960981621
 30
0.0
 70
    32
  0
SEQEND
  5
6CF
  8
LAYER1
 62
    18
  0
POLYLINE
  5
6D0
  8
LAYER1
 62
    18
 10
0.0
 20
0.0
 30
0.0
 66
     1
 70
     8
  0
VERTEX
  5
6D1
  8
LAYER1
 62
    18
 10
8.814405433458731
 20
1.208248960981621
 30
0.0
 70
    32
  0
VERTEX
  5
6D2
  8
LAYER1
 62
    18
 10
8.761818138212607
 20
1.160303254149212
 30
0.0
 70
    32
  0
VERTEX
  5
6D3
  8
LAYER1
 62
    18
 10
8.699756554598256
 20
1.131306150017036
 30
0.0
 70
    32
  0
VERTEX
  5
6D4
  8
LAYER1
 62
    18
 10
8.62590502910082
 20
1.121248948583855
 30
0.0
 70
    32
  0
SEQEND
  5
6D5
  8
LAYER1
 62
    18
  0
POLYLINE
  5
6D6
  8
LAYER1
 62
    18
 10
0.0
 20
0.0
 30
0.0
 66
     1
 70
     8
  0
VERTEX
  5
6D7
  8
LAYER1
 62
    18
 10
8.62590502910082
 20
1.121248948583855
 30
0.0
 70
    32
  0
VERTEX
  5
6D8
  8
LAYER1
 62
    18
 10
8.574004497951908
 20
1.126149443910374
 30
0.0
 70
    32
  0
VERTEX
  5
6D9
  8
LAYER1
 62
    18
 10
8.529182421106743
 20
1.140850929889931
 30
0.0
 70
    32
  0
VERTEX
  5
6DA
  8
LAYER1
 62
    18
 10
8.490405551714346
 20
1.16624890566851
 30
0.0
 70
    32
  0
SEQEND
  5
6DB
  8
LAYER1
 62
    18
  0
POLYLINE
  5
6DC
  8
LAYER1
 62
    18
 10
0.0
 20
0.0
 30
0.0
 66
     1
 70
     8
  0
VERTEX
  5
6DD
  8
LAYER1
 62
    18
 10
8.490405551714346
 20
1.16624890566851
 30
0.0
 70
    32
  0
VERTEX
  5
6DE
  8
LAYER1
 62
    18
 10
8.460390450519963
 20
1.200740480563892
 30
0.0
 70
    32
  0
VERTEX
  5
6DF
  8
LAYER1
 62
    18
 10
8.438324940485401
 20
1.244815261898292
 30
0.0
 70
    32
  0
VERTEX
  5
6E0
  8
LAYER1
 62
    18
 10
8.42390536479418
 20
1.300248849401726
 30
0.0
 70
    32
  0
SEQEND
  5
6E1
  8
LAYER1
 62
    18
  0
LINE
  5
6E2
  8
LAYER1
 62
    18
 10
8.42390536479418
 20
1.300248849401726
 30
0.0
 11
8.556904784960196
 21
1.3152489543059
 31
0.0
  0
POLYLINE
  5
6E3
  8
LAYER1
 62
    18
 10
0.0
 20
0.0
 30
0.0
 66
     1
 70
     8
  0
VERTEX
  5
6E4
  8
LAYER1
 62
    18
 10
8.702405444902823
 20
1.703748929510368
 30
0.0
 70
    32
  0
VERTEX
  5
6E5
  8
LAYER1
 62
    18
 10
8.681240934795781
 20
1.72386406689669
 30
0.0
 70
    32
  0
VERTEX
  5
6E6
  8
LAYER1
 62
    18
 10
8.658007318872855
 20
1.736029509268059
 30
0.0
 70
    32
  0
VERTEX
  5
6E7
  8
LAYER1
 62
    18
 10
8.631905547899649
 20
1.740248906622185
 30
0.0
 70
    32
  0
SEQEND
  5
6E8
  8
LAYER1
 62
    18
  0
POLYLINE
  5
6E9
  8
LAYER1
 62
    18
 10
0.0
 20
0.0
 30
0.0
 66
     1
 70
     8
  0
VERTEX
  5
6EA
  8
LAYER1
 62
    18
 10
8.631905547899649
 20
1.740248906622185
 30
0.0
 70
    32
  0
VERTEX
  5
6EB
  8
LAYER1
 62
    18
 10
8.608241178650303
 20
1.736981909737839
 30
0.0
 70
    32
  0
VERTEX
  5
6EC
  8
LAYER1
 62
    18
 10
8.587408211893486
 20
1.727180919084801
 30
0.0
 70
    32
  0
VERTEX
  5
6ED
  8
LAYER1
 62
    18
 10
8.568905345720694
 20
1.710248935232414
 30
0.0
 70
    32
  0
SEQEND
  5
6EE
  8
LAYER1
 62
    18
  0
POLYLINE
  5
6EF
  8
LAYER1
 62
    18
 10
0.0
 20
0.0
 30
0.0
 66
     1
 70
     8
  0
VERTEX
  5
6F0
  8
LAYER1
 62
    18
 10
8.571405402941153
 20
1.510748851309074
 30
0.0
 70
    32
  0
VERTEX
  5
6F1
  8
LAYER1
 62
    18
 10
8.590916732878132
 20
1.492838085541977
 30
0.0
 70
    32
  0
VERTEX
  5
6F2
  8
LAYER1
 62
    18
 10
8.613150521273063
 20
1.482005826006187
 30
0.0
 70
    32
  0
VERTEX
  5
6F3
  8
LAYER1
 62
    18
 10
8.63890551738207
 20
1.478248822698845
 30
0.0
 70
    32
  0
SEQEND
  5
6F4
  8
LAYER1
 62
    18
  0
POLYLINE
  5
6F5
  8
LAYER1
 62
    18
 10
0.0
 20
0.0
 30
0.0
 66
     1
 70
     8
  0
VERTEX
  5
6F6
  8
LAYER1
 62
    18
 10
8.63890551738207
 20
1.478248822698845
 30
0.0
 70
    32
  0
VERTEX
  5
6F7
  8
LAYER1
 62
    18
 10
8.663889790958805
 20
1.481624724672093
 30
0.0
 70
    32
  0
VERTEX
  5
6F8
  8
LAYER1
 62
    18
 10
8.686042662043022
 20
1.491752430591835
 30
0.0
 70
    32
  0
VERTEX
  5
6F9
  8
LAYER1
 62
    18
 10
8.705905429644034
 20
1.509248840818657
 30
0.0
 70
    32
  0
SEQEND
  5
6FA
  8
LAYER1
 62
    18
  0
LINE
  5
6FB
  8
LAYER1
 62
    18
 10
8.73290538005297
 20
1.601248967657341
 30
0.0
 11
8.73290538005297
 21
1.60024880171801
 31
0.0
  0
LINE
  5
6FC
  8
LAYER1
 62
    18
 10
9.438905708116938
 20
1.134248960027946
 30
0.0
 11
8.95790480784838
 21
1.134248960027946
 31
0.0
  0
POLYLINE
  5
6FD
  8
LAYER1
 62
    18
 10
0.0
 20
0.0
 30
0.0
 66
     1
 70
     8
  0
VERTEX
  5
6FE
  8
LAYER1
 62
    18
 10
8.95790480784838
 20
1.134248960027946
 30
0.0
 70
    32
  0
VERTEX
  5
6FF
  8
LAYER1
 62
    18
 10
8.966560917610568
 20
1.181006667993321
 30
0.0
 70
    32
  0
VERTEX
  5
700
  8
LAYER1
 62
    18
 10
8.981968753427907
 20
1.22623975664164
 30
0.0
 70
    32
  0
VERTEX
  5
701
  8
LAYER1
 62
    18
 10
9.004905216020987
 20
1.271248924741997
 30
0.0
 70
    32
  0
SEQEND
  5
702
  8
LAYER1
 62
    18
  0
POLYLINE
  5
703
  8
LAYER1
 62
    18
 10
0.0
 20
0.0
 30
0.0
 66
     1
 70
     8
  0
VERTEX
  5
704
  8
LAYER1
 62
    18
 10
9.004905216020987
 20
1.271248924741997
 30
0.0
 70
    32
  0
VERTEX
  5
705
  8
LAYER1
 62
    18
 10
9.015952709321528
 20
1.287303430972413
 30
0.0
 70
    32
  0
VERTEX
  5
706
  8
LAYER1
 62
    18
 10
9.042532033520407
 20
1.323271316665135
 30
0.0
 70
    32
  0
VERTEX
  5
707
  8
LAYER1
 62
    18
 10
9.09447829075349
 20
1.380421128254306
 30
0.0
 70
    32
  0
VERTEX
  5
708
  8
LAYER1
 62
    18
 10
9.131880515428213
 20
1.417243980693881
 30
0.0
 70
    32
  0
VERTEX
  5
709
  8
LAYER1
 62
    18
 10
9.175327765487461
 20
1.458470636545372
 30
0.0
 70
    32
  0
VERTEX
  5
70A
  8
LAYER1
 62
    18
 10
9.201620987948164
 20
1.483607493601243
 30
0.0
 70
    32
  0
VERTEX
  5
70B
  8
LAYER1
 62
    18
 10
9.237180260457574
 20
1.519689854601546
 30
0.0
 70
    32
  0
VERTEX
  5
70C
  8
LAYER1
 62
    18
 10
9.256147154700624
 20
1.54082010696493
 30
0.0
 70
    32
  0
VERTEX
  5
70D
  8
LAYER1
 62
    18
 10
9.260420352816837
 20
1.545847105283112
 30
0.0
 70
    32
  0
VERTEX
  5
70E
  8
LAYER1
 62
    18
 10
9.268802095647924
 20
1.556058893891422
 30
0.0
 70
    32
  0
VERTEX
  5
70F
  8
LAYER1
 62
    18
 10
9.272905341906
 20
1.561248767385734
 30
0.0
 70
    32
  0
SEQEND
  5
710
  8
LAYER1
 62
    18
  0
POLYLINE
  5
711
  8
LAYER1
 62
    18
 10
0.0
 20
0.0
 30
0.0
 66
     1
 70
     8
  0
VERTEX
  5
712
  8
LAYER1
 62
    18
 10
9.272905341906
 20
1.561248767385734
 30
0.0
 70
    32
  0
VERTEX
  5
713
  8
LAYER1
 62
    18
 10
9.288336074633047
 20
1.588968803892387
 30
0.0
 70
    32
  0
VERTEX
  5
714
  8
LAYER1
 62
    18
 10
9.297668433947013
 20
1.61668884039904
 30
0.0
 70
    32
  0
VERTEX
  5
715
  8
LAYER1
 62
    18
 10
9.300905219835688
 20
1.645248878011955
 30
0.0
 70
    32
  0
SEQEND
  5
716
  8
LAYER1
 62
    18
  0
POLYLINE
  5
717
  8
LAYER1
 62
    18
 10
0.0
 20
0.0
 30
0.0
 66
     1
 70
     8
  0
VERTEX
  5
718
  8
LAYER1
 62
    18
 10
9.300905219835688
 20
1.645248878011955
 30
0.0
 70
    32
  0
VERTEX
  5
719
  8
LAYER1
 62
    18
 10
9.29823718146746
 20
1.673267531464352
 30
0.0
 70
    32
  0
VERTEX
  5
71A
  8
LAYER1
 62
    18
 10
9.290233066362788
 20
1.69660348678614
 30
0.0
 70
    32
  0
VERTEX
  5
71B
  8
LAYER1
 62
    18
 10
9.276405326647211
 20
1.715748894224419
 30
0.0
 70
    32
  0
SEQEND
  5
71C
  8
LAYER1
 62
    18
  0
POLYLINE
  5
71D
  8
LAYER1
 62
    18
 10
0.0
 20
0.0
 30
0.0
 66
     1
 70
     8
  0
VERTEX
  5
71E
  8
LAYER1
 62
    18
 10
9.276405326647211
 20
1.715748894224419
 30
0.0
 70
    32
  0
VERTEX
  5
71F
  8
LAYER1
 62
    18
 10
9.258111767382069
 20
1.729250851056828
 30
0.0
 70
    32
  0
VERTEX
  5
720
  8
LAYER1
 62
    18
 10
9.235570948595448
 20
1.737416705189003
 30
0.0
 70
    32
  0
VERTEX
  5
721
  8
LAYER1
 62
    18
 10
9.20790480784838
 20
1.740248906622185
 30
0.0
 70
    32
  0
SEQEND
  5
722
  8
LAYER1
 62
    18
  0
POLYLINE
  5
723
  8
LAYER1
 62
    18
 10
0.0
 20
0.0
 30
0.0
 66
     1
 70
     8
  0
VERTEX
  5
724
  8
LAYER1
 62
    18
 10
9.20790480784838
 20
1.740248906622185
 30
0.0
 70
    32
  0
VERTEX
  5
725
  8
LAYER1
 62
    18
 10
9.181981778282566
 20
1.737417504129662
 30
0.0
 70
    32
  0
VERTEX
  5
726
  8
LAYER1
 62
    18
 10
9.159652447885914
 20
1.728923296652092
 30
0.0
 70
    32
  0
VERTEX
  5
727
  8
LAYER1
 62
    18
 10
9.14040517024462
 20
1.714248883734001
 30
0.0
 70
    32
  0
SEQEND
  5
728
  8
LAYER1
 62
    18
  0
POLYLINE
  5
729
  8
LAYER1
 62
    18
 10
0.0
 20
0.0
 30
0.0
 66
     1
 70
     8
  0
VERTEX
  5
72A
  8
LAYER1
 62
    18
 10
9.14040517024462
 20
1.714248883734001
 30
0.0
 70
    32
  0
VERTEX
  5
72B
  8
LAYER1
 62
    18
 10
9.125916650623722
 20
1.693386277351631
 30
0.0
 70
    32
  0
VERTEX
  5
72C
  8
LAYER1
 62
    18
 10
9.116110855097219
 20
1.665118488416923
 30
0.0
 70
    32
  0
VERTEX
  5
72D
  8
LAYER1
 62
    18
 10
9.110905639452383
 20
1.628248918066276
 30
0.0
 70
    32
  0
SEQEND
  5
72E
  8
LAYER1
 62
    18
  0
LINE
  5
72F
  8
LAYER1
 62
    18
 10
9.110905639452383
 20
1.628248918066276
 30
0.0
 11
8.973905555529043
 21
1.64224885703112
 31
0.0
  0
POLYLINE
  5
730
  8
LAYER1
 62
    18
 10
0.0
 20
0.0
 30
0.0
 66
     1
 70
     8
  0
VERTEX
  5
731
  8
LAYER1
 62
    18
 10
8.973905555529043
 20
1.64224885703112
 30
0.0
 70
    32
  0
VERTEX
  5
732
  8
LAYER1
 62
    18
 10
8.987542835993214
 20
1.709913672516598
 30
0.0
 70
    32
  0
VERTEX
  5
733
  8
LAYER1
 62
    18
 10
9.012614566606924
 20
1.763748229751839
 30
0.0
 70
    32
  0
VERTEX
  5
734
  8
LAYER1
 62
    18
 10
9.050405494493887
 20
1.804748880872978
 30
0.0
 70
    32
  0
SEQEND
  5
735
  8
LAYER1
 62
    18
  0
POLYLINE
  5
736
  8
LAYER1
 62
    18
 10
0.0
 20
0.0
 30
0.0
 66
     1
 70
     8
  0
VERTEX
  5
737
  8
LAYER1
 62
    18
 10
9.050405494493887
 20
1.804748880872978
 30
0.0
 70
    32
  0
VERTEX
  5
738
  8
LAYER1
 62
    18
 10
9.096514677900714
 20
1.832028390262379
 30
0.0
 70
    32
  0
VERTEX
  5
739
  8
LAYER1
 62
    18
 10
9.149702419466422
 20
1.848526776180519
 30
0.0
 70
    32
  0
VERTEX
  5
73A
  8
LAYER1
 62
    18
 10
9.211905471605704
 20
1.854248988638176
 30
0.0
 70
    32
  0
SEQEND
  5
73B
  8
LAYER1
 62
    18
  0
POLYLINE
  5
73C
  8
LAYER1
 62
    18
 10
0.0
 20
0.0
 30
0.0
 66
     1
 70
     8
  0
VERTEX
  5
73D
  8
LAYER1
 62
    18
 10
9.211905471605704
 20
1.854248988638176
 30
0.0
 70
    32
  0
VERTEX
  5
73E
  8
LAYER1
 62
    18
 10
9.276910507959773
 20
1.8479872381189
 30
0.0
 70
    32
  0
VERTEX
  5
73F
  8
LAYER1
 62
    18
 10
9.332005687517572
 20
1.829201986561073
 30
0.0
 70
    32
  0
VERTEX
  5
740
  8
LAYER1
 62
    18
 10
9.378405563158442
 20
1.796748983869804
 30
0.0
 70
    32
  0
SEQEND
  5
741
  8
LAYER1
 62
    18
  0
POLYLINE
  5
742
  8
LAYER1
 62
    18
 10
0.0
 20
0.0
 30
0.0
 66
     1
 70
     8
  0
VERTEX
  5
743
  8
LAYER1
 62
    18
 10
9.378405563158442
 20
1.796748983869804
 30
0.0
 70
    32
  0
VERTEX
  5
744
  8
LAYER1
 62
    18
 10
9.411747193045066
 20
1.75580422708775
 30
0.0
 70
    32
  0
VERTEX
  5
745
  8
LAYER1
 62
    18
 10
9.431911891359736
 20
1.708869963035835
 30
0.0
 70
    32
  0
VERTEX
  5
746
  8
LAYER1
 62
    18
 10
9.438905708116938
 20
1.65424894095446
 30
0.0
 70
    32
  0
SEQEND
  5
747
  8
LAYER1
 62
    18
  0
POLYLINE
  5
748
  8
LAYER1
 62
    18
 10
0.0
 20
0.0
 30
0.0
 66
     1
 70
     8
  0
VERTEX
  5
749
  8
LAYER1
 62
    18
 10
9.438905708116938
 20
1.65424894095446
 30
0.0
 70
    32
  0
VERTEX
  5
74A
  8
LAYER1
 62
    18
 10
9.436999914497779
 20
1.62300448412682
 30
0.0
 70
    32
  0
VERTEX
  5
74B
  8
LAYER1
 62
    18
 10
9.431282533640314
 20
1.592631242046608
 30
0.0
 70
    32
  0
VERTEX
  5
74C
  8
LAYER1
 62
    18
 10
9.421405307573725
 20
1.562248814115776
 30
0.0
 70
    32
  0
SEQEND
  5
74D
  8
LAYER1
 62
    18
  0
POLYLINE
  5
74E
  8
LAYER1
 62
    18
 10
0.0
 20
0.0
 30
0.0
 66
     1
 70
     8
  0
VERTEX
  5
74F
  8
LAYER1
 62
    18
 10
9.421405307573725
 20
1.562248814115776
 30
0.0
 70
    32
  0
VERTEX
  5
750
  8
LAYER1
 62
    18
 10
9.40773156923716
 20
1.532773213193669
 30
0.0
 70
    32
  0
VERTEX
  5
751
  8
LAYER1
 62
    18
 10
9.389810882944513
 20
1.502426449451698
 30
0.0
 70
    32
  0
VERTEX
  5
752
  8
LAYER1
 62
    18
 10
9.366905204576899
 20
1.470248925695671
 30
0.0
 70
    32
  0
SEQEND
  5
753
  8
LAYER1
 62
    18
  0
POLYLINE
  5
754
  8
LAYER1
 62
    18
 10
0.0
 20
0.0
 30
0.0
 66
     1
 70
     8
  0
VERTEX
  5
755
  8
LAYER1
 62
    18
 10
9.366905204576899
 20
1.470248925695671
 30
0.0
 70
    32
  0
VERTEX
  5
756
  8
LAYER1
 62
    18
 10
9.352835542126893
 20
1.454042590277555
 30
0.0
 70
    32
  0
VERTEX
  5
757
  8
LAYER1
 62
    18
 10
9.323331219383775
 20
1.422866929380572
 30
0.0
 70
    32
  0
VERTEX
  5
758
  8
LAYER1
 62
    18
 10
9.263988283408441
 20
1.367646236037548
 30
0.0
 70
    32
  0
VERTEX
  5
759
  8
LAYER1
 62
    18
 10
9.252965495498769
 20
1.357517150611631
 30
0.0
 70
    32
  0
VERTEX
  5
75A
  8
LAYER1
 62
    18
 10
9.220644614995255
 20
1.326902725779714
 30
0.0
 70
    32
  0
VERTEX
  5
75B
  8
LAYER1
 62
    18
 10
9.202317029931738
 20
1.308534285242341
 30
0.0
 70
    32
  0
VERTEX
  5
75C
  8
LAYER1
 62
    18
 10
9.193905345720697
 20
1.29974888564135
 30
0.0
 70
    32
  0
SEQEND
  5
75D
  8
LAYER1
 62
    18
  0
POLYLINE
  5
75E
  8
LAYER1
 62
    18
 10
0.0
 20
0.0
 30
0.0
 66
     1
 70
     8
  0
VERTEX
  5
75F
  8
LAYER1
 62
    18
 10
9.193905345720697
 20
1.29974888564135
 30
0.0
 70
    32
  0
VERTEX
  5
760
  8
LAYER1
 62
    18
 10
9.1833388302273
 20
1.286933320365204
 30
0.0
 70
    32
  0
VERTEX
  5
761
  8
LAYER1
 62
    18
 10
9.174078916162895
 20
1.274226647196068
 30
0.0
 70
    32
  0
VERTEX
  5
762
  8
LAYER1
 62
    18
 10
9.165904990953848
 20
1.26124881506945
 30
0.0
 70
    32
  0
SEQEND
  5
763
  8
LAYER1
 62
    18
  0
LINE
  5
764
  8
LAYER1
 62
    18
 10
9.165904990953848
 20
1.26124881506945
 30
0.0
 11
9.438905708116938
 21
1.26124881506945
 31
0.0
  0
LINE
  5
765
  8
LAYER1
 62
    18
 10
9.438905708116938
 20
1.26124881506945
 30
0.0
 11
9.438905708116938
 21
1.134248960027946
 31
0.0
  0
POLYLINE
  5
766
  8
LAYER1
 62
    18
 10
0.0
 20
0.0
 30
0.0
 66
     1
 70
     8
  0
VERTEX
  5
767
  8
LAYER1
 62
    18
 10
9.65990542582934
 20
1.340248811254753
 30
0.0
 70
    32
  0
VERTEX
  5
768
  8
LAYER1
 62
    18
 10
9.666261024803568
 20
1.309202469895138
 30
0.0
 70
    32
  0
VERTEX
  5
769
  8
LAYER1
 62
    18
 10
9.677408395761894
 20
1.283383287201179
 30
0.0
 70
    32
  0
VERTEX
  5
76A
  8
LAYER1
 62
    18
 10
9.693905345720697
 20
1.262248861799492
 30
0.0
 70
    32
  0
SEQEND
  5
76B
  8
LAYER1
 62
    18
  0
POLYLINE
  5
76C
  8
LAYER1
 62
    18
 10
0.0
 20
0.0
 30
0.0
 66
     1
 70
     8
  0
VERTEX
  5
76D
  8
LAYER1
 62
    18
 10
9.693905345720697
 20
1.262248861799492
 30
0.0
 70
    32
  0
VERTEX
  5
76E
  8
LAYER1
 62
    18
 10
9.713583393043923
 20
1.247369123432888
 30
0.0
 70
    32
  0
VERTEX
  5
76F
  8
LAYER1
 62
    18
 10
9.73565706672137
 20
1.238370000229133
 30
0.0
 70
    32
  0
VERTEX
  5
770
  8
LAYER1
 62
    18
 10
9.76090525798266
 20
1.235248792181267
 30
0.0
 70
    32
  0
SEQEND
  5
771
  8
LAYER1
 62
    18
  0
POLYLINE
  5
772
  8
LAYER1
 62
    18
 10
0.0
 20
0.0
 30
0.0
 66
     1
 70
     8
  0
VERTEX
  5
773
  8
LAYER1
 62
    18
 10
9.76090525798266
 20
1.235248792181267
 30
0.0
 70
    32
  0
VERTEX
  5
774
  8
LAYER1
 62
    18
 10
9.787209487814351
 20
1.238788045296921
 30
0.0
 70
    32
  0
VERTEX
  5
775
  8
LAYER1
 62
    18
 10
9.81068241900866
 20
1.249405804643883
 30
0.0
 70
    32
  0
VERTEX
  5
776
  8
LAYER1
 62
    18
 10
9.83190535716479
 20
1.267748820791496
 30
0.0
 70
    32
  0
SEQEND
  5
777
  8
LAYER1
 62
    18
  0
POLYLINE
  5
778
  8
LAYER1
 62
    18
 10
0.0
 20
0.0
 30
0.0
 66
     1
 70
     8
  0
VERTEX
  5
779
  8
LAYER1
 62
    18
 10
9.83190535716479
 20
1.267748820791496
 30
0.0
 70
    32
  0
VERTEX
  5
77A
  8
LAYER1
 62
    18
 10
9.847887412733481
 20
1.291540201721443
 30
0.0
 70
    32
  0
VERTEX
  5
77B
  8
LAYER1
 62
    18
 10
9.85755320681994
 20
1.320014306745781
 30
0.0
 70
    32
  0
VERTEX
  5
77C
  8
LAYER1
 62
    18
 10
9.860905639452387
 20
1.354248988638176
 30
0.0
 70
    32
  0
SEQEND
  5
77D
  8
LAYER1
 62
    18
  0
POLYLINE
  5
77E
  8
LAYER1
 62
    18
 10
0.0
 20
0.0
 30
0.0
 66
     1
 70
     8
  0
VERTEX
  5
77F
  8
LAYER1
 62
    18
 10
9.860905639452387
 20
1.354248988638176
 30
0.0
 70
    32
  0
VERTEX
  5
780
  8
LAYER1
 62
    18
 10
9.857910872835564
 20
1.386227538392796
 30
0.0
 70
    32
  0
VERTEX
  5
781
  8
LAYER1
 62
    18
 10
9.8489265729851
 20
1.413523441944374
 30
0.0
 70
    32
  0
VERTEX
  5
782
  8
LAYER1
 62
    18
 10
9.833405486864496
 20
1.4367488503554
 30
0.0
 70
    32
  0
SEQEND
  5
783
  8
LAYER1
 62
    18
  0
POLYLINE
  5
784
  8
LAYER1
 62
    18
 10
0.0
 20
0.0
 30
0.0
 66
     1
 70
     8
  0
VERTEX
  5
785
  8
LAYER1
 62
    18
 10
9.833405486864496
 20
1.4367488503554
 30
0.0
 70
    32
  0
VERTEX
  5
786
  8
LAYER1
 62
    18
 10
9.813894156927514
 20
1.453557430312886
 30
0.0
 70
    32
  0
VERTEX
  5
787
  8
LAYER1
 62
    18
 10
9.791660368532586
 20
1.463723098430886
 30
0.0
 70
    32
  0
VERTEX
  5
788
  8
LAYER1
 62
    18
 10
9.765905372423578
 20
1.467248904714836
 30
0.0
 70
    32
  0
SEQEND
  5
789
  8
LAYER1
 62
    18
  0
POLYLINE
  5
78A
  8
LAYER1
 62
    18
 10
0.0
 20
0.0
 30
0.0
 66
     1
 70
     8
  0
VERTEX
  5
78B
  8
LAYER1
 62
    18
 10
9.765905372423578
 20
1.467248904714836
 30
0.0
 70
    32
  0
VERTEX
  5
78C
  8
LAYER1
 62
    18
 10
9.747105113405631
 20
1.466159905753388
 30
0.0
 70
    32
  0
VERTEX
  5
78D
  8
LAYER1
 62
    18
 10
9.726344900316644
 20
1.462892908869041
 30
0.0
 70
    32
  0
VERTEX
  5
78E
  8
LAYER1
 62
    18
 10
9.702905647081781
 20
1.457248914251579
 30
0.0
 70
    32
  0
SEQEND
  5
78F
  8
LAYER1
 62
    18
  0
LINE
  5
790
  8
LAYER1
 62
    18
 10
9.702905647081781
 20
1.457248914251579
 30
0.0
 11
9.717905036730219
 21
1.568248975286735
 31
0.0
  0
POLYLINE
  5
791
  8
LAYER1
 62
    18
 10
0.0
 20
0.0
 30
0.0
 66
     1
 70
     8
  0
VERTEX
  5
792
  8
LAYER1
 62
    18
 10
9.717905036730219
 20
1.568248975286735
 30
0.0
 70
    32
  0
VERTEX
  5
793
  8
LAYER1
 62
    18
 10
9.751924632925437
 20
1.570474740276588
 30
0.0
 70
    32
  0
VERTEX
  5
794
  8
LAYER1
 62
    18
 10
9.780063743776726
 20
1.578472254286064
 30
0.0
 70
    32
  0
VERTEX
  5
795
  8
LAYER1
 62
    18
 10
9.802905074877192
 20
1.592748868475212
 30
0.0
 70
    32
  0
SEQEND
  5
796
  8
LAYER1
 62
    18
  0
POLYLINE
  5
797
  8
LAYER1
 62
    18
 10
0.0
 20
0.0
 30
0.0
 66
     1
 70
     8
  0
VERTEX
  5
798
  8
LAYER1
 62
    18
 10
9.802905074877192
 20
1.592748868475212
 30
0.0
 70
    32
  0
VERTEX
  5
799
  8
LAYER1
 62
    18
 10
9.818887130445884
 20
1.611484649191155
 30
0.0
 70
    32
  0
VERTEX
  5
79A
  8
LAYER1
 62
    18
 10
9.828552924532342
 20
1.634031913290276
 30
0.0
 70
    32
  0
VERTEX
  5
79B
  8
LAYER1
 62
    18
 10
9.83190535716479
 20
1.661248910436882
 30
0.0
 70
    32
  0
SEQEND
  5
79C
  8
LAYER1
 62
    18
  0
POLYLINE
  5
79D
  8
LAYER1
 62
    18
 10
0.0
 20
0.0
 30
0.0
 66
     1
 70
     8
  0
VERTEX
  5
79E
  8
LAYER1
 62
    18
 10
9.83190535716479
 20
1.661248910436882
 30
0.0
 70
    32
  0
VERTEX
  5
79F
  8
LAYER1
 62
    18
 10
9.829563995117592
 20
1.683429866860165
 30
0.0
 70
    32
  0
VERTEX
  5
7A0
  8
LAYER1
 62
    18
 10
9.822539908976005
 20
1.702452718506111
 30
0.0
 70
    32
  0
VERTEX
  5
7A1
  8
LAYER1
 62
    18
 10
9.810405246538568
 20
1.718748915205254
 30
0.0
 70
    32
  0
SEQEND
  5
7A2
  8
LAYER1
 62
    18
  0
POLYLINE
  5
7A3
  8
LAYER1
 62
    18
 10
0.0
 20
0.0
 30
0.0
 66
     1
 70
     8
  0
VERTEX
  5
7A4
  8
LAYER1
 62
    18
 10
9.810405246538568
 20
1.718748915205254
 30
0.0
 70
    32
  0
VERTEX
  5
7A5
  8
LAYER1
 62
    18
 10
9.794636108154702
 20
1.730597560475124
 30
0.0
 70
    32
  0
VERTEX
  5
7A6
  8
LAYER1
 62
    18
 10
9.775708839029718
 20
1.737763507614388
 30
0.0
 70
    32
  0
VERTEX
  5
7A7
  8
LAYER1
 62
    18
 10
9.752904884142328
 20
1.740248906622185
 30
0.0
 70
    32
  0
SEQEND
  5
7A8
  8
LAYER1
 62
    18
  0
POLYLINE
  5
7A9
  8
LAYER1
 62
    18
 10
0.0
 20
0.0
 30
0.0
 66
     1
 70
     8
  0
VERTEX
  5
7AA
  8
LAYER1
 62
    18
 10
9.752904884142328
 20
1.740248906622185
 30
0.0
 70
    32
  0
VERTEX
  5
7AB
  8
LAYER1
 62
    18
 10
9.730893957848
 20
1.737580855272068
 30
0.0
 70
    32
  0
VERTEX
  5
7AC
  8
LAYER1
 62
    18
 10
9.711060977549007
 20
1.729576701221718
 30
0.0
 70
    32
  0
VERTEX
  5
7AD
  8
LAYER1
 62
    18
 10
9.692904941362787
 20
1.715748894224419
 30
0.0
 70
    32
  0
SEQEND
  5
7AE
  8
LAYER1
 62
    18
  0
POLYLINE
  5
7AF
  8
LAYER1
 62
    18
 10
0.0
 20
0.0
 30
0.0
 66
     1
 70
     8
  0
VERTEX
  5
7B0
  8
LAYER1
 62
    18
 10
9.692904941362787
 20
1.715748894224419
 30
0.0
 70
    32
  0
VERTEX
  5
7B1
  8
LAYER1
 62
    18
 10
9.67858298019831
 20
1.697128644869579
 30
0.0
 70
    32
  0
VERTEX
  5
7B2
  8
LAYER1
 62
    18
 10
9.668617222589898
 20
1.673607913170112
 30
0.0
 70
    32
  0
VERTEX
  5
7B3
  8
LAYER1
 62
    18
 10
9.662905685228754
 20
1.644248950491203
 30
0.0
 70
    32
  0
SEQEND
  5
7B4
  8
LAYER1
 62
    18
  0
LINE
  5
7B5
  8
LAYER1
 62
    18
 10
9.662905685228754
 20
1.644248950491203
 30
0.0
 11
9.536905280870844
 21
1.666248786459221
 31
0.0
  0
POLYLINE
  5
7B6
  8
LAYER1
 62
    18
 10
0.0
 20
0.0
 30
0.0
 66
     1
 70
     8
  0
VERTEX
  5
7B7
  8
LAYER1
 62
    18
 10
9.536905280870844
 20
1.666248786459221
 30
0.0
 70
    32
  0
VERTEX
  5
7B8
  8
LAYER1
 62
    18
 10
9.546955198902534
 20
1.706317421732201
 30
0.0
 70
    32
  0
VERTEX
  5
7B9
  8
LAYER1
 62
    18
 10
9.559945567316461
 20
1.740723252020134
 30
0.0
 70
    32
  0
VERTEX
  5
7BA
  8
LAYER1
 62
    18
 10
9.576405040544916
 20
1.770248878011955
 30
0.0
 70
    32
  0
SEQEND
  5
7BB
  8
LAYER1
 62
    18
  0
POLYLINE
  5
7BC
  8
LAYER1
 62
    18
 10
0.0
 20
0.0
 30
0.0
 66
     1
 70
     8
  0
VERTEX
  5
7BD
  8
LAYER1
 62
    18
 10
9.576405040544916
 20
1.770248878011955
 30
0.0
 70
    32
  0
VERTEX
  5
7BE
  8
LAYER1
 62
    18
 10
9.596236499208853
 20
1.794192051086678
 30
0.0
 70
    32
  0
VERTEX
  5
7BF
  8
LAYER1
 62
    18
 10
9.620750578112055
 20
1.814541524992241
 30
0.0
 70
    32
  0
VERTEX
  5
7C0
  8
LAYER1
 62
    18
 10
9.650905124468256
 20
1.831748950491203
 30
0.0
 70
    32
  0
SEQEND
  5
7C1
  8
LAYER1
 62
    18
  0
POLYLINE
  5
7C2
  8
LAYER1
 62
    18
 10
0.0
 20
0.0
 30
0.0
 66
     1
 70
     8
  0
VERTEX
  5
7C3
  8
LAYER1
 62
    18
 10
9.650905124468256
 20
1.831748950491203
 30
0.0
 70
    32
  0
VERTEX
  5
7C4
  8
LAYER1
 62
    18
 10
9.683782948345588
 20
1.844148721514
 30
0.0
 70
    32
  0
VERTEX
  5
7C5
  8
LAYER1
 62
    18
 10
9.71905660628741
 20
1.851647984228386
 30
0.0
 70
    32
  0
VERTEX
  5
7C6
  8
LAYER1
 62
    18
 10
9.757904998583246
 20
1.854248988638176
 30
0.0
 70
    32
  0
SEQEND
  5
7C7
  8
LAYER1
 62
    18
  0
POLYLINE
  5
7C8
  8
LAYER1
 62
    18
 10
0.0
 20
0.0
 30
0.0
 66
     1
 70
     8
  0
VERTEX
  5
7C9
  8
LAYER1
 62
    18
 10
9.757904998583246
 20
1.854248988638176
 30
0.0
 70
    32
  0
VERTEX
  5
7CA
  8
LAYER1
 62
    18
 10
9.820208995813775
 20
1.847170482406868
 30
0.0
 70
    32
  0
VERTEX
  5
7CB
  8
LAYER1
 62
    18
 10
9.873801209062982
 20
1.825934963712944
 30
0.0
 70
    32
  0
VERTEX
  5
7CC
  8
LAYER1
 62
    18
 10
9.919905654711176
 20
1.789248931417717
 30
0.0
 70
    32
  0
SEQEND
  5
7CD
  8
LAYER1
 62
    18
  0
POLYLINE
  5
7CE
  8
LAYER1
 62
    18
 10
0.0
 20
0.0
 30
0.0
 66
     1
 70
     8
  0
VERTEX
  5
7CF
  8
LAYER1
 62
    18
 10
9.919905654711176
 20
1.789248931417717
 30
0.0
 70
    32
  0
VERTEX
  5
7D0
  8
LAYER1
 62
    18
 10
9.947460234255239
 20
1.752853247795357
 30
0.0
 70
    32
  0
VERTEX
  5
7D1
  8
LAYER1
 62
    18
 10
9.964124979967522
 20
1.713626161680473
 30
0.0
 70
    32
  0
VERTEX
  5
7D2
  8
LAYER1
 62
    18
 10
9.969904891771723
 20
1.670248973379387
 30
0.0
 70
    32
  0
SEQEND
  5
7D3
  8
LAYER1
 62
    18
  0
POLYLINE
  5
7D4
  8
LAYER1
 62
    18
 10
0.0
 20
0.0
 30
0.0
 66
     1
 70
     8
  0
VERTEX
  5
7D5
  8
LAYER1
 62
    18
 10
9.969904891771723
 20
1.670248973379387
 30
0.0
 70
    32
  0
VERTEX
  5
7D6
  8
LAYER1
 62
    18
 10
9.958688225836205
 20
1.611687140164627
 30
0.0
 70
    32
  0
VERTEX
  5
7D7
  8
LAYER1
 62
    18
 10
9.925038228029656
 20
1.561401678285851
 30
0.0
 70
    32
  0
VERTEX
  5
7D8
  8
LAYER1
 62
    18
 10
9.866905204576899
 20
1.518248784551872
 30
0.0
 70
    32
  0
SEQEND
  5
7D9
  8
LAYER1
 62
    18
  0
POLYLINE
  5
7DA
  8
LAYER1
 62
    18
 10
0.0
 20
0.0
 30
0.0
 66
     1
 70
     8
  0
VERTEX
  5
7DB
  8
LAYER1
 62
    18
 10
9.866905204576899
 20
1.518248784551872
 30
0.0
 70
    32
  0
VERTEX
  5
7DC
  8
LAYER1
 62
    18
 10
9.904551552624152
 20
1.506075077829613
 30
0.0
 70
    32
  0
VERTEX
  5
7DD
  8
LAYER1
 62
    18
 10
9.936970767969537
 20
1.486713972769035
 30
0.0
 70
    32
  0
VERTEX
  5
7DE
  8
LAYER1
 62
    18
 10
9.964905254167963
 20
1.459248769293083
 30
0.0
 70
    32
  0
SEQEND
  5
7DF
  8
LAYER1
 62
    18
  0
POLYLINE
  5
7E0
  8
LAYER1
 62
    18
 10
0.0
 20
0.0
 30
0.0
 66
     1
 70
     8
  0
VERTEX
  5
7E1
  8
LAYER1
 62
    18
 10
9.964905254167963
 20
1.459248769293083
 30
0.0
 70
    32
  0
VERTEX
  5
7E2
  8
LAYER1
 62
    18
 10
9.985296052975105
 20
1.426819686923279
 30
0.0
 70
    32
  0
VERTEX
  5
7E3
  8
LAYER1
 62
    18
 10
9.997628212732721
 20
1.390252444849266
 30
0.0
 70
    32
  0
VERTEX
  5
7E4
  8
LAYER1
 62
    18
 10
10.00190543345873
 20
1.348248946676506
 30
0.0
 70
    32
  0
SEQEND
  5
7E5
  8
LAYER1
 62
    18
  0
POLYLINE
  5
7E6
  8
LAYER1
 62
    18
 10
0.0
 20
0.0
 30
0.0
 66
     1
 70
     8
  0
VERTEX
  5
7E7
  8
LAYER1
 62
    18
 10
10.00190543345873
 20
1.348248946676506
 30
0.0
 70
    32
  0
VERTEX
  5
7E8
  8
LAYER1
 62
    18
 10
9.994391306871819
 20
1.289203646574273
 30
0.0
 70
    32
  0
VERTEX
  5
7E9
  8
LAYER1
 62
    18
 10
9.971848927111079
 20
1.236147879705681
 30
0.0
 70
    32
  0
VERTEX
  5
7EA
  8
LAYER1
 62
    18
 10
9.93290518931811
 20
1.187748897085442
 30
0.0
 70
    32
  0
SEQEND
  5
7EB
  8
LAYER1
 62
    18
  0
POLYLINE
  5
7EC
  8
LAYER1
 62
    18
 10
0.0
 20
0.0
 30
0.0
 66
     1
 70
     8
  0
VERTEX
  5
7ED
  8
LAYER1
 62
    18
 10
9.93290518931811
 20
1.187748897085442
 30
0.0
 70
    32
  0
VERTEX
  5
7EE
  8
LAYER1
 62
    18
 10
9.883771432871267
 20
1.151100775466217
 30
0.0
 70
    32
  0
VERTEX
  5
7EF
  8
LAYER1
 62
    18
 10
9.82745048579638
 20
1.128936342630638
 30
0.0
 70
    32
  0
VERTEX
  5
7F0
  8
LAYER1
 62
    18
 10
9.76190566234057
 20
1.121248948583855
 30
0.0
 70
    32
  0
SEQEND
  5
7F1
  8
LAYER1
 62
    18
  0
POLYLINE
  5
7F2
  8
LAYER1
 62
    18
 10
0.0
 20
0.0
 30
0.0
 66
     1
 70
     8
  0
VERTEX
  5
7F3
  8
LAYER1
 62
    18
 10
9.76190566234057
 20
1.121248948583855
 30
0.0
 70
    32
  0
VERTEX
  5
7F4
  8
LAYER1
 62
    18
 10
9.701479280943321
 20
1.127347347960725
 30
0.0
 70
    32
  0
VERTEX
  5
7F5
  8
LAYER1
 62
    18
 10
9.648240297884392
 20
1.145642546091331
 30
0.0
 70
    32
  0
VERTEX
  5
7F6
  8
LAYER1
 62
    18
 10
9.600905410570551
 20
1.177248942861809
 30
0.0
 70
    32
  0
SEQEND
  5
7F7
  8
LAYER1
 62
    18
  0
POLYLINE
  5
7F8
  8
LAYER1
 62
    18
 10
0.0
 20
0.0
 30
0.0
 66
     1
 70
     8
  0
VERTEX
  5
7F9
  8
LAYER1
 62
    18
 10
9.600905410570551
 20
1.177248942861809
 30
0.0
 70
    32
  0
VERTEX
  5
7FA
  8
LAYER1
 62
    18
 10
9.564545914167809
 20
1.218020422468437
 30
0.0
 70
    32
  0
VERTEX
  5
7FB
  8
LAYER1
 62
    18
 10
9.539947596163202
 20
1.266414868841423
 30
0.0
 70
    32
  0
VERTEX
  5
7FC
  8
LAYER1
 62
    18
 10
9.526905051989008
 20
1.324248778829826
 30
0.0
 70
    32
  0
SEQEND
  5
7FD
  8
LAYER1
 62
    18
  0
LINE
  5
7FE
  8
LAYER1
 62
    18
 10
9.526905051989008
 20
1.324248778829826
 30
0.0
 11
9.526905051989008
 21
1.323248851309074
 31
0.0
  0
LINE
  5
7FF
  8
LAYER1
 62
    18
 10
9.526905051989008
 20
1.323248851309074
 30
0.0
 11
9.65990542582934
 21
1.340248811254753
 31
0.0
  0
POLYLINE
  5
800
  8
LAYER1
 62
    18
 10
0.0
 20
0.0
 30
0.0
 66
     1
 70
     8
  0
VERTEX
  5
801
  8
LAYER1
 62
    18
 10
10.22490500621264
 20
1.3152489543059
 30
0.0
 70
    32
  0
VERTEX
  5
802
  8
LAYER1
 62
    18
 10
10.22983856720392
 20
1.290530232010139
 30
0.0
 70
    32
  0
VERTEX
  5
803
  8
LAYER1
 62
    18
 10
10.23803909911578
 20
1.270494233808769
 30
0.0
 70
    32
  0
VERTEX
  5
804
  8
LAYER1
 62
    18
 10
10.24990510158007
 20
1.254748809347404
 30
0.0
 70
    32
  0
SEQEND
  5
805
  8
LAYER1
 62
    18
  0
POLYLINE
  5
806
  8
LAYER1
 62
    18
 10
0.0
 20
0.0
 30
0.0
 66
     1
 70
     8
  0
VERTEX
  5
807
  8
LAYER1
 62
    18
 10
10.24990510158007
 20
1.254748809347404
 30
0.0
 70
    32
  0
VERTEX
  5
808
  8
LAYER1
 62
    18
 10
10.26462973427241
 20
1.244002349887146
 30
0.0
 70
    32
  0
VERTEX
  5
809
  8
LAYER1
 62
    18
 10
10.28240365752642
 20
1.237502994165672
 30
0.0
 70
    32
  0
VERTEX
  5
80A
  8
LAYER1
 62
    18
 10
10.3039054792351
 20
1.235248792181267
 30
0.0
 70
    32
  0
SEQEND
  5
80B
  8
LAYER1
 62
    18
  0
POLYLINE
  5
80C
  8
LAYER1
 62
    18
 10
0.0
 20
0.0
 30
0.0
 66
     1
 70
     8
  0
VERTEX
  5
80D
  8
LAYER1
 62
    18
 10
10.3039054792351
 20
1.235248792181267
 30
0.0
 70
    32
  0
VERTEX
  5
80E
  8
LAYER1
 62
    18
 10
10.33026412915652
 20
1.239550341973557
 30
0.0
 70
    32
  0
VERTEX
  5
80F
  8
LAYER1
 62
    18
 10
10.35390032061999
 20
1.252454991350426
 30
0.0
 70
    32
  0
VERTEX
  5
810
  8
LAYER1
 62
    18
 10
10.37540530375903
 20
1.274748790273918
 30
0.0
 70
    32
  0
SEQEND
  5
811
  8
LAYER1
 62
    18
  0
POLYLINE
  5
812
  8
LAYER1
 62
    18
 10
0.0
 20
0.0
 30
0.0
 66
     1
 70
     8
  0
VERTEX
  5
813
  8
LAYER1
 62
    18
 10
10.37540530375903
 20
1.274748790273918
 30
0.0
 70
    32
  0
VERTEX
  5
814
  8
LAYER1
 62
    18
 10
10.3925339986748
 20
1.309911955008759
 30
0.0
 70
    32
  0
VERTEX
  5
815
  8
LAYER1
 62
    18
 10
10.40498007335131
 20
1.36326145173098
 30
0.0
 70
    32
  0
VERTEX
  5
816
  8
LAYER1
 62
    18
 10
10.41290568522875
 20
1.437248933325066
 30
0.0
 70
    32
  0
SEQEND
  5
817
  8
LAYER1
 62
    18
  0
POLYLINE
  5
818
  8
LAYER1
 62
    18
 10
0.0
 20
0.0
 30
0.0
 66
     1
 70
     8
  0
VERTEX
  5
819
  8
LAYER1
 62
    18
 10
10.41290568522875
 20
1.437248933325066
 30
0.0
 70
    32
  0
VERTEX
  5
81A
  8
LAYER1
 62
    18
 10
10.37630504979555
 20
1.404182964859261
 30
0.0
 70
    32
  0
VERTEX
  5
81B
  8
LAYER1
 62
    18
 10
10.33382392901843
 20
1.384184983930839
 30
0.0
 70
    32
  0
VERTEX
  5
81C
  8
LAYER1
 62
    18
 10
10.28390502147143
 20
1.377248990545525
 30
0.0
 70
    32
  0
SEQEND
  5
81D
  8
LAYER1
 62
    18
  0
POLYLINE
  5
81E
  8
LAYER1
 62
    18
 10
0.0
 20
0.0
 30
0.0
 66
     1
 70
     8
  0
VERTEX
  5
81F
  8
LAYER1
 62
    18
 10
10.28390502147143
 20
1.377248990545525
 30
0.0
 70
    32
  0
VERTEX
  5
820
  8
LAYER1
 62
    18
 10
10.23041861457293
 20
1.384327483794941
 30
0.0
 70
    32
  0
VERTEX
  5
821
  8
LAYER1
 62
    18
 10
10.18215944423144
 20
1.40556296354319
 30
0.0
 70
    32
  0
VERTEX
  5
822
  8
LAYER1
 62
    18
 10
10.13790511302416
 20
1.442248928556694
 30
0.0
 70
    32
  0
SEQEND
  5
823
  8
LAYER1
 62
    18
  0
POLYLINE
  5
824
  8
LAYER1
 62
    18
 10
0.0
 20
0.0
 30
0.0
 66
     1
 70
     8
  0
VERTEX
  5
825
  8
LAYER1
 62
    18
 10
10.14140509776538
 20
1.787748920927299
 30
0.0
 70
    32
  0
VERTEX
  5
826
  8
LAYER1
 62
    18
 10
10.1878410094208
 20
1.824397108242763
 30
0.0
 70
    32
  0
VERTEX
  5
827
  8
LAYER1
 62
    18
 10
10.24200893573229
 20
1.846561580810798
 30
0.0
 70
    32
  0
VERTEX
  5
828
  8
LAYER1
 62
    18
 10
10.30590533427661
 20
1.854248988638176
 30
0.0
 70
    32
  0
SEQEND
  5
829
  8
LAYER1
 62
    18
  0
POLYLINE
  5
82A
  8
LAYER1
 62
    18
 10
0.0
 20
0.0
 30
0.0
 66
     1
 70
     8
  0
VERTEX
  5
82B
  8
LAYER1
 62
    18
 10
10.30590533427661
 20
1.854248988638176
 30
0.0
 70
    32
  0
VERTEX
  5
82C
  8
LAYER1
 62
    18
 10
10.37359831456606
 20
1.845046930537475
 30
0.0
 70
    32
  0
VERTEX
  5
82D
  8
LAYER1
 62
    18
 10
10.43279698352282
 20
1.817440756235374
 30
0.0
 70
    32
  0
VERTEX
  5
82E
  8
LAYER1
 62
    18
 10
10.48490523509448
 20
1.769748914251579
 30
0.0
 70
    32
  0
SEQEND
  5
82F
  8
LAYER1
 62
    18
  0
POLYLINE
  5
830
  8
LAYER1
 62
    18
 10
0.0
 20
0.0
 30
0.0
 66
     1
 70
     8
  0
VERTEX
  5
831
  8
LAYER1
 62
    18
 10
10.5549049299187
 20
1.492249000082268
 30
0.0
 70
    32
  0
VERTEX
  5
832
  8
LAYER1
 62
    18
 10
10.54700970692103
 20
1.374207984016194
 30
0.0
 70
    32
  0
VERTEX
  5
833
  8
LAYER1
 62
    18
 10
10.52332403792803
 20
1.280124971065773
 30
0.0
 70
    32
  0
VERTEX
  5
834
  8
LAYER1
 62
    18
 10
10.48240517787402
 20
1.208248960981621
 30
0.0
 70
    32
  0
SEQEND
  5
835
  8
LAYER1
 62
    18
  0
POLYLINE
  5
836
  8
LAYER1
 62
    18
 10
0.0
 20
0.0
 30
0.0
 66
     1
 70
     8
  0
VERTEX
  5
837
  8
LAYER1
 62
    18
 10
10.48240517787402
 20
1.208248960981621
 30
0.0
 70
    32
  0
VERTEX
  5
838
  8
LAYER1
 62
    18
 10
10.42981814541285
 20
1.160303254149212
 30
0.0
 70
    32
  0
VERTEX
  5
839
  8
LAYER1
 62
    18
 10
10.36775672072833
 20
1.131306150017036
 30
0.0
 70
    32
  0
VERTEX
  5
83A
  8
LAYER1
 62
    18
 10
10.29390525035327
 20
1.121248948583855
 30
0.0
 70
    32
  0
SEQEND
  5
83B
  8
LAYER1
 62
    18
  0
POLYLINE
  5
83C
  8
LAYER1
 62
    18
 10
0.0
 20
0.0
 30
0.0
 66
     1
 70
     8
  0
VERTEX
  5
83D
  8
LAYER1
 62
    18
 10
10.29390525035327
 20
1.121248948583855
 30
0.0
 70
    32
  0
VERTEX
  5
83E
  8
LAYER1
 62
    18
 10
10.24200466727678
 20
1.126149443910374
 30
0.0
 70
    32
  0
VERTEX
  5
83F
  8
LAYER1
 62
    18
 10
10.19718243464892
 20
1.140850929889931
 30
0.0
 70
    32
  0
VERTEX
  5
840
  8
LAYER1
 62
    18
 10
10.15840529612963
 20
1.16624890566851
 30
0.0
 70
    32
  0
SEQEND
  5
841
  8
LAYER1
 62
    18
  0
POLYLINE
  5
842
  8
LAYER1
 62
    18
 10
0.0
 20
0.0
 30
0.0
 66
     1
 70
     8
  0
VERTEX
  5
843
  8
LAYER1
 62
    18
 10
10.15840529612963
 20
1.16624890566851
 30
0.0
 70
    32
  0
VERTEX
  5
844
  8
LAYER1
 62
    18
 10
10.12839003600542
 20
1.200740480563892
 30
0.0
 70
    32
  0
VERTEX
  5
845
  8
LAYER1
 62
    18
 10
10.10632467860644
 20
1.244815261898292
 30
0.0
 70
    32
  0
VERTEX
  5
846
  8
LAYER1
 62
    18
 10
10.09190558604663
 20
1.300248849401726
 30
0.0
 70
    32
  0
SEQEND
  5
847
  8
LAYER1
 62
    18
  0
LINE
  5
848
  8
LAYER1
 62
    18
 10
10.09190558604663
 20
1.300248849401726
 30
0.0
 11
10.22490500621264
 21
1.3152489543059
 31
0.0
  0
POLYLINE
  5
849
  8
LAYER1
 62
    18
 10
0.0
 20
0.0
 30
0.0
 66
     1
 70
     8
  0
VERTEX
  5
84A
  8
LAYER1
 62
    18
 10
10.37040518931811
 20
1.703748929510368
 30
0.0
 70
    32
  0
VERTEX
  5
84B
  8
LAYER1
 62
    18
 10
10.34924041642611
 20
1.72386406689669
 30
0.0
 70
    32
  0
VERTEX
  5
84C
  8
LAYER1
 62
    18
 10
10.32600664157336
 20
1.736029509268059
 30
0.0
 70
    32
  0
VERTEX
  5
84D
  8
LAYER1
 62
    18
 10
10.29990481547778
 20
1.740248906622185
 30
0.0
 70
    32
  0
SEQEND
  5
84E
  8
LAYER1
 62
    18
  0
POLYLINE
  5
84F
  8
LAYER1
 62
    18
 10
0.0
 20
0.0
 30
0.0
 66
     1
 70
     8
  0
VERTEX
  5
850
  8
LAYER1
 62
    18
 10
10.29990481547778
 20
1.740248906622185
 30
0.0
 70
    32
  0
VERTEX
  5
851
  8
LAYER1
 62
    18
 10
10.27624097179835
 20
1.736981909737839
 30
0.0
 70
    32
  0
VERTEX
  5
852
  8
LAYER1
 62
    18
 10
10.25540832290118
 20
1.727180919084801
 30
0.0
 70
    32
  0
VERTEX
  5
853
  8
LAYER1
 62
    18
 10
10.23690556697314
 20
1.710248935232414
 30
0.0
 70
    32
  0
SEQEND
  5
854
  8
LAYER1
 62
    18
  0
POLYLINE
  5
855
  8
LAYER1
 62
    18
 10
0.0
 20
0.0
 30
0.0
 66
     1
 70
     8
  0
VERTEX
  5
856
  8
LAYER1
 62
    18
 10
10.23940514735644
 20
1.510748851309074
 30
0.0
 70
    32
  0
VERTEX
  5
857
  8
LAYER1
 62
    18
 10
10.25891621450846
 20
1.492838085541977
 30
0.0
 70
    32
  0
VERTEX
  5
858
  8
LAYER1
 62
    18
 10
10.28114984397357
 20
1.482005826006187
 30
0.0
 70
    32
  0
VERTEX
  5
859
  8
LAYER1
 62
    18
 10
10.3069047849602
 20
1.478248822698845
 30
0.0
 70
    32
  0
SEQEND
  5
85A
  8
LAYER1
 62
    18
  0
POLYLINE
  5
85B
  8
LAYER1
 62
    18
 10
0.0
 20
0.0
 30
0.0
 66
     1
 70
     8
  0
VERTEX
  5
85C
  8
LAYER1
 62
    18
 10
10.3069047849602
 20
1.478248822698845
 30
0.0
 70
    32
  0
VERTEX
  5
85D
  8
LAYER1
 62
    18
 10
10.33188958410685
 20
1.481624724672093
 30
0.0
 70
    32
  0
VERTEX
  5
85E
  8
LAYER1
 62
    18
 10
10.35404277305071
 20
1.491752430591835
 30
0.0
 70
    32
  0
VERTEX
  5
85F
  8
LAYER1
 62
    18
 10
10.37390565089648
 20
1.509248840818657
 30
0.0
 70
    32
  0
SEQEND
  5
860
  8
LAYER1
 62
    18
  0
LINE
  5
861
  8
LAYER1
 62
    18
 10
10.40090560130541
 20
1.601248967657341
 30
0.0
 11
10.40090560130541
 21
1.60024880171801
 31
0.0
  0
POLYLINE
  5
862
  8
LAYER1
 62
    18
 10
0.0
 20
0.0
 30
0.0
 66
     1
 70
     8
  0
VERTEX
  5
863
  8
LAYER1
 62
    18
 10
10.78090571574633
 20
1.3152489543059
 30
0.0
 70
    32
  0
VERTEX
  5
864
  8
LAYER1
 62
    18
 10
10.7858387511677
 20
1.290530232010139
 30
0.0
 70
    32
  0
VERTEX
  5
865
  8
LAYER1
 62
    18
 10
10.7940389652199
 20
1.270494233808769
 30
0.0
 70
    32
  0
VERTEX
  5
866
  8
LAYER1
 62
    18
 10
10.80590485743945
 20
1.254748809347404
 30
0.0
 70
    32
  0
SEQEND
  5
867
  8
LAYER1
 62
    18
  0
POLYLINE
  5
868
  8
LAYER1
 62
    18
 10
0.0
 20
0.0
 30
0.0
 66
     1
 70
     8
  0
VERTEX
  5
869
  8
LAYER1
 62
    18
 10
10.80590485743945
 20
1.254748809347404
 30
0.0
 70
    32
  0
VERTEX
  5
86A
  8
LAYER1
 62
    18
 10
10.82062949013178
 20
1.244002349887146
 30
0.0
 70
    32
  0
VERTEX
  5
86B
  8
LAYER1
 62
    18
 10
10.83840341338579
 20
1.237502994165672
 30
0.0
 70
    32
  0
VERTEX
  5
86C
  8
LAYER1
 62
    18
 10
10.85990523509448
 20
1.235248792181267
 30
0.0
 70
    32
  0
SEQEND
  5
86D
  8
LAYER1
 62
    18
  0
POLYLINE
  5
86E
  8
LAYER1
 62
    18
 10
0.0
 20
0.0
 30
0.0
 66
     1
 70
     8
  0
VERTEX
  5
86F
  8
LAYER1
 62
    18
 10
10.85990523509448
 20
1.235248792181267
 30
0.0
 70
    32
  0
VERTEX
  5
870
  8
LAYER1
 62
    18
 10
10.88626388501589
 20
1.239550341973557
 30
0.0
 70
    32
  0
VERTEX
  5
871
  8
LAYER1
 62
    18
 10
10.90990007647936
 20
1.252454991350426
 30
0.0
 70
    32
  0
VERTEX
  5
872
  8
LAYER1
 62
    18
 10
10.9314050596184
 20
1.274748790273918
 30
0.0
 70
    32
  0
SEQEND
  5
873
  8
LAYER1
 62
    18
  0
POLYLINE
  5
874
  8
LAYER1
 62
    18
 10
0.0
 20
0.0
 30
0.0
 66
     1
 70
     8
  0
VERTEX
  5
875
  8
LAYER1
 62
    18
 10
10.9314050596184
 20
1.274748790273918
 30
0.0
 70
    32
  0
VERTEX
  5
876
  8
LAYER1
 62
    18
 10
10.94853375453417
 20
1.309911955008759
 30
0.0
 70
    32
  0
VERTEX
  5
877
  8
LAYER1
 62
    18
 10
10.96097982921069
 20
1.36326145173098
 30
0.0
 70
    32
  0
VERTEX
  5
878
  8
LAYER1
 62
    18
 10
10.96890544108813
 20
1.437248933325066
 30
0.0
 70
    32
  0
SEQEND
  5
879
  8
LAYER1
 62
    18
  0
POLYLINE
  5
87A
  8
LAYER1
 62
    18
 10
0.0
 20
0.0
 30
0.0
 66
     1
 70
     8
  0
VERTEX
  5
87B
  8
LAYER1
 62
    18
 10
10.96890544108813
 20
1.437248933325066
 30
0.0
 70
    32
  0
VERTEX
  5
87C
  8
LAYER1
 62
    18
 10
10.93230480565493
 20
1.404182964859261
 30
0.0
 70
    32
  0
VERTEX
  5
87D
  8
LAYER1
 62
    18
 10
10.8898236848778
 20
1.384184983930839
 30
0.0
 70
    32
  0
VERTEX
  5
87E
  8
LAYER1
 62
    18
 10
10.8399047773308
 20
1.377248990545525
 30
0.0
 70
    32
  0
SEQEND
  5
87F
  8
LAYER1
 62
    18
  0
POLYLINE
  5
880
  8
LAYER1
 62
    18
 10
0.0
 20
0.0
 30
0.0
 66
     1
 70
     8
  0
VERTEX
  5
881
  8
LAYER1
 62
    18
 10
10.8399047773308
 20
1.377248990545525
 30
0.0
 70
    32
  0
VERTEX
  5
882
  8
LAYER1
 62
    18
 10
10.78641884407465
 20
1.384327483794941
 30
0.0
 70
    32
  0
VERTEX
  5
883
  8
LAYER1
 62
    18
 10
10.73815983581011
 20
1.40556296354319
 30
0.0
 70
    32
  0
VERTEX
  5
884
  8
LAYER1
 62
    18
 10
10.6939053457207
 20
1.442248928556694
 30
0.0
 70
    32
  0
SEQEND
  5
885
  8
LAYER1
 62
    18
  0
POLYLINE
  5
886
  8
LAYER1
 62
    18
 10
0.0
 20
0.0
 30
0.0
 66
     1
 70
     8
  0
VERTEX
  5
887
  8
LAYER1
 62
    18
 10
10.69740533046191
 20
1.787748920927299
 30
0.0
 70
    32
  0
VERTEX
  5
888
  8
LAYER1
 62
    18
 10
10.74384140104716
 20
1.824397108242763
 30
0.0
 70
    32
  0
VERTEX
  5
889
  8
LAYER1
 62
    18
 10
10.79800917472308
 20
1.846561580810798
 30
0.0
 70
    32
  0
VERTEX
  5
88A
  8
LAYER1
 62
    18
 10
10.86190509013598
 20
1.854248988638176
 30
0.0
 70
    32
  0
SEQEND
  5
88B
  8
LAYER1
 62
    18
  0
POLYLINE
  5
88C
  8
LAYER1
 62
    18
 10
0.0
 20
0.0
 30
0.0
 66
     1
 70
     8
  0
VERTEX
  5
88D
  8
LAYER1
 62
    18
 10
10.86190509013598
 20
1.854248988638176
 30
0.0
 70
    32
  0
VERTEX
  5
88E
  8
LAYER1
 62
    18
 10
10.929598122353
 20
1.845046930537475
 30
0.0
 70
    32
  0
VERTEX
  5
88F
  8
LAYER1
 62
    18
 10
10.98879694709246
 20
1.817440756235374
 30
0.0
 70
    32
  0
VERTEX
  5
890
  8
LAYER1
 62
    18
 10
11.04090546779101
 20
1.769748914251579
 30
0.0
 70
    32
  0
SEQEND
  5
891
  8
LAYER1
 62
    18
  0
POLYLINE
  5
892
  8
LAYER1
 62
    18
 10
0.0
 20
0.0
 30
0.0
 66
     1
 70
     8
  0
VERTEX
  5
893
  8
LAYER1
 62
    18
 10
11.11090563945239
 20
1.492249000082268
 30
0.0
 70
    32
  0
VERTEX
  5
894
  8
LAYER1
 62
    18
 10
11.10301036452715
 20
1.374207984016194
 30
0.0
 70
    32
  0
VERTEX
  5
895
  8
LAYER1
 62
    18
 10
11.07932453975146
 20
1.280124971065773
 30
0.0
 70
    32
  0
VERTEX
  5
896
  8
LAYER1
 62
    18
 10
11.03840541057055
 20
1.208248960981621
 30
0.0
 70
    32
  0
SEQEND
  5
897
  8
LAYER1
 62
    18
  0
POLYLINE
  5
898
  8
LAYER1
 62
    18
 10
0.0
 20
0.0
 30
0.0
 66
     1
 70
     8
  0
VERTEX
  5
899
  8
LAYER1
 62
    18
 10
11.03840541057055
 20
1.208248960981621
 30
0.0
 70
    32
  0
VERTEX
  5
89A
  8
LAYER1
 62
    18
 10
10.98581811532442
 20
1.160303254149212
 30
0.0
 70
    32
  0
VERTEX
  5
89B
  8
LAYER1
 62
    18
 10
10.92375653171008
 20
1.131306150017036
 30
0.0
 70
    32
  0
VERTEX
  5
89C
  8
LAYER1
 62
    18
 10
10.84990500621264
 20
1.121248948583855
 30
0.0
 70
    32
  0
SEQEND
  5
89D
  8
LAYER1
 62
    18
  0
POLYLINE
  5
89E
  8
LAYER1
 62
    18
 10
0.0
 20
0.0
 30
0.0
 66
     1
 70
     8
  0
VERTEX
  5
89F
  8
LAYER1
 62
    18
 10
10.84990500621264
 20
1.121248948583855
 30
0.0
 70
    32
  0
VERTEX
  5
8A0
  8
LAYER1
 62
    18
 10
10.79800447506373
 20
1.126149443910374
 30
0.0
 70
    32
  0
VERTEX
  5
8A1
  8
LAYER1
 62
    18
 10
10.75318239821856
 20
1.140850929889931
 30
0.0
 70
    32
  0
VERTEX
  5
8A2
  8
LAYER1
 62
    18
 10
10.71440552882617
 20
1.16624890566851
 30
0.0
 70
    32
  0
SEQEND
  5
8A3
  8
LAYER1
 62
    18
  0
POLYLINE
  5
8A4
  8
LAYER1
 62
    18
 10
0.0
 20
0.0
 30
0.0
 66
     1
 70
     8
  0
VERTEX
  5
8A5
  8
LAYER1
 62
    18
 10
10.71440552882617
 20
1.16624890566851
 30
0.0
 70
    32
  0
VERTEX
  5
8A6
  8
LAYER1
 62
    18
 10
10.68439042763178
 20
1.200740480563892
 30
0.0
 70
    32
  0
VERTEX
  5
8A7
  8
LAYER1
 62
    18
 10
10.66232491759722
 20
1.244815261898292
 30
0.0
 70
    32
  0
VERTEX
  5
8A8
  8
LAYER1
 62
    18
 10
10.647905341906
 20
1.300248849401726
 30
0.0
 70
    32
  0
SEQEND
  5
8A9
  8
LAYER1
 62
    18
  0
LINE
  5
8AA
  8
LAYER1
 62
    18
 10
10.647905341906
 20
1.300248849401726
 30
0.0
 11
10.78090571574633
 21
1.3152489543059
 31
0.0
  0
POLYLINE
  5
8AB
  8
LAYER1
 62
    18
 10
0.0
 20
0.0
 30
0.0
 66
     1
 70
     8
  0
VERTEX
  5
8AC
  8
LAYER1
 62
    18
 10
10.92640542201464
 20
1.703748929510368
 30
0.0
 70
    32
  0
VERTEX
  5
8AD
  8
LAYER1
 62
    18
 10
10.9052409119076
 20
1.72386406689669
 30
0.0
 70
    32
  0
VERTEX
  5
8AE
  8
LAYER1
 62
    18
 10
10.88200729598467
 20
1.736029509268059
 30
0.0
 70
    32
  0
VERTEX
  5
8AF
  8
LAYER1
 62
    18
 10
10.85590552501147
 20
1.740248906622185
 30
0.0
 70
    32
  0
SEQEND
  5
8B0
  8
LAYER1
 62
    18
  0
POLYLINE
  5
8B1
  8
LAYER1
 62
    18
 10
0.0
 20
0.0
 30
0.0
 66
     1
 70
     8
  0
VERTEX
  5
8B2
  8
LAYER1
 62
    18
 10
10.85590552501147
 20
1.740248906622185
 30
0.0
 70
    32
  0
VERTEX
  5
8B3
  8
LAYER1
 62
    18
 10
10.83224115576212
 20
1.736981909737839
 30
0.0
 70
    32
  0
VERTEX
  5
8B4
  8
LAYER1
 62
    18
 10
10.81140818900531
 20
1.727180919084801
 30
0.0
 70
    32
  0
VERTEX
  5
8B5
  8
LAYER1
 62
    18
 10
10.79290532283251
 20
1.710248935232414
 30
0.0
 70
    32
  0
SEQEND
  5
8B6
  8
LAYER1
 62
    18
  0
POLYLINE
  5
8B7
  8
LAYER1
 62
    18
 10
0.0
 20
0.0
 30
0.0
 66
     1
 70
     8
  0
VERTEX
  5
8B8
  8
LAYER1
 62
    18
 10
10.79540538005297
 20
1.510748851309074
 30
0.0
 70
    32
  0
VERTEX
  5
8B9
  8
LAYER1
 62
    18
 10
10.81491670998995
 20
1.492838085541977
 30
0.0
 70
    32
  0
VERTEX
  5
8BA
  8
LAYER1
 62
    18
 10
10.83715049838488
 20
1.482005826006187
 30
0.0
 70
    32
  0
VERTEX
  5
8BB
  8
LAYER1
 62
    18
 10
10.86290549449389
 20
1.478248822698845
 30
0.0
 70
    32
  0
SEQEND
  5
8BC
  8
LAYER1
 62
    18
  0
POLYLINE
  5
8BD
  8
LAYER1
 62
    18
 10
0.0
 20
0.0
 30
0.0
 66
     1
 70
     8
  0
VERTEX
  5
8BE
  8
LAYER1
 62
    18
 10
10.86290549449389
 20
1.478248822698845
 30
0.0
 70
    32
  0
VERTEX
  5
8BF
  8
LAYER1
 62
    18
 10
10.88788976807063
 20
1.481624724672093
 30
0.0
 70
    32
  0
VERTEX
  5
8C0
  8
LAYER1
 62
    18
 10
10.91004263915484
 20
1.491752430591835
 30
0.0
 70
    32
  0
VERTEX
  5
8C1
  8
LAYER1
 62
    18
 10
10.92990540675585
 20
1.509248840818657
 30
0.0
 70
    32
  0
SEQEND
  5
8C2
  8
LAYER1
 62
    18
  0
LINE
  5
8C3
  8
LAYER1
 62
    18
 10
10.95690535716479
 20
1.601248967657341
 30
0.0
 11
10.95690535716479
 21
1.60024880171801
 31
0.0
  0
LINE
  5
8C4
  8
LAYER1
 62
    18
 10
4.005507461351788
 20
5.00978092466643
 30
0.0
 11
3.55950736216966
 21
5.00978092466643
 31
0.0
  0
LINE
  5
8C5
  8
LAYER1
 62
    18
 10
4.005507461351788
 20
4.881122193226169
 30
0.0
 11
3.55950736216966
 21
4.881122193226169
 31
0.0
  0
LINE
  5
8C6
  8
LAYER1
 62
    18
 10
4.005507461351788
 20
4.477088633089206
 30
0.0
 11
3.55950736216966
 21
4.477088633089206
 31
0.0
  0
LINE
  5
8C7
  8
LAYER1
 62
    18
 10
4.005507461351788
 20
4.310057999289568
 30
0.0
 11
3.55950736216966
 21
4.310057999289568
 31
0.0
  0
LINE
  5
8C8
  8
LAYER1
 62
    18
 10
5.563507072252667
 20
4.996237900304298
 30
0.0
 11
5.119507781786359
 21
4.996237900304298
 31
0.0
  0
LINE
  5
8C9
  8
LAYER1
 62
    18
 10
5.563507072252667
 20
4.854036144501903
 30
0.0
 11
5.119507781786359
 21
4.854036144501903
 31
0.0
  0
LINE
  5
8CA
  8
LAYER1
 62
    18
 10
2.625974877838679
 20
3.060853633271722
 30
0.0
 11
2.429455484981333
 21
3.063744714619575
 31
0.0
  0
LINE
  5
8CB
  8
LAYER1
 62
    18
 10
2.626657419862811
 20
2.977784711905949
 30
0.0
 11
2.429963210195934
 21
2.977787986789001
 31
0.0
  0
LINE
  5
8CC
  8
LAYER1
 62
    18
 10
2.814393873279482
 20
3.060853633271566
 30
0.0
 11
3.012562927588428
 21
3.060853633271477
 31
0.0
  0
LINE
  5
8CD
  8
LAYER1
 62
    18
 10
2.814571377711146
 20
2.977784711905948
 30
0.0
 11
3.011057856283713
 21
2.977784711905949
 31
0.0
  0
LINE
  5
8CE
  8
LAYER1
 62
    18
 10
4.104287139696515
 20
3.120882666078597
 30
0.0
 11
4.277286998552716
 21
3.120882666078597
 31
0.0
  0
LINE
  5
8CF
  8
LAYER1
 62
    18
 10
4.104287139696515
 20
3.029241965133245
 30
0.0
 11
4.277286998552716
 21
3.029241965133245
 31
0.0
  0
LINE
  5
8D0
  8
LAYER1
 62
    18
 10
8.408905021471426
 20
1.641466767627032
 30
0.0
 11
8.546795261377738
 21
1.641466767627032
 31
0.0
  0
LINE
  5
8D1
  8
LAYER1
 62
    18
 10
5.119507781786359
 20
5.369616019735588
 30
0.0
 11
5.119507781786359
 21
4.996237900304298
 31
0.0
  0
LINE
  5
8D2
  8
LAYER1
 62
    18
 10
5.119507781786359
 20
4.854036144501903
 30
0.0
 11
5.119507781786359
 21
3.937616038332237
 31
0.0
  0
LINE
  5
8D3
  8
LAYER1
 62
    18
 10
5.563507072252667
 20
4.854036144501903
 30
0.0
 11
5.563507072252667
 21
4.787616047272934
 31
0.0
  0
LINE
  5
8D4
  8
LAYER1
 62
    18
 10
5.563507072252667
 20
5.079616057882561
 30
0.0
 11
5.563507072252667
 21
4.996237900304298
 31
0.0
  0
LINE
  5
8D5
  8
LAYER1
 62
    18
 10
3.55950736216966
 20
5.369616019735588
 30
0.0
 11
3.55950736216966
 21
5.00978092466643
 31
0.0
  0
LINE
  5
8D6
  8
LAYER1
 62
    18
 10
3.55950736216966
 20
4.881122193226169
 30
0.0
 11
3.55950736216966
 21
4.477088633089206
 31
0.0
  0
LINE
  5
8D7
  8
LAYER1
 62
    18
 10
3.55950736216966
 20
4.310057999289568
 30
0.0
 11
3.55950736216966
 21
3.937616038332237
 31
0.0
  0
LINE
  5
8D8
  8
LAYER1
 62
    18
 10
4.005507461351788
 20
4.310057999289568
 30
0.0
 11
4.005507461351788
 21
4.245616036663307
 31
0.0
  0
LINE
  5
8D9
  8
LAYER1
 62
    18
 10
4.005507461351788
 20
4.535616043219818
 30
0.0
 11
4.005507461351788
 21
4.477088633089206
 31
0.0
  0
LINE
  5
8DA
  8
LAYER1
 62
    18
 10
4.005507461351788
 20
5.079616057882561
 30
0.0
 11
4.005507461351788
 21
5.00978092466643
 31
0.0
  0
LINE
  5
8DB
  8
LAYER1
 62
    18
 10
4.005507461351788
 20
4.881122193226169
 30
0.0
 11
4.005507461351788
 21
4.807616043100609
 31
0.0
  0
POLYLINE
  5
8DC
  8
LAYER1
 62
    18
 10
0.0
 20
0.0
 30
0.0
 66
     1
 70
     8
  0
VERTEX
  5
8DD
  8
LAYER1
 62
    18
 10
3.012562927588428
 20
3.060853633271477
 30
0.0
 70
    32
  0
VERTEX
  5
8DE
  8
LAYER1
 62
    18
 10
3.011790253832896
 20
3.086778911815385
 30
0.0
 70
    32
  0
VERTEX
  5
8DF
  8
LAYER1
 62
    18
 10
3.009312956576421
 20
3.116183404496268
 30
0.0
 70
    32
  0
VERTEX
  5
8E0
  8
LAYER1
 62
    18
 10
3.005017174956791
 20
3.147745749455773
 30
0.0
 70
    32
  0
VERTEX
  5
8E1
  8
LAYER1
 62
    18
 10
2.999004048526335
 20
3.179638947651971
 30
0.0
 70
    32
  0
VERTEX
  5
8E2
  8
LAYER1
 62
    18
 10
2.991602503611658
 20
3.209838323085086
 30
0.0
 70
    32
  0
VERTEX
  5
8E3
  8
LAYER1
 62
    18
 10
2.983313188480366
 20
3.236528694612908
 30
0.0
 70
    32
  0
VERTEX
  5
8E4
  8
LAYER1
 62
    18
 10
2.974701913567311
 20
3.25844994567678
 30
0.0
 70
    32
  0
VERTEX
  5
8E5
  8
LAYER1
 62
    18
 10
2.966286889833844
 20
3.275051820287956
 30
0.0
 70
    32
  0
SEQEND
  5
8E6
  8
LAYER1
 62
    18
  0
POLYLINE
  5
8E7
  8
LAYER1
 62
    18
 10
0.0
 20
0.0
 30
0.0
 66
     1
 70
     8
  0
VERTEX
  5
8E8
  8
LAYER1
 62
    18
 10
2.947287074846662
 20
2.750051784525169
 30
0.0
 70
    32
  0
VERTEX
  5
8E9
  8
LAYER1
 62
    18
 10
2.958883414233807
 20
2.769175806145393
 30
0.0
 70
    32
  0
VERTEX
  5
8EA
  8
LAYER1
 62
    18
 10
2.970750197930524
 20
2.79366457678189
 30
0.0
 70
    32
  0
VERTEX
  5
8EB
  8
LAYER1
 62
    18
 10
2.982173304340453
 20
2.822811235265057
 30
0.0
 70
    32
  0
VERTEX
  5
8EC
  8
LAYER1
 62
    18
 10
2.992373017322657
 20
2.855186472771894
 30
0.0
 70
    32
  0
VERTEX
  5
8ED
  8
LAYER1
 62
    18
 10
3.00065941758414
 20
2.888827310182266
 30
0.0
 70
    32
  0
VERTEX
  5
8EE
  8
LAYER1
 62
    18
 10
3.006579227577804
 20
2.921614236844342
 30
0.0
 70
    32
  0
VERTEX
  5
8EF
  8
LAYER1
 62
    18
 10
3.009993071752084
 20
2.951694377531493
 30
0.0
 70
    32
  0
VERTEX
  5
8F0
  8
LAYER1
 62
    18
 10
3.011057856283713
 20
2.977784711905949
 30
0.0
 70
    32
  0
SEQEND
  5
8F1
  8
LAYER1
 62
    18
  0
POLYLINE
  5
8F2
  8
LAYER1
 62
    18
 10
0.0
 20
0.0
 30
0.0
 66
     1
 70
     8
  0
VERTEX
  5
8F3
  8
LAYER1
 62
    18
 10
2.483286849779523
 20
2.772551763067497
 30
0.0
 70
    32
  0
VERTEX
  5
8F4
  8
LAYER1
 62
    18
 10
2.470613232017388
 20
2.796148214789281
 30
0.0
 70
    32
  0
VERTEX
  5
8F5
  8
LAYER1
 62
    18
 10
2.458301051975737
 20
2.823323864787916
 30
0.0
 70
    32
  0
VERTEX
  5
8F6
  8
LAYER1
 62
    18
 10
2.447193661071945
 20
2.852915533540509
 30
0.0
 70
    32
  0
VERTEX
  5
8F7
  8
LAYER1
 62
    18
 10
2.438124049368396
 20
2.88324830822696
 30
0.0
 70
    32
  0
VERTEX
  5
8F8
  8
LAYER1
 62
    18
 10
2.431736004482293
 20
2.912410179645284
 30
0.0
 70
    32
  0
VERTEX
  5
8F9
  8
LAYER1
 62
    18
 10
2.42834165332187
 20
2.938633957885521
 30
0.0
 70
    32
  0
VERTEX
  5
8FA
  8
LAYER1
 62
    18
 10
2.42787652885443
 20
2.960636603803369
 30
0.0
 70
    32
  0
VERTEX
  5
8FB
  8
LAYER1
 62
    18
 10
2.429963210195934
 20
2.977787986789001
 30
0.0
 70
    32
  0
SEQEND
  5
8FC
  8
LAYER1
 62
    18
  0
POLYLINE
  5
8FD
  8
LAYER1
 62
    18
 10
0.0
 20
0.0
 30
0.0
 66
     1
 70
     8
  0
VERTEX
  5
8FE
  8
LAYER1
 62
    18
 10
2.429455484981333
 20
3.063744714619575
 30
0.0
 70
    32
  0
VERTEX
  5
8FF
  8
LAYER1
 62
    18
 10
2.429959075626547
 20
3.097339487056605
 30
0.0
 70
    32
  0
VERTEX
  5
900
  8
LAYER1
 62
    18
 10
2.43326604143026
 20
3.134509371448877
 30
0.0
 70
    32
  0
VERTEX
  5
901
  8
LAYER1
 62
    18
 10
2.439612588130757
 20
3.173452764293533
 30
0.0
 70
    32
  0
VERTEX
  5
902
  8
LAYER1
 62
    18
 10
2.44888344291762
 20
3.211829403694856
 30
0.0
 70
    32
  0
VERTEX
  5
903
  8
LAYER1
 62
    18
 10
2.460580301365452
 20
3.2471722394031
 30
0.0
 70
    32
  0
VERTEX
  5
904
  8
LAYER1
 62
    18
 10
2.473904806822336
 20
3.277389447128641
 30
0.0
 70
    32
  0
VERTEX
  5
905
  8
LAYER1
 62
    18
 10
2.487929760336738
 20
3.301156107435896
 30
0.0
 70
    32
  0
VERTEX
  5
906
  8
LAYER1
 62
    18
 10
2.501786939424909
 20
3.318051743517174
 30
0.0
 70
    32
  0
SEQEND
  5
907
  8
LAYER1
 62
    18
  0
POLYLINE
  5
908
  8
LAYER1
 62
    18
 10
0.0
 20
0.0
 30
0.0
 66
     1
 70
     8
  0
VERTEX
  5
909
  8
LAYER1
 62
    18
 10
2.647286884111798
 20
3.21755175591494
 30
0.0
 70
    32
  0
VERTEX
  5
90A
  8
LAYER1
 62
    18
 10
2.643411421835897
 20
3.207125360311469
 30
0.0
 70
    32
  0
VERTEX
  5
90B
  8
LAYER1
 62
    18
 10
2.639445577872767
 20
3.192468295776363
 30
0.0
 70
    32
  0
VERTEX
  5
90C
  8
LAYER1
 62
    18
 10
2.635628009544751
 20
3.17384094845584
 30
0.0
 70
    32
  0
VERTEX
  5
90D
  8
LAYER1
 62
    18
 10
2.632219295676703
 20
3.152060657392584
 30
0.0
 70
    32
  0
VERTEX
  5
90E
  8
LAYER1
 62
    18
 10
2.629450005252865
 20
3.128416709094512
 30
0.0
 70
    32
  0
VERTEX
  5
90F
  8
LAYER1
 62
    18
 10
2.627471622286912
 20
3.104428890341151
 30
0.0
 70
    32
  0
VERTEX
  5
910
  8
LAYER1
 62
    18
 10
2.626330725675358
 20
3.081538262245922
 30
0.0
 70
    32
  0
VERTEX
  5
911
  8
LAYER1
 62
    18
 10
2.625974877838679
 20
3.060853633271722
 30
0.0
 70
    32
  0
SEQEND
  5
912
  8
LAYER1
 62
    18
  0
POLYLINE
  5
913
  8
LAYER1
 62
    18
 10
0.0
 20
0.0
 30
0.0
 66
     1
 70
     8
  0
VERTEX
  5
914
  8
LAYER1
 62
    18
 10
2.649286977571881
 20
2.845551776895775
 30
0.0
 70
    32
  0
VERTEX
  5
915
  8
LAYER1
 62
    18
 10
2.641132951757118
 20
2.865558579338768
 30
0.0
 70
    32
  0
VERTEX
  5
916
  8
LAYER1
 62
    18
 10
2.633680129995267
 20
2.88692333927219
 30
0.0
 70
    32
  0
VERTEX
  5
917
  8
LAYER1
 62
    18
 10
2.627515973238267
 20
2.908499327662776
 30
0.0
 70
    32
  0
VERTEX
  5
918
  8
LAYER1
 62
    18
 10
2.623162747936164
 20
2.928915329612563
 30
0.0
 70
    32
  0
VERTEX
  5
919
  8
LAYER1
 62
    18
 10
2.620956032195717
 20
2.946831506696149
 30
0.0
 70
    32
  0
VERTEX
  5
91A
  8
LAYER1
 62
    18
 10
2.620965920198991
 20
2.961217203045882
 30
0.0
 70
    32
  0
VERTEX
  5
91B
  8
LAYER1
 62
    18
 10
2.622996292330382
 20
2.971537836119203
 30
0.0
 70
    32
  0
VERTEX
  5
91C
  8
LAYER1
 62
    18
 10
2.626657419862811
 20
2.977784711905949
 30
0.0
 70
    32
  0
SEQEND
  5
91D
  8
LAYER1
 62
    18
  0
POLYLINE
  5
91E
  8
LAYER1
 62
    18
 10
0.0
 20
0.0
 30
0.0
 66
     1
 70
     8
  0
VERTEX
  5
91F
  8
LAYER1
 62
    18
 10
2.804786912722028
 20
2.883551824102653
 30
0.0
 70
    32
  0
VERTEX
  5
920
  8
LAYER1
 62
    18
 10
2.806566159803193
 20
2.893569925561375
 30
0.0
 70
    32
  0
VERTEX
  5
921
  8
LAYER1
 62
    18
 10
2.808386901638206
 20
2.905392458183547
 30
0.0
 70
    32
  0
VERTEX
  5
922
  8
LAYER1
 62
    18
 10
2.810139569274015
 20
2.918552848801694
 30
0.0
 70
    32
  0
VERTEX
  5
923
  8
LAYER1
 62
    18
 10
2.811704529469334
 20
2.932331689982059
 30
0.0
 70
    32
  0
VERTEX
  5
924
  8
LAYER1
 62
    18
 10
2.812975926673779
 20
2.945869431662308
 30
0.0
 70
    32
  0
VERTEX
  5
925
  8
LAYER1
 62
    18
 10
2.813884213703041
 20
2.958336343373126
 30
0.0
 70
    32
  0
VERTEX
  5
926
  8
LAYER1
 62
    18
 10
2.814408005917106
 20
2.969093707990458
 30
0.0
 70
    32
  0
VERTEX
  5
927
  8
LAYER1
 62
    18
 10
2.814571377711146
 20
2.977784711905948
 30
0.0
 70
    32
  0
SEQEND
  5
928
  8
LAYER1
 62
    18
  0
POLYLINE
  5
929
  8
LAYER1
 62
    18
 10
0.0
 20
0.0
 30
0.0
 66
     1
 70
     8
  0
VERTEX
  5
92A
  8
LAYER1
 62
    18
 10
2.814393873279482
 20
3.060853633271566
 30
0.0
 70
    32
  0
VERTEX
  5
92B
  8
LAYER1
 62
    18
 10
2.814008055398342
 20
3.082928341478497
 30
0.0
 70
    32
  0
VERTEX
  5
92C
  8
LAYER1
 62
    18
 10
2.812771070743949
 20
3.106974821922138
 30
0.0
 70
    32
  0
VERTEX
  5
92D
  8
LAYER1
 62
    18
 10
2.810626065364308
 20
3.1317731391927
 30
0.0
 70
    32
  0
VERTEX
  5
92E
  8
LAYER1
 62
    18
 10
2.807623541101238
 20
3.155796542039235
 30
0.0
 70
    32
  0
VERTEX
  5
92F
  8
LAYER1
 62
    18
 10
2.803927740181777
 20
3.177487275850044
 30
0.0
 70
    32
  0
VERTEX
  5
930
  8
LAYER1
 62
    18
 10
2.799788650459686
 20
3.195576094456003
 30
0.0
 70
    32
  0
VERTEX
  5
931
  8
LAYER1
 62
    18
 10
2.795488797103626
 20
3.209316935852084
 30
0.0
 70
    32
  0
VERTEX
  5
932
  8
LAYER1
 62
    18
 10
2.79128693751756
 20
3.218551802644981
 30
0.0
 70
    32
  0
SEQEND
  5
933
  8
LAYER1
 62
    18
  0
LINE
  5
934
  8
LAYER1
 62
    18
 10
4.104287139696515
 20
3.185551750669731
 30
0.0
 11
4.104287139696515
 21
3.120882666078597
 31
0.0
  0
LINE
  5
935
  8
LAYER1
 62
    18
 10
4.104287139696515
 20
3.029241965133245
 30
0.0
 11
4.104287139696515
 21
2.959551799307121
 31
0.0
  0
LINE
  5
936
  8
LAYER1
 62
    18
 10
4.277286998552716
 20
2.959551799307121
 30
0.0
 11
4.277286998552716
 21
3.029241965133245
 31
0.0
  0
LINE
  5
937
  8
LAYER1
 62
    18
 10
4.277286998552716
 20
3.120882666078597
 30
0.0
 11
4.277286998552716
 21
3.399551737318291
 31
0.0
  0
LINE
  5
938
  8
LAYER1
 62
    18
 10
4.782905570787824
 20
1.672243389028278
 30
0.0
 11
4.927905074877179
 21
1.672243389028278
 31
0.0
  0
LINE
  5
939
  8
LAYER1
 62
    18
 10
4.782905570787824
 20
1.561159941464766
 30
0.0
 11
4.927905074877179
 21
1.561159941464766
 31
0.0
  0
LINE
  5
93A
  8
LAYER1
 62
    18
 10
4.10152106137347
 20
1.582560083556054
 30
0.0
 11
4.248205092324798
 21
1.582560083556054
 31
0.0
  0
LINE
  5
93B
  8
LAYER1
 62
    18
 10
4.136958890704969
 20
1.487701187984626
 30
0.0
 11
4.284405223650372
 21
1.487701187984626
 31
0.0
  0
LINE
  5
93C
  8
LAYER1
 62
    18
 10
4.027049262043085
 20
1.582560083556054
 30
0.0
 11
3.883970035218007
 21
1.582560083556054
 31
0.0
  0
LINE
  5
93D
  8
LAYER1
 62
    18
 10
3.992327296732125
 20
1.487701187984626
 30
0.0
 11
3.847139354743057
 21
1.487701187984626
 31
0.0
  0
LINE
  5
93E
  8
LAYER1
 62
    18
 10
3.98790501765672
 20
1.85024880171801
 30
0.0
 11
3.883970035218007
 21
1.582560083556054
 31
0.0
  0
LINE
  5
93F
  8
LAYER1
 62
    18
 10
3.847139354743057
 20
1.487701187984626
 30
0.0
 11
3.709905139727033
 21
1.134248960027946
 31
0.0
  0
LINE
  5
940
  8
LAYER1
 62
    18
 10
3.966905109209454
 20
1.418248879919304
 30
0.0
 11
3.992327296732125
 21
1.487701187984626
 31
0.0
  0
LINE
  5
941
  8
LAYER1
 62
    18
 10
4.027049262043085
 20
1.582560083556054
 30
0.0
 11
4.063905231279767
 21
1.683248984823479
 31
0.0
  0
LINE
  5
942
  8
LAYER1
 62
    18
 10
4.140905372423566
 20
1.85024880171801
 30
0.0
 11
4.248205092324798
 21
1.582560083556054
 31
0.0
  0
LINE
  5
943
  8
LAYER1
 62
    18
 10
4.284405223650372
 20
1.487701187984626
 30
0.0
 11
4.427905074877179
 21
1.134248960027946
 31
0.0
  0
LINE
  5
944
  8
LAYER1
 62
    18
 10
4.063905231279767
 20
1.683248984823479
 30
0.0
 11
4.10152106137347
 21
1.582560083556054
 31
0.0
  0
LINE
  5
945
  8
LAYER1
 62
    18
 10
4.136958890704969
 20
1.487701187984626
 30
0.0
 11
4.162905208391583
 21
1.418248879919304
 31
0.0
  0
LINE
  5
946
  8
LAYER1
 62
    18
 10
4.782905570787824
 20
1.85024880171801
 30
0.0
 11
4.782905570787824
 21
1.672243389028278
 31
0.0
  0
LINE
  5
947
  8
LAYER1
 62
    18
 10
4.782905570787824
 20
1.561159941464766
 30
0.0
 11
4.782905570787824
 21
1.134248960027946
 31
0.0
  0
LINE
  5
948
  8
LAYER1
 62
    18
 10
4.927905074877179
 20
1.561159941464766
 30
0.0
 11
4.927905074877179
 21
1.525248992452873
 31
0.0
  0
LINE
  5
949
  8
LAYER1
 62
    18
 10
5.515905372423566
 20
1.492248880872978
 30
0.0
 11
5.660992219107898
 21
1.492248880872978
 31
0.0
  0
LINE
  5
94A
  8
LAYER1
 62
    18
 10
5.802260236083331
 20
1.492248880872978
 30
0.0
 11
5.951405040544904
 21
1.492248880872978
 31
0.0
  0
LINE
  5
94B
  8
LAYER1
 62
    18
 10
5.772373446338749
 20
1.572248923788322
 30
0.0
 11
5.919338010391957
 21
1.572248923788322
 31
0.0
  0
LINE
  5
94C
  8
LAYER1
 62
    18
 10
5.690275278943759
 20
1.572248923788322
 30
0.0
 11
5.546966834828837
 21
1.572248923788322
 31
0.0
  0
LINE
  5
94D
  8
LAYER1
 62
    18
 10
7.515905372423566
 20
1.492248880872978
 30
0.0
 11
7.660992219107902
 21
1.492248880872978
 31
0.0
  0
LINE
  5
94E
  8
LAYER1
 62
    18
 10
7.802260236083336
 20
1.492248880872978
 30
0.0
 11
7.951405040544908
 21
1.492248880872978
 31
0.0
  0
LINE
  5
94F
  8
LAYER1
 62
    18
 10
7.91933801039196
 20
1.572248923788322
 30
0.0
 11
7.772373446338753
 21
1.572248923788322
 31
0.0
  0
LINE
  5
950
  8
LAYER1
 62
    18
 10
7.69027527894376
 20
1.572248923788322
 30
0.0
 11
7.546966834828838
 21
1.572248923788322
 31
0.0
  0
LINE
  5
951
  8
LAYER1
 62
    18
 10
8.815584059113561
 20
1.641147432265533
 30
0.0
 11
8.729583937115116
 21
1.641147432265533
 31
0.0
  0
LINE
  5
952
  8
LAYER1
 62
    18
 10
8.873842369072342
 20
1.641147432265534
 30
0.0
 11
8.815584059113561
 21
1.641147432265533
 31
0.0
  0
LINE
  5
953
  8
LAYER1
 62
    18
 10
8.728627333516268
 20
1.55698394606618
 30
0.0
 11
8.884009302219262
 21
1.556983946066191
 31
0.0
  0
LINE
  5
954
  8
LAYER1
 62
    18
 10
8.549400314363616
 20
1.55698394606618
 30
0.0
 11
8.413854488367875
 21
1.55698394606618
 31
0.0
  0
LINE
  5
955
  8
LAYER1
 62
    18
 10
10.07690524272387
 20
1.641147432265534
 30
0.0
 11
10.21479548263018
 21
1.641147432265534
 31
0.0
  0
LINE
  5
956
  8
LAYER1
 62
    18
 10
10.39758410643999
 20
1.641147432265533
 30
0.0
 11
10.54184172825366
 21
1.641147432265533
 31
0.0
  0
LINE
  5
957
  8
LAYER1
 62
    18
 10
10.63474989055598
 20
1.641147432265534
 30
0.0
 11
10.77079523848956
 21
1.641147432265534
 31
0.0
  0
LINE
  5
958
  8
LAYER1
 62
    18
 10
10.95358391422694
 20
1.641147432265533
 30
0.0
 11
11.09784234618416
 21
1.641147432265534
 31
0.0
  0
LINE
  5
959
  8
LAYER1
 62
    18
 10
10.08395682773059
 20
1.545472882042183
 30
0.0
 11
10.22388433036273
 21
1.545472882042183
 31
0.0
  0
LINE
  5
95A
  8
LAYER1
 62
    18
 10
10.39366445482175
 20
1.545472882042183
 30
0.0
 11
10.55269451395388
 21
1.545472882042178
 31
0.0
  0
LINE
  5
95B
  8
LAYER1
 62
    18
 10
10.63995663871233
 20
1.545472882042183
 30
0.0
 11
10.7766210936077
 21
1.545472882042183
 31
0.0
  0
LINE
  5
95C
  8
LAYER1
 62
    18
 10
10.94966421068112
 20
1.545472882042183
 30
0.0
 11
11.10869520999138
 21
1.545472882042179
 31
0.0
  0
LINE
  5
95D
  8
LAYER1
 62
    18
 10
5.546966834828837
 20
1.572248923788322
 30
0.0
 11
5.65490531138841
 21
1.85024880171801
 31
0.0
  0
LINE
  5
95E
  8
LAYER1
 62
    18
 10
5.515905372423566
 20
1.492248880872978
 30
0.0
 11
5.376905433458722
 21
1.134248960027946
 31
0.0
  0
LINE
  5
95F
  8
LAYER1
 62
    18
 10
5.633905402941144
 20
1.418248879919304
 30
0.0
 11
5.660992219107898
 21
1.492248880872978
 31
0.0
  0
LINE
  5
960
  8
LAYER1
 62
    18
 10
5.690275278943759
 20
1.572248923788322
 30
0.0
 11
5.730905525011456
 21
1.683248984823479
 31
0.0
  0
LINE
  5
961
  8
LAYER1
 62
    18
 10
5.807905189318097
 20
1.85024880171801
 30
0.0
 11
5.919338010391957
 21
1.572248923788322
 31
0.0
  0
LINE
  5
962
  8
LAYER1
 62
    18
 10
5.951405040544904
 20
1.492248880872978
 30
0.0
 11
6.09490489177171
 21
1.134248960027946
 31
0.0
  0
LINE
  5
963
  8
LAYER1
 62
    18
 10
5.730905525011456
 20
1.683248984823479
 30
0.0
 11
5.772373446338749
 21
1.572248923788322
 31
0.0
  0
LINE
  5
964
  8
LAYER1
 62
    18
 10
5.829905502123273
 20
1.418248879919304
 30
0.0
 11
5.802260236083331
 21
1.492248880872978
 31
0.0
  0
LINE
  5
965
  8
LAYER1
 62
    18
 10
7.376905433458722
 20
1.134248960027946
 30
0.0
 11
7.515905372423566
 21
1.492248880872978
 31
0.0
  0
LINE
  5
966
  8
LAYER1
 62
    18
 10
7.546966834828838
 20
1.572248923788322
 30
0.0
 11
7.654905311388413
 21
1.85024880171801
 31
0.0
  0
LINE
  5
967
  8
LAYER1
 62
    18
 10
7.807905189318102
 20
1.85024880171801
 30
0.0
 11
7.91933801039196
 21
1.572248923788322
 31
0.0
  0
LINE
  5
968
  8
LAYER1
 62
    18
 10
7.951405040544908
 20
1.492248880872978
 30
0.0
 11
8.094904891771716
 21
1.134248960027946
 31
0.0
  0
LINE
  5
969
  8
LAYER1
 62
    18
 10
7.633905402941147
 20
1.418248879919304
 30
0.0
 11
7.660992219107902
 21
1.492248880872978
 31
0.0
  0
LINE
  5
96A
  8
LAYER1
 62
    18
 10
7.69027527894376
 20
1.572248923788322
 30
0.0
 11
7.73090552501146
 21
1.683248984823479
 31
0.0
  0
LINE
  5
96B
  8
LAYER1
 62
    18
 10
7.73090552501146
 20
1.683248984823479
 30
0.0
 11
7.772373446338753
 21
1.572248923788322
 31
0.0
  0
LINE
  5
96C
  8
LAYER1
 62
    18
 10
7.802260236083336
 20
1.492248880872978
 30
0.0
 11
7.829905502123277
 21
1.418248879919304
 31
0.0
  0
POLYLINE
  5
96D
  8
LAYER1
 62
    18
 10
0.0
 20
0.0
 30
0.0
 66
     1
 70
     8
  0
VERTEX
  5
96E
  8
LAYER1
 62
    18
 10
8.473405353350088
 20
1.787748920927299
 30
0.0
 70
    32
  0
VERTEX
  5
96F
  8
LAYER1
 62
    18
 10
8.461676349530576
 20
1.773649204324988
 30
0.0
 70
    32
  0
VERTEX
  5
970
  8
LAYER1
 62
    18
 10
8.449673807464723
 20
1.756461831334092
 30
0.0
 70
    32
  0
VERTEX
  5
971
  8
LAYER1
 62
    18
 10
8.438120018442191
 20
1.736791007708018
 30
0.0
 70
    32
  0
VERTEX
  5
972
  8
LAYER1
 62
    18
 10
8.427803618711874
 20
1.715665227721693
 30
0.0
 70
    32
  0
VERTEX
  5
973
  8
LAYER1
 62
    18
 10
8.419422420380902
 20
1.694386188596488
 30
0.0
 70
    32
  0
VERTEX
  5
974
  8
LAYER1
 62
    18
 10
8.413434886581793
 20
1.674274542902686
 30
0.0
 70
    32
  0
VERTEX
  5
975
  8
LAYER1
 62
    18
 10
8.409981987350186
 20
1.656410077130152
 30
0.0
 70
    32
  0
VERTEX
  5
976
  8
LAYER1
 62
    18
 10
8.408905021471426
 20
1.641466767627032
 30
0.0
 70
    32
  0
SEQEND
  5
977
  8
LAYER1
 62
    18
  0
POLYLINE
  5
978
  8
LAYER1
 62
    18
 10
0.0
 20
0.0
 30
0.0
 66
     1
 70
     8
  0
VERTEX
  5
979
  8
LAYER1
 62
    18
 10
8.469905368608877
 20
1.442248928556694
 30
0.0
 70
    32
  0
VERTEX
  5
97A
  8
LAYER1
 62
    18
 10
8.459712847589444
 20
1.454743845686906
 30
0.0
 70
    32
  0
VERTEX
  5
97B
  8
LAYER1
 62
    18
 10
8.449282621444462
 20
1.469377125307959
 30
0.0
 70
    32
  0
VERTEX
  5
97C
  8
LAYER1
 62
    18
 10
8.439242362333083
 20
1.48555610297869
 30
0.0
 70
    32
  0
VERTEX
  5
97D
  8
LAYER1
 62
    18
 10
8.430277396278488
 20
1.50238678092564
 30
0.0
 70
    32
  0
VERTEX
  5
97E
  8
LAYER1
 62
    18
 10
8.422994122995352
 20
1.518815920075182
 30
0.0
 70
    32
  0
VERTEX
  5
97F
  8
LAYER1
 62
    18
 10
8.417790947598606
 20
1.533839944349722
 30
0.0
 70
    32
  0
VERTEX
  5
980
  8
LAYER1
 62
    18
 10
8.414790373249948
 20
1.546699241529931
 30
0.0
 70
    32
  0
VERTEX
  5
981
  8
LAYER1
 62
    18
 10
8.413854488367875
 20
1.55698394606618
 30
0.0
 70
    32
  0
SEQEND
  5
982
  8
LAYER1
 62
    18
  0
POLYLINE
  5
983
  8
LAYER1
 62
    18
 10
0.0
 20
0.0
 30
0.0
 66
     1
 70
     8
  0
VERTEX
  5
984
  8
LAYER1
 62
    18
 10
8.546795261377738
 20
1.641466767627032
 30
0.0
 70
    32
  0
VERTEX
  5
985
  8
LAYER1
 62
    18
 10
8.54716443477143
 20
1.650180203179319
 30
0.0
 70
    32
  0
VERTEX
  5
986
  8
LAYER1
 62
    18
 10
8.548348054932983
 20
1.659934196802765
 30
0.0
 70
    32
  0
VERTEX
  5
987
  8
LAYER1
 62
    18
 10
8.550400523090104
 20
1.670272312583705
 30
0.0
 70
    32
  0
VERTEX
  5
988
  8
LAYER1
 62
    18
 10
8.553273516090224
 20
1.680584255873003
 30
0.0
 70
    32
  0
VERTEX
  5
989
  8
LAYER1
 62
    18
 10
8.55680987724542
 20
1.690211145241015
 30
0.0
 70
    32
  0
VERTEX
  5
98A
  8
LAYER1
 62
    18
 10
8.560770403374953
 20
1.698578827883067
 30
0.0
 70
    32
  0
VERTEX
  5
98B
  8
LAYER1
 62
    18
 10
8.564884757668587
 20
1.705306280521586
 30
0.0
 70
    32
  0
VERTEX
  5
98C
  8
LAYER1
 62
    18
 10
8.568905345720694
 20
1.710248935232414
 30
0.0
 70
    32
  0
SEQEND
  5
98D
  8
LAYER1
 62
    18
  0
POLYLINE
  5
98E
  8
LAYER1
 62
    18
 10
0.0
 20
0.0
 30
0.0
 66
     1
 70
     8
  0
VERTEX
  5
98F
  8
LAYER1
 62
    18
 10
8.571405402941153
 20
1.510748851309074
 30
0.0
 70
    32
  0
VERTEX
  5
990
  8
LAYER1
 62
    18
 10
8.567403907747916
 20
1.514827570473726
 30
0.0
 70
    32
  0
VERTEX
  5
991
  8
LAYER1
 62
    18
 10
8.56330909158772
 20
1.519956755115375
 30
0.0
 70
    32
  0
VERTEX
  5
992
  8
LAYER1
 62
    18
 10
8.55936737309664
 20
1.525976677456413
 30
0.0
 70
    32
  0
VERTEX
  5
993
  8
LAYER1
 62
    18
 10
8.555847805316835
 20
1.532585231378258
 30
0.0
 70
    32
  0
VERTEX
  5
994
  8
LAYER1
 62
    18
 10
8.552988455507505
 20
1.539379480091913
 30
0.0
 70
    32
  0
VERTEX
  5
995
  8
LAYER1
 62
    18
 10
8.550945734055183
 20
1.545933519763183
 30
0.0
 70
    32
  0
VERTEX
  5
996
  8
LAYER1
 62
    18
 10
8.549767734636767
 20
1.551883096611401
 30
0.0
 70
    32
  0
VERTEX
  5
997
  8
LAYER1
 62
    18
 10
8.549400314363616
 20
1.55698394606618
 30
0.0
 70
    32
  0
SEQEND
  5
998
  8
LAYER1
 62
    18
  0
POLYLINE
  5
999
  8
LAYER1
 62
    18
 10
0.0
 20
0.0
 30
0.0
 66
     1
 70
     8
  0
VERTEX
  5
99A
  8
LAYER1
 62
    18
 10
8.705905429644034
 20
1.509248840818657
 30
0.0
 70
    32
  0
VERTEX
  5
99B
  8
LAYER1
 62
    18
 10
8.710037273458504
 20
1.514177486274686
 30
0.0
 70
    32
  0
VERTEX
  5
99C
  8
LAYER1
 62
    18
 10
8.714265478168453
 20
1.520049044720083
 30
0.0
 70
    32
  0
VERTEX
  5
99D
  8
LAYER1
 62
    18
 10
8.71833559805596
 20
1.526639256149714
 30
0.0
 70
    32
  0
VERTEX
  5
99E
  8
LAYER1
 62
    18
 10
8.721969815681703
 20
1.53359258160259
 30
0.0
 70
    32
  0
VERTEX
  5
99F
  8
LAYER1
 62
    18
 10
8.724922308750559
 20
1.540476887450752
 30
0.0
 70
    32
  0
VERTEX
  5
9A0
  8
LAYER1
 62
    18
 10
8.727031571810954
 20
1.546868576527417
 30
0.0
 70
    32
  0
VERTEX
  5
9A1
  8
LAYER1
 62
    18
 10
8.728247944535498
 20
1.552435209103564
 30
0.0
 70
    32
  0
VERTEX
  5
9A2
  8
LAYER1
 62
    18
 10
8.728627333516268
 20
1.55698394606618
 30
0.0
 70
    32
  0
SEQEND
  5
9A3
  8
LAYER1
 62
    18
  0
POLYLINE
  5
9A4
  8
LAYER1
 62
    18
 10
0.0
 20
0.0
 30
0.0
 66
     1
 70
     8
  0
VERTEX
  5
9A5
  8
LAYER1
 62
    18
 10
8.729583937115116
 20
1.641147432265533
 30
0.0
 70
    32
  0
VERTEX
  5
9A6
  8
LAYER1
 62
    18
 10
8.728972155974951
 20
1.647924121357867
 30
0.0
 70
    32
  0
VERTEX
  5
9A7
  8
LAYER1
 62
    18
 10
8.72739040885817
 20
1.655875585098972
 30
0.0
 70
    32
  0
VERTEX
  5
9A8
  8
LAYER1
 62
    18
 10
8.724784889853636
 20
1.664681826457748
 30
0.0
 70
    32
  0
VERTEX
  5
9A9
  8
LAYER1
 62
    18
 10
8.721224605006991
 20
1.67385754260106
 30
0.0
 70
    32
  0
VERTEX
  5
9AA
  8
LAYER1
 62
    18
 10
8.716906286620192
 20
1.68282898321534
 30
0.0
 70
    32
  0
VERTEX
  5
9AB
  8
LAYER1
 62
    18
 10
8.71212042186258
 20
1.691047663129148
 30
0.0
 70
    32
  0
VERTEX
  5
9AC
  8
LAYER1
 62
    18
 10
8.707189712706558
 20
1.698096645705448
 30
0.0
 70
    32
  0
VERTEX
  5
9AD
  8
LAYER1
 62
    18
 10
8.702405444902823
 20
1.703748929510368
 30
0.0
 70
    32
  0
SEQEND
  5
9AE
  8
LAYER1
 62
    18
  0
POLYLINE
  5
9AF
  8
LAYER1
 62
    18
 10
0.0
 20
0.0
 30
0.0
 66
     1
 70
     8
  0
VERTEX
  5
9B0
  8
LAYER1
 62
    18
 10
8.873842369072342
 20
1.641147432265534
 30
0.0
 70
    32
  0
VERTEX
  5
9B1
  8
LAYER1
 62
    18
 10
8.872891690626412
 20
1.654744292848634
 30
0.0
 70
    32
  0
VERTEX
  5
9B2
  8
LAYER1
 62
    18
 10
8.869843686097942
 20
1.670818506961616
 30
0.0
 70
    32
  0
VERTEX
  5
9B3
  8
LAYER1
 62
    18
 10
8.864558263932427
 20
1.688739539305351
 30
0.0
 70
    32
  0
VERTEX
  5
9B4
  8
LAYER1
 62
    18
 10
8.85715986370315
 20
1.707530162957493
 30
0.0
 70
    32
  0
VERTEX
  5
9B5
  8
LAYER1
 62
    18
 10
8.848053188128128
 20
1.726019019119263
 30
0.0
 70
    32
  0
VERTEX
  5
9B6
  8
LAYER1
 62
    18
 10
8.837854222302749
 20
1.743072072104303
 30
0.0
 70
    32
  0
VERTEX
  5
9B7
  8
LAYER1
 62
    18
 10
8.827259125221735
 20
1.757813089443788
 30
0.0
 70
    32
  0
VERTEX
  5
9B8
  8
LAYER1
 62
    18
 10
8.81690549067919
 20
1.769748914251579
 30
0.0
 70
    32
  0
SEQEND
  5
9B9
  8
LAYER1
 62
    18
  0
POLYLINE
  5
9BA
  8
LAYER1
 62
    18
 10
0.0
 20
0.0
 30
0.0
 66
     1
 70
     8
  0
VERTEX
  5
9BB
  8
LAYER1
 62
    18
 10
8.886905662340567
 20
1.492249000082268
 30
0.0
 70
    32
  0
VERTEX
  5
9BC
  8
LAYER1
 62
    18
 10
8.886857301643307
 20
1.497575560821388
 30
0.0
 70
    32
  0
VERTEX
  5
9BD
  8
LAYER1
 62
    18
 10
8.886702250663783
 20
1.504448726840362
 30
0.0
 70
    32
  0
VERTEX
  5
9BE
  8
LAYER1
 62
    18
 10
8.886433382991083
 20
1.512676631597665
 30
0.0
 70
    32
  0
VERTEX
  5
9BF
  8
LAYER1
 62
    18
 10
8.886057028825025
 20
1.521859646209384
 30
0.0
 70
    32
  0
VERTEX
  5
9C0
  8
LAYER1
 62
    18
 10
8.885593775258663
 20
1.531442240475518
 30
0.0
 70
    32
  0
VERTEX
  5
9C1
  8
LAYER1
 62
    18
 10
8.885074957249511
 20
1.540819463510141
 30
0.0
 70
    32
  0
VERTEX
  5
9C2
  8
LAYER1
 62
    18
 10
8.884535988174761
 20
1.549457956554115
 30
0.0
 70
    32
  0
VERTEX
  5
9C3
  8
LAYER1
 62
    18
 10
8.884009302219262
 20
1.556983946066191
 30
0.0
 70
    32
  0
SEQEND
  5
9C4
  8
LAYER1
 62
    18
  0
POLYLINE
  5
9C5
  8
LAYER1
 62
    18
 10
0.0
 20
0.0
 30
0.0
 66
     1
 70
     8
  0
VERTEX
  5
9C6
  8
LAYER1
 62
    18
 10
10.07690524272387
 20
1.641147432265534
 30
0.0
 70
    32
  0
VERTEX
  5
9C7
  8
LAYER1
 62
    18
 10
10.08177530575773
 20
1.660947191725325
 30
0.0
 70
    32
  0
VERTEX
  5
9C8
  8
LAYER1
 62
    18
 10
10.08827263857591
 20
1.682722404245838
 30
0.0
 70
    32
  0
VERTEX
  5
9C9
  8
LAYER1
 62
    18
 10
10.09624222686821
 20
1.705398660327661
 30
0.0
 70
    32
  0
VERTEX
  5
9CA
  8
LAYER1
 62
    18
 10
10.10531247290688
 20
1.727600517418075
 30
0.0
 70
    32
  0
VERTEX
  5
9CB
  8
LAYER1
 62
    18
 10
10.11493968670216
 20
1.747896049571191
 30
0.0
 70
    32
  0
VERTEX
  5
9CC
  8
LAYER1
 62
    18
 10
10.12451129155225
 20
1.765089108326178
 30
0.0
 70
    32
  0
VERTEX
  5
9CD
  8
LAYER1
 62
    18
 10
10.13346928577276
 20
1.778442253073573
 30
0.0
 70
    32
  0
VERTEX
  5
9CE
  8
LAYER1
 62
    18
 10
10.14140509776538
 20
1.787748920927299
 30
0.0
 70
    32
  0
SEQEND
  5
9CF
  8
LAYER1
 62
    18
  0
POLYLINE
  5
9D0
  8
LAYER1
 62
    18
 10
0.0
 20
0.0
 30
0.0
 66
     1
 70
     8
  0
VERTEX
  5
9D1
  8
LAYER1
 62
    18
 10
10.21479548263018
 20
1.641147432265534
 30
0.0
 70
    32
  0
VERTEX
  5
9D2
  8
LAYER1
 62
    18
 10
10.21516465602388
 20
1.649918920112741
 30
0.0
 70
    32
  0
VERTEX
  5
9D3
  8
LAYER1
 62
    18
 10
10.21634827618543
 20
1.659732323640194
 30
0.0
 70
    32
  0
VERTEX
  5
9D4
  8
LAYER1
 62
    18
 10
10.21840074434255
 20
1.670127632336804
 30
0.0
 70
    32
  0
VERTEX
  5
9D5
  8
LAYER1
 62
    18
 10
10.22127373734267
 20
1.680490648116758
 30
0.0
 70
    32
  0
VERTEX
  5
9D6
  8
LAYER1
 62
    18
 10
10.22481009849786
 20
1.690159035126115
 30
0.0
 70
    32
  0
VERTEX
  5
9D7
  8
LAYER1
 62
    18
 10
10.2287706246274
 20
1.698556370369429
 30
0.0
 70
    32
  0
VERTEX
  5
9D8
  8
LAYER1
 62
    18
 10
10.23288497892103
 20
1.705300931608422
 30
0.0
 70
    32
  0
VERTEX
  5
9D9
  8
LAYER1
 62
    18
 10
10.23690556697314
 20
1.710248935232414
 30
0.0
 70
    32
  0
SEQEND
  5
9DA
  8
LAYER1
 62
    18
  0
POLYLINE
  5
9DB
  8
LAYER1
 62
    18
 10
0.0
 20
0.0
 30
0.0
 66
     1
 70
     8
  0
VERTEX
  5
9DC
  8
LAYER1
 62
    18
 10
10.23940514735644
 20
1.510748851309074
 30
0.0
 70
    32
  0
VERTEX
  5
9DD
  8
LAYER1
 62
    18
 10
10.23658277859493
 20
1.514113726439485
 30
0.0
 70
    32
  0
VERTEX
  5
9DE
  8
LAYER1
 62
    18
 10
10.23369458789207
 20
1.518208002465921
 30
0.0
 70
    32
  0
VERTEX
  5
9DF
  8
LAYER1
 62
    18
 10
10.23091438134461
 20
1.522886772231101
 30
0.0
 70
    32
  0
VERTEX
  5
9E0
  8
LAYER1
 62
    18
 10
10.22843192974188
 20
1.527904804854396
 30
0.0
 70
    32
  0
VERTEX
  5
9E1
  8
LAYER1
 62
    18
 10
10.2264151487162
 20
1.532952704464394
 30
0.0
 70
    32
  0
VERTEX
  5
9E2
  8
LAYER1
 62
    18
 10
10.2249743589771
 20
1.537717381190371
 30
0.0
 70
    32
  0
VERTEX
  5
9E3
  8
LAYER1
 62
    18
 10
10.22414348236746
 20
1.541943608376482
 30
0.0
 70
    32
  0
VERTEX
  5
9E4
  8
LAYER1
 62
    18
 10
10.22388433036273
 20
1.545472882042183
 30
0.0
 70
    32
  0
SEQEND
  5
9E5
  8
LAYER1
 62
    18
  0
POLYLINE
  5
9E6
  8
LAYER1
 62
    18
 10
0.0
 20
0.0
 30
0.0
 66
     1
 70
     8
  0
VERTEX
  5
9E7
  8
LAYER1
 62
    18
 10
10.13790511302416
 20
1.442248928556694
 30
0.0
 70
    32
  0
VERTEX
  5
9E8
  8
LAYER1
 62
    18
 10
10.12943018697967
 20
1.452571060042669
 30
0.0
 70
    32
  0
VERTEX
  5
9E9
  8
LAYER1
 62
    18
 10
10.12046293397162
 20
1.464998441069796
 30
0.0
 70
    32
  0
VERTEX
  5
9EA
  8
LAYER1
 62
    18
 10
10.11149704689752
 20
1.479073891734304
 30
0.0
 70
    32
  0
VERTEX
  5
9EB
  8
LAYER1
 62
    18
 10
10.10311095762775
 20
1.494048996205747
 30
0.0
 70
    32
  0
VERTEX
  5
9EC
  8
LAYER1
 62
    18
 10
10.09585831566723
 20
1.508996838428588
 30
0.0
 70
    32
  0
VERTEX
  5
9ED
  8
LAYER1
 62
    18
 10
10.09015258384503
 20
1.522993874188201
 30
0.0
 70
    32
  0
VERTEX
  5
9EE
  8
LAYER1
 62
    18
 10
10.08619285598076
 20
1.535300811685016
 30
0.0
 70
    32
  0
VERTEX
  5
9EF
  8
LAYER1
 62
    18
 10
10.08395682773059
 20
1.545472882042183
 30
0.0
 70
    32
  0
SEQEND
  5
9F0
  8
LAYER1
 62
    18
  0
POLYLINE
  5
9F1
  8
LAYER1
 62
    18
 10
0.0
 20
0.0
 30
0.0
 66
     1
 70
     8
  0
VERTEX
  5
9F2
  8
LAYER1
 62
    18
 10
10.37390565089648
 20
1.509248840818657
 30
0.0
 70
    32
  0
VERTEX
  5
9F3
  8
LAYER1
 62
    18
 10
10.37749867251293
 20
1.513364662193094
 30
0.0
 70
    32
  0
VERTEX
  5
9F4
  8
LAYER1
 62
    18
 10
10.38117548886994
 20
1.51812186768997
 30
0.0
 70
    32
  0
VERTEX
  5
9F5
  8
LAYER1
 62
    18
 10
10.38471483580415
 20
1.523319204215241
 30
0.0
 70
    32
  0
VERTEX
  5
9F6
  8
LAYER1
 62
    18
 10
10.38787512527164
 20
1.528664026240025
 30
0.0
 70
    32
  0
VERTEX
  5
9F7
  8
LAYER1
 62
    18
 10
10.39044259197541
 20
1.533819965114072
 30
0.0
 70
    32
  0
VERTEX
  5
9F8
  8
LAYER1
 62
    18
 10
10.39227679193821
 20
1.538474013573945
 30
0.0
 70
    32
  0
VERTEX
  5
9F9
  8
LAYER1
 62
    18
 10
10.39333454089708
 20
1.542396740821295
 30
0.0
 70
    32
  0
VERTEX
  5
9FA
  8
LAYER1
 62
    18
 10
10.39366445482175
 20
1.545472882042183
 30
0.0
 70
    32
  0
SEQEND
  5
9FB
  8
LAYER1
 62
    18
  0
POLYLINE
  5
9FC
  8
LAYER1
 62
    18
 10
0.0
 20
0.0
 30
0.0
 66
     1
 70
     8
  0
VERTEX
  5
9FD
  8
LAYER1
 62
    18
 10
10.54184172825366
 20
1.641147432265533
 30
0.0
 70
    32
  0
VERTEX
  5
9FE
  8
LAYER1
 62
    18
 10
10.54089105624
 20
1.652996450484207
 30
0.0
 70
    32
  0
VERTEX
  5
9FF
  8
LAYER1
 62
    18
 10
10.53784307233428
 20
1.667667794270446
 30
0.0
 70
    32
  0
VERTEX
  5
A00
  8
LAYER1
 62
    18
 10
10.53255768592984
 20
1.684675486205067
 30
0.0
 70
    32
  0
VERTEX
  5
A01
  8
LAYER1
 62
    18
 10
10.52515933575802
 20
1.70314857184164
 30
0.0
 70
    32
  0
VERTEX
  5
A02
  8
LAYER1
 62
    18
 10
10.51605272179861
 20
1.721954966018979
 30
0.0
 70
    32
  0
VERTEX
  5
A03
  8
LAYER1
 62
    18
 10
10.50585382497927
 20
1.739921359413134
 30
0.0
 70
    32
  0
VERTEX
  5
A04
  8
LAYER1
 62
    18
 10
10.49525879958451
 20
1.75606524707936
 30
0.0
 70
    32
  0
VERTEX
  5
A05
  8
LAYER1
 62
    18
 10
10.48490523509448
 20
1.769748914251579
 30
0.0
 70
    32
  0
SEQEND
  5
A06
  8
LAYER1
 62
    18
  0
POLYLINE
  5
A07
  8
LAYER1
 62
    18
 10
0.0
 20
0.0
 30
0.0
 66
     1
 70
     8
  0
VERTEX
  5
A08
  8
LAYER1
 62
    18
 10
10.5549049299187
 20
1.492249000082268
 30
0.0
 70
    32
  0
VERTEX
  5
A09
  8
LAYER1
 62
    18
 10
10.55486802247182
 20
1.498499785518667
 30
0.0
 70
    32
  0
VERTEX
  5
A0A
  8
LAYER1
 62
    18
 10
10.55474969217236
 20
1.505652805662696
 30
0.0
 70
    32
  0
VERTEX
  5
A0B
  8
LAYER1
 62
    18
 10
10.5545445003553
 20
1.513395535703388
 30
0.0
 70
    32
  0
VERTEX
  5
A0C
  8
LAYER1
 62
    18
 10
10.55425727804101
 20
1.521285623985619
 30
0.0
 70
    32
  0
VERTEX
  5
A0D
  8
LAYER1
 62
    18
 10
10.55390373668705
 20
1.528824274179028
 30
0.0
 70
    32
  0
VERTEX
  5
A0E
  8
LAYER1
 62
    18
 10
10.55350779020172
 20
1.535556156409108
 30
0.0
 70
    32
  0
VERTEX
  5
A0F
  8
LAYER1
 62
    18
 10
10.55309646502203
 20
1.541156537050704
 30
0.0
 70
    32
  0
VERTEX
  5
A10
  8
LAYER1
 62
    18
 10
10.55269451395388
 20
1.545472882042178
 30
0.0
 70
    32
  0
SEQEND
  5
A11
  8
LAYER1
 62
    18
  0
POLYLINE
  5
A12
  8
LAYER1
 62
    18
 10
0.0
 20
0.0
 30
0.0
 66
     1
 70
     8
  0
VERTEX
  5
A13
  8
LAYER1
 62
    18
 10
10.63474989055598
 20
1.641147432265534
 30
0.0
 70
    32
  0
VERTEX
  5
A14
  8
LAYER1
 62
    18
 10
10.6355028367033
 20
1.657165470821104
 30
0.0
 70
    32
  0
VERTEX
  5
A15
  8
LAYER1
 62
    18
 10
10.6386216297886
 20
1.675905361536558
 30
0.0
 70
    32
  0
VERTEX
  5
A16
  8
LAYER1
 62
    18
 10
10.64428468253979
 20
1.696605467716014
 30
0.0
 70
    32
  0
VERTEX
  5
A17
  8
LAYER1
 62
    18
 10
10.6523728851771
 20
1.718120283357037
 30
0.0
 70
    32
  0
VERTEX
  5
A18
  8
LAYER1
 62
    18
 10
10.66244747639825
 20
1.739102856959544
 30
0.0
 70
    32
  0
VERTEX
  5
A19
  8
LAYER1
 62
    18
 10
10.673824015009
 20
1.758272065616898
 30
0.0
 70
    32
  0
VERTEX
  5
A1A
  8
LAYER1
 62
    18
 10
10.68571859387432
 20
1.774660532169353
 30
0.0
 70
    32
  0
VERTEX
  5
A1B
  8
LAYER1
 62
    18
 10
10.69740533046191
 20
1.787748920927299
 30
0.0
 70
    32
  0
SEQEND
  5
A1C
  8
LAYER1
 62
    18
  0
POLYLINE
  5
A1D
  8
LAYER1
 62
    18
 10
0.0
 20
0.0
 30
0.0
 66
     1
 70
     8
  0
VERTEX
  5
A1E
  8
LAYER1
 62
    18
 10
10.63995663871233
 20
1.545472882042183
 30
0.0
 70
    32
  0
VERTEX
  5
A1F
  8
LAYER1
 62
    18
 10
10.64085742348288
 20
1.535006564708805
 30
0.0
 70
    32
  0
VERTEX
  5
A20
  8
LAYER1
 62
    18
 10
10.64374546209523
 20
1.522463455827166
 30
0.0
 70
    32
  0
VERTEX
  5
A21
  8
LAYER1
 62
    18
 10
10.64875349379402
 20
1.508312660404152
 30
0.0
 70
    32
  0
VERTEX
  5
A22
  8
LAYER1
 62
    18
 10
10.65576360986578
 20
1.493311361071668
 30
0.0
 70
    32
  0
VERTEX
  5
A23
  8
LAYER1
 62
    18
 10
10.66439234727258
 20
1.478389713709867
 30
0.0
 70
    32
  0
VERTEX
  5
A24
  8
LAYER1
 62
    18
 10
10.67405604915842
 20
1.464468022708761
 30
0.0
 70
    32
  0
VERTEX
  5
A25
  8
LAYER1
 62
    18
 10
10.68409509246884
 20
1.452276813066458
 30
0.0
 70
    32
  0
VERTEX
  5
A26
  8
LAYER1
 62
    18
 10
10.6939053457207
 20
1.442248928556694
 30
0.0
 70
    32
  0
SEQEND
  5
A27
  8
LAYER1
 62
    18
  0
POLYLINE
  5
A28
  8
LAYER1
 62
    18
 10
0.0
 20
0.0
 30
0.0
 66
     1
 70
     8
  0
VERTEX
  5
A29
  8
LAYER1
 62
    18
 10
10.79540538005297
 20
1.510748851309074
 30
0.0
 70
    32
  0
VERTEX
  5
A2A
  8
LAYER1
 62
    18
 10
10.79198956867579
 20
1.514698574890886
 30
0.0
 70
    32
  0
VERTEX
  5
A2B
  8
LAYER1
 62
    18
 10
10.78849409537093
 20
1.519262267699298
 30
0.0
 70
    32
  0
VERTEX
  5
A2C
  8
LAYER1
 62
    18
 10
10.78512931140461
 20
1.524246651823498
 30
0.0
 70
    32
  0
VERTEX
  5
A2D
  8
LAYER1
 62
    18
 10
10.78212488953617
 20
1.529370936372278
 30
0.0
 70
    32
  0
VERTEX
  5
A2E
  8
LAYER1
 62
    18
 10
10.77968405201459
 20
1.534312584056791
 30
0.0
 70
    32
  0
VERTEX
  5
A2F
  8
LAYER1
 62
    18
 10
10.77794031602583
 20
1.538771646423748
 30
0.0
 70
    32
  0
VERTEX
  5
A30
  8
LAYER1
 62
    18
 10
10.77693473595603
 20
1.542528456827883
 30
0.0
 70
    32
  0
VERTEX
  5
A31
  8
LAYER1
 62
    18
 10
10.7766210936077
 20
1.545472882042183
 30
0.0
 70
    32
  0
SEQEND
  5
A32
  8
LAYER1
 62
    18
  0
POLYLINE
  5
A33
  8
LAYER1
 62
    18
 10
0.0
 20
0.0
 30
0.0
 66
     1
 70
     8
  0
VERTEX
  5
A34
  8
LAYER1
 62
    18
 10
10.77079523848956
 20
1.641147432265534
 30
0.0
 70
    32
  0
VERTEX
  5
A35
  8
LAYER1
 62
    18
 10
10.77116441188325
 20
1.648126476446157
 30
0.0
 70
    32
  0
VERTEX
  5
A36
  8
LAYER1
 62
    18
 10
10.7723480320448
 20
1.656501211313675
 30
0.0
 70
    32
  0
VERTEX
  5
A37
  8
LAYER1
 62
    18
 10
10.77440050020192
 20
1.665959873053402
 30
0.0
 70
    32
  0
VERTEX
  5
A38
  8
LAYER1
 62
    18
 10
10.77727349320205
 20
1.675997247908013
 30
0.0
 70
    32
  0
VERTEX
  5
A39
  8
LAYER1
 62
    18
 10
10.78080985435724
 20
1.685991275842713
 30
0.0
 70
    32
  0
VERTEX
  5
A3A
  8
LAYER1
 62
    18
 10
10.78477038048677
 20
1.69532525804291
 30
0.0
 70
    32
  0
VERTEX
  5
A3B
  8
LAYER1
 62
    18
 10
10.78888473478041
 20
1.703508487941838
 30
0.0
 70
    32
  0
VERTEX
  5
A3C
  8
LAYER1
 62
    18
 10
10.79290532283251
 20
1.710248935232414
 30
0.0
 70
    32
  0
SEQEND
  5
A3D
  8
LAYER1
 62
    18
  0
POLYLINE
  5
A3E
  8
LAYER1
 62
    18
 10
0.0
 20
0.0
 30
0.0
 66
     1
 70
     8
  0
VERTEX
  5
A3F
  8
LAYER1
 62
    18
 10
10.92640542201464
 20
1.703748929510368
 30
0.0
 70
    32
  0
VERTEX
  5
A40
  8
LAYER1
 62
    18
 10
10.92997837313495
 20
1.699350750599745
 30
0.0
 70
    32
  0
VERTEX
  5
A41
  8
LAYER1
 62
    18
 10
10.93393684345179
 20
1.693308349954766
 30
0.0
 70
    32
  0
VERTEX
  5
A42
  8
LAYER1
 62
    18
 10
10.93808973094685
 20
1.685745006414845
 30
0.0
 70
    32
  0
VERTEX
  5
A43
  8
LAYER1
 62
    18
 10
10.9421879842387
 20
1.67700140441322
 30
0.0
 70
    32
  0
VERTEX
  5
A44
  8
LAYER1
 62
    18
 10
10.94596833418029
 20
1.667597849657252
 30
0.0
 70
    32
  0
VERTEX
  5
A45
  8
LAYER1
 62
    18
 10
10.94920683044738
 20
1.65813627192459
 30
0.0
 70
    32
  0
VERTEX
  5
A46
  8
LAYER1
 62
    18
 10
10.95176081640334
 20
1.649178226252164
 30
0.0
 70
    32
  0
VERTEX
  5
A47
  8
LAYER1
 62
    18
 10
10.95358391422694
 20
1.641147432265533
 30
0.0
 70
    32
  0
SEQEND
  5
A48
  8
LAYER1
 62
    18
  0
POLYLINE
  5
A49
  8
LAYER1
 62
    18
 10
0.0
 20
0.0
 30
0.0
 66
     1
 70
     8
  0
VERTEX
  5
A4A
  8
LAYER1
 62
    18
 10
10.92990540675585
 20
1.509248840818657
 30
0.0
 70
    32
  0
VERTEX
  5
A4B
  8
LAYER1
 62
    18
 10
10.93349842837231
 20
1.513820867022746
 30
0.0
 70
    32
  0
VERTEX
  5
A4C
  8
LAYER1
 62
    18
 10
10.93717524472932
 20
1.518944236100195
 30
0.0
 70
    32
  0
VERTEX
  5
A4D
  8
LAYER1
 62
    18
 10
10.94071459166353
 20
1.524379963863849
 30
0.0
 70
    32
  0
VERTEX
  5
A4E
  8
LAYER1
 62
    18
 10
10.94387488113102
 20
1.529807666575844
 30
0.0
 70
    32
  0
VERTEX
  5
A4F
  8
LAYER1
 62
    18
 10
10.94644234783479
 20
1.534880724762679
 30
0.0
 70
    32
  0
VERTEX
  5
A50
  8
LAYER1
 62
    18
 10
10.94827654779758
 20
1.539296381984169
 30
0.0
 70
    32
  0
VERTEX
  5
A51
  8
LAYER1
 62
    18
 10
10.94933429675645
 20
1.542852945650946
 30
0.0
 70
    32
  0
VERTEX
  5
A52
  8
LAYER1
 62
    18
 10
10.94966421068112
 20
1.545472882042183
 30
0.0
 70
    32
  0
SEQEND
  5
A53
  8
LAYER1
 62
    18
  0
POLYLINE
  5
A54
  8
LAYER1
 62
    18
 10
0.0
 20
0.0
 30
0.0
 66
     1
 70
     8
  0
VERTEX
  5
A55
  8
LAYER1
 62
    18
 10
11.09784234618416
 20
1.641147432265534
 30
0.0
 70
    32
  0
VERTEX
  5
A56
  8
LAYER1
 62
    18
 10
11.09689166773823
 20
1.652704896471231
 30
0.0
 70
    32
  0
VERTEX
  5
A57
  8
LAYER1
 62
    18
 10
11.09384366320976
 20
1.667142230325126
 30
0.0
 70
    32
  0
VERTEX
  5
A58
  8
LAYER1
 62
    18
 10
11.08855824104425
 20
1.683997569812575
 30
0.0
 70
    32
  0
VERTEX
  5
A59
  8
LAYER1
 62
    18
 10
11.08115984081497
 20
1.702417687581682
 30
0.0
 70
    32
  0
VERTEX
  5
A5A
  8
LAYER1
 62
    18
 10
11.07205316523994
 20
1.721277049626487
 30
0.0
 70
    32
  0
VERTEX
  5
A5B
  8
LAYER1
 62
    18
 10
11.06185419941457
 20
1.739395795467813
 30
0.0
 70
    32
  0
VERTEX
  5
A5C
  8
LAYER1
 62
    18
 10
11.05125910233355
 20
1.755773693066384
 30
0.0
 70
    32
  0
VERTEX
  5
A5D
  8
LAYER1
 62
    18
 10
11.04090546779101
 20
1.769748914251579
 30
0.0
 70
    32
  0
SEQEND
  5
A5E
  8
LAYER1
 62
    18
  0
POLYLINE
  5
A5F
  8
LAYER1
 62
    18
 10
0.0
 20
0.0
 30
0.0
 66
     1
 70
     8
  0
VERTEX
  5
A60
  8
LAYER1
 62
    18
 10
11.11090563945239
 20
1.492249000082268
 30
0.0
 70
    32
  0
VERTEX
  5
A61
  8
LAYER1
 62
    18
 10
11.11086873178017
 20
1.497951880481528
 30
0.0
 70
    32
  0
VERTEX
  5
A62
  8
LAYER1
 62
    18
 10
11.11075040075822
 20
1.504665135727922
 30
0.0
 70
    32
  0
VERTEX
  5
A63
  8
LAYER1
 62
    18
 10
11.11054520768831
 20
1.512121556304464
 30
0.0
 70
    32
  0
VERTEX
  5
A64
  8
LAYER1
 62
    18
 10
11.11025798362031
 20
1.51991210432966
 30
0.0
 70
    32
  0
VERTEX
  5
A65
  8
LAYER1
 62
    18
 10
11.10990444010773
 20
1.527550294780105
 30
0.0
 70
    32
  0
VERTEX
  5
A66
  8
LAYER1
 62
    18
 10
11.10950849120486
 20
1.534568486474334
 30
0.0
 70
    32
  0
VERTEX
  5
A67
  8
LAYER1
 62
    18
 10
11.10909716351373
 20
1.540608632013565
 30
0.0
 70
    32
  0
VERTEX
  5
A68
  8
LAYER1
 62
    18
 10
11.10869520999138
 20
1.545472882042179
 30
0.0
 70
    32
  0
SEQEND
  5
A69
  8
LAYER1
 62
    18
  0
LINE
  5
A6A
  8
LAYER1
 62
    18
 10
7.067317924509727
 20
3.148081210403014
 30
0.0
 11
7.259850491121357
 21
3.148081210403014
 31
0.0
  0
LINE
  5
A6B
  8
LAYER1
 62
    18
 10
7.292307369228233
 20
3.148081210403014
 30
0.0
 11
7.489921105932309
 21
3.148081210403014
 31
0.0
  0
LINE
  5
A6C
  8
LAYER1
 62
    18
 10
9.00864299928266
 20
3.138297901401772
 30
0.0
 11
9.20184308163823
 21
3.138297901401772
 31
0.0
  0
LINE
  5
A6D
  8
LAYER1
 62
    18
 10
9.240238472309137
 20
3.138297901401772
 30
0.0
 11
9.438583339829048
 21
3.138297901401772
 31
0.0
  0
LINE
  5
A6E
  8
LAYER1
 62
    18
 10
9.479287139696527
 20
3.008632829167269
 30
0.0
 11
9.279087857049184
 21
3.008632829167269
 31
0.0
  0
LINE
  5
A6F
  8
LAYER1
 62
    18
 10
9.161985184365331
 20
3.008632829167269
 30
0.0
 11
8.95992803662801
 21
3.008632829167269
 31
0.0
  0
LINE
  5
A70
  8
LAYER1
 62
    18
 10
7.542116988977982
 20
3.008632829167269
 30
0.0
 11
7.334087446342178
 21
3.008632829167269
 31
0.0
  0
LINE
  5
A71
  8
LAYER1
 62
    18
 10
7.216984773658327
 20
3.008632829167269
 30
0.0
 11
7.014927388129466
 21
3.008632829167269
 31
0.0
  0
LINE
  5
A72
  8
LAYER1
 62
    18
 10
7.157286636156476
 20
3.38755177260424
 30
0.0
 11
7.067317924509727
 21
3.148081210403014
 31
0.0
  0
LINE
  5
A73
  8
LAYER1
 62
    18
 10
7.014927388129466
 20
3.008632829167269
 30
0.0
 11
6.888286582750714
 21
2.671551811704887
 31
0.0
  0
LINE
  5
A74
  8
LAYER1
 62
    18
 10
7.542116988977982
 20
3.008632829167269
 30
0.0
 11
7.668287269396226
 21
2.671551811704887
 31
0.0
  0
LINE
  5
A75
  8
LAYER1
 62
    18
 10
7.216984773658327
 20
3.008632829167269
 30
0.0
 11
7.197286598009503
 21
2.944551813612236
 31
0.0
  0
LINE
  5
A76
  8
LAYER1
 62
    18
 10
7.259850491121357
 20
3.148081210403014
 30
0.0
 11
7.276287071031964
 21
3.201551783094658
 31
0.0
  0
LINE
  5
A77
  8
LAYER1
 62
    18
 10
7.276287071031964
 20
3.201551783094658
 30
0.0
 11
7.292307369228233
 21
3.148081210403014
 31
0.0
  0
LINE
  5
A78
  8
LAYER1
 62
    18
 10
8.833287231249258
 20
2.671551811704887
 30
0.0
 11
8.95992803662801
 21
3.008632829167269
 31
0.0
  0
LINE
  5
A79
  8
LAYER1
 62
    18
 10
9.00864299928266
 20
3.138297901401772
 30
0.0
 11
9.10228728465502
 21
3.38755177260424
 31
0.0
  0
LINE
  5
A7A
  8
LAYER1
 62
    18
 10
9.345287315172602
 20
3.38755177260424
 30
0.0
 11
9.438583339829048
 21
3.138297901401772
 31
0.0
  0
LINE
  5
A7B
  8
LAYER1
 62
    18
 10
9.479287139696527
 20
3.008632829167269
 30
0.0
 11
9.613286964220453
 21
2.671551811704887
 31
0.0
  0
LINE
  5
A7C
  8
LAYER1
 62
    18
 10
9.142287246508047
 20
2.944551813612236
 30
0.0
 11
9.161985184365331
 21
3.008632829167269
 31
0.0
  0
LINE
  5
A7D
  8
LAYER1
 62
    18
 10
9.20184308163823
 20
3.138297901401772
 30
0.0
 11
9.221286765856192
 21
3.201551783094658
 31
0.0
  0
LINE
  5
A7E
  8
LAYER1
 62
    18
 10
9.221286765856192
 20
3.201551783094658
 30
0.0
 11
9.240238472309137
 21
3.138297901401772
 31
0.0
  0
LINE
  5
A7F
  8
LAYER1
 62
    18
 10
9.279087857049184
 20
3.008632829167269
 30
0.0
 11
9.298287383837152
 21
2.944551813612236
 31
0.0
  0
LINE
  5
A80
  8
LAYER1
 62
    18
 10
0.8826463750947866
 20
4.893540421716852
 30
0.0
 11
1.267515018397428
 21
4.893540421716852
 31
0.0
  0
LINE
  5
A81
  8
LAYER1
 62
    18
 10
1.330689379882759
 20
4.893540421716852
 30
0.0
 11
1.725703258493145
 21
4.893540421716852
 31
0.0
  0
LINE
  5
A82
  8
LAYER1
 62
    18
 10
0.7773834607143719
 20
4.613361125232022
 30
0.0
 11
1.181389868922316
 21
4.613361125232022
 31
0.0
  0
LINE
  5
A83
  8
LAYER1
 62
    18
 10
1.414634303754137
 20
4.613361125232022
 30
0.0
 11
1.830574889363868
 21
4.613361125232022
 31
0.0
  0
LINE
  5
A84
  8
LAYER1
 62
    18
 10
1.267515018397428
 20
4.893540421716852
 30
0.0
 11
1.299507133287824
 21
4.997616040716423
 31
0.0
  0
LINE
  5
A85
  8
LAYER1
 62
    18
 10
1.181389868922316
 20
4.613361125232022
 30
0.0
 11
1.141507140917218
 21
4.483616042146934
 31
0.0
  0
LINE
  5
A86
  8
LAYER1
 62
    18
 10
0.8826463750947866
 20
4.893540421716852
 30
0.0
 11
1.061507217211163
 21
5.369616019735588
 31
0.0
  0
LINE
  5
A87
  8
LAYER1
 62
    18
 10
0.52350711039964
 20
3.937616038332237
 30
0.0
 11
0.7773834607143719
 21
4.613361125232022
 31
0.0
  0
LINE
  5
A88
  8
LAYER1
 62
    18
 10
1.414634303754137
 20
4.613361125232022
 30
0.0
 11
1.453507415575421
 21
4.483616042146934
 31
0.0
  0
LINE
  5
A89
  8
LAYER1
 62
    18
 10
1.330689379882759
 20
4.893540421716852
 30
0.0
 11
1.299507133287824
 21
4.997616040716423
 31
0.0
  0
LINE
  5
A8A
  8
LAYER1
 62
    18
 10
1.54750727824632
 20
5.369616019735588
 30
0.0
 11
1.725703258493145
 21
4.893540421716852
 31
0.0
  0
LINE
  5
A8B
  8
LAYER1
 62
    18
 10
1.830574889363868
 20
4.613361125232022
 30
0.0
 11
2.083507530016339
 21
3.937616038332237
 31
0.0
  0
LINE
  5
A8C
  8
LAYER1
 62
    18
 10
7.334087446342178
 20
3.008632829167269
 30
0.0
 11
7.353286735338605
 21
2.944551813612236
 31
0.0
  0
LINE
  5
A8D
  8
LAYER1
 62
    18
 10
4.927905074877179
 20
1.729248988638176
 30
0.0
 11
4.927905074877179
 21
1.672243389028278
 31
0.0
  0
LINE
  5
A8E
  8
LAYER1
 62
    18
 10
7.400286666674054
 20
3.38755177260424
 30
0.0
 11
7.489921105932309
 21
3.148081210403014
 31
0.0
  0
POLYLINE
  5
A8F
  8
LAYER1
 62
    18
 10
0.0
 20
0.0
 30
0.0
 66
     1
 70
     8
  0
VERTEX
  5
A90
  8
LAYER1
 62
    18
 10
10.37040518931811
 20
1.703748929510368
 30
0.0
 70
    32
  0
VERTEX
  5
A91
  8
LAYER1
 62
    18
 10
10.37534751462789
 20
1.698702607348372
 30
0.0
 70
    32
  0
VERTEX
  5
A92
  8
LAYER1
 62
    18
 10
10.38040510249694
 20
1.692139987630247
 30
0.0
 70
    32
  0
VERTEX
  5
A93
  8
LAYER1
 62
    18
 10
10.38527359642776
 20
1.684237954838696
 30
0.0
 70
    32
  0
VERTEX
  5
A94
  8
LAYER1
 62
    18
 10
10.38962068372328
 20
1.675376601873921
 30
0.0
 70
    32
  0
VERTEX
  5
A95
  8
LAYER1
 62
    18
 10
10.39315232283559
 20
1.666090798081103
 30
0.0
 70
    32
  0
VERTEX
  5
A96
  8
LAYER1
 62
    18
 10
10.3956753282241
 20
1.656967909600071
 30
0.0
 70
    32
  0
VERTEX
  5
A97
  8
LAYER1
 62
    18
 10
10.39713029844383
 20
1.648530083000791
 30
0.0
 70
    32
  0
VERTEX
  5
A98
  8
LAYER1
 62
    18
 10
10.39758410643999
 20
1.641147432265533
 30
0.0
 70
    32
  0
SEQEND
  5
A99
  8
LAYER1
 62
    18
  0
ENDSEC
  0
EOF
