0
SECTION
2
HEADER
9
$INSUNITS
70
1
9
$ACADVER
1
AC1014
9
$HANDSEED
5
FFFF
0
ENDSEC
0
SECTION
2
TABLES
0
TABLE
2
VPORT
5
8
100
AcDbSymbolTable
0
ENDTAB
0
TABLE
2
LTYPE
5
5
100
AcDbSymbolTable
0
LTYPE
5
14
100
AcDbSymbolTableRecord
100
AcDbLinetypeTableRecord
2
BYBLOCK
70
0
0
LTYPE
5
15
100
AcDbSymbolTableRecord
100
AcDbLinetypeTableRecord
2
BYLAYER
70
0
0
ENDTAB
0
TABLE
2
LAYER
5
2
100
AcDbSymbolTable
70
2
0
LAYER
5
50
100
AcDbSymbolTableRecord
100
AcDbLayerTableRecord
2
0
70
0
6
CONTINUOUS
0
ENDTAB
0
TABLE
2
STYLE
5
3
100
AcDbSymbolTable
70
1
0
STYLE
5
11
100
AcDbSymbolTableRecord
100
AcDbTextStyleTableRecord
2
STANDARD
70
0
0
ENDTAB
0
TABLE
2
VIEW
5
6
100
AcDbSymbolTable
70
0
0
ENDTAB
0
TABLE
2
UCS
5
7
100
AcDbSymbolTable
70
0
0
ENDTAB
0
TABLE
2
APPID
5
9
100
AcDbSymbolTable
70
2
0
APPID
5
12
100
AcDbSymbolTableRecord
100
AcDbRegAppTableRecord
2
ACAD
70
0
0
ENDTAB
0
TABLE
2
DIMSTYLE
5
A
100
AcDbSymbolTable
70
1
0
ENDTAB
0
TABLE
2
BLOCK_RECORD
5
1
100
AcDbSymbolTable
70
1
0
BLOCK_RECORD
5
1F
100
AcDbSymbolTableRecord
100
AcDbBlockTableRecord
2
*MODEL_SPACE
0
BLOCK_RECORD
5
1B
100
AcDbSymbolTableRecord
100
AcDbBlockTableRecord
2
*PAPER_SPACE
0
ENDTAB
0
ENDSEC
0
SECTION
2
BLOCKS
0
BLOCK
5
20
100
AcDbEntity
100
AcDbBlockBegin
2
*MODEL_SPACE
0
ENDBLK
5
21
100
AcDbEntity
100
AcDbBlockEnd
0
BLOCK
5
1C
100
AcDbEntity
100
AcDbBlockBegin
2
*PAPER_SPACE
0
ENDBLK
5
1D
100
AcDbEntity
100
AcDbBlockEnd
0
ENDSEC
0
SECTION
2
ENTITIES
0
CIRCLE
5
100
100
AcDbEntity
8
0
100
AcDbCircle
10
-2.8008837600688157
20
-2.0904663290528469
30
-1.631871127636348e-64
40
0.10049999999999999
210
2.4175164516003328e-78
220
8.8165985376032473e-48
230
1
0
CIRCLE
5
101
100
AcDbEntity
8
0
100
AcDbCircle
10
-2.7827433388230736
20
-0.62499999999999978
30
0
40
0.10049999999999999
210
-0
220
1.3137403517639772e-81
230
1
0
CIRCLE
5
102
100
AcDbEntity
8
0
100
AcDbCircle
10
-0.80000000000000415
20
-0.62499999999999978
30
0
40
0.10049999999999999
210
0
220
-0
230
1
0
CIRCLE
5
103
100
AcDbEntity
8
0
100
AcDbCircle
10
-0.75000000000000033
20
-2.1577433388230829
30
1.2081638378054392e-65
40
0.10049999999999999
210
1.3834498177518641e-49
220
-4.5186900213680495e-33
230
1
0
LWPOLYLINE
5
104
100
AcDbEntity
8
0
100
AcDbPolyline
90
20
70
1
43
0.0
10
-1.6249999999999989
20
-2.6577433388230856
10
-1.6249999999999989
20
-1.2499999999999998
10
-1.9077433388230742
20
-1.2499999999999998
10
-1.9077433388230769
20
-2.657743338823074
42
-0.41421356237309914
10
-2.0327433388230749
20
-2.7827433388230722
10
-5.0654866776461489
20
-2.7827433388230736
42
-0.41421356237309426
10
-5.1904866776461489
20
-2.657743338823074
10
-5.1904866776461471
20
-1.6577433388230662
42
-0.41421356237309426
10
-5.0654866776461489
20
-1.532743338823068
10
-3.6577433388230745
20
-1.532743338823068
10
-3.6577433388230745
20
-0.1249999999999996
42
-0.41421356237309381
10
-3.532743338823074
20
3.4967654318902565e-16
10
-1.1806451445041695e-17
20
-1.7483827159451283e-15
42
-0.41421356237309481
10
0.1249999999999982
20
-0.12499999999999994
10
0.1249999999999982
20
-1.5327433388230813
10
1.5327433388230733
20
-1.5327433388230691
42
-0.41421356237309959
10
1.657743338823084
20
-1.6577433388230802
10
1.6577433388230656
20
-2.6577433388230847
42
-0.41421356237309254
10
1.5327433388230649
20
-2.7827433388230838
10
-1.5000000000000007
20
-2.7827433388230838
42
-0.41421356237309837
0
LINE
5
105
100
AcDbEntity
8
0
100
AcDbLine
10
-0.22190753409150252
20
-1.3905562722867137
30
0
11
-1.2219075340915031
21
-1.3905562722867137
31
0
0
LINE
5
106
100
AcDbEntity
8
0
100
AcDbLine
10
-2.3189814860453208
20
-1.391876618832238
30
0
11
-3.3189814860453204
21
-1.391876618832238
31
0
0
LINE
5
107
100
AcDbEntity
8
0
100
AcDbLine
10
-1.766419597957595
20
-0.9822529586447114
30
0
11
-1.766419597957595
21
-0.23225295864471143
31
0
0
CIRCLE
5
108
100
AcDbEntity
8
0
100
AcDbCircle
10
-4.5654866776461498
20
-2.1577433388230589
30
-3.1399027169760715e-64
40
0.10049999999999999
210
-9.8607613152626476e-32
220
-6.8710548305581172e-33
230
1
0
CIRCLE
5
109
100
AcDbEntity
8
0
100
AcDbCircle
10
1.0177916029773368
20
-2.1593606651207096
30
1.6315730271614755e-64
40
0.10049999999999999
210
-9.8607613152626695e-32
220
1.3314951431107265e-31
230
1
0
LINE
5
110
100
AcDbEntity
8
0
100
AcDbLine
10
0.2665204705849713
20
-2.374992744666689
30
0
11
0.2665204705849713
21
-1.8749927446666887
31
0
0
LINE
5
111
100
AcDbEntity
8
0
100
AcDbLine
10
-3.7974802183148824
20
-2.4321829067027125
30
0
11
-3.7974802183148824
21
-1.9321829067027123
31
0
0
ENDSEC
0
SECTION
2
OBJECTS
0
DICTIONARY
5
C
100
AcDbDictionary
3
ACAD_GROUP
350
D
3
ACAD_MLINESTYLE
350
17
0
DICTIONARY
5
D
100
AcDbDictionary
0
DICTIONARY
5
1A
330
C
100
AcDbDictionary
0
DICTIONARY
5
17
100
AcDbDictionary
0
ENDSEC
0
EOF
