  0
SECTION
  2
HEADER
  9
$ACADVER
  1
AC1009
  9
$DWGCODEPAGE
  3
ansi_1252
  9
$INSBASE
 10
0.0
 20
0.0
 30
0.0
  9
$EXTMIN
 10
-0.625
 20
0.0
 30
0.0
  9
$EXTMAX
 10
2.998345156220182
 20
5.75
 30
0.9033969389254285
  9
$LIMMIN
 10
0.0
 20
0.0
  9
$LIMMAX
 10
12.0
 20
9.0
  9
$ORTHOMODE
 70
     0
  9
$REGENMODE
 70
     1
  9
$FILLMODE
 70
     1
  9
$QTEXTMODE
 70
     0
  9
$MIRRTEXT
 70
     1
  9
$DRAGMODE
 70
     2
  9
$LTSCALE
 40
1.0
  9
$OSMODE
 70
    37
  9
$ATTMODE
 70
     1
  9
$TEXTSIZE
 40
0.2
  9
$TRACEWID
 40
0.05
  9
$TEXTSTYLE
  7
STANDARD
  9
$CLAYER
  8
0
  9
$CELTYPE
  6
BYLAYER
  9
$CECOLOR
 62
   256
  9
$DIMSCALE
 40
1.0
  9
$DIMASZ
 40
0.18
  9
$DIMEXO
 40
0.0625
  9
$DIMDLI
 40
0.38
  9
$DIMRND
 40
0.0
  9
$DIMDLE
 40
0.0
  9
$DIMEXE
 40
0.18
  9
$DIMTP
 40
0.0
  9
$DIMTM
 40
0.0
  9
$DIMTXT
 40
0.18
  9
$DIMCEN
 40
0.09
  9
$DIMTSZ
 40
0.0
  9
$DIMTOL
 70
     0
  9
$DIMLIM
 70
     0
  9
$DIMTIH
 70
     1
  9
$DIMTOH
 70
     1
  9
$DIMSE1
 70
     0
  9
$DIMSE2
 70
     0
  9
$DIMTAD
 70
     0
  9
$DIMZIN
 70
     0
  9
$DIMBLK
  1

  9
$DIMASO
 70
     1
  9
$DIMSHO
 70
     1
  9
$DIMPOST
  1

  9
$DIMAPOST
  1

  9
$DIMALT
 70
     0
  9
$DIMALTD
 70
     2
  9
$DIMALTF
 40
25.4
  9
$DIMLFAC
 40
1.0
  9
$DIMTOFL
 70
     0
  9
$DIMTVP
 40
0.0
  9
$DIMTIX
 70
     0
  9
$DIMSOXD
 70
     0
  9
$DIMSAH
 70
     0
  9
$DIMBLK1
  1

  9
$DIMBLK2
  1

  9
$DIMSTYLE
  2
STANDARD
  9
$DIMCLRD
 70
     0
  9
$DIMCLRE
 70
     0
  9
$DIMCLRT
 70
     0
  9
$DIMTFAC
 40
1.0
  9
$DIMGAP
 40
0.09
  9
$LUNITS
 70
     2
  9
$LUPREC
 70
     4
  9
$SKETCHINC
 40
0.1
  9
$FILLETRAD
 40
0.5
  9
$AUNITS
 70
     0
  9
$AUPREC
 70
     0
  9
$MENU
  1
.
  9
$ELEVATION
 40
0.0
  9
$PELEVATION
 40
0.0
  9
$THICKNESS
 40
0.0
  9
$LIMCHECK
 70
     0
  9
$CHAMFERA
 40
0.0
  9
$CHAMFERB
 40
0.0
  9
$SKPOLY
 70
     0
  9
$TDCREATE
 40
2305814.215717593
  9
$TDUPDATE
 40
2459243.465719919
  9
$TDINDWG
 40
0.0000000116
  9
$TDUSRTIMER
 40
0.0000000116
  9
$USRTIMER
 70
     1
  9
$ANGBASE
 50
0.0
  9
$ANGDIR
 70
     0
  9
$PDMODE
 70
     0
  9
$PDSIZE
 40
0.0
  9
$PLINEWID
 40
0.0
  9
$COORDS
 70
     1
  9
$SPLFRAME
 70
     0
  9
$SPLINETYPE
 70
     6
  9
$SPLINESEGS
 70
     8
  9
$ATTDIA
 70
     0
  9
$ATTREQ
 70
     1
  9
$HANDLING
 70
     1
  9
$HANDSEED
  5
9A
  9
$SURFTAB1
 70
     6
  9
$SURFTAB2
 70
     6
  9
$SURFTYPE
 70
     6
  9
$SURFU
 70
     6
  9
$SURFV
 70
     6
  9
$UCSNAME
  2

  9
$UCSORG
 10
0.0
 20
0.0
 30
0.0
  9
$UCSXDIR
 10
1.0
 20
0.0
 30
0.0
  9
$UCSYDIR
 10
0.0
 20
1.0
 30
0.0
  9
$PUCSNAME
  2

  9
$PUCSORG
 10
0.0
 20
0.0
 30
0.0
  9
$PUCSXDIR
 10
1.0
 20
0.0
 30
0.0
  9
$PUCSYDIR
 10
0.0
 20
1.0
 30
0.0
  9
$USERI1
 70
     0
  9
$USERI2
 70
     0
  9
$USERI3
 70
     0
  9
$USERI4
 70
     0
  9
$USERI5
 70
     0
  9
$USERR1
 40
0.0
  9
$USERR2
 40
0.0
  9
$USERR3
 40
0.0
  9
$USERR4
 40
0.0
  9
$USERR5
 40
0.0
  9
$WORLDVIEW
 70
     1
  9
$SHADEDGE
 70
     3
  9
$SHADEDIF
 70
    70
  9
$TILEMODE
 70
     1
  9
$MAXACTVP
 70
    64
  9
$PLIMCHECK
 70
     0
  9
$PEXTMIN
 10
1.000000000000000E+20
 20
1.000000000000000E+20
 30
1.000000000000000E+20
  9
$PEXTMAX
 10
-1.000000000000000E+20
 20
-1.000000000000000E+20
 30
-1.000000000000000E+20
  9
$PLIMMIN
 10
0.0
 20
0.0
  9
$PLIMMAX
 10
12.0
 20
9.0
  9
$UNITMODE
 70
     0
  9
$VISRETAIN
 70
     1
  9
$PLINEGEN
 70
     0
  9
$PSLTSCALE
 70
     1
  0
ENDSEC
  0
SECTION
  2
TABLES
  0
TABLE
  2
VPORT
 70
     1
  0
VPORT
  2
*ACTIVE
 70
     0
 10
0.0
 20
0.0
 11
1.0
 21
1.0
 12
10.42990654205607
 22
4.5
 13
0.0
 23
0.0
 14
0.5
 24
0.5
 15
0.5
 25
0.5
 16
0.0
 26
0.0
 36
1.0
 17
0.0
 27
0.0
 37
0.0
 40
9.0
 41
1.972972972850329
 42
50.0
 43
0.0
 44
0.0
 50
0.0
 51
0.0
 71
     0
 72
   100
 73
     1
 74
     3
 75
     0
 76
     0
 77
     0
 78
     0
  0
ENDTAB
  0
TABLE
  2
LTYPE
 70
    11
  0
LTYPE
  2
CONTINUOUS
 70
     0
  3
Solid line
 72
    65
 73
     0
 40
0.0
  0
LTYPE
  2
BORDER
 70
     0
  3
__ __ . __ __ . __ 
 72
    65
 73
     6
 40
0.875
 49
0.25
 49
-0.125
 49
0.25
 49
-0.125
 49
0.0
 49
-0.125
  0
LTYPE
  2
CENTER
 70
     0
  3
___ _ ___ _ ___ _ _
 72
    65
 73
     4
 40
1.125
 49
0.75
 49
-0.125
 49
0.125
 49
-0.125
  0
LTYPE
  2
DASHDOT
 70
     0
  3
_._._._._._._._._._
 72
    65
 73
     4
 40
0.5
 49
0.25
 49
-0.125
 49
0.0
 49
-0.125
  0
LTYPE
  2
DASHED
 70
     0
  3
_ _ _ _ _ _ _ _ _ _
 72
    65
 73
     2
 40
0.375
 49
0.25
 49
-0.125
  0
LTYPE
  2
DIVIDE
 70
     0
  3
__..__..__..__..__.
 72
    65
 73
     6
 40
0.625
 49
0.25
 49
-0.125
 49
0.0
 49
-0.125
 49
0.0
 49
-0.125
  0
LTYPE
  2
DOT
 70
     0
  3
...................
 72
    65
 73
     2
 40
0.125
 49
0.0
 49
-0.125
  0
LTYPE
  2
HIDDEN
 70
     0
  3
__ __ __ __ __ __ _
 72
    65
 73
     2
 40
0.1875
 49
0.125
 49
-0.0625
  0
LTYPE
  2
PHANTOM
 70
     0
  3
___ _ _ ___ _ _ ___
 72
    65
 73
     6
 40
1.25
 49
0.625
 49
-0.125
 49
0.125
 49
-0.125
 49
0.125
 49
-0.125
  0
LTYPE
  2
CUTTING
 70
     0
  3
________ _ _ ______
 72
    65
 73
     6
 40
1.4675
 49
1.0
 49
-0.0725
 49
0.125
 49
-0.0725
 49
0.125
 49
-0.0725
  0
LTYPE
  2
STITCH
 70
     0
  3
_ _ _ _ _ _ _ _ _ _
 72
    65
 73
     2
 40
0.145
 49
0.0725
 49
-0.0725
  0
ENDTAB
  0
TABLE
  2
LAYER
 70
     2
  0
LAYER
  2
0
 70
     0
 62
     7
  6
CONTINUOUS
  0
LAYER
  2
LAYER1
 70
     0
 62
     7
  6
CONTINUOUS
  0
ENDTAB
  0
TABLE
  2
STYLE
 70
     1
  0
STYLE
  2
STANDARD
 70
     0
 40
0.0
 41
1.0
 50
0.0
 71
     0
 42
0.2
  3
txt
  4

  0
ENDTAB
  0
TABLE
  2
VIEW
 70
     0
  0
ENDTAB
  0
TABLE
  2
UCS
 70
     0
  0
ENDTAB
  0
TABLE
  2
APPID
 70
     2
  0
APPID
  2
ACAD
 70
     0
  0
APPID
  2
ENCORE_SOFTWARE_VIACAD
 70
     0
  0
ENDTAB
  0
TABLE
  2
DIMSTYLE
 70
     1
  0
DIMSTYLE
  2
STANDARD
 70
     0
  3

  4

  5

  6

  7

 40
1.0
 41
0.18
 42
0.0625
 43
0.38
 44
0.18
 45
0.0
 46
0.0
 47
0.0
 48
0.0
140
0.18
141
0.09
142
0.0
143
25.4
144
1.0
145
0.0
146
1.0
147
0.09
 71
     0
 72
     0
 73
     1
 74
     1
 75
     0
 76
     0
 77
     0
 78
     0
170
     0
171
     2
172
     0
173
     0
174
     0
175
     0
176
     0
177
     0
178
     0
  0
ENDTAB
  0
ENDSEC
  0
SECTION
  2
BLOCKS
  0
BLOCK
  8
0
  2
$MODEL_SPACE
 70
     0
 10
0.0
 20
0.0
 30
0.0
  3
$MODEL_SPACE
  1

  0
ENDBLK
  5
21
  8
0
  0
BLOCK
 67
     1
  8
0
  2
$PAPER_SPACE
 70
     0
 10
0.0
 20
0.0
 30
0.0
  3
$PAPER_SPACE
  1

  0
ENDBLK
  5
1D
 67
     1
  8
0
  0
ENDSEC
  0
SECTION
  2
ENTITIES
  0
LINE
  5
7A
  8
LAYER1
 62
    18
 10
-0.375
 20
5.0
 30
0.0
 11
-0.375
 21
5.75
 31
0.0
  0
LINE
  5
7B
  8
LAYER1
 62
    18
 10
-0.375
 20
5.75
 30
0.0
 11
0.375
 21
5.75
 31
0.0
  0
LINE
  5
7C
  8
LAYER1
 62
    18
 10
0.375
 20
5.75
 30
0.0
 11
0.375
 21
5.0
 31
0.0
  0
ARC
  5
7D
  8
LAYER1
 62
    18
 10
2.873345156220182
 20
4.875
 30
0.0
 40
0.125
 50
0.000000000000573
 51
90.0
  0
LINE
  5
7E
  8
LAYER1
 62
    18
 10
2.873345156220182
 20
5.0
 30
0.0
 11
0.375
 21
5.0
 31
0.0
  0
LINE
  5
7F
  8
LAYER1
 62
    18
 10
2.998345156220182
 20
4.618481764009516
 30
0.0
 11
2.998345156220182
 21
4.875
 31
0.0
  0
ARC
  5
80
  8
LAYER1
 62
    18
 10
2.909956808571863
 20
4.35331672106456
 30
0.0
 40
0.1249999999999998
 50
135.0
 51
225.0
  0
LINE
  5
81
  8
LAYER1
 62
    18
 10
2.821568460923545
 20
4.441705068712879
 30
0.0
 11
2.998345156220182
 21
4.618481764009516
 31
0.0
  0
LINE
  5
82
  8
LAYER1
 62
    18
 10
2.998345156220182
 20
4.088151678119605
 30
0.0
 11
2.821568460923545
 21
4.264928373416242
 31
0.0
  0
ARC
  5
83
  8
LAYER1
 62
    18
 10
2.873345156220182
 20
3.050121851516818
 30
0.0
 40
0.1250000000000004
 50
314.9999999999995
 51
0.000000000000573
  0
LINE
  5
84
  8
LAYER1
 62
    18
 10
2.998345156220182
 20
3.050121851516818
 30
0.0
 11
2.998345156220182
 21
4.088151678119605
 31
0.0
  0
LINE
  5
85
  8
LAYER1
 62
    18
 10
0.0
 20
0.0
 30
0.0
 11
2.961733503868499
 21
2.961733503868499
 31
0.0
  0
ARC
  5
86
  8
LAYER1
 62
    18
 10
-0.3805803067656468
 20
0.5573570020622832
 30
0.0
 40
0.125
 50
155.4612770793665
 51
225.0
  0
LINE
  5
87
  8
LAYER1
 62
    18
 10
-0.4689686544139652
 20
0.4689686544139648
 30
0.0
 11
0.0
 21
0.0
 31
0.0
  0
ARC
  5
88
  8
LAYER1
 62
    18
 10
-0.5
 20
4.683288457269375
 30
0.0
 40
0.125
 50
179.9999999999994
 51
230.0
  0
ARC
  5
89
  8
LAYER1
 62
    18
 10
-0.5
 20
4.875
 30
0.0
 40
0.125
 50
90.0
 51
179.9999999999994
  0
LINE
  5
8A
  8
LAYER1
 62
    18
 10
-0.625
 20
4.875
 30
0.0
 11
-0.625
 21
4.683288457269375
 31
0.0
  0
LINE
  5
8B
  8
LAYER1
 62
    18
 10
-0.375
 20
5.0
 30
0.0
 11
-0.5
 21
5.0
 31
0.0
  0
ARC
  5
8C
  8
LAYER1
 62
    18
 10
0.1822036976286703
 20
3.294972030368707
 30
0.0
 40
0.5
 50
335.461277079367
 51
49.99999999999999
  0
LINE
  5
8D
  8
LAYER1
 62
    18
 10
-0.5803484512108176
 20
4.587532901879503
 30
0.0
 11
0.5035975024719398
 21
3.677994251928196
 31
0.0
  0
LINE
  5
8E
  8
LAYER1
 62
    18
 10
0.0506017760360779
 20
1.802789037763243
 30
0.0
 11
-0.494290406237879
 21
0.6092705193580232
 31
0.0
  0
LINE
  5
8F
  8
LAYER1
 62
    18
 10
0.2890187114053469
 20
2.325011665874975
 30
0.0
 11
0.6370440955176009
 21
3.087317961185752
 31
0.0
  0
ARC
  5
90
  8
LAYER1
 62
    18
 10
0.2718636329815027
 20
2.008732042262332
 30
0.0
 40
0.1249999999999999
 50
288.5194053542322
 51
20.13881786571527
  0
LINE
  5
91
  8
LAYER1
 62
    18
 10
0.050601776036078
 20
1.802789037763243
 30
0.0
 11
0.3115668609066312
 21
1.890205025543252
 31
0.0
  0
LINE
  5
92
  8
LAYER1
 62
    18
 10
0.3892212838932574
 20
2.051769023714041
 30
0.0
 11
0.2890187114053469
 21
2.325011665874975
 31
0.0
  0
ENDSEC
  0
EOF
