  0
SECTION
  2
HEADER
  9
$ACADVER
  1
AC1014
  9
$HANDSEED
  5
FFFF
  9
$MEASUREMENT
 70
     1
  0
ENDSEC
  0
SECTION
  2
TABLES
  0
TABLE
  2
VPORT
  5
8
330
0
100
AcDbSymbolTable
 70
     4
  0
VPORT
  5
2E
330
8
100
AcDbSymbolTableRecord
100
AcDbViewportTableRecord
  2
*ACTIVE
 70
     0
 10
0.0
 20
0.0
 11
1.0
 21
1.0
 12
210.0
 22
148.5
 13
0.0
 23
0.0
 14
10.0
 24
10.0
 15
10.0
 25
10.0
 16
0.0
 26
0.0
 36
1.0
 17
0.0
 27
0.0
 37
0.0
 40
341.0
 41
1.24
 42
50.0
 43
0.0
 44
0.0
 50
0.0
 51
0.0
 71
     0
 72
   100
 73
     1
 74
     3
 75
     0
 76
     0
 77
     0
 78
     0
  0
ENDTAB
  0
TABLE
  2
LTYPE
  5
5
330
0
100
AcDbSymbolTable
 70
     1
  0
LTYPE
  5
14
330
5
100
AcDbSymbolTableRecord
100
AcDbLinetypeTableRecord
  2
BYBLOCK
 70
     0
  3

 72
    65
 73
     0
 40
0.0
  0
LTYPE
  5
15
330
5
100
AcDbSymbolTableRecord
100
AcDbLinetypeTableRecord
  2
BYLAYER
 70
     0
  3

 72
    65
 73
     0
 40
0.0
  0
LTYPE
  5
16
330
5
100
AcDbSymbolTableRecord
100
AcDbLinetypeTableRecord
  2
CONTINUOUS
 70
     0
  3
Solid line
 72
    65
 73
     0
 40
0.0
  0
ENDTAB
  0
TABLE
  2
LAYER
  5
2
100
AcDbSymbolTable
 70
2
  0
LAYER
  5
50
100
AcDbSymbolTableRecord
100
AcDbLayerTableRecord
  2
0
 70
0
  6
CONTINUOUS
  0
LAYER
  5
51
100
AcDbSymbolTableRecord
100
AcDbLayerTableRecord
  2
Layer_1
 70
0
  6
CONTINUOUS
  0
ENDTAB
  0
TABLE
  2
STYLE
  5
3
330
0
100
AcDbSymbolTable
 70
     1
  0
STYLE
  5
11
330
3
100
AcDbSymbolTableRecord
100
AcDbTextStyleTableRecord
  2
STANDARD
 70
     0
 40
0.0
 41
1.0
 50
0.0
 71
     0
 42
2.5
  3
txt
  4

  0
ENDTAB
  0
TABLE
  2
VIEW
  5
6
330
0
100
AcDbSymbolTable
 70
     0
  0
ENDTAB
  0
TABLE
  2
UCS
  5
7
330
0
100
AcDbSymbolTable
 70
     0
  0
ENDTAB
  0
TABLE
  2
APPID
  5
9
330
0
100
AcDbSymbolTable
 70
     2
  0
APPID
  5
12
330
9
100
AcDbSymbolTableRecord
100
AcDbRegAppTableRecord
  2
ACAD
 70
     0
  0
ENDTAB
  0
TABLE
  2
DIMSTYLE
  5
A
330
0
100
AcDbSymbolTable
 70
     1
  0
DIMSTYLE
105
27
330
A
100
AcDbSymbolTableRecord
100
AcDbDimStyleTableRecord
  2
ISO-25
 70
     0
  3

  4

  5

  6

  7

 40
1.0
 41
2.5
 42
0.625
 43
3.75
 44
1.25
 45
0.0
 46
0.0
 47
0.0
 48
0.0
140
2.5
141
2.5
142
0.0
143
0.03937007874016
144
1.0
145
0.0
146
1.0
147
0.625
 71
     0
 72
     0
 73
     0
 74
     0
 75
     0
 76
     0
 77
     1
 78
     8
170
     0
171
     3
172
     1
173
     0
174
     0
175
     0
176
     0
177
     0
178
     0
270
     2
271
     2
272
     2
273
     2
274
     3
340
11
275
     0
280
     0
281
     0
282
     0
283
     0
284
     8
285
     0
286
     0
287
     3
288
     0
  0
ENDTAB
  0
TABLE
  2
BLOCK_RECORD
  5
1
330
0
100
AcDbSymbolTable
 70
     1
  0
BLOCK_RECORD
  5
1F
330
1
100
AcDbSymbolTableRecord
100
AcDbBlockTableRecord
  2
*MODEL_SPACE
  0
BLOCK_RECORD
  5
1B
330
1
100
AcDbSymbolTableRecord
100
AcDbBlockTableRecord
  2
*PAPER_SPACE
  0
ENDTAB
  0
ENDSEC
  0
SECTION
  2
BLOCKS
  0
BLOCK
  5
20
330
1F
100
AcDbEntity
  8
0
100
AcDbBlockBegin
  2
*MODEL_SPACE
 70
     0
 10
0.0
 20
0.0
 30
0.0
  3
*MODEL_SPACE
  1

  0
ENDBLK
  5
21
330
1F
100
AcDbEntity
  8
0
100
AcDbBlockEnd
  0
BLOCK
  5
1C
330
1B
100
AcDbEntity
 67
     1
  8
0
100
AcDbBlockBegin
  2
*PAPER_SPACE
  1

  0
ENDBLK
  5
1D
330
1B
100
AcDbEntity
 67
     1
  8
0
100
AcDbBlockEnd
  0
ENDSEC
  0
SECTION
  2
ENTITIES
  0
SPLINE
  5
100
100
AcDbEntity
  8
Layer_1
 62
7
100
AcDbSpline
 70
8
 71
3
 72
8
 73
4
 74
0
 40
0
 40
0
 40
0
 40
0
 40
1
 40
1
 40
1
 40
1
 10
10.459862
 20
9.812635
 30
0.0
 10
10.430748
 20
9.812560
 30
0.0
 10
10.411961
 20
9.808719
 30
0.0
 10
10.403508
 20
9.801090
 30
0.0
  0
SPLINE
  5
101
100
AcDbEntity
  8
Layer_1
 62
7
100
AcDbSpline
 70
8
 71
3
 72
8
 73
4
 74
0
 40
0
 40
0
 40
0
 40
0
 40
1
 40
1
 40
1
 40
1
 10
10.403508
 20
9.801090
 30
0.0
 10
10.394748
 20
9.795361
 30
0.0
 10
10.364967
 20
9.758199
 30
0.0
 10
10.314159
 20
9.689597
 30
0.0
  0
SPLINE
  5
102
100
AcDbEntity
  8
Layer_1
 62
7
100
AcDbSpline
 70
8
 71
3
 72
8
 73
4
 74
0
 40
0
 40
0
 40
0
 40
0
 40
1
 40
1
 40
1
 40
1
 10
10.314159
 20
9.689597
 30
0.0
 10
10.265289
 20
9.621001
 30
0.0
 10
10.179102
 20
9.466720
 30
0.0
 10
10.055605
 20
9.226754
 30
0.0
  0
LWPOLYLINE
  5
103
100
AcDbEntity
  8
Layer_1
 62
7
100
AcDbPolyline
 90
2
 70
0
 10
10.593876
 20
9.830107
 30
0.0
 10
10.459862
 20
9.812635
 30
0.0
  0
SPLINE
  5
104
100
AcDbEntity
  8
Layer_1
 62
7
100
AcDbSpline
 70
8
 71
3
 72
8
 73
4
 74
0
 40
0
 40
0
 40
0
 40
0
 40
1
 40
1
 40
1
 40
1
 10
9.795472
 20
9.214689
 30
0.0
 10
9.769773
 20
9.212804
 30
0.0
 10
9.731767
 20
9.210871
 30
0.0
 10
9.682969
 20
9.208928
 30
0.0
  0
SPLINE
  5
105
100
AcDbEntity
  8
Layer_1
 62
7
100
AcDbSpline
 70
8
 71
3
 72
8
 73
4
 74
0
 40
0
 40
0
 40
0
 40
0
 40
1
 40
1
 40
1
 40
1
 10
9.682969
 20
9.208928
 30
0.0
 10
9.669039
 20
9.219534
 30
0.0
 10
9.656280
 20
9.226747
 30
0.0
 10
9.644790
 20
9.230278
 30
0.0
  0
SPLINE
  5
106
100
AcDbEntity
  8
Layer_1
 62
7
100
AcDbSpline
 70
8
 71
3
 72
8
 73
4
 74
0
 40
0
 40
0
 40
0
 40
0
 40
1
 40
1
 40
1
 40
1
 10
9.644790
 20
9.230278
 30
0.0
 10
9.619930
 20
9.239726
 30
0.0
 10
9.575481
 20
9.244383
 30
0.0
 10
9.511430
 20
9.244216
 30
0.0
  0
SPLINE
  5
107
100
AcDbEntity
  8
Layer_1
 62
7
100
AcDbSpline
 70
8
 71
3
 72
8
 73
4
 74
0
 40
0
 40
0
 40
0
 40
0
 40
1
 40
1
 40
1
 40
1
 10
9.511430
 20
9.244216
 30
0.0
 10
9.449324
 20
9.244059
 30
0.0
 10
9.343515
 20
9.238076
 30
0.0
 10
9.194007
 20
9.226287
 30
0.0
  0
SPLINE
  5
108
100
AcDbEntity
  8
Layer_1
 62
7
100
AcDbSpline
 70
8
 71
3
 72
8
 73
4
 74
0
 40
0
 40
0
 40
0
 40
0
 40
1
 40
1
 40
1
 40
1
 10
9.194007
 20
9.226287
 30
0.0
 10
9.196637
 20
9.233901
 30
0.0
 10
9.218209
 20
9.279621
 30
0.0
 10
9.258748
 20
9.363412
 30
0.0
  0
SPLINE
  5
109
100
AcDbEntity
  8
Layer_1
 62
7
100
AcDbSpline
 70
8
 71
3
 72
8
 73
4
 74
0
 40
0
 40
0
 40
0
 40
0
 40
1
 40
1
 40
1
 40
1
 10
9.258748
 20
9.363412
 30
0.0
 10
9.300915
 20
9.449110
 30
0.0
 10
9.336883
 20
9.525279
 30
0.0
 10
9.366659
 20
9.591925
 30
0.0
  0
SPLINE
  5
10a
100
AcDbEntity
  8
Layer_1
 62
7
100
AcDbSpline
 70
8
 71
3
 72
8
 73
4
 74
0
 40
0
 40
0
 40
0
 40
0
 40
1
 40
1
 40
1
 40
1
 10
9.366659
 20
9.591925
 30
0.0
 10
9.396435
 20
9.658571
 30
0.0
 10
9.410061
 20
9.699499
 30
0.0
 10
9.407553
 20
9.714708
 30
0.0
  0
SPLINE
  5
10b
100
AcDbEntity
  8
Layer_1
 62
7
100
AcDbSpline
 70
8
 71
3
 72
8
 73
4
 74
0
 40
0
 40
0
 40
0
 40
0
 40
1
 40
1
 40
1
 40
1
 10
9.407553
 20
9.714708
 30
0.0
 10
9.405041
 20
9.729919
 30
0.0
 10
9.395576
 20
9.746058
 30
0.0
 10
9.379168
 20
9.763134
 30
0.0
  0
SPLINE
  5
10c
100
AcDbEntity
  8
Layer_1
 62
7
100
AcDbSpline
 70
8
 71
3
 72
8
 73
4
 74
0
 40
0
 40
0
 40
0
 40
0
 40
1
 40
1
 40
1
 40
1
 10
9.379168
 20
9.763134
 30
0.0
 10
9.362752
 20
9.780212
 30
0.0
 10
9.345819
 20
9.788717
 30
0.0
 10
9.328353
 20
9.788673
 30
0.0
  0
LWPOLYLINE
  5
10d
100
AcDbEntity
  8
Layer_1
 62
7
100
AcDbPolyline
 90
2
 70
0
 10
10.055605
 20
9.226754
 30
0.0
 10
9.795472
 20
9.214689
 30
0.0
  0
SPLINE
  5
10e
100
AcDbEntity
  8
Layer_1
 62
7
100
AcDbSpline
 70
8
 71
3
 72
8
 73
4
 74
0
 40
0
 40
0
 40
0
 40
0
 40
1
 40
1
 40
1
 40
1
 10
9.070269
 20
9.799438
 30
0.0
 10
9.041159
 20
9.799363
 30
0.0
 10
9.022368
 20
9.795522
 30
0.0
 10
9.013919
 20
9.787892
 30
0.0
  0
SPLINE
  5
10f
100
AcDbEntity
  8
Layer_1
 62
7
100
AcDbSpline
 70
8
 71
3
 72
8
 73
4
 74
0
 40
0
 40
0
 40
0
 40
0
 40
1
 40
1
 40
1
 40
1
 10
9.013919
 20
9.787892
 30
0.0
 10
9.005155
 20
9.782164
 30
0.0
 10
8.975375
 20
9.745002
 30
0.0
 10
8.924566
 20
9.676400
 30
0.0
  0
SPLINE
  5
110
100
AcDbEntity
  8
Layer_1
 62
7
100
AcDbSpline
 70
8
 71
3
 72
8
 73
4
 74
0
 40
0
 40
0
 40
0
 40
0
 40
1
 40
1
 40
1
 40
1
 10
8.924566
 20
9.676400
 30
0.0
 10
8.875696
 20
9.607804
 30
0.0
 10
8.789509
 20
9.453523
 30
0.0
 10
8.666012
 20
9.213556
 30
0.0
  0
LWPOLYLINE
  5
111
100
AcDbEntity
  8
Layer_1
 62
7
100
AcDbPolyline
 90
3
 70
0
 10
9.328353
 20
9.788673
 30
0.0
 10
9.204287
 20
9.816909
 30
0.0
 10
9.070269
 20
9.799438
 30
0.0
  0
SPLINE
  5
112
100
AcDbEntity
  8
Layer_1
 62
7
100
AcDbSpline
 70
8
 71
3
 72
8
 73
4
 74
0
 40
0
 40
0
 40
0
 40
0
 40
1
 40
1
 40
1
 40
1
 10
8.405879
 20
9.201492
 30
0.0
 10
8.379020
 20
9.199521
 30
0.0
 10
8.339536
 20
9.197523
 30
0.0
 10
8.287446
 20
9.195490
 30
0.0
  0
SPLINE
  5
113
100
AcDbEntity
  8
Layer_1
 62
7
100
AcDbSpline
 70
8
 71
3
 72
8
 73
4
 74
0
 40
0
 40
0
 40
0
 40
0
 40
1
 40
1
 40
1
 40
1
 10
8.287446
 20
9.195490
 30
0.0
 10
8.237296
 20
9.193461
 30
0.0
 10
8.191038
 20
9.191433
 30
0.0
 10
8.148653
 20
9.189424
 30
0.0
  0
SPLINE
  5
114
100
AcDbEntity
  8
Layer_1
 62
7
100
AcDbSpline
 70
8
 71
3
 72
8
 73
4
 74
0
 40
0
 40
0
 40
0
 40
0
 40
1
 40
1
 40
1
 40
1
 10
8.148653
 20
9.189424
 30
0.0
 10
8.108207
 20
9.187420
 30
0.0
 10
8.065970
 20
9.184465
 30
0.0
 10
8.021954
 20
9.180550
 30
0.0
  0
SPLINE
  5
115
100
AcDbEntity
  8
Layer_1
 62
7
100
AcDbSpline
 70
8
 71
3
 72
8
 73
4
 74
0
 40
0
 40
0
 40
0
 40
0
 40
1
 40
1
 40
1
 40
1
 10
8.021954
 20
9.180550
 30
0.0
 10
7.977625
 20
9.178537
 30
0.0
 10
7.915070
 20
9.151746
 30
0.0
 10
7.834262
 20
9.100188
 30
0.0
  0
SPLINE
  5
116
100
AcDbEntity
  8
Layer_1
 62
7
100
AcDbSpline
 70
8
 71
3
 72
8
 73
4
 74
0
 40
0
 40
0
 40
0
 40
0
 40
1
 40
1
 40
1
 40
1
 10
7.834262
 20
9.100188
 30
0.0
 10
7.755390
 20
9.048635
 30
0.0
 10
7.712605
 20
9.001931
 30
0.0
 10
7.705930
 20
8.960068
 30
0.0
  0
SPLINE
  5
117
100
AcDbEntity
  8
Layer_1
 62
7
100
AcDbSpline
 70
8
 71
3
 72
8
 73
4
 74
0
 40
0
 40
0
 40
0
 40
0
 40
1
 40
1
 40
1
 40
1
 10
7.705930
 20
8.960068
 30
0.0
 10
7.702930
 20
8.942943
 30
0.0
 10
7.689389
 20
8.919136
 30
0.0
 10
7.665295
 20
8.888643
 30
0.0
  0
SPLINE
  5
118
100
AcDbEntity
  8
Layer_1
 62
7
100
AcDbSpline
 70
8
 71
3
 72
8
 73
4
 74
0
 40
0
 40
0
 40
0
 40
0
 40
1
 40
1
 40
1
 40
1
 10
7.665295
 20
8.888643
 30
0.0
 10
7.643145
 20
8.858155
 30
0.0
 10
7.634736
 20
8.826736
 30
0.0
 10
7.640073
 20
8.794414
 30
0.0
  0
SPLINE
  5
119
100
AcDbEntity
  8
Layer_1
 62
7
100
AcDbSpline
 70
8
 71
3
 72
8
 73
4
 74
0
 40
0
 40
0
 40
0
 40
0
 40
1
 40
1
 40
1
 40
1
 10
7.640073
 20
8.794414
 30
0.0
 10
7.645409
 20
8.762092
 30
0.0
 10
7.676164
 20
8.734594
 30
0.0
 10
7.732331
 20
8.711913
 30
0.0
  0
SPLINE
  5
11a
100
AcDbEntity
  8
Layer_1
 62
7
100
AcDbSpline
 70
8
 71
3
 72
8
 73
4
 74
0
 40
0
 40
0
 40
0
 40
0
 40
1
 40
1
 40
1
 40
1
 10
7.732331
 20
8.711913
 30
0.0
 10
7.788189
 20
8.691131
 30
0.0
 10
7.844248
 20
8.680813
 30
0.0
 10
7.900532
 20
8.680956
 30
0.0
  0
LWPOLYLINE
  5
11b
100
AcDbEntity
  8
Layer_1
 62
7
100
AcDbPolyline
 90
2
 70
0
 10
8.666012
 20
9.213556
 30
0.0
 10
8.405879
 20
9.201492
 30
0.0
  0
SPLINE
  5
11c
100
AcDbEntity
  8
Layer_1
 62
7
100
AcDbSpline
 70
8
 71
3
 72
8
 73
4
 74
0
 40
0
 40
0
 40
0
 40
0
 40
1
 40
1
 40
1
 40
1
 10
7.926735
 20
8.681031
 30
0.0
 10
7.963610
 20
8.681125
 30
0.0
 10
8.092594
 20
8.693810
 30
0.0
 10
8.313661
 20
8.719094
 30
0.0
  0
LWPOLYLINE
  5
11d
100
AcDbEntity
  8
Layer_1
 62
7
100
AcDbPolyline
 90
2
 70
0
 10
7.900532
 20
8.680956
 30
0.0
 10
7.926735
 20
8.681031
 30
0.0
  0
SPLINE
  5
11e
100
AcDbEntity
  8
Layer_1
 62
7
100
AcDbSpline
 70
8
 71
3
 72
8
 73
4
 74
0
 40
0
 40
0
 40
0
 40
0
 40
1
 40
1
 40
1
 40
1
 10
8.421942
 20
8.733630
 30
0.0
 10
8.265670
 20
8.409891
 30
0.0
 10
8.113162
 20
8.063329
 30
0.0
 10
7.964425
 20
7.693961
 30
0.0
  0
SPLINE
  5
11f
100
AcDbEntity
  8
Layer_1
 62
7
100
AcDbSpline
 70
8
 71
3
 72
8
 73
4
 74
0
 40
0
 40
0
 40
0
 40
0
 40
1
 40
1
 40
1
 40
1
 10
7.964425
 20
7.693961
 30
0.0
 10
7.873671
 20
7.467390
 30
0.0
 10
7.802210
 20
7.253237
 30
0.0
 10
7.750069
 20
7.051492
 30
0.0
  0
SPLINE
  5
120
100
AcDbEntity
  8
Layer_1
 62
7
100
AcDbSpline
 70
8
 71
3
 72
8
 73
4
 74
0
 40
0
 40
0
 40
0
 40
0
 40
1
 40
1
 40
1
 40
1
 10
7.750069
 20
7.051492
 30
0.0
 10
7.699563
 20
6.851650
 30
0.0
 10
7.684956
 20
6.681389
 30
0.0
 10
7.706244
 20
6.540692
 30
0.0
  0
SPLINE
  5
121
100
AcDbEntity
  8
Layer_1
 62
7
100
AcDbSpline
 70
8
 71
3
 72
8
 73
4
 74
0
 40
0
 40
0
 40
0
 40
0
 40
1
 40
1
 40
1
 40
1
 10
7.706244
 20
6.540692
 30
0.0
 10
7.729465
 20
6.400001
 30
0.0
 10
7.783886
 20
6.287924
 30
0.0
 10
7.869504
 20
6.204451
 30
0.0
  0
SPLINE
  5
122
100
AcDbEntity
  8
Layer_1
 62
7
100
AcDbSpline
 70
8
 71
3
 72
8
 73
4
 74
0
 40
0
 40
0
 40
0
 40
0
 40
1
 40
1
 40
1
 40
1
 10
7.869504
 20
6.204451
 30
0.0
 10
7.881959
 20
6.192806
 30
0.0
 10
7.895241
 20
6.181770
 30
0.0
 10
7.909178
 20
6.171215
 30
0.0
  0
LWPOLYLINE
  5
123
100
AcDbEntity
  8
Layer_1
 62
7
100
AcDbPolyline
 90
2
 70
0
 10
8.313661
 20
8.719094
 30
0.0
 10
8.421942
 20
8.733630
 30
0.0
  0
SPLINE
  5
124
100
AcDbEntity
  8
Layer_1
 62
7
100
AcDbSpline
 70
8
 71
3
 72
8
 73
4
 74
0
 40
0
 40
0
 40
0
 40
0
 40
1
 40
1
 40
1
 40
1
 10
6.529318
 20
6.180802
 30
0.0
 10
6.549059
 20
6.191101
 30
0.0
 10
6.568911
 20
6.202067
 30
0.0
 10
6.588899
 20
6.213766
 30
0.0
  0
SPLINE
  5
125
100
AcDbEntity
  8
Layer_1
 62
7
100
AcDbSpline
 70
8
 71
3
 72
8
 73
4
 74
0
 40
0
 40
0
 40
0
 40
0
 40
1
 40
1
 40
1
 40
1
 10
6.588899
 20
6.213766
 30
0.0
 10
6.756965
 20
6.313096
 30
0.0
 10
6.907056
 20
6.438992
 30
0.0
 10
7.039166
 20
6.591487
 30
0.0
  0
SPLINE
  5
126
100
AcDbEntity
  8
Layer_1
 62
7
100
AcDbSpline
 70
8
 71
3
 72
8
 73
4
 74
0
 40
0
 40
0
 40
0
 40
0
 40
1
 40
1
 40
1
 40
1
 10
7.039166
 20
6.591487
 30
0.0
 10
7.172903
 20
6.745888
 30
0.0
 10
7.291496
 20
6.909778
 30
0.0
 10
7.394918
 20
7.083123
 30
0.0
  0
SPLINE
  5
127
100
AcDbEntity
  8
Layer_1
 62
7
100
AcDbSpline
 70
8
 71
3
 72
8
 73
4
 74
0
 40
0
 40
0
 40
0
 40
0
 40
1
 40
1
 40
1
 40
1
 10
7.394918
 20
7.083123
 30
0.0
 10
7.498031
 20
7.258369
 30
0.0
 10
7.573613
 20
7.429741
 30
0.0
 10
7.621690
 20
7.597241
 30
0.0
  0
SPLINE
  5
128
100
AcDbEntity
  8
Layer_1
 62
7
100
AcDbSpline
 70
8
 71
3
 72
8
 73
4
 74
0
 40
0
 40
0
 40
0
 40
0
 40
1
 40
1
 40
1
 40
1
 10
7.621690
 20
7.597241
 30
0.0
 10
7.669456
 20
7.766642
 30
0.0
 10
7.684694
 20
7.903615
 30
0.0
 10
7.667447
 20
8.008180
 30
0.0
  0
SPLINE
  5
129
100
AcDbEntity
  8
Layer_1
 62
7
100
AcDbSpline
 70
8
 71
3
 72
8
 73
4
 74
0
 40
0
 40
0
 40
0
 40
0
 40
1
 40
1
 40
1
 40
1
 10
7.667447
 20
8.008180
 30
0.0
 10
7.649872
 20
8.114649
 30
0.0
 10
7.604999
 20
8.185798
 30
0.0
 10
7.544004
 20
8.248501
 30
0.0
  0
SPLINE
  5
12a
100
AcDbEntity
  8
Layer_1
 62
7
100
AcDbSpline
 70
8
 71
3
 72
8
 73
4
 74
0
 40
0
 40
0
 40
0
 40
0
 40
1
 40
1
 40
1
 40
1
 10
7.544004
 20
8.248501
 30
0.0
 10
7.518391
 20
8.273068
 30
0.0
 10
7.434149
 20
8.364447
 30
0.0
 10
7.393509
 20
8.315589
 30
0.0
  0
LWPOLYLINE
  5
12b
100
AcDbEntity
  8
Layer_1
 62
7
100
AcDbPolyline
 90
2
 70
0
 10
7.909178
 20
6.171215
 30
0.0
 10
6.529318
 20
6.180802
 30
0.0
  0
SPLINE
  5
12c
100
AcDbEntity
  8
Layer_1
 62
7
100
AcDbSpline
 70
8
 71
3
 72
8
 73
4
 74
0
 40
0
 40
0
 40
0
 40
0
 40
1
 40
1
 40
1
 40
1
 10
7.156951
 20
7.945650
 30
0.0
 10
7.173849
 20
7.934041
 30
0.0
 10
7.188031
 20
7.885094
 30
0.0
 10
7.178746
 20
7.851672
 30
0.0
  0
SPLINE
  5
12d
100
AcDbEntity
  8
Layer_1
 62
7
100
AcDbSpline
 70
8
 71
3
 72
8
 73
4
 74
0
 40
0
 40
0
 40
0
 40
0
 40
1
 40
1
 40
1
 40
1
 10
7.178746
 20
7.851672
 30
0.0
 10
7.165322
 20
7.803403
 30
0.0
 10
7.163785
 20
7.707086
 30
0.0
 10
7.109375
 20
7.566199
 30
0.0
  0
SPLINE
  5
12e
100
AcDbEntity
  8
Layer_1
 62
7
100
AcDbSpline
 70
8
 71
3
 72
8
 73
4
 74
0
 40
0
 40
0
 40
0
 40
0
 40
1
 40
1
 40
1
 40
1
 10
7.109375
 20
7.566199
 30
0.0
 10
7.056585
 20
7.427218
 30
0.0
 10
6.956440
 20
7.275063
 30
0.0
 10
6.832546
 20
7.084548
 30
0.0
  0
SPLINE
  5
12f
100
AcDbEntity
  8
Layer_1
 62
7
100
AcDbSpline
 70
8
 71
3
 72
8
 73
4
 74
0
 40
0
 40
0
 40
0
 40
0
 40
1
 40
1
 40
1
 40
1
 10
6.832546
 20
7.084548
 30
0.0
 10
6.710596
 20
6.894038
 30
0.0
 10
6.579481
 20
6.747250
 30
0.0
 10
6.439215
 20
6.644188
 30
0.0
  0
SPLINE
  5
130
100
AcDbEntity
  8
Layer_1
 62
7
100
AcDbSpline
 70
8
 71
3
 72
8
 73
4
 74
0
 40
0
 40
0
 40
0
 40
0
 40
1
 40
1
 40
1
 40
1
 10
6.439215
 20
6.644188
 30
0.0
 10
6.298947
 20
6.541124
 30
0.0
 10
6.189028
 20
6.489504
 30
0.0
 10
6.109455
 20
6.489302
 30
0.0
  0
SPLINE
  5
131
100
AcDbEntity
  8
Layer_1
 62
7
100
AcDbSpline
 70
8
 71
3
 72
8
 73
4
 74
0
 40
0
 40
0
 40
0
 40
0
 40
1
 40
1
 40
1
 40
1
 10
6.109455
 20
6.489302
 30
0.0
 10
6.029874
 20
6.489106
 30
0.0
 10
5.981296
 20
6.542237
 30
0.0
 10
5.963726
 20
6.648705
 30
0.0
  0
SPLINE
  5
132
100
AcDbEntity
  8
Layer_1
 62
7
100
AcDbSpline
 70
8
 71
3
 72
8
 73
4
 74
0
 40
0
 40
0
 40
0
 40
0
 40
1
 40
1
 40
1
 40
1
 10
5.963726
 20
6.648705
 30
0.0
 10
5.932146
 20
6.863555
 30
0.0
 10
6.014850
 20
7.127185
 30
0.0
 10
6.211824
 20
7.439614
 30
0.0
  0
SPLINE
  5
133
100
AcDbEntity
  8
Layer_1
 62
7
100
AcDbSpline
 70
8
 71
3
 72
8
 73
4
 74
0
 40
0
 40
0
 40
0
 40
0
 40
1
 40
1
 40
1
 40
1
 10
6.211824
 20
7.439614
 30
0.0
 10
6.308366
 20
7.595824
 30
0.0
 10
6.424845
 20
7.731166
 30
0.0
 10
6.561289
 20
7.845631
 30
0.0
  0
SPLINE
  5
134
100
AcDbEntity
  8
Layer_1
 62
7
100
AcDbSpline
 70
8
 71
3
 72
8
 73
4
 74
0
 40
0
 40
0
 40
0
 40
0
 40
1
 40
1
 40
1
 40
1
 10
6.561289
 20
7.845631
 30
0.0
 10
6.696987
 20
7.959471
 30
0.0
 10
6.797669
 20
8.077361
 30
0.0
 10
6.963635
 20
8.083869
 30
0.0
  0
LWPOLYLINE
  5
135
100
AcDbEntity
  8
Layer_1
 62
7
100
AcDbPolyline
 90
2
 70
0
 10
7.393509
 20
8.315589
 30
0.0
 10
7.156951
 20
7.945650
 30
0.0
  0
SPLINE
  5
136
100
AcDbEntity
  8
Layer_1
 62
7
100
AcDbSpline
 70
8
 71
3
 72
8
 73
4
 74
0
 40
0
 40
0
 40
0
 40
0
 40
1
 40
1
 40
1
 40
1
 10
7.164443
 20
8.386998
 30
0.0
 10
7.175276
 20
8.428223
 30
0.0
 10
7.084662
 20
8.433167
 30
0.0
 10
7.034766
 20
8.443685
 30
0.0
  0
SPLINE
  5
137
100
AcDbEntity
  8
Layer_1
 62
7
100
AcDbSpline
 70
8
 71
3
 72
8
 73
4
 74
0
 40
0
 40
0
 40
0
 40
0
 40
1
 40
1
 40
1
 40
1
 10
7.034766
 20
8.443685
 30
0.0
 10
7.000907
 20
8.450817
 30
0.0
 10
6.963964
 20
8.454344
 30
0.0
 10
6.923935
 20
8.454243
 30
0.0
  0
SPLINE
  5
138
100
AcDbEntity
  8
Layer_1
 62
7
100
AcDbSpline
 70
8
 71
3
 72
8
 73
4
 74
0
 40
0
 40
0
 40
0
 40
0
 40
1
 40
1
 40
1
 40
1
 10
6.923935
 20
8.454243
 30
0.0
 10
6.685204
 20
8.453641
 30
0.0
 10
6.428213
 20
8.328400
 30
0.0
 10
6.152957
 20
8.078541
 30
0.0
  0
SPLINE
  5
139
100
AcDbEntity
  8
Layer_1
 62
7
100
AcDbSpline
 70
8
 71
3
 72
8
 73
4
 74
0
 40
0
 40
0
 40
0
 40
0
 40
1
 40
1
 40
1
 40
1
 10
6.152957
 20
8.078541
 30
0.0
 10
6.021648
 20
7.956479
 30
0.0
 10
5.903689
 20
7.818296
 30
0.0
 10
5.799069
 20
7.663968
 30
0.0
  0
SPLINE
  5
13a
100
AcDbEntity
  8
Layer_1
 62
7
100
AcDbSpline
 70
8
 71
3
 72
8
 73
4
 74
0
 40
0
 40
0
 40
0
 40
0
 40
1
 40
1
 40
1
 40
1
 10
5.799069
 20
7.663968
 30
0.0
 10
5.694134
 20
7.511541
 30
0.0
 10
5.616409
 20
7.335395
 30
0.0
 10
5.565899
 20
7.135554
 30
0.0
  0
SPLINE
  5
13b
100
AcDbEntity
  8
Layer_1
 62
7
100
AcDbSpline
 70
8
 71
3
 72
8
 73
4
 74
0
 40
0
 40
0
 40
0
 40
0
 40
1
 40
1
 40
1
 40
1
 10
5.565899
 20
7.135554
 30
0.0
 10
5.517329
 20
6.935720
 30
0.0
 10
5.506689
 20
6.753102
 30
0.0
 10
5.533993
 20
6.587694
 30
0.0
  0
SPLINE
  5
13c
100
AcDbEntity
  8
Layer_1
 62
7
100
AcDbSpline
 70
8
 71
3
 72
8
 73
4
 74
0
 40
0
 40
0
 40
0
 40
0
 40
1
 40
1
 40
1
 40
1
 10
5.533993
 20
6.587694
 30
0.0
 10
5.560978
 20
6.424189
 30
0.0
 10
5.626804
 20
6.295976
 30
0.0
 10
5.731464
 20
6.203040
 30
0.0
  0
SPLINE
  5
13d
100
AcDbEntity
  8
Layer_1
 62
7
100
AcDbSpline
 70
8
 71
3
 72
8
 73
4
 74
0
 40
0
 40
0
 40
0
 40
0
 40
1
 40
1
 40
1
 40
1
 10
5.731464
 20
6.203040
 30
0.0
 10
5.738238
 20
6.197237
 30
0.0
 10
5.745111
 20
6.191633
 30
0.0
 10
5.752063
 20
6.186201
 30
0.0
  0
LWPOLYLINE
  5
13e
100
AcDbEntity
  8
Layer_1
 62
7
100
AcDbPolyline
 90
2
 70
0
 10
6.963635
 20
8.083869
 30
0.0
 10
7.164443
 20
8.386998
 30
0.0
  0
SPLINE
  5
13f
100
AcDbEntity
  8
Layer_1
 62
7
100
AcDbSpline
 70
8
 71
3
 72
8
 73
4
 74
0
 40
0
 40
0
 40
0
 40
0
 40
1
 40
1
 40
1
 40
1
 10
3.998269
 20
6.198391
 30
0.0
 10
4.033754
 20
6.208087
 30
0.0
 10
4.069226
 20
6.218672
 30
0.0
 10
4.104661
 20
6.230319
 30
0.0
  0
SPLINE
  5
140
100
AcDbEntity
  8
Layer_1
 62
7
100
AcDbSpline
 70
8
 71
3
 72
8
 73
4
 74
0
 40
0
 40
0
 40
0
 40
0
 40
1
 40
1
 40
1
 40
1
 10
4.104661
 20
6.230319
 30
0.0
 10
4.452664
 20
6.345319
 30
0.0
 10
4.758027
 20
6.536298
 30
0.0
 10
5.020762
 20
6.803244
 30
0.0
  0
SPLINE
  5
141
100
AcDbEntity
  8
Layer_1
 62
7
100
AcDbSpline
 70
8
 71
3
 72
8
 73
4
 74
0
 40
0
 40
0
 40
0
 40
0
 40
1
 40
1
 40
1
 40
1
 10
5.020762
 20
6.803244
 30
0.0
 10
5.238300
 20
7.026330
 30
0.0
 10
5.349811
 20
7.197788
 30
0.0
 10
5.355271
 20
7.317630
 30
0.0
  0
SPLINE
  5
142
100
AcDbEntity
  8
Layer_1
 62
7
100
AcDbSpline
 70
8
 71
3
 72
8
 73
4
 74
0
 40
0
 40
0
 40
0
 40
0
 40
1
 40
1
 40
1
 40
1
 10
5.355271
 20
7.317630
 30
0.0
 10
5.358767
 20
7.496429
 30
0.0
 10
5.354554
 20
7.621948
 30
0.0
 10
5.342628
 20
7.694195
 30
0.0
  0
SPLINE
  5
143
100
AcDbEntity
  8
Layer_1
 62
7
100
AcDbSpline
 70
8
 71
3
 72
8
 73
4
 74
0
 40
0
 40
0
 40
0
 40
0
 40
1
 40
1
 40
1
 40
1
 10
5.342628
 20
7.694195
 30
0.0
 10
5.330394
 20
7.768343
 30
0.0
 10
5.300978
 20
7.805361
 30
0.0
 10
5.254398
 20
7.805244
 30
0.0
  0
SPLINE
  5
144
100
AcDbEntity
  8
Layer_1
 62
7
100
AcDbSpline
 70
8
 71
3
 72
8
 73
4
 74
0
 40
0
 40
0
 40
0
 40
0
 40
1
 40
1
 40
1
 40
1
 10
5.254398
 20
7.805244
 30
0.0
 10
5.238863
 20
7.805204
 30
0.0
 10
5.231704
 20
7.795672
 30
0.0
 10
5.232905
 20
7.776655
 30
0.0
  0
SPLINE
  5
145
100
AcDbEntity
  8
Layer_1
 62
7
100
AcDbSpline
 70
8
 71
3
 72
8
 73
4
 74
0
 40
0
 40
0
 40
0
 40
0
 40
1
 40
1
 40
1
 40
1
 10
5.232905
 20
7.776655
 30
0.0
 10
5.233791
 20
7.759538
 30
0.0
 10
5.196811
 20
7.707131
 30
0.0
 10
5.121964
 20
7.619449
 30
0.0
  0
SPLINE
  5
146
100
AcDbEntity
  8
Layer_1
 62
7
100
AcDbSpline
 70
8
 71
3
 72
8
 73
4
 74
0
 40
0
 40
0
 40
0
 40
0
 40
1
 40
1
 40
1
 40
1
 10
5.121964
 20
7.619449
 30
0.0
 10
5.049053
 20
7.531772
 30
0.0
 10
4.948420
 20
7.429771
 30
0.0
 10
4.820054
 20
7.313424
 30
0.0
  0
SPLINE
  5
147
100
AcDbEntity
  8
Layer_1
 62
7
100
AcDbSpline
 70
8
 71
3
 72
8
 73
4
 74
0
 40
0
 40
0
 40
0
 40
0
 40
1
 40
1
 40
1
 40
1
 10
4.820054
 20
7.313424
 30
0.0
 10
4.691688
 20
7.197077
 30
0.0
 10
4.553152
 20
7.083552
 30
0.0
 10
4.404433
 20
6.972859
 30
0.0
  0
SPLINE
  5
148
100
AcDbEntity
  8
Layer_1
 62
7
100
AcDbSpline
 70
8
 71
3
 72
8
 73
4
 74
0
 40
0
 40
0
 40
0
 40
0
 40
1
 40
1
 40
1
 40
1
 10
4.404433
 20
6.972859
 30
0.0
 10
4.257660
 20
6.862171
 30
0.0
 10
4.098356
 20
6.768573
 30
0.0
 10
3.926521
 20
6.692058
 30
0.0
  0
SPLINE
  5
149
100
AcDbEntity
  8
Layer_1
 62
7
100
AcDbSpline
 70
8
 71
3
 72
8
 73
4
 74
0
 40
0
 40
0
 40
0
 40
0
 40
1
 40
1
 40
1
 40
1
 10
3.926521
 20
6.692058
 30
0.0
 10
3.754686
 20
6.615544
 30
0.0
 10
3.600841
 20
6.577101
 30
0.0
 10
3.464976
 20
6.576759
 30
0.0
  0
SPLINE
  5
14a
100
AcDbEntity
  8
Layer_1
 62
7
100
AcDbSpline
 70
8
 71
3
 72
8
 73
4
 74
0
 40
0
 40
0
 40
0
 40
0
 40
1
 40
1
 40
1
 40
1
 10
3.464976
 20
6.576759
 30
0.0
 10
3.331054
 20
6.576405
 30
0.0
 10
3.225126
 20
6.612297
 30
0.0
 10
3.147211
 20
6.684378
 30
0.0
  0
SPLINE
  5
14b
100
AcDbEntity
  8
Layer_1
 62
7
100
AcDbSpline
 70
8
 71
3
 72
8
 73
4
 74
0
 40
0
 40
0
 40
0
 40
0
 40
1
 40
1
 40
1
 40
1
 10
3.147211
 20
6.684378
 30
0.0
 10
3.071239
 20
6.756462
 30
0.0
 10
3.023375
 20
6.852403
 30
0.0
 10
3.003604
 20
6.972182
 30
0.0
  0
SPLINE
  5
14c
100
AcDbEntity
  8
Layer_1
 62
7
100
AcDbSpline
 70
8
 71
3
 72
8
 73
4
 74
0
 40
0
 40
0
 40
0
 40
0
 40
1
 40
1
 40
1
 40
1
 10
3.003604
 20
6.972182
 30
0.0
 10
2.956220
 20
7.259267
 30
0.0
 10
3.010579
 20
7.582747
 30
0.0
 10
3.166711
 20
7.942623
 30
0.0
  0
SPLINE
  5
14d
100
AcDbEntity
  8
Layer_1
 62
7
100
AcDbSpline
 70
8
 71
3
 72
8
 73
4
 74
0
 40
0
 40
0
 40
0
 40
0
 40
1
 40
1
 40
1
 40
1
 10
3.166711
 20
7.942623
 30
0.0
 10
3.324466
 20
8.304406
 30
0.0
 10
3.528240
 20
8.616851
 30
0.0
 10
3.778008
 20
8.879961
 30
0.0
  0
SPLINE
  5
14e
100
AcDbEntity
  8
Layer_1
 62
7
100
AcDbSpline
 70
8
 71
3
 72
8
 73
4
 74
0
 40
0
 40
0
 40
0
 40
0
 40
1
 40
1
 40
1
 40
1
 10
3.778008
 20
8.879961
 30
0.0
 10
4.027780
 20
9.143070
 30
0.0
 10
4.299142
 20
9.357737
 30
0.0
 10
4.592088
 20
9.523953
 30
0.0
  0
SPLINE
  5
14f
100
AcDbEntity
  8
Layer_1
 62
7
100
AcDbSpline
 70
8
 71
3
 72
8
 73
4
 74
0
 40
0
 40
0
 40
0
 40
0
 40
1
 40
1
 40
1
 40
1
 10
4.592088
 20
9.523953
 30
0.0
 10
4.886664
 20
9.692075
 30
0.0
 10
5.125171
 20
9.776366
 30
0.0
 10
5.307617
 20
9.776826
 30
0.0
  0
SPLINE
  5
150
100
AcDbEntity
  8
Layer_1
 62
7
100
AcDbSpline
 70
8
 71
3
 72
8
 73
4
 74
0
 40
0
 40
0
 40
0
 40
0
 40
1
 40
1
 40
1
 40
1
 10
5.307617
 20
9.776826
 30
0.0
 10
5.375546
 20
9.776999
 30
0.0
 10
5.413583
 20
9.752361
 30
0.0
 10
5.421744
 20
9.702927
 30
0.0
  0
SPLINE
  5
151
100
AcDbEntity
  8
Layer_1
 62
7
100
AcDbSpline
 70
8
 71
3
 72
8
 73
4
 74
0
 40
0
 40
0
 40
0
 40
0
 40
1
 40
1
 40
1
 40
1
 10
5.421744
 20
9.702927
 30
0.0
 10
5.433670
 20
9.630680
 30
0.0
 10
5.387496
 20
9.522150
 30
0.0
 10
5.283255
 20
9.377331
 30
0.0
  0
SPLINE
  5
152
100
AcDbEntity
  8
Layer_1
 62
7
100
AcDbSpline
 70
8
 71
3
 72
8
 73
4
 74
0
 40
0
 40
0
 40
0
 40
0
 40
1
 40
1
 40
1
 40
1
 10
5.283255
 20
9.377331
 30
0.0
 10
5.180946
 20
9.232519
 30
0.0
 10
5.060758
 20
9.101925
 30
0.0
 10
4.922684
 20
8.985554
 30
0.0
  0
SPLINE
  5
153
100
AcDbEntity
  8
Layer_1
 62
7
100
AcDbSpline
 70
8
 71
3
 72
8
 73
4
 74
0
 40
0
 40
0
 40
0
 40
0
 40
1
 40
1
 40
1
 40
1
 10
4.922684
 20
8.985554
 30
0.0
 10
4.784617
 20
8.869181
 30
0.0
 10
4.681621
 20
8.810911
 30
0.0
 10
4.613693
 20
8.810739
 30
0.0
  0
SPLINE
  5
154
100
AcDbEntity
  8
Layer_1
 62
7
100
AcDbSpline
 70
8
 71
3
 72
8
 73
4
 74
0
 40
0
 40
0
 40
0
 40
0
 40
1
 40
1
 40
1
 40
1
 10
4.613693
 20
8.810739
 30
0.0
 10
4.547699
 20
8.810573
 30
0.0
 10
4.512811
 20
8.821904
 30
0.0
 10
4.509047
 20
8.844718
 30
0.0
  0
SPLINE
  5
155
100
AcDbEntity
  8
Layer_1
 62
7
100
AcDbSpline
 70
8
 71
3
 72
8
 73
4
 74
0
 40
0
 40
0
 40
0
 40
0
 40
1
 40
1
 40
1
 40
1
 10
4.509047
 20
8.844718
 30
0.0
 10
4.507488
 20
8.854223
 30
0.0
 10
4.509787
 20
8.863736
 30
0.0
 10
4.515993
 20
8.873260
 30
0.0
  0
SPLINE
  5
156
100
AcDbEntity
  8
Layer_1
 62
7
100
AcDbSpline
 70
8
 71
3
 72
8
 73
4
 74
0
 40
0
 40
0
 40
0
 40
0
 40
1
 40
1
 40
1
 40
1
 10
4.515993
 20
8.873260
 30
0.0
 10
4.484928
 20
8.873185
 30
0.0
 10
4.463260
 20
8.845551
 30
0.0
 10
4.451024
 20
8.790358
 30
0.0
  0
SPLINE
  5
157
100
AcDbEntity
  8
Layer_1
 62
7
100
AcDbSpline
 70
8
 71
3
 72
8
 73
4
 74
0
 40
0
 40
0
 40
0
 40
0
 40
1
 40
1
 40
1
 40
1
 10
4.451024
 20
8.790358
 30
0.0
 10
4.440705
 20
8.735176
 30
0.0
 10
4.439351
 20
8.684774
 30
0.0
 10
4.446876
 20
8.639145
 30
0.0
  0
SPLINE
  5
158
100
AcDbEntity
  8
Layer_1
 62
7
100
AcDbSpline
 70
8
 71
3
 72
8
 73
4
 74
0
 40
0
 40
0
 40
0
 40
0
 40
1
 40
1
 40
1
 40
1
 10
4.446876
 20
8.639145
 30
0.0
 10
4.454409
 20
8.593515
 30
0.0
 10
4.496992
 20
8.541311
 30
0.0
 10
4.574650
 20
8.482544
 30
0.0
  0
SPLINE
  5
159
100
AcDbEntity
  8
Layer_1
 62
7
100
AcDbSpline
 70
8
 71
3
 72
8
 73
4
 74
0
 40
0
 40
0
 40
0
 40
0
 40
1
 40
1
 40
1
 40
1
 10
4.574650
 20
8.482544
 30
0.0
 10
4.651993
 20
8.425680
 30
0.0
 10
4.738235
 20
8.397373
 30
0.0
 10
4.833342
 20
8.397612
 30
0.0
  0
SPLINE
  5
15a
100
AcDbEntity
  8
Layer_1
 62
7
100
AcDbSpline
 70
8
 71
3
 72
8
 73
4
 74
0
 40
0
 40
0
 40
0
 40
0
 40
1
 40
1
 40
1
 40
1
 10
4.833342
 20
8.397612
 30
0.0
 10
4.928446
 20
8.397853
 30
0.0
 10
5.046751
 20
8.445691
 30
0.0
 10
5.188274
 20
8.541149
 30
0.0
  0
SPLINE
  5
15b
100
AcDbEntity
  8
Layer_1
 62
7
100
AcDbSpline
 70
8
 71
3
 72
8
 73
4
 74
0
 40
0
 40
0
 40
0
 40
0
 40
1
 40
1
 40
1
 40
1
 10
5.188274
 20
8.541149
 30
0.0
 10
5.331737
 20
8.636612
 30
0.0
 10
5.465920
 20
8.752989
 30
0.0
 10
5.590834
 20
8.890251
 30
0.0
  0
SPLINE
  5
15c
100
AcDbEntity
  8
Layer_1
 62
7
100
AcDbSpline
 70
8
 71
3
 72
8
 73
4
 74
0
 40
0
 40
0
 40
0
 40
0
 40
1
 40
1
 40
1
 40
1
 10
5.590834
 20
8.890251
 30
0.0
 10
5.717691
 20
9.027516
 30
0.0
 10
5.821809
 20
9.178977
 30
0.0
 10
5.903199
 20
9.344659
 30
0.0
  0
SPLINE
  5
15d
100
AcDbEntity
  8
Layer_1
 62
7
100
AcDbSpline
 70
8
 71
3
 72
8
 73
4
 74
0
 40
0
 40
0
 40
0
 40
0
 40
1
 40
1
 40
1
 40
1
 10
5.903199
 20
9.344659
 30
0.0
 10
5.984266
 20
9.512243
 30
0.0
 10
6.015867
 20
9.650220
 30
0.0
 10
5.997980
 20
9.758590
 30
0.0
  0
SPLINE
  5
15e
100
AcDbEntity
  8
Layer_1
 62
7
100
AcDbSpline
 70
8
 71
3
 72
8
 73
4
 74
0
 40
0
 40
0
 40
0
 40
0
 40
1
 40
1
 40
1
 40
1
 10
5.997980
 20
9.758590
 30
0.0
 10
5.979777
 20
9.868862
 30
0.0
 10
5.929785
 20
9.960025
 30
0.0
 10
5.847987
 20
10.032096
 30
0.0
  0
SPLINE
  5
15f
100
AcDbEntity
  8
Layer_1
 62
7
100
AcDbSpline
 70
8
 71
3
 72
8
 73
4
 74
0
 40
0
 40
0
 40
0
 40
0
 40
1
 40
1
 40
1
 40
1
 10
5.847987
 20
10.032096
 30
0.0
 10
5.740597
 20
10.124668
 30
0.0
 10
5.625176
 20
10.185316
 30
0.0
 10
5.501717
 20
10.214017
 30
0.0
  0
SPLINE
  5
160
100
AcDbEntity
  8
Layer_1
 62
7
100
AcDbSpline
 70
8
 71
3
 72
8
 73
4
 74
0
 40
0
 40
0
 40
0
 40
0
 40
1
 40
1
 40
1
 40
1
 10
5.501717
 20
10.214017
 30
0.0
 10
5.494700
 20
10.215639
 30
0.0
 10
5.487670
 20
10.217182
 30
0.0
 10
5.480604
 20
10.218612
 30
0.0
  0
SPLINE
  5
161
100
AcDbEntity
  8
Layer_1
 62
7
100
AcDbSpline
 70
8
 71
3
 72
8
 73
4
 74
0
 40
0
 40
0
 40
0
 40
0
 40
1
 40
1
 40
1
 40
1
 10
5.480604
 20
10.218612
 30
0.0
 10
5.431135
 20
10.228587
 30
0.0
 10
5.380392
 20
10.233511
 30
0.0
 10
5.328380
 20
10.233380
 30
0.0
  0
SPLINE
  5
162
100
AcDbEntity
  8
Layer_1
 62
7
100
AcDbSpline
 70
8
 71
3
 72
8
 73
4
 74
0
 40
0
 40
0
 40
0
 40
0
 40
1
 40
1
 40
1
 40
1
 10
5.328380
 20
10.233380
 30
0.0
 10
5.087707
 20
10.232773
 30
0.0
 10
4.841127
 20
10.185549
 30
0.0
 10
4.588657
 20
10.091713
 30
0.0
  0
SPLINE
  5
163
100
AcDbEntity
  8
Layer_1
 62
7
100
AcDbSpline
 70
8
 71
3
 72
8
 73
4
 74
0
 40
0
 40
0
 40
0
 40
0
 40
1
 40
1
 40
1
 40
1
 10
4.588657
 20
10.091713
 30
0.0
 10
4.336192
 20
9.997877
 30
0.0
 10
4.100722
 20
9.871742
 30
0.0
 10
3.882211
 20
9.713324
 30
0.0
  0
SPLINE
  5
164
100
AcDbEntity
  8
Layer_1
 62
7
100
AcDbSpline
 70
8
 71
3
 72
8
 73
4
 74
0
 40
0
 40
0
 40
0
 40
0
 40
1
 40
1
 40
1
 40
1
 10
3.882211
 20
9.713324
 30
0.0
 10
3.663703
 20
9.554904
 30
0.0
 10
3.458629
 20
9.367996
 30
0.0
 10
3.267001
 20
9.152584
 30
0.0
  0
SPLINE
  5
165
100
AcDbEntity
  8
Layer_1
 62
7
100
AcDbSpline
 70
8
 71
3
 72
8
 73
4
 74
0
 40
0
 40
0
 40
0
 40
0
 40
1
 40
1
 40
1
 40
1
 10
3.267001
 20
9.152584
 30
0.0
 10
3.077320
 20
8.937176
 30
0.0
 10
2.918317
 20
8.712336
 30
0.0
 10
2.789997
 20
8.478063
 30
0.0
  0
SPLINE
  5
166
100
AcDbEntity
  8
Layer_1
 62
7
100
AcDbSpline
 70
8
 71
3
 72
8
 73
4
 74
0
 40
0
 40
0
 40
0
 40
0
 40
1
 40
1
 40
1
 40
1
 10
2.789997
 20
8.478063
 30
0.0
 10
2.663304
 20
8.245696
 30
0.0
 10
2.571644
 20
8.001055
 30
0.0
 10
2.515025
 20
7.744138
 30
0.0
  0
SPLINE
  5
167
100
AcDbEntity
  8
Layer_1
 62
7
100
AcDbSpline
 70
8
 71
3
 72
8
 73
4
 74
0
 40
0
 40
0
 40
0
 40
0
 40
1
 40
1
 40
1
 40
1
 10
2.515025
 20
7.744138
 30
0.0
 10
2.460018
 20
7.489132
 30
0.0
 10
2.452307
 20
7.241834
 30
0.0
 10
2.491846
 20
7.002279
 30
0.0
  0
SPLINE
  5
168
100
AcDbEntity
  8
Layer_1
 62
7
100
AcDbSpline
 70
8
 71
3
 72
8
 73
4
 74
0
 40
0
 40
0
 40
0
 40
0
 40
1
 40
1
 40
1
 40
1
 10
2.491846
 20
7.002279
 30
0.0
 10
2.531072
 20
6.764625
 30
0.0
 10
2.651478
 20
6.558559
 30
0.0
 10
2.853092
 20
6.384080
 30
0.0
  0
SPLINE
  5
169
100
AcDbEntity
  8
Layer_1
 62
7
100
AcDbSpline
 70
8
 71
3
 72
8
 73
4
 74
0
 40
0
 40
0
 40
0
 40
0
 40
1
 40
1
 40
1
 40
1
 10
2.853092
 20
6.384080
 30
0.0
 10
2.944122
 20
6.306787
 30
0.0
 10
3.035793
 20
6.247008
 30
0.0
 10
3.128103
 20
6.204439
 30
0.0
  0
LWPOLYLINE
  5
16a
100
AcDbEntity
  8
Layer_1
 62
7
100
AcDbPolyline
 90
2
 70
0
 10
5.752063
 20
6.186201
 30
0.0
 10
3.998269
 20
6.198391
 30
0.0
  0
SPLINE
  5
16b
100
AcDbEntity
  8
Layer_1
 62
7
100
AcDbSpline
 70
8
 71
3
 72
8
 73
4
 74
0
 40
0
 40
0
 40
0
 40
0
 40
1
 40
1
 40
1
 40
1
 10
0.592988
 20
6.222064
 30
0.0
 10
0.588049
 20
6.222099
 30
0.0
 10
0.584002
 20
6.218151
 30
0.0
 10
0.583914
 20
6.213209
 30
0.0
  0
LWPOLYLINE
  5
16c
100
AcDbEntity
  8
Layer_1
 62
7
100
AcDbPolyline
 90
2
 70
0
 10
3.128103
 20
6.204439
 30
0.0
 10
0.592988
 20
6.222064
 30
0.0
  0
SPLINE
  5
16d
100
AcDbEntity
  8
Layer_1
 62
7
100
AcDbSpline
 70
8
 71
3
 72
8
 73
4
 74
0
 40
0
 40
0
 40
0
 40
0
 40
1
 40
1
 40
1
 40
1
 10
0.573634
 20
5.639547
 30
0.0
 10
0.573531
 20
5.634608
 30
0.0
 10
0.577443
 20
5.630590
 30
0.0
 10
0.582383
 20
5.630556
 30
0.0
  0
LWPOLYLINE
  5
16e
100
AcDbEntity
  8
Layer_1
 62
7
100
AcDbPolyline
 90
2
 70
0
 10
0.583914
 20
6.213209
 30
0.0
 10
0.573634
 20
5.639547
 30
0.0
  0
SPLINE
  5
16f
100
AcDbEntity
  8
Layer_1
 62
7
100
AcDbSpline
 70
8
 71
3
 72
8
 73
4
 74
0
 40
0
 40
0
 40
0
 40
0
 40
1
 40
1
 40
1
 40
1
 10
13.310445
 20
5.542089
 30
0.0
 10
13.258505
 20
5.483821
 30
0.0
 10
13.205256
 20
5.420531
 30
0.0
 10
13.150510
 20
5.351566
 30
0.0
  0
SPLINE
  5
170
100
AcDbEntity
  8
Layer_1
 62
7
100
AcDbSpline
 70
8
 71
3
 72
8
 73
4
 74
0
 40
0
 40
0
 40
0
 40
0
 40
1
 40
1
 40
1
 40
1
 10
13.150510
 20
5.351566
 30
0.0
 10
12.978604
 20
5.134302
 30
0.0
 10
12.909768
 20
4.922040
 30
0.0
 10
12.943974
 20
4.714805
 30
0.0
  0
SPLINE
  5
171
100
AcDbEntity
  8
Layer_1
 62
7
100
AcDbSpline
 70
8
 71
3
 72
8
 73
4
 74
0
 40
0
 40
0
 40
0
 40
0
 40
1
 40
1
 40
1
 40
1
 10
12.943974
 20
4.714805
 30
0.0
 10
12.977552
 20
4.511374
 30
0.0
 10
13.103989
 20
4.409947
 30
0.0
 10
13.323314
 20
4.410500
 30
0.0
  0
SPLINE
  5
172
100
AcDbEntity
  8
Layer_1
 62
7
100
AcDbSpline
 70
8
 71
3
 72
8
 73
4
 74
0
 40
0
 40
0
 40
0
 40
0
 40
1
 40
1
 40
1
 40
1
 10
13.323314
 20
4.410500
 30
0.0
 10
13.433944
 20
4.410776
 30
0.0
 10
13.505811
 20
4.451836
 30
0.0
 10
13.538896
 20
4.533707
 30
0.0
  0
SPLINE
  5
173
100
AcDbEntity
  8
Layer_1
 62
7
100
AcDbSpline
 70
8
 71
3
 72
8
 73
4
 74
0
 40
0
 40
0
 40
0
 40
0
 40
1
 40
1
 40
1
 40
1
 10
13.538896
 20
4.533707
 30
0.0
 10
13.630224
 20
4.745062
 30
0.0
 10
13.793048
 20
5.023176
 30
0.0
 10
14.027386
 20
5.368034
 30
0.0
  0
SPLINE
  5
174
100
AcDbEntity
  8
Layer_1
 62
7
100
AcDbSpline
 70
8
 71
3
 72
8
 73
4
 74
0
 40
0
 40
0
 40
0
 40
0
 40
1
 40
1
 40
1
 40
1
 10
14.027386
 20
5.368034
 30
0.0
 10
14.066556
 20
5.424672
 30
0.0
 10
14.108889
 20
5.480702
 30
0.0
 10
14.154013
 20
5.536209
 30
0.0
  0
LWPOLYLINE
  5
175
100
AcDbEntity
  8
Layer_1
 62
7
100
AcDbPolyline
 90
2
 70
0
 10
0.582383
 20
5.630556
 30
0.0
 10
13.310445
 20
5.542089
 30
0.0
  0
SPLINE
  5
176
100
AcDbEntity
  8
Layer_1
 62
7
100
AcDbSpline
 70
8
 71
3
 72
8
 73
4
 74
0
 40
0
 40
0
 40
0
 40
0
 40
1
 40
1
 40
1
 40
1
 10
19.011670
 20
5.502457
 30
0.0
 10
19.016617
 20
5.502421
 30
0.0
 10
19.020660
 20
5.506390
 30
0.0
 10
19.020752
 20
5.511331
 30
0.0
  0
LWPOLYLINE
  5
177
100
AcDbEntity
  8
Layer_1
 62
7
100
AcDbPolyline
 90
2
 70
0
 10
14.154013
 20
5.536209
 30
0.0
 10
19.011670
 20
5.502457
 30
0.0
  0
SPLINE
  5
178
100
AcDbEntity
  8
Layer_1
 62
7
100
AcDbSpline
 70
8
 71
3
 72
8
 73
4
 74
0
 40
0
 40
0
 40
0
 40
0
 40
1
 40
1
 40
1
 40
1
 10
19.031029
 20
6.084994
 30
0.0
 10
19.031147
 20
6.089934
 30
0.0
 10
19.027222
 20
6.093930
 30
0.0
 10
19.022280
 20
6.093964
 30
0.0
  0
LWPOLYLINE
  5
179
100
AcDbEntity
  8
Layer_1
 62
7
100
AcDbPolyline
 90
2
 70
0
 10
19.020752
 20
5.511331
 30
0.0
 10
19.031029
 20
6.084994
 30
0.0
  0
SPLINE
  5
17a
100
AcDbEntity
  8
Layer_1
 62
7
100
AcDbSpline
 70
8
 71
3
 72
8
 73
4
 74
0
 40
0
 40
0
 40
0
 40
0
 40
1
 40
1
 40
1
 40
1
 10
16.450436
 20
6.111856
 30
0.0
 10
16.698019
 20
6.185226
 30
0.0
 10
16.943348
 20
6.333591
 30
0.0
 10
17.186404
 20
6.557189
 30
0.0
  0
SPLINE
  5
17b
100
AcDbEntity
  8
Layer_1
 62
7
100
AcDbSpline
 70
8
 71
3
 72
8
 73
4
 74
0
 40
0
 40
0
 40
0
 40
0
 40
1
 40
1
 40
1
 40
1
 10
17.186404
 20
6.557189
 30
0.0
 10
17.241989
 20
6.608682
 30
0.0
 10
17.273734
 20
6.651543
 30
0.0
 10
17.281669
 20
6.685800
 30
0.0
  0
SPLINE
  5
17c
100
AcDbEntity
  8
Layer_1
 62
7
100
AcDbSpline
 70
8
 71
3
 72
8
 73
4
 74
0
 40
0
 40
0
 40
0
 40
0
 40
1
 40
1
 40
1
 40
1
 10
17.281669
 20
6.685800
 30
0.0
 10
17.289198
 20
6.721977
 30
0.0
 10
17.284015
 20
6.795180
 30
0.0
 10
17.265811
 20
6.905452
 30
0.0
  0
SPLINE
  5
17d
100
AcDbEntity
  8
Layer_1
 62
7
100
AcDbSpline
 70
8
 71
3
 72
8
 73
4
 74
0
 40
0
 40
0
 40
0
 40
0
 40
1
 40
1
 40
1
 40
1
 10
17.265811
 20
6.905452
 30
0.0
 10
17.247612
 20
7.015723
 30
0.0
 10
17.213281
 20
7.070800
 30
0.0
 10
17.162818
 20
7.070673
 30
0.0
  0
SPLINE
  5
17e
100
AcDbEntity
  8
Layer_1
 62
7
100
AcDbSpline
 70
8
 71
3
 72
8
 73
4
 74
0
 40
0
 40
0
 40
0
 40
0
 40
1
 40
1
 40
1
 40
1
 10
17.162818
 20
7.070673
 30
0.0
 10
17.147291
 20
7.070635
 30
0.0
 10
17.125727
 20
7.060119
 30
0.0
 10
17.098127
 20
7.039126
 30
0.0
  0
SPLINE
  5
17f
100
AcDbEntity
  8
Layer_1
 62
7
100
AcDbSpline
 70
8
 71
3
 72
8
 73
4
 74
0
 40
0
 40
0
 40
0
 40
0
 40
1
 40
1
 40
1
 40
1
 10
17.098127
 20
7.039126
 30
0.0
 10
17.072465
 20
7.018139
 30
0.0
 10
17.009910
 20
6.961862
 30
0.0
 10
16.910459
 20
6.870314
 30
0.0
  0
SPLINE
  5
180
100
AcDbEntity
  8
Layer_1
 62
7
100
AcDbSpline
 70
8
 71
3
 72
8
 73
4
 74
0
 40
0
 40
0
 40
0
 40
0
 40
1
 40
1
 40
1
 40
1
 10
16.910459
 20
6.870314
 30
0.0
 10
16.812637
 20
6.780672
 30
0.0
 10
16.700102
 20
6.691952
 30
0.0
 10
16.572849
 20
6.604137
 30
0.0
  0
SPLINE
  5
181
100
AcDbEntity
  8
Layer_1
 62
7
100
AcDbSpline
 70
8
 71
3
 72
8
 73
4
 74
0
 40
0
 40
0
 40
0
 40
0
 40
1
 40
1
 40
1
 40
1
 10
16.572849
 20
6.604137
 30
0.0
 10
16.422877
 20
6.501050
 30
0.0
 10
16.265389
 20
6.449295
 30
0.0
 10
16.100409
 20
6.448879
 30
0.0
  0
SPLINE
  5
182
100
AcDbEntity
  8
Layer_1
 62
7
100
AcDbSpline
 70
8
 71
3
 72
8
 73
4
 74
0
 40
0
 40
0
 40
0
 40
0
 40
1
 40
1
 40
1
 40
1
 10
16.100409
 20
6.448879
 30
0.0
 10
15.842270
 20
6.448229
 30
0.0
 10
15.700957
 20
6.522046
 30
0.0
 10
15.676481
 20
6.670342
 30
0.0
  0
SPLINE
  5
183
100
AcDbEntity
  8
Layer_1
 62
7
100
AcDbSpline
 70
8
 71
3
 72
8
 73
4
 74
0
 40
0
 40
0
 40
0
 40
0
 40
1
 40
1
 40
1
 40
1
 10
15.676481
 20
6.670342
 30
0.0
 10
15.662675
 20
6.753996
 30
0.0
 10
15.842037
 20
6.908505
 30
0.0
 10
16.214538
 20
7.133884
 30
0.0
  0
SPLINE
  5
184
100
AcDbEntity
  8
Layer_1
 62
7
100
AcDbSpline
 70
8
 71
3
 72
8
 73
4
 74
0
 40
0
 40
0
 40
0
 40
0
 40
1
 40
1
 40
1
 40
1
 10
16.214538
 20
7.133884
 30
0.0
 10
16.234006
 20
7.145345
 30
0.0
 10
16.274035
 20
7.161627
 30
0.0
 10
16.334632
 20
7.182702
 30
0.0
  0
SPLINE
  5
185
100
AcDbEntity
  8
Layer_1
 62
7
100
AcDbSpline
 70
8
 71
3
 72
8
 73
4
 74
0
 40
0
 40
0
 40
0
 40
0
 40
1
 40
1
 40
1
 40
1
 10
16.334632
 20
7.182702
 30
0.0
 10
16.394913
 20
7.205679
 30
0.0
 10
16.446835
 20
7.238147
 30
0.0
 10
16.490397
 20
7.280101
 30
0.0
  0
SPLINE
  5
186
100
AcDbEntity
  8
Layer_1
 62
7
100
AcDbSpline
 70
8
 71
3
 72
8
 73
4
 74
0
 40
0
 40
0
 40
0
 40
0
 40
1
 40
1
 40
1
 40
1
 10
16.490397
 20
7.280101
 30
0.0
 10
16.533954
 20
7.322056
 30
0.0
 10
16.553694
 20
7.355381
 30
0.0
 10
16.549614
 20
7.380097
 30
0.0
  0
SPLINE
  5
187
100
AcDbEntity
  8
Layer_1
 62
7
100
AcDbSpline
 70
8
 71
3
 72
8
 73
4
 74
0
 40
0
 40
0
 40
0
 40
0
 40
1
 40
1
 40
1
 40
1
 10
16.549614
 20
7.380097
 30
0.0
 10
16.545222
 20
7.406714
 30
0.0
 10
16.524865
 20
7.441859
 30
0.0
 10
16.488534
 20
7.485514
 30
0.0
  0
SPLINE
  5
188
100
AcDbEntity
  8
Layer_1
 62
7
100
AcDbSpline
 70
8
 71
3
 72
8
 73
4
 74
0
 40
0
 40
0
 40
0
 40
0
 40
1
 40
1
 40
1
 40
1
 10
16.488534
 20
7.485514
 30
0.0
 10
16.451887
 20
7.531070
 30
0.0
 10
16.419852
 20
7.560456
 30
0.0
 10
16.392428
 20
7.573700
 30
0.0
  0
SPLINE
  5
189
100
AcDbEntity
  8
Layer_1
 62
7
100
AcDbSpline
 70
8
 71
3
 72
8
 73
4
 74
0
 40
0
 40
0
 40
0
 40
0
 40
1
 40
1
 40
1
 40
1
 10
16.392428
 20
7.573700
 30
0.0
 10
16.380148
 20
7.577476
 30
0.0
 10
16.354606
 20
7.579317
 30
0.0
 10
16.315792
 20
7.579219
 30
0.0
  0
SPLINE
  5
18a
100
AcDbEntity
  8
Layer_1
 62
7
100
AcDbSpline
 70
8
 71
3
 72
8
 73
4
 74
0
 40
0
 40
0
 40
0
 40
0
 40
1
 40
1
 40
1
 40
1
 10
16.315792
 20
7.579219
 30
0.0
 10
16.278916
 20
7.579140
 30
0.0
 10
16.215590
 20
7.562793
 30
0.0
 10
16.125820
 20
7.530232
 30
0.0
  0
SPLINE
  5
18b
100
AcDbEntity
  8
Layer_1
 62
7
100
AcDbSpline
 70
8
 71
3
 72
8
 73
4
 74
0
 40
0
 40
0
 40
0
 40
0
 40
1
 40
1
 40
1
 40
1
 10
16.125820
 20
7.530232
 30
0.0
 10
16.035737
 20
7.499572
 30
0.0
 10
15.967391
 20
7.484202
 30
0.0
 10
15.920811
 20
7.484084
 30
0.0
  0
SPLINE
  5
18c
100
AcDbEntity
  8
Layer_1
 62
7
100
AcDbSpline
 70
8
 71
3
 72
8
 73
4
 74
0
 40
0
 40
0
 40
0
 40
0
 40
1
 40
1
 40
1
 40
1
 10
15.920811
 20
7.484084
 30
0.0
 10
15.876170
 20
7.483966
 30
0.0
 10
15.852594
 20
7.491513
 30
0.0
 10
15.850086
 20
7.506722
 30
0.0
  0
SPLINE
  5
18d
100
AcDbEntity
  8
Layer_1
 62
7
100
AcDbSpline
 70
8
 71
3
 72
8
 73
4
 74
0
 40
0
 40
0
 40
0
 40
0
 40
1
 40
1
 40
1
 40
1
 10
15.850086
 20
7.506722
 30
0.0
 10
15.842552
 20
7.552352
 30
0.0
 10
15.893214
 20
7.621909
 30
0.0
 10
16.002057
 20
7.715383
 30
0.0
  0
SPLINE
  5
18e
100
AcDbEntity
  8
Layer_1
 62
7
100
AcDbSpline
 70
8
 71
3
 72
8
 73
4
 74
0
 40
0
 40
0
 40
0
 40
0
 40
1
 40
1
 40
1
 40
1
 10
16.002057
 20
7.715383
 30
0.0
 10
16.110896
 20
7.808857
 30
0.0
 10
16.204099
 20
7.879450
 30
0.0
 10
16.281652
 20
7.927197
 30
0.0
  0
SPLINE
  5
18f
100
AcDbEntity
  8
Layer_1
 62
7
100
AcDbSpline
 70
8
 71
3
 72
8
 73
4
 74
0
 40
0
 40
0
 40
0
 40
0
 40
1
 40
1
 40
1
 40
1
 10
16.281652
 20
7.927197
 30
0.0
 10
16.359209
 20
7.974943
 30
0.0
 10
16.431025
 20
8.010331
 30
0.0
 10
16.497130
 20
8.033322
 30
0.0
  0
SPLINE
  5
190
100
AcDbEntity
  8
Layer_1
 62
7
100
AcDbSpline
 70
8
 71
3
 72
8
 73
4
 74
0
 40
0
 40
0
 40
0
 40
0
 40
1
 40
1
 40
1
 40
1
 10
16.497130
 20
8.033322
 30
0.0
 10
16.494374
 20
8.002886
 30
0.0
 10
16.495689
 20
7.971505
 30
0.0
 10
16.501019
 20
7.939184
 30
0.0
  0
SPLINE
  5
191
100
AcDbEntity
  8
Layer_1
 62
7
100
AcDbSpline
 70
8
 71
3
 72
8
 73
4
 74
0
 40
0
 40
0
 40
0
 40
0
 40
1
 40
1
 40
1
 40
1
 10
16.501019
 20
7.939184
 30
0.0
 10
16.506352
 20
7.906864
 30
0.0
 10
16.517556
 20
7.880259
 30
0.0
 10
16.534595
 20
7.859379
 30
0.0
  0
SPLINE
  5
192
100
AcDbEntity
  8
Layer_1
 62
7
100
AcDbSpline
 70
8
 71
3
 72
8
 73
4
 74
0
 40
0
 40
0
 40
0
 40
0
 40
1
 40
1
 40
1
 40
1
 10
16.534595
 20
7.859379
 30
0.0
 10
16.551319
 20
7.840401
 30
0.0
 10
16.581033
 20
7.830951
 30
0.0
 10
16.623731
 20
7.831059
 30
0.0
  0
SPLINE
  5
193
100
AcDbEntity
  8
Layer_1
 62
7
100
AcDbSpline
 70
8
 71
3
 72
8
 73
4
 74
0
 40
0
 40
0
 40
0
 40
0
 40
1
 40
1
 40
1
 40
1
 10
16.623731
 20
7.831059
 30
0.0
 10
16.755709
 20
7.831394
 30
0.0
 10
16.865274
 20
7.879223
 30
0.0
 10
16.952448
 20
7.974545
 30
0.0
  0
SPLINE
  5
194
100
AcDbEntity
  8
Layer_1
 62
7
100
AcDbSpline
 70
8
 71
3
 72
8
 73
4
 74
0
 40
0
 40
0
 40
0
 40
0
 40
1
 40
1
 40
1
 40
1
 10
16.952448
 20
7.974545
 30
0.0
 10
17.041570
 20
8.069871
 30
0.0
 10
17.075785
 20
8.180275
 30
0.0
 10
17.055073
 20
8.305757
 30
0.0
  0
SPLINE
  5
195
100
AcDbEntity
  8
Layer_1
 62
7
100
AcDbSpline
 70
8
 71
3
 72
8
 73
4
 74
0
 40
0
 40
0
 40
0
 40
0
 40
1
 40
1
 40
1
 40
1
 10
17.055073
 20
8.305757
 30
0.0
 10
17.045972
 20
8.360893
 30
0.0
 10
17.005911
 20
8.403591
 30
0.0
 10
16.934893
 20
8.433845
 30
0.0
  0
SPLINE
  5
196
100
AcDbEntity
  8
Layer_1
 62
7
100
AcDbSpline
 70
8
 71
3
 72
8
 73
4
 74
0
 40
0
 40
0
 40
0
 40
0
 40
1
 40
1
 40
1
 40
1
 10
16.934893
 20
8.433845
 30
0.0
 10
16.863887
 20
8.464098
 30
0.0
 10
16.796370
 20
8.479142
 30
0.0
 10
16.732320
 20
8.478980
 30
0.0
  0
SPLINE
  5
197
100
AcDbEntity
  8
Layer_1
 62
7
100
AcDbSpline
 70
8
 71
3
 72
8
 73
4
 74
0
 40
0
 40
0
 40
0
 40
0
 40
1
 40
1
 40
1
 40
1
 10
16.732320
 20
8.478980
 30
0.0
 10
16.464475
 20
8.478304
 30
0.0
 10
16.174660
 20
8.387233
 30
0.0
 10
15.862870
 20
8.205755
 30
0.0
  0
SPLINE
  5
198
100
AcDbEntity
  8
Layer_1
 62
7
100
AcDbSpline
 70
8
 71
3
 72
8
 73
4
 74
0
 40
0
 40
0
 40
0
 40
0
 40
1
 40
1
 40
1
 40
1
 10
15.862870
 20
8.205755
 30
0.0
 10
15.722721
 20
8.125515
 30
0.0
 10
15.609624
 20
8.022516
 30
0.0
 10
15.523584
 20
7.896766
 30
0.0
  0
SPLINE
  5
199
100
AcDbEntity
  8
Layer_1
 62
7
100
AcDbSpline
 70
8
 71
3
 72
8
 73
4
 74
0
 40
0
 40
0
 40
0
 40
0
 40
1
 40
1
 40
1
 40
1
 10
15.523584
 20
7.896766
 30
0.0
 10
15.439172
 20
7.772921
 30
0.0
 10
15.406217
 20
7.654913
 30
0.0
 10
15.424732
 20
7.542741
 30
0.0
  0
SPLINE
  5
19a
100
AcDbEntity
  8
Layer_1
 62
7
100
AcDbSpline
 70
8
 71
3
 72
8
 73
4
 74
0
 40
0
 40
0
 40
0
 40
0
 40
1
 40
1
 40
1
 40
1
 10
15.424732
 20
7.542741
 30
0.0
 10
15.442931
 20
7.432470
 30
0.0
 10
15.466934
 20
7.351685
 30
0.0
 10
15.496756
 20
7.300405
 30
0.0
  0
SPLINE
  5
19b
100
AcDbEntity
  8
Layer_1
 62
7
100
AcDbSpline
 70
8
 71
3
 72
8
 73
4
 74
0
 40
0
 40
0
 40
0
 40
0
 40
1
 40
1
 40
1
 40
1
 10
15.496756
 20
7.300405
 30
0.0
 10
15.526266
 20
7.251027
 30
0.0
 10
15.580576
 20
7.210271
 30
0.0
 10
15.659669
 20
7.178135
 30
0.0
  0
SPLINE
  5
19c
100
AcDbEntity
  8
Layer_1
 62
7
100
AcDbSpline
 70
8
 71
3
 72
8
 73
4
 74
0
 40
0
 40
0
 40
0
 40
0
 40
1
 40
1
 40
1
 40
1
 10
15.659669
 20
7.178135
 30
0.0
 10
15.565717
 20
7.141485
 30
0.0
 10
15.486139
 20
7.100202
 30
0.0
 10
15.420667
 20
7.054359
 30
0.0
  0
SPLINE
  5
19d
100
AcDbEntity
  8
Layer_1
 62
7
100
AcDbSpline
 70
8
 71
3
 72
8
 73
4
 74
0
 40
0
 40
0
 40
0
 40
0
 40
1
 40
1
 40
1
 40
1
 10
15.420667
 20
7.054359
 30
0.0
 10
15.418770
 20
7.054516
 30
0.0
 10
15.416943
 20
7.054811
 30
0.0
 10
15.414964
 20
7.054819
 30
0.0
  0
SPLINE
  5
19e
100
AcDbEntity
  8
Layer_1
 62
7
100
AcDbSpline
 70
8
 71
3
 72
8
 73
4
 74
0
 40
0
 40
0
 40
0
 40
0
 40
1
 40
1
 40
1
 40
1
 10
15.414964
 20
7.054819
 30
0.0
 10
15.393616
 20
7.054780
 30
0.0
 10
15.372245
 20
7.049022
 30
0.0
 10
15.350837
 20
7.037556
 30
0.0
  0
SPLINE
  5
19f
100
AcDbEntity
  8
Layer_1
 62
7
100
AcDbSpline
 70
8
 71
3
 72
8
 73
4
 74
0
 40
0
 40
0
 40
0
 40
0
 40
1
 40
1
 40
1
 40
1
 10
15.350837
 20
7.037556
 30
0.0
 10
15.014816
 20
6.861722
 30
0.0
 10
14.648940
 20
6.572635
 30
0.0
 10
14.253222
 20
6.170309
 30
0.0
  0
SPLINE
  5
1a0
100
AcDbEntity
  8
Layer_1
 62
7
100
AcDbSpline
 70
8
 71
3
 72
8
 73
4
 74
0
 40
0
 40
0
 40
0
 40
0
 40
1
 40
1
 40
1
 40
1
 10
14.253222
 20
6.170309
 30
0.0
 10
14.574167
 20
6.943341
 30
0.0
 10
14.899358
 20
7.631751
 30
0.0
 10
15.228822
 20
8.235524
 30
0.0
  0
SPLINE
  5
1a1
100
AcDbEntity
  8
Layer_1
 62
7
100
AcDbSpline
 70
8
 71
3
 72
8
 73
4
 74
0
 40
0
 40
0
 40
0
 40
0
 40
1
 40
1
 40
1
 40
1
 10
15.228822
 20
8.235524
 30
0.0
 10
15.230464
 20
8.237426
 30
0.0
 10
15.236152
 20
8.244095
 30
0.0
 10
15.245915
 20
8.255532
 30
0.0
  0
SPLINE
  5
1a2
100
AcDbEntity
  8
Layer_1
 62
7
100
AcDbSpline
 70
8
 71
3
 72
8
 73
4
 74
0
 40
0
 40
0
 40
0
 40
0
 40
1
 40
1
 40
1
 40
1
 10
15.245915
 20
8.255532
 30
0.0
 10
15.257618
 20
8.266974
 30
0.0
 10
15.267384
 20
8.278402
 30
0.0
 10
15.275205
 20
8.289834
 30
0.0
  0
SPLINE
  5
1a3
100
AcDbEntity
  8
Layer_1
 62
7
100
AcDbSpline
 70
8
 71
3
 72
8
 73
4
 74
0
 40
0
 40
0
 40
0
 40
0
 40
1
 40
1
 40
1
 40
1
 10
15.275205
 20
8.289834
 30
0.0
 10
15.282724
 20
8.303165
 30
0.0
 10
15.285852
 20
8.313649
 30
0.0
 10
15.284600
 20
8.321253
 30
0.0
  0
SPLINE
  5
1a4
100
AcDbEntity
  8
Layer_1
 62
7
100
AcDbSpline
 70
8
 71
3
 72
8
 73
4
 74
0
 40
0
 40
0
 40
0
 40
0
 40
1
 40
1
 40
1
 40
1
 10
15.284600
 20
8.321253
 30
0.0
 10
15.283041
 20
8.330757
 30
0.0
 10
15.280970
 20
8.337406
 30
0.0
 10
15.278405
 20
8.341204
 30
0.0
  0
SPLINE
  5
1a5
100
AcDbEntity
  8
Layer_1
 62
7
100
AcDbSpline
 70
8
 71
3
 72
8
 73
4
 74
0
 40
0
 40
0
 40
0
 40
0
 40
1
 40
1
 40
1
 40
1
 10
15.278405
 20
8.341204
 30
0.0
 10
15.275857
 20
8.344999
 30
0.0
 10
15.266867
 20
8.363995
 30
0.0
 10
15.251508
 20
8.398193
 30
0.0
  0
SPLINE
  5
1a6
100
AcDbEntity
  8
Layer_1
 62
7
100
AcDbSpline
 70
8
 71
3
 72
8
 73
4
 74
0
 40
0
 40
0
 40
0
 40
0
 40
1
 40
1
 40
1
 40
1
 10
15.251508
 20
8.398193
 30
0.0
 10
15.236159
 20
8.432391
 30
0.0
 10
15.221724
 20
8.455181
 30
0.0
 10
15.208196
 20
8.466559
 30
0.0
  0
SPLINE
  5
1a7
100
AcDbEntity
  8
Layer_1
 62
7
100
AcDbSpline
 70
8
 71
3
 72
8
 73
4
 74
0
 40
0
 40
0
 40
0
 40
0
 40
1
 40
1
 40
1
 40
1
 10
15.208196
 20
8.466559
 30
0.0
 10
15.201275
 20
8.473204
 30
0.0
 10
15.190024
 20
8.478171
 30
0.0
 10
15.174434
 20
8.481462
 30
0.0
  0
SPLINE
  5
1a8
100
AcDbEntity
  8
Layer_1
 62
7
100
AcDbSpline
 70
8
 71
3
 72
8
 73
4
 74
0
 40
0
 40
0
 40
0
 40
0
 40
1
 40
1
 40
1
 40
1
 10
15.174434
 20
8.481462
 30
0.0
 10
15.158840
 20
8.484748
 30
0.0
 10
15.138915
 20
8.486362
 30
0.0
 10
15.114654
 20
8.486299
 30
0.0
  0
SPLINE
  5
1a9
100
AcDbEntity
  8
Layer_1
 62
7
100
AcDbSpline
 70
8
 71
3
 72
8
 73
4
 74
0
 40
0
 40
0
 40
0
 40
0
 40
1
 40
1
 40
1
 40
1
 10
15.114654
 20
8.486299
 30
0.0
 10
15.066131
 20
8.486177
 30
0.0
 10
15.025525
 20
8.485125
 30
0.0
 10
14.992844
 20
8.483140
 30
0.0
  0
SPLINE
  5
1aa
100
AcDbEntity
  8
Layer_1
 62
7
100
AcDbSpline
 70
8
 71
3
 72
8
 73
4
 74
0
 40
0
 40
0
 40
0
 40
0
 40
1
 40
1
 40
1
 40
1
 10
14.992844
 20
8.483140
 30
0.0
 10
14.881215
 20
8.477153
 30
0.0
 10
14.793211
 20
8.435248
 30
0.0
 10
14.731636
 20
8.349502
 30
0.0
  0
SPLINE
  5
1ab
100
AcDbEntity
  8
Layer_1
 62
7
100
AcDbSpline
 70
8
 71
3
 72
8
 73
4
 74
0
 40
0
 40
0
 40
0
 40
0
 40
1
 40
1
 40
1
 40
1
 10
14.731636
 20
8.349502
 30
0.0
 10
14.687971
 20
8.285645
 30
0.0
 10
14.632040
 20
8.204024
 30
0.0
 10
14.584308
 20
8.134285
 30
0.0
  0
SPLINE
  5
1ac
100
AcDbEntity
  8
Layer_1
 62
7
100
AcDbSpline
 70
8
 71
3
 72
8
 73
4
 74
0
 40
0
 40
0
 40
0
 40
0
 40
1
 40
1
 40
1
 40
1
 10
14.584308
 20
8.134285
 30
0.0
 10
14.337567
 20
7.783478
 30
0.0
 10
14.064804
 20
7.362903
 30
0.0
 10
13.788108
 20
7.065006
 30
0.0
  0
SPLINE
  5
1ad
100
AcDbEntity
  8
Layer_1
 62
7
100
AcDbSpline
 70
8
 71
3
 72
8
 73
4
 74
0
 40
0
 40
0
 40
0
 40
0
 40
1
 40
1
 40
1
 40
1
 10
13.788108
 20
7.065006
 30
0.0
 10
13.649941
 20
6.923731
 30
0.0
 10
13.563454
 20
6.800687
 30
0.0
 10
13.421723
 20
6.683403
 30
0.0
  0
SPLINE
  5
1ae
100
AcDbEntity
  8
Layer_1
 62
7
100
AcDbSpline
 70
8
 71
3
 72
8
 73
4
 74
0
 40
0
 40
0
 40
0
 40
0
 40
1
 40
1
 40
1
 40
1
 10
13.421723
 20
6.683403
 30
0.0
 10
13.426364
 20
6.663173
 30
0.0
 10
13.251157
 20
6.668141
 30
0.0
 10
13.219344
 20
6.725547
 30
0.0
  0
SPLINE
  5
1af
100
AcDbEntity
  8
Layer_1
 62
7
100
AcDbSpline
 70
8
 71
3
 72
8
 73
4
 74
0
 40
0
 40
0
 40
0
 40
0
 40
1
 40
1
 40
1
 40
1
 10
13.219344
 20
6.725547
 30
0.0
 10
13.182332
 20
6.792343
 30
0.0
 10
13.173343
 20
6.812331
 30
0.0
 10
13.161224
 20
6.872521
 30
0.0
  0
SPLINE
  5
1b0
100
AcDbEntity
  8
Layer_1
 62
7
100
AcDbSpline
 70
8
 71
3
 72
8
 73
4
 74
0
 40
0
 40
0
 40
0
 40
0
 40
1
 40
1
 40
1
 40
1
 10
13.161224
 20
6.872521
 30
0.0
 10
13.150824
 20
6.924184
 30
0.0
 10
13.195256
 20
7.031992
 30
0.0
 10
13.195256
 20
7.031992
 30
0.0
  0
SPLINE
  5
1b1
100
AcDbEntity
  8
Layer_1
 62
7
100
AcDbSpline
 70
8
 71
3
 72
8
 73
4
 74
0
 40
0
 40
0
 40
0
 40
0
 40
1
 40
1
 40
1
 40
1
 10
13.195256
 20
7.031992
 30
0.0
 10
13.265671
 20
7.233317
 30
0.0
 10
13.452446
 20
7.402769
 30
0.0
 10
13.575109
 20
7.543765
 30
0.0
  0
SPLINE
  5
1b2
100
AcDbEntity
  8
Layer_1
 62
7
100
AcDbSpline
 70
8
 71
3
 72
8
 73
4
 74
0
 40
0
 40
0
 40
0
 40
0
 40
1
 40
1
 40
1
 40
1
 10
13.575109
 20
7.543765
 30
0.0
 10
13.682498
 20
7.669569
 30
0.0
 10
13.826223
 20
7.786910
 30
0.0
 10
14.006308
 20
7.895780
 30
0.0
  0
SPLINE
  5
1b3
100
AcDbEntity
  8
Layer_1
 62
7
100
AcDbSpline
 70
8
 71
3
 72
8
 73
4
 74
0
 40
0
 40
0
 40
0
 40
0
 40
1
 40
1
 40
1
 40
1
 10
14.006308
 20
7.895780
 30
0.0
 10
14.078492
 20
7.940258
 30
0.0
 10
14.153773
 20
7.979597
 30
0.0
 10
14.232006
 20
8.013971
 30
0.0
  0
LWPOLYLINE
  5
1b4
100
AcDbEntity
  8
Layer_1
 62
7
100
AcDbPolyline
 90
2
 70
0
 10
19.022280
 20
6.093964
 30
0.0
 10
16.450436
 20
6.111856
 30
0.0
  0
SPLINE
  5
1b5
100
AcDbEntity
  8
Layer_1
 62
7
100
AcDbSpline
 70
8
 71
3
 72
8
 73
4
 74
0
 40
0
 40
0
 40
0
 40
0
 40
1
 40
1
 40
1
 40
1
 10
14.496876
 20
8.392438
 30
0.0
 10
14.525112
 20
8.457168
 30
0.0
 10
14.482378
 20
8.456172
 30
0.0
 10
14.461400
 20
8.456119
 30
0.0
  0
SPLINE
  5
1b6
100
AcDbEntity
  8
Layer_1
 62
7
100
AcDbSpline
 70
8
 71
3
 72
8
 73
4
 74
0
 40
0
 40
0
 40
0
 40
0
 40
1
 40
1
 40
1
 40
1
 10
14.461400
 20
8.456119
 30
0.0
 10
14.329417
 20
8.455788
 30
0.0
 10
14.178822
 20
8.421175
 30
0.0
 10
14.009615
 20
8.352275
 30
0.0
  0
SPLINE
  5
1b7
100
AcDbEntity
  8
Layer_1
 62
7
100
AcDbSpline
 70
8
 71
3
 72
8
 73
4
 74
0
 40
0
 40
0
 40
0
 40
0
 40
1
 40
1
 40
1
 40
1
 10
14.009615
 20
8.352275
 30
0.0
 10
13.840410
 20
8.283375
 30
0.0
 10
13.672172
 20
8.184996
 30
0.0
 10
13.504925
 20
8.057139
 30
0.0
  0
LWPOLYLINE
  5
1b8
100
AcDbEntity
  8
Layer_1
 62
7
100
AcDbPolyline
 90
2
 70
0
 10
14.232006
 20
8.013971
 30
0.0
 10
14.496876
 20
8.392438
 30
0.0
  0
SPLINE
  5
1b9
100
AcDbEntity
  8
Layer_1
 62
7
100
AcDbSpline
 70
8
 71
3
 72
8
 73
4
 74
0
 40
0
 40
0
 40
0
 40
0
 40
1
 40
1
 40
1
 40
1
 10
13.504920
 20
8.057119
 30
0.0
 10
13.339307
 20
7.931167
 30
0.0
 10
13.189132
 20
7.788148
 30
0.0
 10
13.054400
 20
7.628038
 30
0.0
  0
SPLINE
  5
1ba
100
AcDbEntity
  8
Layer_1
 62
7
100
AcDbSpline
 70
8
 71
3
 72
8
 73
4
 74
0
 40
0
 40
0
 40
0
 40
0
 40
1
 40
1
 40
1
 40
1
 10
13.054400
 20
7.628038
 30
0.0
 10
12.919347
 20
7.469829
 30
0.0
 10
12.817031
 20
7.289823
 30
0.0
 10
12.747430
 20
7.088033
 30
0.0
  0
SPLINE
  5
1bb
100
AcDbEntity
  8
Layer_1
 62
7
100
AcDbSpline
 70
8
 71
3
 72
8
 73
4
 74
0
 40
0
 40
0
 40
0
 40
0
 40
1
 40
1
 40
1
 40
1
 10
12.747430
 20
7.088033
 30
0.0
 10
12.679011
 20
6.889674
 30
0.0
 10
12.660116
 20
6.693287
 30
0.0
 10
12.690487
 20
6.498854
 30
0.0
  0
SPLINE
  5
1bc
100
AcDbEntity
  8
Layer_1
 62
7
100
AcDbSpline
 70
8
 71
3
 72
8
 73
4
 74
0
 40
0
 40
0
 40
0
 40
0
 40
1
 40
1
 40
1
 40
1
 10
12.690487
 20
6.498854
 30
0.0
 10
12.635231
 20
6.466611
 30
0.0
 10
12.583241
 20
6.450178
 30
0.0
 10
12.534584
 20
6.449925
 30
0.0
  0
SPLINE
  5
1bd
100
AcDbEntity
  8
Layer_1
 62
7
100
AcDbSpline
 70
8
 71
3
 72
8
 73
4
 74
0
 40
0
 40
0
 40
0
 40
0
 40
1
 40
1
 40
1
 40
1
 10
12.534584
 20
6.449925
 30
0.0
 10
12.471589
 20
6.449610
 30
0.0
 10
12.428263
 20
6.501978
 30
0.0
 10
12.404623
 20
6.607085
 30
0.0
  0
SPLINE
  5
1be
100
AcDbEntity
  8
Layer_1
 62
7
100
AcDbSpline
 70
8
 71
3
 72
8
 73
4
 74
0
 40
0
 40
0
 40
0
 40
0
 40
1
 40
1
 40
1
 40
1
 10
12.404623
 20
6.607085
 30
0.0
 10
12.396884
 20
6.641484
 30
0.0
 10
12.394028
 20
6.668262
 30
0.0
 10
12.396030
 20
6.687406
 30
0.0
  0
SPLINE
  5
1bf
100
AcDbEntity
  8
Layer_1
 62
7
100
AcDbSpline
 70
8
 71
3
 72
8
 73
4
 74
0
 40
0
 40
0
 40
0
 40
0
 40
1
 40
1
 40
1
 40
1
 10
12.396030
 20
6.687406
 30
0.0
 10
12.392711
 20
6.842364
 30
0.0
 10
12.420080
 20
7.029044
 30
0.0
 10
12.478165
 20
7.247463
 30
0.0
  0
SPLINE
  5
1c0
100
AcDbEntity
  8
Layer_1
 62
7
100
AcDbSpline
 70
8
 71
3
 72
8
 73
4
 74
0
 40
0
 40
0
 40
0
 40
0
 40
1
 40
1
 40
1
 40
1
 10
12.478165
 20
7.247463
 30
0.0
 10
12.537920
 20
7.467803
 30
0.0
 10
12.596204
 20
7.647963
 30
0.0
 10
12.653020
 20
7.787930
 30
0.0
  0
SPLINE
  5
1c1
100
AcDbEntity
  8
Layer_1
 62
7
100
AcDbSpline
 70
8
 71
3
 72
8
 73
4
 74
0
 40
0
 40
0
 40
0
 40
0
 40
1
 40
1
 40
1
 40
1
 10
12.653020
 20
7.787930
 30
0.0
 10
12.711502
 20
7.929819
 30
0.0
 10
12.751613
 20
8.013254
 30
0.0
 10
12.773322
 20
8.038240
 30
0.0
  0
SPLINE
  5
1c2
100
AcDbEntity
  8
Layer_1
 62
7
100
AcDbSpline
 70
8
 71
3
 72
8
 73
4
 74
0
 40
0
 40
0
 40
0
 40
0
 40
1
 40
1
 40
1
 40
1
 10
12.773322
 20
8.038240
 30
0.0
 10
12.795034
 20
8.063225
 30
0.0
 10
12.799869
 20
8.102469
 30
0.0
 10
12.787834
 20
8.155978
 30
0.0
  0
SPLINE
  5
1c3
100
AcDbEntity
  8
Layer_1
 62
7
100
AcDbSpline
 70
8
 71
3
 72
8
 73
4
 74
0
 40
0
 40
0
 40
0
 40
0
 40
1
 40
1
 40
1
 40
1
 10
12.787834
 20
8.155978
 30
0.0
 10
12.771068
 20
8.230510
 30
0.0
 10
12.715703
 20
8.276850
 30
0.0
 10
12.621741
 20
8.295015
 30
0.0
  0
SPLINE
  5
1c4
100
AcDbEntity
  8
Layer_1
 62
7
100
AcDbSpline
 70
8
 71
3
 72
8
 73
4
 74
0
 40
0
 40
0
 40
0
 40
0
 40
1
 40
1
 40
1
 40
1
 10
12.621741
 20
8.295015
 30
0.0
 10
12.590423
 20
8.301067
 30
0.0
 10
12.554799
 20
8.303994
 30
0.0
 10
12.514904
 20
8.303786
 30
0.0
  0
SPLINE
  5
1c5
100
AcDbEntity
  8
Layer_1
 62
7
100
AcDbSpline
 70
8
 71
3
 72
8
 73
4
 74
0
 40
0
 40
0
 40
0
 40
0
 40
1
 40
1
 40
1
 40
1
 10
12.514904
 20
8.303786
 30
0.0
 10
12.445609
 20
8.303424
 30
0.0
 10
12.395280
 20
8.293607
 30
0.0
 10
12.363883
 20
8.274310
 30
0.0
  0
SPLINE
  5
1c6
100
AcDbEntity
  8
Layer_1
 62
7
100
AcDbSpline
 70
8
 71
3
 72
8
 73
4
 74
0
 40
0
 40
0
 40
0
 40
0
 40
1
 40
1
 40
1
 40
1
 10
12.363883
 20
8.274310
 30
0.0
 10
12.334152
 20
8.256936
 30
0.0
 10
12.306722
 20
8.208309
 30
0.0
 10
12.266902
 20
8.144643
 30
0.0
  0
LWPOLYLINE
  5
1c7
100
AcDbEntity
  8
Layer_1
 62
7
100
AcDbPolyline
 90
1
 70
1
 10
13.504925
 20
8.057139
 30
0.0
  0
SPLINE
  5
1c8
100
AcDbEntity
  8
Layer_1
 62
7
100
AcDbSpline
 70
8
 71
3
 72
8
 73
4
 74
0
 40
0
 40
0
 40
0
 40
0
 40
1
 40
1
 40
1
 40
1
 10
12.167576
 20
7.983420
 30
0.0
 10
11.962378
 20
7.624564
 30
0.0
 10
11.823946
 20
7.389465
 30
0.0
 10
11.752284
 20
7.278120
 30
0.0
  0
SPLINE
  5
1c9
100
AcDbEntity
  8
Layer_1
 62
7
100
AcDbSpline
 70
8
 71
3
 72
8
 73
4
 74
0
 40
0
 40
0
 40
0
 40
0
 40
1
 40
1
 40
1
 40
1
 10
11.752284
 20
7.278120
 30
0.0
 10
11.686445
 20
7.178285
 30
0.0
 10
11.542997
 20
7.021589
 30
0.0
 10
11.321926
 20
6.808060
 30
0.0
  0
SPLINE
  5
1ca
100
AcDbEntity
  8
Layer_1
 62
7
100
AcDbSpline
 70
8
 71
3
 72
8
 73
4
 74
0
 40
0
 40
0
 40
0
 40
0
 40
1
 40
1
 40
1
 40
1
 10
11.321926
 20
6.808060
 30
0.0
 10
11.100432
 20
6.596440
 30
0.0
 10
10.960282
 20
6.490480
 30
0.0
 10
10.901486
 20
6.490172
 30
0.0
  0
SPLINE
  5
1cb
100
AcDbEntity
  8
Layer_1
 62
7
100
AcDbSpline
 70
8
 71
3
 72
8
 73
4
 74
0
 40
0
 40
0
 40
0
 40
0
 40
1
 40
1
 40
1
 40
1
 10
10.901486
 20
6.490172
 30
0.0
 10
10.859489
 20
6.489936
 30
0.0
 10
10.830966
 20
6.523284
 30
0.0
 10
10.815922
 20
6.590171
 30
0.0
  0
SPLINE
  5
1cc
100
AcDbEntity
  8
Layer_1
 62
7
100
AcDbSpline
 70
8
 71
3
 72
8
 73
4
 74
0
 40
0
 40
0
 40
0
 40
0
 40
1
 40
1
 40
1
 40
1
 10
10.815922
 20
6.590171
 30
0.0
 10
10.800877
 20
6.657058
 30
0.0
 10
10.829636
 20
6.781568
 30
0.0
 10
10.902191
 20
6.963709
 30
0.0
  0
SPLINE
  5
1cd
100
AcDbEntity
  8
Layer_1
 62
7
100
AcDbSpline
 70
8
 71
3
 72
8
 73
4
 74
0
 40
0
 40
0
 40
0
 40
0
 40
1
 40
1
 40
1
 40
1
 10
10.902191
 20
6.963709
 30
0.0
 10
10.976847
 20
7.145862
 30
0.0
 10
11.067802
 20
7.302281
 30
0.0
 10
11.175060
 20
7.432946
 30
0.0
  0
SPLINE
  5
1ce
100
AcDbEntity
  8
Layer_1
 62
7
100
AcDbSpline
 70
8
 71
3
 72
8
 73
4
 74
0
 40
0
 40
0
 40
0
 40
0
 40
1
 40
1
 40
1
 40
1
 10
11.175060
 20
7.432946
 30
0.0
 10
11.395299
 20
7.698680
 30
0.0
 10
11.630500
 20
7.868096
 30
0.0
 10
11.880658
 20
7.941415
 30
0.0
  0
LWPOLYLINE
  5
1cf
100
AcDbEntity
  8
Layer_1
 62
7
100
AcDbPolyline
 90
2
 70
0
 10
12.266902
 20
8.144643
 30
0.0
 10
12.167576
 20
7.983420
 30
0.0
  0
SPLINE
  5
1d0
100
AcDbEntity
  8
Layer_1
 62
7
100
AcDbSpline
 70
8
 71
3
 72
8
 73
4
 74
0
 40
0
 40
0
 40
0
 40
0
 40
1
 40
1
 40
1
 40
1
 10
12.072512
 20
8.273609
 30
0.0
 10
12.089022
 20
8.312684
 30
0.0
 10
11.918050
 20
8.323628
 30
0.0
 10
11.813651
 20
8.323083
 30
0.0
  0
SPLINE
  5
1d1
100
AcDbEntity
  8
Layer_1
 62
7
100
AcDbSpline
 70
8
 71
3
 72
8
 73
4
 74
0
 40
0
 40
0
 40
0
 40
0
 40
1
 40
1
 40
1
 40
1
 10
11.813651
 20
8.323083
 30
0.0
 10
11.519673
 20
8.321547
 30
0.0
 10
11.226331
 20
8.195663
 30
0.0
 10
10.933641
 20
7.945407
 30
0.0
  0
SPLINE
  5
1d2
100
AcDbEntity
  8
Layer_1
 62
7
100
AcDbSpline
 70
8
 71
3
 72
8
 73
4
 74
0
 40
0
 40
0
 40
0
 40
0
 40
1
 40
1
 40
1
 40
1
 10
10.933641
 20
7.945407
 30
0.0
 10
10.794402
 20
7.826055
 30
0.0
 10
10.671841
 20
7.693393
 30
0.0
 10
10.565919
 20
7.547430
 30
0.0
  0
SPLINE
  5
1d3
100
AcDbEntity
  8
Layer_1
 62
7
100
AcDbSpline
 70
8
 71
3
 72
8
 73
4
 74
0
 40
0
 40
0
 40
0
 40
0
 40
1
 40
1
 40
1
 40
1
 10
10.565919
 20
7.547430
 30
0.0
 10
10.459570
 20
7.403377
 30
0.0
 10
10.383118
 20
7.243218
 30
0.0
 10
10.336574
 20
7.066952
 30
0.0
  0
SPLINE
  5
1d4
100
AcDbEntity
  8
Layer_1
 62
7
100
AcDbSpline
 70
8
 71
3
 72
8
 73
4
 74
0
 40
0
 40
0
 40
0
 40
0
 40
1
 40
1
 40
1
 40
1
 10
10.336574
 20
7.066952
 30
0.0
 10
10.320270
 20
7.003692
 30
0.0
 10
10.309602
 20
6.940458
 30
0.0
 10
10.304380
 20
6.877250
 30
0.0
  0
SPLINE
  5
1d5
100
AcDbEntity
  8
Layer_1
 62
7
100
AcDbSpline
 70
8
 71
3
 72
8
 73
4
 74
0
 40
0
 40
0
 40
0
 40
0
 40
1
 40
1
 40
1
 40
1
 10
10.304380
 20
6.877250
 30
0.0
 10
10.272129
 20
6.844927
 30
0.0
 10
10.236685
 20
6.809014
 30
0.0
 10
10.196457
 20
6.767774
 30
0.0
  0
SPLINE
  5
1d6
100
AcDbEntity
  8
Layer_1
 62
7
100
AcDbSpline
 70
8
 71
3
 72
8
 73
4
 74
0
 40
0
 40
0
 40
0
 40
0
 40
1
 40
1
 40
1
 40
1
 10
10.196457
 20
6.767774
 30
0.0
 10
10.126551
 20
6.697223
 30
0.0
 10
10.048080
 20
6.631408
 30
0.0
 10
9.961075
 20
6.570323
 30
0.0
  0
SPLINE
  5
1d7
100
AcDbEntity
  8
Layer_1
 62
7
100
AcDbSpline
 70
8
 71
3
 72
8
 73
4
 74
0
 40
0
 40
0
 40
0
 40
0
 40
1
 40
1
 40
1
 40
1
 10
9.961075
 20
6.570323
 30
0.0
 10
9.873758
 20
6.511141
 30
0.0
 10
9.790322
 20
6.481441
 30
0.0
 10
9.710741
 20
6.481241
 30
0.0
  0
SPLINE
  5
1d8
100
AcDbEntity
  8
Layer_1
 62
7
100
AcDbSpline
 70
8
 71
3
 72
8
 73
4
 74
0
 40
0
 40
0
 40
0
 40
0
 40
1
 40
1
 40
1
 40
1
 10
9.710741
 20
6.481241
 30
0.0
 10
9.631165
 20
6.481045
 30
0.0
 10
9.585270
 20
6.518028
 30
0.0
 10
9.573028
 20
6.592177
 30
0.0
  0
SPLINE
  5
1d9
100
AcDbEntity
  8
Layer_1
 62
7
100
AcDbSpline
 70
8
 71
3
 72
8
 73
4
 74
0
 40
0
 40
0
 40
0
 40
0
 40
1
 40
1
 40
1
 40
1
 10
9.573028
 20
6.592177
 30
0.0
 10
9.567067
 20
6.628300
 30
0.0
 10
9.563247
 20
6.674883
 30
0.0
 10
9.561595
 20
6.731940
 30
0.0
  0
SPLINE
  5
1da
100
AcDbEntity
  8
Layer_1
 62
7
100
AcDbSpline
 70
8
 71
3
 72
8
 73
4
 74
0
 40
0
 40
0
 40
0
 40
0
 40
1
 40
1
 40
1
 40
1
 10
9.561595
 20
6.731940
 30
0.0
 10
9.558355
 20
6.857465
 30
0.0
 10
9.656318
 20
7.169648
 30
0.0
 10
9.855547
 20
7.668478
 30
0.0
  0
SPLINE
  5
1db
100
AcDbEntity
  8
Layer_1
 62
7
100
AcDbSpline
 70
8
 71
3
 72
8
 73
4
 74
0
 40
0
 40
0
 40
0
 40
0
 40
1
 40
1
 40
1
 40
1
 10
9.855547
 20
7.668478
 30
0.0
 10
10.056383
 20
8.169217
 30
0.0
 10
10.215975
 20
8.537656
 30
0.0
 10
10.334274
 20
8.773805
 30
0.0
  0
SPLINE
  5
1dc
100
AcDbEntity
  8
Layer_1
 62
7
100
AcDbSpline
 70
8
 71
3
 72
8
 73
4
 74
0
 40
0
 40
0
 40
0
 40
0
 40
1
 40
1
 40
1
 40
1
 10
10.334274
 20
8.773805
 30
0.0
 10
10.380546
 20
8.775823
 30
0.0
 10
10.625198
 20
8.799273
 30
0.0
 10
11.068270
 20
8.844138
 30
0.0
  0
SPLINE
  5
1dd
100
AcDbEntity
  8
Layer_1
 62
7
100
AcDbSpline
 70
8
 71
3
 72
8
 73
4
 74
0
 40
0
 40
0
 40
0
 40
0
 40
1
 40
1
 40
1
 40
1
 10
11.068270
 20
8.844138
 30
0.0
 10
11.123619
 20
8.849983
 30
0.0
 10
11.173366
 20
8.866284
 30
0.0
 10
11.217493
 20
8.893024
 30
0.0
  0
SPLINE
  5
1de
100
AcDbEntity
  8
Layer_1
 62
7
100
AcDbSpline
 70
8
 71
3
 72
8
 73
4
 74
0
 40
0
 40
0
 40
0
 40
0
 40
1
 40
1
 40
1
 40
1
 10
11.217493
 20
8.893024
 30
0.0
 10
11.263250
 20
8.921669
 30
0.0
 10
11.282837
 20
8.955954
 30
0.0
 10
11.276243
 20
8.995881
 30
0.0
  0
SPLINE
  5
1df
100
AcDbEntity
  8
Layer_1
 62
7
100
AcDbSpline
 70
8
 71
3
 72
8
 73
4
 74
0
 40
0
 40
0
 40
0
 40
0
 40
1
 40
1
 40
1
 40
1
 10
11.276243
 20
8.995881
 30
0.0
 10
11.269654
 20
9.035807
 30
0.0
 10
11.252174
 20
9.065236
 30
0.0
 10
11.223802
 20
9.084185
 30
0.0
  0
SPLINE
  5
1e0
100
AcDbEntity
  8
Layer_1
 62
7
100
AcDbSpline
 70
8
 71
3
 72
8
 73
4
 74
0
 40
0
 40
0
 40
0
 40
0
 40
1
 40
1
 40
1
 40
1
 10
11.223802
 20
9.084185
 30
0.0
 10
11.195119
 20
9.105035
 30
0.0
 10
11.162120
 20
9.134427
 30
0.0
 10
11.124786
 20
9.172374
 30
0.0
  0
SPLINE
  5
1e1
100
AcDbEntity
  8
Layer_1
 62
7
100
AcDbSpline
 70
8
 71
3
 72
8
 73
4
 74
0
 40
0
 40
0
 40
0
 40
0
 40
1
 40
1
 40
1
 40
1
 10
11.124786
 20
9.172374
 30
0.0
 10
11.089087
 20
9.212226
 30
0.0
 10
11.058957
 20
9.235924
 30
0.0
 10
11.034412
 20
9.243469
 30
0.0
  0
SPLINE
  5
1e2
100
AcDbEntity
  8
Layer_1
 62
7
100
AcDbSpline
 70
8
 71
3
 72
8
 73
4
 74
0
 40
0
 40
0
 40
0
 40
0
 40
1
 40
1
 40
1
 40
1
 10
11.034412
 20
9.243469
 30
0.0
 10
11.009552
 20
9.252917
 30
0.0
 10
10.965081
 20
9.257578
 30
0.0
 10
10.901030
 20
9.257412
 30
0.0
  0
SPLINE
  5
1e3
100
AcDbEntity
  8
Layer_1
 62
7
100
AcDbSpline
 70
8
 71
3
 72
8
 73
4
 74
0
 40
0
 40
0
 40
0
 40
0
 40
1
 40
1
 40
1
 40
1
 10
10.901030
 20
9.257412
 30
0.0
 10
10.838923
 20
9.257255
 30
0.0
 10
10.733113
 20
9.251272
 30
0.0
 10
10.583610
 20
9.239482
 30
0.0
  0
SPLINE
  5
1e4
100
AcDbEntity
  8
Layer_1
 62
7
100
AcDbSpline
 70
8
 71
3
 72
8
 73
4
 74
0
 40
0
 40
0
 40
0
 40
0
 40
1
 40
1
 40
1
 40
1
 10
10.583610
 20
9.239482
 30
0.0
 10
10.586240
 20
9.247096
 30
0.0
 10
10.607831
 20
9.292792
 30
0.0
 10
10.648367
 20
9.376584
 30
0.0
  0
SPLINE
  5
1e5
100
AcDbEntity
  8
Layer_1
 62
7
100
AcDbSpline
 70
8
 71
3
 72
8
 73
4
 74
0
 40
0
 40
0
 40
0
 40
0
 40
1
 40
1
 40
1
 40
1
 10
10.648367
 20
9.376584
 30
0.0
 10
10.690529
 20
9.462282
 30
0.0
 10
10.726502
 20
9.538471
 30
0.0
 10
10.756281
 20
9.605116
 30
0.0
  0
SPLINE
  5
1e6
100
AcDbEntity
  8
Layer_1
 62
7
100
AcDbSpline
 70
8
 71
3
 72
8
 73
4
 74
0
 40
0
 40
0
 40
0
 40
0
 40
1
 40
1
 40
1
 40
1
 10
10.756281
 20
9.605116
 30
0.0
 10
10.786054
 20
9.671763
 30
0.0
 10
10.799683
 20
9.712690
 30
0.0
 10
10.797171
 20
9.727900
 30
0.0
  0
SPLINE
  5
1e7
100
AcDbEntity
  8
Layer_1
 62
7
100
AcDbSpline
 70
8
 71
3
 72
8
 73
4
 74
0
 40
0
 40
0
 40
0
 40
0
 40
1
 40
1
 40
1
 40
1
 10
10.797171
 20
9.727900
 30
0.0
 10
10.794663
 20
9.743110
 30
0.0
 10
10.785198
 20
9.759249
 30
0.0
 10
10.768786
 20
9.776326
 30
0.0
  0
SPLINE
  5
1e8
100
AcDbEntity
  8
Layer_1
 62
7
100
AcDbSpline
 70
8
 71
3
 72
8
 73
4
 74
0
 40
0
 40
0
 40
0
 40
0
 40
1
 40
1
 40
1
 40
1
 10
10.768786
 20
9.776326
 30
0.0
 10
10.752374
 20
9.793403
 30
0.0
 10
10.735441
 20
9.801908
 30
0.0
 10
10.717971
 20
9.801865
 30
0.0
  0
LWPOLYLINE
  5
1e9
100
AcDbEntity
  8
Layer_1
 62
7
100
AcDbPolyline
 90
2
 70
0
 10
11.880658
 20
7.941415
 30
0.0
 10
12.072512
 20
8.273609
 30
0.0
  0
SPLINE
  5
1ea
100
AcDbEntity
  8
Layer_1
 62
7
100
AcDbSpline
 70
8
 71
3
 72
8
 73
4
 74
0
 40
0
 40
0
 40
0
 40
0
 40
1
 40
1
 40
1
 40
1
 10
9.811515
 20
8.746830
 30
0.0
 10
9.655241
 20
8.423093
 30
0.0
 10
9.502732
 20
8.076530
 30
0.0
 10
9.353998
 20
7.707161
 30
0.0
  0
SPLINE
  5
1eb
100
AcDbEntity
  8
Layer_1
 62
7
100
AcDbSpline
 70
8
 71
3
 72
8
 73
4
 74
0
 40
0
 40
0
 40
0
 40
0
 40
1
 40
1
 40
1
 40
1
 10
9.353998
 20
7.707161
 30
0.0
 10
9.263241
 20
7.480592
 30
0.0
 10
9.191800
 20
7.266435
 30
0.0
 10
9.139662
 20
7.064688
 30
0.0
  0
SPLINE
  5
1ec
100
AcDbEntity
  8
Layer_1
 62
7
100
AcDbSpline
 70
8
 71
3
 72
8
 73
4
 74
0
 40
0
 40
0
 40
0
 40
0
 40
1
 40
1
 40
1
 40
1
 10
9.139662
 20
7.064688
 30
0.0
 10
9.137072
 20
7.054371
 30
0.0
 10
9.134592
 20
7.044193
 30
0.0
 10
9.132196
 20
7.034032
 30
0.0
  0
SPLINE
  5
1ed
100
AcDbEntity
  8
Layer_1
 62
7
100
AcDbSpline
 70
8
 71
3
 72
8
 73
4
 74
0
 40
0
 40
0
 40
0
 40
0
 40
1
 40
1
 40
1
 40
1
 10
9.132196
 20
7.034032
 30
0.0
 10
9.124770
 20
7.038292
 30
0.0
 10
9.117116
 20
7.040681
 30
0.0
 10
9.109134
 20
7.040662
 30
0.0
  0
SPLINE
  5
1ee
100
AcDbEntity
  8
Layer_1
 62
7
100
AcDbSpline
 70
8
 71
3
 72
8
 73
4
 74
0
 40
0
 40
0
 40
0
 40
0
 40
1
 40
1
 40
1
 40
1
 10
9.109134
 20
7.040662
 30
0.0
 10
9.093611
 20
7.040623
 30
0.0
 10
8.992847
 20
6.945253
 30
0.0
 10
8.806847
 20
6.754582
 30
0.0
  0
SPLINE
  5
1ef
100
AcDbEntity
  8
Layer_1
 62
7
100
AcDbSpline
 70
8
 71
3
 72
8
 73
4
 74
0
 40
0
 40
0
 40
0
 40
0
 40
1
 40
1
 40
1
 40
1
 10
8.806847
 20
6.754582
 30
0.0
 10
8.736941
 20
6.684030
 30
0.0
 10
8.658493
 20
6.618211
 30
0.0
 10
8.571488
 20
6.557127
 30
0.0
  0
SPLINE
  5
1f0
100
AcDbEntity
  8
Layer_1
 62
7
100
AcDbSpline
 70
8
 71
3
 72
8
 73
4
 74
0
 40
0
 40
0
 40
0
 40
0
 40
1
 40
1
 40
1
 40
1
 10
8.571488
 20
6.557127
 30
0.0
 10
8.484171
 20
6.497944
 30
0.0
 10
8.400711
 20
6.468249
 30
0.0
 10
8.321135
 20
6.468048
 30
0.0
  0
SPLINE
  5
1f1
100
AcDbEntity
  8
Layer_1
 62
7
100
AcDbSpline
 70
8
 71
3
 72
8
 73
4
 74
0
 40
0
 40
0
 40
0
 40
0
 40
1
 40
1
 40
1
 40
1
 10
8.321135
 20
6.468048
 30
0.0
 10
8.241554
 20
6.467852
 30
0.0
 10
8.195656
 20
6.504837
 30
0.0
 10
8.183422
 20
6.578984
 30
0.0
  0
SPLINE
  5
1f2
100
AcDbEntity
  8
Layer_1
 62
7
100
AcDbSpline
 70
8
 71
3
 72
8
 73
4
 74
0
 40
0
 40
0
 40
0
 40
0
 40
1
 40
1
 40
1
 40
1
 10
8.183422
 20
6.578984
 30
0.0
 10
8.177457
 20
6.615108
 30
0.0
 10
8.173637
 20
6.661690
 30
0.0
 10
8.171988
 20
6.718747
 30
0.0
  0
SPLINE
  5
1f3
100
AcDbEntity
  8
Layer_1
 62
7
100
AcDbSpline
 70
8
 71
3
 72
8
 73
4
 74
0
 40
0
 40
0
 40
0
 40
0
 40
1
 40
1
 40
1
 40
1
 10
8.171988
 20
6.718747
 30
0.0
 10
8.168744
 20
6.844273
 30
0.0
 10
8.266750
 20
7.156446
 30
0.0
 10
8.465959
 20
7.655280
 30
0.0
  0
SPLINE
  5
1f4
100
AcDbEntity
  8
Layer_1
 62
7
100
AcDbSpline
 70
8
 71
3
 72
8
 73
4
 74
0
 40
0
 40
0
 40
0
 40
0
 40
1
 40
1
 40
1
 40
1
 10
8.465959
 20
7.655280
 30
0.0
 10
8.666800
 20
8.156020
 30
0.0
 10
8.826364
 20
8.524464
 30
0.0
 10
8.944667
 20
8.760612
 30
0.0
  0
SPLINE
  5
1f5
100
AcDbEntity
  8
Layer_1
 62
7
100
AcDbSpline
 70
8
 71
3
 72
8
 73
4
 74
0
 40
0
 40
0
 40
0
 40
0
 40
1
 40
1
 40
1
 40
1
 10
8.944667
 20
8.760612
 30
0.0
 10
8.958904
 20
8.761232
 30
0.0
 10
8.998530
 20
8.764593
 30
0.0
 10
9.050330
 20
8.769272
 30
0.0
  0
SPLINE
  5
1f6
100
AcDbEntity
  8
Layer_1
 62
7
100
AcDbSpline
 70
8
 71
3
 72
8
 73
4
 74
0
 40
0
 40
0
 40
0
 40
0
 40
1
 40
1
 40
1
 40
1
 10
9.050330
 20
8.769272
 30
0.0
 10
9.065816
 20
8.752964
 30
0.0
 10
9.089487
 20
8.738208
 30
0.0
 10
9.121917
 20
8.725113
 30
0.0
  0
SPLINE
  5
1f7
100
AcDbEntity
  8
Layer_1
 62
7
100
AcDbSpline
 70
8
 71
3
 72
8
 73
4
 74
0
 40
0
 40
0
 40
0
 40
0
 40
1
 40
1
 40
1
 40
1
 10
9.121917
 20
8.725113
 30
0.0
 10
9.177771
 20
8.704332
 30
0.0
 10
9.233852
 20
8.694009
 30
0.0
 10
9.290137
 20
8.694151
 30
0.0
  0
LWPOLYLINE
  5
1f8
100
AcDbEntity
  8
Layer_1
 62
7
100
AcDbPolyline
 90
2
 70
0
 10
10.717971
 20
9.801865
 30
0.0
 10
10.593876
 20
9.830107
 30
0.0
  0
SPLINE
  5
1f9
100
AcDbEntity
  8
Layer_1
 62
7
100
AcDbSpline
 70
8
 71
3
 72
8
 73
4
 74
0
 40
0
 40
0
 40
0
 40
0
 40
1
 40
1
 40
1
 40
1
 10
9.316340
 20
8.694226
 30
0.0
 10
9.353211
 20
8.694321
 30
0.0
 10
9.482180
 20
8.707010
 30
0.0
 10
9.703246
 20
8.732294
 30
0.0
  0
LWPOLYLINE
  5
1fa
100
AcDbEntity
  8
Layer_1
 62
7
100
AcDbPolyline
 90
2
 70
0
 10
9.290137
 20
8.694151
 30
0.0
 10
9.316340
 20
8.694226
 30
0.0
  0
SPLINE
  5
1fb
100
AcDbEntity
  8
Layer_1
 62
7
100
AcDbSpline
 70
8
 71
3
 72
8
 73
4
 74
0
 40
0
 40
0
 40
0
 40
0
 40
1
 40
1
 40
1
 40
1
 10
14.133790
 20
6.823357
 30
0.0
 10
14.004129
 20
6.547325
 30
0.0
 10
13.893440
 20
6.316886
 30
0.0
 10
13.800982
 20
6.130253
 30
0.0
  0
LWPOLYLINE
  5
1fc
100
AcDbEntity
  8
Layer_1
 62
7
100
AcDbPolyline
 90
2
 70
0
 10
9.703246
 20
8.732294
 30
0.0
 10
9.811515
 20
8.746830
 30
0.0
  0
SPLINE
  5
1fd
100
AcDbEntity
  8
Layer_1
 62
7
100
AcDbSpline
 70
8
 71
3
 72
8
 73
4
 74
0
 40
0
 40
0
 40
0
 40
0
 40
1
 40
1
 40
1
 40
1
 10
13.296691
 20
6.133761
 30
0.0
 10
13.381048
 20
6.160699
 30
0.0
 10
13.484473
 20
6.218869
 30
0.0
 10
13.607115
 20
6.308486
 30
0.0
  0
SPLINE
  5
1fe
100
AcDbEntity
  8
Layer_1
 62
7
100
AcDbSpline
 70
8
 71
3
 72
8
 73
4
 74
0
 40
0
 40
0
 40
0
 40
0
 40
1
 40
1
 40
1
 40
1
 10
13.607115
 20
6.308486
 30
0.0
 10
13.784067
 20
6.436367
 30
0.0
 10
13.959632
 20
6.607989
 30
0.0
 10
14.133790
 20
6.823356
 30
0.0
  0
LWPOLYLINE
  5
1ff
100
AcDbEntity
  8
Layer_1
 62
7
100
AcDbPolyline
 90
2
 70
0
 10
13.800982
 20
6.130253
 30
0.0
 10
13.296691
 20
6.133761
 30
0.0
  0
SPLINE
  5
200
100
AcDbEntity
  8
Layer_1
 62
7
100
AcDbSpline
 70
8
 71
3
 72
8
 73
4
 74
0
 40
0
 40
0
 40
0
 40
0
 40
1
 40
1
 40
1
 40
1
 10
15.235322
 20
6.463581
 30
0.0
 10
15.294324
 20
6.322133
 30
0.0
 10
15.416322
 20
6.213136
 30
0.0
 10
15.601475
 20
6.136647
 30
0.0
  0
SPLINE
  5
201
100
AcDbEntity
  8
Layer_1
 62
7
100
AcDbSpline
 70
8
 71
3
 72
8
 73
4
 74
0
 40
0
 40
0
 40
0
 40
0
 40
1
 40
1
 40
1
 40
1
 10
15.601475
 20
6.136647
 30
0.0
 10
15.617989
 20
6.129776
 30
0.0
 10
15.635121
 20
6.123369
 30
0.0
 10
15.652826
 20
6.117397
 30
0.0
  0
LWPOLYLINE
  5
202
100
AcDbEntity
  8
Layer_1
 62
7
100
AcDbPolyline
 90
1
 70
1
 10
14.133790
 20
6.823356
 30
0.0
  0
SPLINE
  5
203
100
AcDbEntity
  8
Layer_1
 62
7
100
AcDbSpline
 70
8
 71
3
 72
8
 73
4
 74
0
 40
0
 40
0
 40
0
 40
0
 40
1
 40
1
 40
1
 40
1
 10
14.769686
 20
6.123535
 30
0.0
 10
14.897329
 20
6.221454
 30
0.0
 10
15.018824
 20
6.311050
 30
0.0
 10
15.134058
 20
6.392203
 30
0.0
  0
SPLINE
  5
204
100
AcDbEntity
  8
Layer_1
 62
7
100
AcDbSpline
 70
8
 71
3
 72
8
 73
4
 74
0
 40
0
 40
0
 40
0
 40
0
 40
1
 40
1
 40
1
 40
1
 10
15.134058
 20
6.392203
 30
0.0
 10
15.175558
 20
6.421432
 30
0.0
 10
15.199341
 20
6.438222
 30
0.0
 10
15.235322
 20
6.463581
 30
0.0
  0
LWPOLYLINE
  5
205
100
AcDbEntity
  8
Layer_1
 62
7
100
AcDbPolyline
 90
2
 70
0
 10
15.652826
 20
6.117397
 30
0.0
 10
14.769686
 20
6.123535
 30
0.0
  0
SPLINE
  5
206
100
AcDbEntity
  8
Layer_1
 62
7
100
AcDbSpline
 70
8
 71
3
 72
8
 73
4
 74
0
 40
0
 40
0
 40
0
 40
0
 40
1
 40
1
 40
1
 40
1
 10
11.954574
 20
6.771207
 30
0.0
 10
11.931924
 20
6.684991
 30
0.0
 10
11.933499
 20
6.584540
 30
0.0
 10
11.959290
 20
6.469878
 30
0.0
  0
SPLINE
  5
207
100
AcDbEntity
  8
Layer_1
 62
7
100
AcDbSpline
 70
8
 71
3
 72
8
 73
4
 74
0
 40
0
 40
0
 40
0
 40
0
 40
1
 40
1
 40
1
 40
1
 10
11.959290
 20
6.469878
 30
0.0
 10
11.984654
 20
6.357126
 30
0.0
 10
12.047761
 20
6.254143
 30
0.0
 10
12.148617
 20
6.160920
 30
0.0
  0
SPLINE
  5
208
100
AcDbEntity
  8
Layer_1
 62
7
100
AcDbSpline
 70
8
 71
3
 72
8
 73
4
 74
0
 40
0
 40
0
 40
0
 40
0
 40
1
 40
1
 40
1
 40
1
 10
12.148617
 20
6.160920
 30
0.0
 10
12.155878
 20
6.154208
 30
0.0
 10
12.163379
 20
6.147817
 30
0.0
 10
12.170987
 20
6.141593
 30
0.0
  0
LWPOLYLINE
  5
209
100
AcDbEntity
  8
Layer_1
 62
7
100
AcDbPolyline
 90
1
 70
1
 10
15.235322
 20
6.463581
 30
0.0
  0
SPLINE
  5
20a
100
AcDbEntity
  8
Layer_1
 62
7
100
AcDbSpline
 70
8
 71
3
 72
8
 73
4
 74
0
 40
0
 40
0
 40
0
 40
0
 40
1
 40
1
 40
1
 40
1
 10
11.329367
 20
6.147442
 30
0.0
 10
11.374973
 20
6.174840
 30
0.0
 10
11.422161
 20
6.206824
 30
0.0
 10
11.470963
 20
6.243467
 30
0.0
  0
SPLINE
  5
20b
100
AcDbEntity
  8
Layer_1
 62
7
100
AcDbSpline
 70
8
 71
3
 72
8
 73
4
 74
0
 40
0
 40
0
 40
0
 40
0
 40
1
 40
1
 40
1
 40
1
 10
11.470963
 20
6.243467
 30
0.0
 10
11.665509
 20
6.387980
 30
0.0
 10
11.826715
 20
6.563904
 30
0.0
 10
11.954574
 20
6.771207
 30
0.0
  0
LWPOLYLINE
  5
20c
100
AcDbEntity
  8
Layer_1
 62
7
100
AcDbPolyline
 90
2
 70
0
 10
12.170987
 20
6.141593
 30
0.0
 10
11.329367
 20
6.147442
 30
0.0
  0
SPLINE
  5
20d
100
AcDbEntity
  8
Layer_1
 62
7
100
AcDbSpline
 70
8
 71
3
 72
8
 73
4
 74
0
 40
0
 40
0
 40
0
 40
0
 40
1
 40
1
 40
1
 40
1
 10
12.942270
 20
6.158238
 30
0.0
 10
12.964811
 20
6.149302
 30
0.0
 10
12.988837
 20
6.141798
 30
0.0
 10
13.014307
 20
6.135722
 30
0.0
  0
LWPOLYLINE
  5
20e
100
AcDbEntity
  8
Layer_1
 62
7
100
AcDbPolyline
 90
1
 70
1
 10
11.954574
 20
6.771207
 30
0.0
  0
SPLINE
  5
20f
100
AcDbEntity
  8
Layer_1
 62
7
100
AcDbSpline
 70
8
 71
3
 72
8
 73
4
 74
0
 40
0
 40
0
 40
0
 40
0
 40
1
 40
1
 40
1
 40
1
 10
12.909329
 20
6.136458
 30
0.0
 10
12.920309
 20
6.143381
 30
0.0
 10
12.931285
 20
6.150693
 30
0.0
 10
12.942270
 20
6.158238
 30
0.0
  0
LWPOLYLINE
  5
210
100
AcDbEntity
  8
Layer_1
 62
7
100
AcDbPolyline
 90
2
 70
0
 10
13.014307
 20
6.135722
 30
0.0
 10
12.909329
 20
6.136458
 30
0.0
  0
SPLINE
  5
211
100
AcDbEntity
  8
Layer_1
 62
7
100
AcDbSpline
 70
8
 71
3
 72
8
 73
4
 74
0
 40
0
 40
0
 40
0
 40
0
 40
1
 40
1
 40
1
 40
1
 10
10.375281
 20
6.402008
 30
0.0
 10
10.420501
 20
6.302215
 30
0.0
 10
10.487646
 20
6.219116
 30
0.0
 10
10.576683
 20
6.152672
 30
0.0
  0
LWPOLYLINE
  5
212
100
AcDbEntity
  8
Layer_1
 62
7
100
AcDbPolyline
 90
1
 70
1
 10
12.942270
 20
6.158238
 30
0.0
  0
SPLINE
  5
213
100
AcDbEntity
  8
Layer_1
 62
7
100
AcDbSpline
 70
8
 71
3
 72
8
 73
4
 74
0
 40
0
 40
0
 40
0
 40
0
 40
1
 40
1
 40
1
 40
1
 10
10.071584
 20
6.156184
 30
0.0
 10
10.079052
 20
6.161052
 30
0.0
 10
10.086502
 20
6.166051
 30
0.0
 10
10.093919
 20
6.171236
 30
0.0
  0
SPLINE
  5
214
100
AcDbEntity
  8
Layer_1
 62
7
100
AcDbSpline
 70
8
 71
3
 72
8
 73
4
 74
0
 40
0
 40
0
 40
0
 40
0
 40
1
 40
1
 40
1
 40
1
 10
10.093919
 20
6.171236
 30
0.0
 10
10.176202
 20
6.228776
 30
0.0
 10
10.270178
 20
6.306023
 30
0.0
 10
10.375281
 20
6.402009
 30
0.0
  0
LWPOLYLINE
  5
215
100
AcDbEntity
  8
Layer_1
 62
7
100
AcDbPolyline
 90
2
 70
0
 10
10.576683
 20
6.152672
 30
0.0
 10
10.071584
 20
6.156184
 30
0.0
  0
SPLINE
  5
216
100
AcDbEntity
  8
Layer_1
 62
7
100
AcDbSpline
 70
8
 71
3
 72
8
 73
4
 74
0
 40
0
 40
0
 40
0
 40
0
 40
1
 40
1
 40
1
 40
1
 10
9.106036
 20
6.502265
 30
0.0
 10
9.133196
 20
6.385508
 30
0.0
 10
9.184220
 20
6.290645
 30
0.0
 10
9.259097
 20
6.217647
 30
0.0
  0
SPLINE
  5
217
100
AcDbEntity
  8
Layer_1
 62
7
100
AcDbSpline
 70
8
 71
3
 72
8
 73
4
 74
0
 40
0
 40
0
 40
0
 40
0
 40
1
 40
1
 40
1
 40
1
 10
9.259097
 20
6.217647
 30
0.0
 10
9.280985
 20
6.197186
 30
0.0
 10
9.305157
 20
6.178421
 30
0.0
 10
9.331622
 20
6.161322
 30
0.0
  0
LWPOLYLINE
  5
218
100
AcDbEntity
  8
Layer_1
 62
7
100
AcDbPolyline
 90
1
 70
1
 10
10.375281
 20
6.402009
 30
0.0
  0
SPLINE
  5
219
100
AcDbEntity
  8
Layer_1
 62
7
100
AcDbSpline
 70
8
 71
3
 72
8
 73
4
 74
0
 40
0
 40
0
 40
0
 40
0
 40
1
 40
1
 40
1
 40
1
 10
8.714793
 20
6.165604
 30
0.0
 10
8.825136
 20
6.243993
 30
0.0
 10
8.955619
 20
6.356348
 30
0.0
 10
9.106036
 20
6.502265
 30
0.0
  0
LWPOLYLINE
  5
21a
100
AcDbEntity
  8
Layer_1
 62
7
100
AcDbPolyline
 90
2
 70
0
 10
9.331622
 20
6.161322
 30
0.0
 10
8.714793
 20
6.165604
 30
0.0
  0
LWPOLYLINE
  5
21b
100
AcDbEntity
  8
Layer_1
 62
7
100
AcDbPolyline
 90
1
 70
1
 10
9.106036
 20
6.502265
 30
0.0
  0
ENDSEC
  0
SECTION
  2
OBJECTS
  0
DICTIONARY
  5
C
330
0
100
AcDbDictionary
  3
ACAD_GROUP
350
D
  3
ACAD_MLINESTYLE
350
17
  0
DICTIONARY
  5
D
330
C
100
AcDbDictionary
  0
DICTIONARY
  5
1A
330
C
100
AcDbDictionary
  0
DICTIONARY
  5
17
330
C
100
AcDbDictionary
  3
STANDARD
350
18
  0
DICTIONARY
  5
19
330
C
100
AcDbDictionary
  0
ENDSEC
  0
EOF
