  0
SECTION
  2
HEADER
  9
$ACADVER
  1
AC1027
  9
$ACADMAINTVER
 70
   125
  9
$DWGCODEPAGE
  3
ANSI_1252
  9
$REQUIREDVERSIONS
160
                 0
  9
$INSBASE
 10
0.0
 20
0.0
 30
0.0
  9
$EXTMIN
 10
1.000000000000000E+20
 20
1.000000000000000E+20
 30
1.000000000000000E+20
  9
$EXTMAX
 10
-1.000000000000000E+20
 20
-1.000000000000000E+20
 30
-1.000000000000000E+20
  9
$LIMMIN
 10
0.0
 20
0.0
  9
$LIMMAX
 10
12.0
 20
9.0
  9
$ORTHOMODE
 70
     0
  9
$REGENMODE
 70
     1
  9
$FILLMODE
 70
     1
  9
$QTEXTMODE
 70
     0
  9
$MIRRTEXT
 70
     0
  9
$LTSCALE
 40
1.0
  9
$ATTMODE
 70
     1
  9
$TEXTSIZE
 40
0.2
  9
$TRACEWID
 40
0.05
  9
$TEXTSTYLE
  7
Standard
  9
$CLAYER
  8
0
  9
$CELTYPE
  6
ByLayer
  9
$CECOLOR
 62
   256
  9
$CELTSCALE
 40
1.0
  9
$DISPSILH
 70
     0
  9
$DIMSCALE
 40
1.0
  9
$DIMASZ
 40
0.18
  9
$DIMEXO
 40
0.0625
  9
$DIMDLI
 40
0.38
  9
$DIMRND
 40
0.0
  9
$DIMDLE
 40
0.0
  9
$DIMEXE
 40
0.18
  9
$DIMTP
 40
0.0
  9
$DIMTM
 40
0.0
  9
$DIMTXT
 40
0.18
  9
$DIMCEN
 40
0.09
  9
$DIMTSZ
 40
0.0
  9
$DIMTOL
 70
     0
  9
$DIMLIM
 70
     0
  9
$DIMTIH
 70
     1
  9
$DIMTOH
 70
     1
  9
$DIMSE1
 70
     0
  9
$DIMSE2
 70
     0
  9
$DIMTAD
 70
     0
  9
$DIMZIN
 70
     0
  9
$DIMBLK
  1

  9
$DIMASO
 70
     1
  9
$DIMSHO
 70
     1
  9
$DIMPOST
  1

  9
$DIMAPOST
  1

  9
$DIMALT
 70
     0
  9
$DIMALTD
 70
     2
  9
$DIMALTF
 40
25.4
  9
$DIMLFAC
 40
1.0
  9
$DIMTOFL
 70
     0
  9
$DIMTVP
 40
0.0
  9
$DIMTIX
 70
     0
  9
$DIMSOXD
 70
     0
  9
$DIMSAH
 70
     0
  9
$DIMBLK1
  1

  9
$DIMBLK2
  1

  9
$DIMSTYLE
  2
Standard
  9
$DIMCLRD
 70
     0
  9
$DIMCLRE
 70
     0
  9
$DIMCLRT
 70
     0
  9
$DIMTFAC
 40
1.0
  9
$DIMGAP
 40
0.09
  9
$DIMJUST
 70
     0
  9
$DIMSD1
 70
     0
  9
$DIMSD2
 70
     0
  9
$DIMTOLJ
 70
     1
  9
$DIMTZIN
 70
     0
  9
$DIMALTZ
 70
     0
  9
$DIMALTTZ
 70
     0
  9
$DIMUPT
 70
     0
  9
$DIMDEC
 70
     4
  9
$DIMTDEC
 70
     4
  9
$DIMALTU
 70
     2
  9
$DIMALTTD
 70
     2
  9
$DIMTXSTY
  7
Standard
  9
$DIMAUNIT
 70
     0
  9
$DIMADEC
 70
     0
  9
$DIMALTRND
 40
0.0
  9
$DIMAZIN
 70
     0
  9
$DIMDSEP
 70
    46
  9
$DIMATFIT
 70
     3
  9
$DIMFRAC
 70
     0
  9
$DIMLDRBLK
  1

  9
$DIMLUNIT
 70
     2
  9
$DIMLWD
 70
    -2
  9
$DIMLWE
 70
    -2
  9
$DIMTMOVE
 70
     0
  9
$DIMFXL
 40
1.0
  9
$DIMFXLON
 70
     0
  9
$DIMJOGANG
 40
0.7853981633974483
  9
$DIMTFILL
 70
     0
  9
$DIMTFILLCLR
 70
     0
  9
$DIMARCSYM
 70
     0
  9
$DIMLTYPE
  6

  9
$DIMLTEX1
  6

  9
$DIMLTEX2
  6

  9
$DIMTXTDIRECTION
 70
     0
  9
$LUNITS
 70
     2
  9
$LUPREC
 70
     4
  9
$SKETCHINC
 40
0.1
  9
$FILLETRAD
 40
0.0
  9
$AUNITS
 70
     0
  9
$AUPREC
 70
     0
  9
$MENU
  1
.
  9
$ELEVATION
 40
0.0
  9
$PELEVATION
 40
0.0
  9
$THICKNESS
 40
0.0
  9
$LIMCHECK
 70
     0
  9
$CHAMFERA
 40
0.0
  9
$CHAMFERB
 40
0.0
  9
$CHAMFERC
 40
0.0
  9
$CHAMFERD
 40
0.0
  9
$SKPOLY
 70
     0
  9
$TDCREATE
 40
2460366.610150463
  9
$TDUCREATE
 40
2460366.610150463
  9
$TDUPDATE
 40
2460366.610150463
  9
$TDUUPDATE
 40
2460366.610150463
  9
$TDINDWG
 40
0.0000000000
  9
$TDUSRTIMER
 40
0.0000000000
  9
$USRTIMER
 70
     1
  9
$ANGBASE
 50
0.0
  9
$ANGDIR
 70
     0
  9
$PDMODE
 70
     0
  9
$PDSIZE
 40
0.0
  9
$PLINEWID
 40
0.0
  9
$SPLFRAME
 70
     0
  9
$SPLINETYPE
 70
     6
  9
$SPLINESEGS
 70
     8
  9
$HANDSEED
  5
1EB
  9
$SURFTAB1
 70
     6
  9
$SURFTAB2
 70
     6
  9
$SURFTYPE
 70
     6
  9
$SURFU
 70
     6
  9
$SURFV
 70
     6
  9
$UCSBASE
  2

  9
$UCSNAME
  2

  9
$UCSORG
 10
0.0
 20
0.0
 30
0.0
  9
$UCSXDIR
 10
1.0
 20
0.0
 30
0.0
  9
$UCSYDIR
 10
0.0
 20
1.0
 30
0.0
  9
$UCSORTHOREF
  2

  9
$UCSORTHOVIEW
 70
     0
  9
$UCSORGTOP
 10
0.0
 20
0.0
 30
0.0
  9
$UCSORGBOTTOM
 10
0.0
 20
0.0
 30
0.0
  9
$UCSORGLEFT
 10
0.0
 20
0.0
 30
0.0
  9
$UCSORGRIGHT
 10
0.0
 20
0.0
 30
0.0
  9
$UCSORGFRONT
 10
0.0
 20
0.0
 30
0.0
  9
$UCSORGBACK
 10
0.0
 20
0.0
 30
0.0
  9
$PUCSBASE
  2

  9
$PUCSNAME
  2

  9
$PUCSORG
 10
0.0
 20
0.0
 30
0.0
  9
$PUCSXDIR
 10
1.0
 20
0.0
 30
0.0
  9
$PUCSYDIR
 10
0.0
 20
1.0
 30
0.0
  9
$PUCSORTHOREF
  2

  9
$PUCSORTHOVIEW
 70
     0
  9
$PUCSORGTOP
 10
0.0
 20
0.0
 30
0.0
  9
$PUCSORGBOTTOM
 10
0.0
 20
0.0
 30
0.0
  9
$PUCSORGLEFT
 10
0.0
 20
0.0
 30
0.0
  9
$PUCSORGRIGHT
 10
0.0
 20
0.0
 30
0.0
  9
$PUCSORGFRONT
 10
0.0
 20
0.0
 30
0.0
  9
$PUCSORGBACK
 10
0.0
 20
0.0
 30
0.0
  9
$USERI1
 70
     0
  9
$USERI2
 70
     0
  9
$USERI3
 70
     0
  9
$USERI4
 70
     0
  9
$USERI5
 70
     0
  9
$USERR1
 40
0.0
  9
$USERR2
 40
0.0
  9
$USERR3
 40
0.0
  9
$USERR4
 40
0.0
  9
$USERR5
 40
0.0
  9
$WORLDVIEW
 70
     1
  9
$SHADEDGE
 70
     3
  9
$SHADEDIF
 70
    70
  9
$TILEMODE
 70
     1
  9
$MAXACTVP
 70
    64
  9
$PINSBASE
 10
0.0
 20
0.0
 30
0.0
  9
$PLIMCHECK
 70
     0
  9
$PEXTMIN
 10
1.000000000000000E+20
 20
1.000000000000000E+20
 30
1.000000000000000E+20
  9
$PEXTMAX
 10
-1.000000000000000E+20
 20
-1.000000000000000E+20
 30
-1.000000000000000E+20
  9
$PLIMMIN
 10
0.0
 20
0.0
  9
$PLIMMAX
 10
12.0
 20
9.0
  9
$UNITMODE
 70
     0
  9
$VISRETAIN
 70
     1
  9
$PLINEGEN
 70
     0
  9
$PSLTSCALE
 70
     1
  9
$TREEDEPTH
 70
  3020
  9
$CMLSTYLE
  2
Standard
  9
$CMLJUST
 70
     0
  9
$CMLSCALE
 40
1.0
  9
$PROXYGRAPHICS
 70
     1
  9
$MEASUREMENT
 70
     0
  9
$CELWEIGHT
370
    -1
  9
$ENDCAPS
280
     0
  9
$JOINSTYLE
280
     0
  9
$LWDISPLAY
290
     0
  9
$INSUNITS
 70
     5
  9
$HYPERLINKBASE
  1

  9
$STYLESHEET
  1

  9
$XEDIT
290
     1
  9
$CEPSNTYPE
380
     0
  9
$PSTYLEMODE
290
     1
  9
$FINGERPRINTGUID
  2
{EFEB410A-B121-7541-8EC9-09E1BECCB379}
  9
$VERSIONGUID
  2
{C9FC721E-25BF-AE49-B968-5AA56DB9FA79}
  9
$EXTNAMES
290
     1
  9
$PSVPSCALE
 40
0.0
  9
$OLESTARTUP
290
     0
  9
$SORTENTS
280
   127
  9
$INDEXCTL
280
     0
  9
$HIDETEXT
280
     1
  9
$XCLIPFRAME
280
     2
  9
$HALOGAP
280
     0
  9
$OBSCOLOR
 70
   257
  9
$OBSLTYPE
280
     0
  9
$INTERSECTIONDISPLAY
280
     0
  9
$INTERSECTIONCOLOR
 70
   257
  9
$DIMASSOC
280
     2
  9
$PROJECTNAME
  1

  9
$CAMERADISPLAY
290
     0
  9
$LENSLENGTH
 40
50.0
  9
$CAMERAHEIGHT
 40
0.0
  9
$STEPSPERSEC
 40
2.0
  9
$STEPSIZE
 40
6.0
  9
$3DDWFPREC
 40
2.0
  9
$PSOLWIDTH
 40
0.25
  9
$PSOLHEIGHT
 40
4.0
  9
$LOFTANG1
 40
1.570796326794896
  9
$LOFTANG2
 40
1.570796326794896
  9
$LOFTMAG1
 40
0.0
  9
$LOFTMAG2
 40
0.0
  9
$LOFTPARAM
 70
     7
  9
$LOFTNORMALS
280
     1
  9
$LATITUDE
 40
37.795
  9
$LONGITUDE
 40
-122.394
  9
$NORTHDIRECTION
 40
0.0
  9
$TIMEZONE
 70
 -8000
  9
$LIGHTGLYPHDISPLAY
280
     1
  9
$TILEMODELIGHTSYNCH
280
     1
  9
$CMATERIAL
347
11
  9
$SOLIDHIST
280
     0
  9
$SHOWHIST
280
     1
  9
$DWFFRAME
280
     2
  9
$DGNFRAME
280
     0
  9
$REALWORLDSCALE
290
     1
  9
$INTERFERECOLOR
 62
     1
  9
$INTERFEREOBJVS
345
33
  9
$INTERFEREVPVS
346
30
  9
$CSHADOW
280
     0
  9
$SHADOWPLANELOCATION
 40
0.0
  0
ENDSEC
  0
SECTION
  2
CLASSES
  0
CLASS
  1
ACDBDICTIONARYWDFLT
  2
AcDbDictionaryWithDefault
  3
ObjectDBX Classes
 90
        0
 91
        1
280
     0
281
     0
  0
CLASS
  1
MATERIAL
  2
AcDbMaterial
  3
ObjectDBX Classes
 90
     1153
 91
        3
280
     0
281
     0
  0
CLASS
  1
VISUALSTYLE
  2
AcDbVisualStyle
  3
ObjectDBX Classes
 90
     4095
 91
       24
280
     0
281
     0
  0
CLASS
  1
SCALE
  2
AcDbScale
  3
ObjectDBX Classes
 90
     1153
 91
       17
280
     0
281
     0
  0
CLASS
  1
TABLESTYLE
  2
AcDbTableStyle
  3
ObjectDBX Classes
 90
     4095
 91
        1
280
     0
281
     0
  0
CLASS
  1
MLEADERSTYLE
  2
AcDbMLeaderStyle
  3
ACDB_MLEADERSTYLE_CLASS
 90
     4095
 91
        1
280
     0
281
     0
  0
CLASS
  1
ACDBSECTIONVIEWSTYLE
  2
AcDbSectionViewStyle
  3
ObjectDBX Classes
 90
     1025
 91
        1
280
     0
281
     0
  0
CLASS
  1
ACDBDETAILVIEWSTYLE
  2
AcDbDetailViewStyle
  3
ObjectDBX Classes
 90
     1025
 91
        1
280
     0
281
     0
  0
CLASS
  1
DICTIONARYVAR
  2
AcDbDictionaryVar
  3
ObjectDBX Classes
 90
        0
 91
        5
280
     0
281
     0
  0
CLASS
  1
CELLSTYLEMAP
  2
AcDbCellStyleMap
  3
ObjectDBX Classes
 90
     1152
 91
        1
280
     0
281
     0
  0
ENDSEC
  0
SECTION
  2
TABLES
  0
TABLE
  2
VPORT
  5
8
330
0
100
AcDbSymbolTable
 70
     1
1001
ACAD
1000
DbSaveVer
1071
      291
  0
VPORT
  5
57
330
8
100
AcDbSymbolTableRecord
100
AcDbViewportTableRecord
  2
*Active
 70
     0
 10
0.0
 20
0.0
 11
1.0
 21
1.0
 12
500.0
 22
500.0
 13
0.0
 23
0.0
 14
1.0
 24
1.0
 15
0.0
 25
0.0
 16
0.0
 26
0.0
 36
1.0
 17
0.0
 27
0.0
 37
0.0
 40
12.0
 41
1.0
 42
50.0
 43
0.0
 44
0.0
 50
0.0
 51
0.0
 71
     0
 72
   100
 73
     1
 74
     1
 75
     0
 76
     0
 77
     0
 78
     0
281
     0
 65
     1
110
0.0
120
0.0
130
0.0
111
1.0
121
0.0
131
0.0
112
0.0
122
1.0
132
0.0
 79
     0
146
0.0
 60
     3
 61
     5
292
     1
282
     1
141
0.0
142
0.0
 63
   250
421
  3355443
  0
ENDTAB
  0
TABLE
  2
LTYPE
  5
5
330
0
100
AcDbSymbolTable
 70
     1
  0
LTYPE
  5
5B
330
5
100
AcDbSymbolTableRecord
100
AcDbLinetypeTableRecord
  2
ByBlock
 70
     0
  3

 72
    65
 73
     0
 40
0.0
  0
LTYPE
  5
5C
330
5
100
AcDbSymbolTableRecord
100
AcDbLinetypeTableRecord
  2
ByLayer
 70
     0
  3

 72
    65
 73
     0
 40
0.0
  0
LTYPE
  5
5D
330
5
100
AcDbSymbolTableRecord
100
AcDbLinetypeTableRecord
  2
Continuous
 70
     0
  3
Solid line
 72
    65
 73
     0
 40
0.0
  0
ENDTAB
  0
TABLE
  2
LAYER
  5
2
330
0
100
AcDbSymbolTable
 70
     2
  0
LAYER
  5
54
330
2
100
AcDbSymbolTableRecord
100
AcDbLayerTableRecord
  2
0
 70
     0
 62
     7
  6
Continuous
370
    -3
390
F
347
21
348
0
  0
LAYER
  5
7A
330
2
100
AcDbSymbolTableRecord
100
AcDbLayerTableRecord
  2
Oog joris - sketch v1_Sketch1
 70
     0
 62
     7
  6
Continuous
370
    -3
390
F
347
21
348
0
1001
NFusion_SketchTransform
1000
1.000000;0.000000;0.000000;0.000000;0.000000;1.000000;0.000000;0.000000;0.000000;0.000000;1.000000;0.000000;0.000000;0.000000;0.000000;1.000000
  0
ENDTAB
  0
TABLE
  2
STYLE
  5
3
330
0
100
AcDbSymbolTable
 70
     2
  0
STYLE
  5
55
330
3
100
AcDbSymbolTableRecord
100
AcDbTextStyleTableRecord
  2
Standard
 70
     0
 40
0.0
 41
1.0
 50
0.0
 71
     0
 42
0.2
  3
txt
  4

  0
STYLE
  5
5A
330
3
100
AcDbSymbolTableRecord
100
AcDbTextStyleTableRecord
  2
Annotative
 70
     0
 40
0.0
 41
1.0
 50
0.0
 71
     0
 42
0.2
  3
txt
  4

1001
AcadAnnotative
1000
AnnotativeData
1002
{
1070
     1
1070
     1
1002
}
  0
ENDTAB
  0
TABLE
  2
VIEW
  5
6
330
0
100
AcDbSymbolTable
 70
     0
  0
ENDTAB
  0
TABLE
  2
UCS
  5
7
330
0
100
AcDbSymbolTable
 70
     0
  0
ENDTAB
  0
TABLE
  2
APPID
  5
9
330
0
100
AcDbSymbolTable
 70
     4
  0
APPID
  5
56
330
9
100
AcDbSymbolTableRecord
100
AcDbRegAppTableRecord
  2
ACAD
 70
     0
  0
APPID
  5
5E
330
9
100
AcDbSymbolTableRecord
100
AcDbRegAppTableRecord
  2
AcadAnnotative
 70
     0
  0
APPID
  5
78
330
9
100
AcDbSymbolTableRecord
100
AcDbRegAppTableRecord
  2
EDIT_IN_FUSION_ACAD_ADDIN
 70
     0
  0
APPID
  5
79
330
9
100
AcDbSymbolTableRecord
100
AcDbRegAppTableRecord
  2
NFusion_SketchTransform
 70
     0
  0
ENDTAB
  0
TABLE
  2
DIMSTYLE
  5
A
330
0
100
AcDbSymbolTable
 70
     2
100
AcDbDimStyleTable
 71
     0
  0
DIMSTYLE
105
58
330
A
100
AcDbSymbolTableRecord
100
AcDbDimStyleTableRecord
  2
Standard
 70
     0
340
55
  0
DIMSTYLE
105
59
330
A
100
AcDbSymbolTableRecord
100
AcDbDimStyleTableRecord
  2
Annotative
 70
     0
340
55
1001
AcadAnnotative
1000
AnnotativeData
1002
{
1070
     1
1070
     1
1002
}
  0
ENDTAB
  0
TABLE
  2
BLOCK_RECORD
  5
1
330
0
100
AcDbSymbolTable
 70
     1
  0
BLOCK_RECORD
  5
70
330
1
100
AcDbSymbolTableRecord
100
AcDbBlockTableRecord
  2
*Model_Space
340
73
 70
     0
280
     1
281
     0
  0
BLOCK_RECORD
  5
6C
330
1
100
AcDbSymbolTableRecord
100
AcDbBlockTableRecord
  2
*Paper_Space
340
6F
 70
     0
280
     1
281
     0
  0
BLOCK_RECORD
  5
74
330
1
100
AcDbSymbolTableRecord
100
AcDbBlockTableRecord
  2
*Paper_Space0
340
77
 70
     0
280
     1
281
     0
  0
ENDTAB
  0
ENDSEC
  0
SECTION
  2
BLOCKS
  0
BLOCK
  5
71
330
70
100
AcDbEntity
  8
0
100
AcDbBlockBegin
  2
*Model_Space
 70
     0
 10
0.0
 20
0.0
 30
0.0
  3
*Model_Space
  1

  0
ENDBLK
  5
72
330
70
100
AcDbEntity
  8
0
100
AcDbBlockEnd
  0
BLOCK
  5
6D
330
6C
100
AcDbEntity
 67
     1
  8
0
100
AcDbBlockBegin
  2
*Paper_Space
 70
     0
 10
0.0
 20
0.0
 30
0.0
  3
*Paper_Space
  1

  0
ENDBLK
  5
6E
330
6C
100
AcDbEntity
 67
     1
  8
0
100
AcDbBlockEnd
  0
BLOCK
  5
75
330
74
100
AcDbEntity
 67
     1
  8
0
100
AcDbBlockBegin
  2
*Paper_Space0
 70
     0
 10
0.0
 20
0.0
 30
0.0
  3
*Paper_Space0
  1

  0
ENDBLK
  5
76
330
74
100
AcDbEntity
 67
     1
  8
0
100
AcDbBlockEnd
  0
ENDSEC
  0
SECTION
  2
ENTITIES
  0
POINT
  5
7B
330
70
100
AcDbEntity
  8
Oog joris - sketch v1_Sketch1
100
AcDbPoint
 10
0.0
 20
0.0
 30
0.0
  0
POINT
  5
7C
330
70
100
AcDbEntity
  8
Oog joris - sketch v1_Sketch1
100
AcDbPoint
 10
0.0
 20
0.0
 30
0.0
  0
LINE
  5
7D
330
70
100
AcDbEntity
  8
Oog joris - sketch v1_Sketch1
100
AcDbLine
 10
27.68914794921875
 20
-26.96620178222656
 30
0.0
 11
28.1563720703125
 21
-26.10245513916016
 31
0.0
  0
LINE
  5
7E
330
70
100
AcDbEntity
  8
Oog joris - sketch v1_Sketch1
100
AcDbLine
 10
19.73388671875
 20
45.19242858886719
 30
0.0
 11
20.48284912109375
 21
44.57933807373047
 31
0.0
  0
LINE
  5
7F
330
70
100
AcDbEntity
  8
Oog joris - sketch v1_Sketch1
100
AcDbLine
 10
28.1563720703125
 20
-26.10245513916016
 30
0.0
 11
28.5966796875
 21
-25.22467041015625
 31
0.0
  0
LINE
  5
80
330
70
100
AcDbEntity
  8
Oog joris - sketch v1_Sketch1
100
AcDbLine
 10
-26.9853515625
 20
37.04881286621094
 30
0.0
 11
-26.45767211914062
 21
37.8714599609375
 31
0.0
  0
LINE
  5
81
330
70
100
AcDbEntity
  8
Oog joris - sketch v1_Sketch1
100
AcDbLine
 10
-20.54107666015625
 20
-35.6400375366211
 30
0.0
 11
-19.78256225585937
 21
-36.26371002197266
 31
0.0
  0
LINE
  5
82
330
70
100
AcDbEntity
  8
Oog joris - sketch v1_Sketch1
100
AcDbLine
 10
-15.7210693359375
 20
-39.01461029052735
 30
0.0
 11
-14.86044311523437
 21
-39.48760604858398
 31
0.0
  0
LINE
  5
83
330
70
100
AcDbEntity
  8
Oog joris - sketch v1_Sketch1
100
AcDbLine
 10
47.42794799804687
 20
50.93593597412109
 30
0.0
 11
48.1414794921875
 21
49.84806060791015
 31
0.0
  0
LINE
  5
84
330
70
100
AcDbEntity
  8
Oog joris - sketch v1_Sketch1
100
AcDbLine
 10
-57.14999389648437
 20
19.05000305175781
 30
0.0
 11
-57.13519287109375
 21
20.35092163085938
 31
0.0
  0
LINE
  5
85
330
70
100
AcDbEntity
  8
Oog joris - sketch v1_Sketch1
100
AcDbLine
 10
-19.89590454101562
 20
45.06298828124999
 30
0.0
 11
-19.12493896484375
 21
45.66362762451172
 31
0.0
  0
LINE
  5
86
330
70
100
AcDbEntity
  8
Oog joris - sketch v1_Sketch1
100
AcDbLine
 10
-56.61770629882813
 20
26.83193206787109
 30
0.0
 11
-56.4259033203125
 21
28.11871337890625
 31
0.0
  0
LINE
  5
87
330
70
100
AcDbEntity
  8
Oog joris - sketch v1_Sketch1
100
AcDbLine
 10
31.56082153320312
 20
-14.8907356262207
 30
0.0
 11
31.65277099609375
 21
-13.91302490234375
 31
0.0
  0
LINE
  5
88
330
70
100
AcDbEntity
  8
Oog joris - sketch v1_Sketch1
100
AcDbLine
 10
31.2864990234375
 20
-16.83528900146484
 30
0.0
 11
31.43869018554688
 21
-15.86513519287109
 31
0.0
  0
LINE
  5
89
330
70
100
AcDbEntity
  8
Oog joris - sketch v1_Sketch1
100
AcDbLine
 10
30.89248657226562
 20
-18.75916290283203
 30
0.0
 11
31.1043701171875
 21
-17.80027770996094
 31
0.0
  0
LINE
  5
8A
330
70
100
AcDbEntity
  8
Oog joris - sketch v1_Sketch1
100
AcDbLine
 10
-10.546875
 20
50.26705932617187
 30
0.0
 11
-9.620147705078125
 21
50.57748413085938
 31
0.0
  0
LINE
  5
8B
330
70
100
AcDbEntity
  8
Oog joris - sketch v1_Sketch1
100
AcDbLine
 10
48.1414794921875
 20
49.84806060791015
 30
0.0
 11
48.830078125
 21
48.74422454833984
 31
0.0
  0
LINE
  5
8C
330
70
100
AcDbEntity
  8
Oog joris - sketch v1_Sketch1
100
AcDbLine
 10
-24.65567016601563
 20
-31.43399810791016
 30
0.0
 11
-24.02523803710938
 21
-32.18693923950195
 31
0.0
  0
LINE
  5
8D
330
70
100
AcDbEntity
  8
Oog joris - sketch v1_Sketch1
100
AcDbLine
 10
-4.86761474609375
 20
51.69465637207031
 30
0.0
 11
-3.899658203125
 21
51.82960510253906
 31
0.0
  0
LINE
  5
8E
330
70
100
AcDbEntity
  8
Oog joris - sketch v1_Sketch1
100
AcDbLine
 10
-2.601165771484375
 20
76.14077758789062
 30
0.0
 11
-1.3009033203125
 21
76.18519592285156
 31
0.0
  0
LINE
  5
8F
330
70
100
AcDbEntity
  8
Oog joris - sketch v1_Sketch1
100
AcDbLine
 10
-57.01678466796875
 20
22.95005798339844
 30
0.0
 11
-56.9132080078125
 21
24.24693298339844
 31
0.0
  0
LINE
  5
90
330
70
100
AcDbEntity
  8
Oog joris - sketch v1_Sketch1
100
AcDbLine
 10
-29.23104858398438
 20
32.71390533447266
 30
0.0
 11
-28.83572387695313
 21
33.60772705078125
 31
0.0
  0
LINE
  5
91
330
70
100
AcDbEntity
  8
Oog joris - sketch v1_Sketch1
100
AcDbLine
 10
28.5966796875
 20
-25.22467041015625
 30
0.0
 11
29.00961303710938
 21
-24.33368682861328
 31
0.0
  0
LINE
  5
92
330
70
100
AcDbEntity
  8
Oog joris - sketch v1_Sketch1
100
AcDbLine
 10
-19.78256225585937
 20
-36.26371002197266
 30
0.0
 11
-19.00506591796875
 21
-36.86363220214844
 31
0.0
  0
LINE
  5
93
330
70
100
AcDbEntity
  8
Oog joris - sketch v1_Sketch1
100
AcDbLine
 10
45.92752075195313
 20
53.06155395507812
 30
0.0
 11
46.6898193359375
 21
52.00727844238281
 31
0.0
  0
LINE
  5
94
330
70
100
AcDbEntity
  8
Oog joris - sketch v1_Sketch1
100
AcDbLine
 10
-56.204833984375
 20
29.40079498291016
 30
0.0
 11
-55.95465087890625
 21
30.67750549316406
 31
0.0
  0
LINE
  5
95
330
70
100
AcDbEntity
  8
Oog joris - sketch v1_Sketch1
100
AcDbLine
 10
29.00961303710938
 20
-24.33368682861328
 30
0.0
 11
29.39480590820313
 21
-23.43035507202149
 31
0.0
  0
LINE
  5
96
330
70
100
AcDbEntity
  8
Oog joris - sketch v1_Sketch1
100
AcDbLine
 10
-35.04818725585938
 20
64.19140625
 30
0.0
 11
-34.01153564453125
 21
64.97752380371093
 31
0.0
  0
LINE
  5
97
330
70
100
AcDbEntity
  8
Oog joris - sketch v1_Sketch1
100
AcDbLine
 10
45.14138793945313
 20
54.09820556640625
 30
0.0
 11
45.92752075195313
 21
53.06155395507812
 31
0.0
  0
LINE
  5
98
330
70
100
AcDbEntity
  8
Oog joris - sketch v1_Sketch1
100
AcDbLine
 10
31.71441650390625
 20
-12.93293762207031
 30
0.0
 11
31.7457275390625
 21
-11.951416015625
 31
0.0
  0
LINE
  5
99
330
70
100
AcDbEntity
  8
Oog joris - sketch v1_Sketch1
100
AcDbLine
 10
-13.09744262695312
 20
-40.3526496887207
 30
0.0
 11
-12.19668579101562
 21
-40.74386596679687
 31
0.0
  0
LINE
  5
9A
330
70
100
AcDbEntity
  8
Oog joris - sketch v1_Sketch1
100
AcDbLine
 10
-29.59866333007813
 20
31.80834197998047
 30
0.0
 11
-29.23104858398438
 21
32.71390533447266
 31
0.0
  0
LINE
  5
9B
330
70
100
AcDbEntity
  8
Oog joris - sketch v1_Sketch1
100
AcDbLine
 10
-0.97723388671875
 20
52.05496215820312
 30
0.0
 11
0.0
 21
52.07000732421875
 31
0.0
  0
LINE
  5
9C
330
70
100
AcDbEntity
  8
Oog joris - sketch v1_Sketch1
100
AcDbLine
 10
-1.3009033203125
 20
76.18519592285156
 30
0.0
 11
0.0
 21
76.19999694824219
 31
0.0
  0
LINE
  5
9D
330
70
100
AcDbEntity
  8
Oog joris - sketch v1_Sketch1
100
AcDbLine
 10
39.94857788085937
 20
59.91851806640625
 30
0.0
 11
40.86849975585937
 21
58.99856567382812
 31
0.0
  0
LINE
  5
9E
330
70
100
AcDbEntity
  8
Oog joris - sketch v1_Sketch1
100
AcDbLine
 10
30.0804443359375
 20
-21.59013366699219
 30
0.0
 11
30.38027954101563
 21
-20.65500259399414
 31
0.0
  0
LINE
  5
9F
330
70
100
AcDbEntity
  8
Oog joris - sketch v1_Sketch1
100
AcDbLine
 10
-6.788818359375
 20
51.33571624755859
 30
0.0
 11
-5.83099365234375
 21
51.52996826171875
 31
0.0
  0
LINE
  5
A0
330
70
100
AcDbEntity
  8
Oog joris - sketch v1_Sketch1
100
AcDbLine
 10
30.38027954101563
 20
-20.65500259399414
 30
0.0
 11
30.65103149414063
 21
-19.71104431152344
 31
0.0
  0
LINE
  5
A1
330
70
100
AcDbEntity
  8
Oog joris - sketch v1_Sketch1
100
AcDbLine
 10
-13.26364135742187
 20
49.16681671142578
 30
0.0
 11
-12.36947631835937
 21
49.56138610839843
 31
0.0
  0
LINE
  5
A2
330
70
100
AcDbEntity
  8
Oog joris - sketch v1_Sketch1
100
AcDbLine
 10
-13.98562622070312
 20
-39.93376159667969
 30
0.0
 11
-13.09744262695312
 21
-40.3526496887207
 31
0.0
  0
LINE
  5
A3
330
70
100
AcDbEntity
  8
Oog joris - sketch v1_Sketch1
100
AcDbLine
 10
51.3280029296875
 20
44.18083953857421
 30
0.0
 11
51.88674926757812
 21
43.00594329833984
 31
0.0
  0
LINE
  5
A4
330
70
100
AcDbEntity
  8
Oog joris - sketch v1_Sketch1
100
AcDbLine
 10
-27.48745727539063
 20
36.21031188964844
 30
0.0
 11
-26.9853515625
 21
37.04881286621094
 31
0.0
  0
LINE
  5
A5
330
70
100
AcDbEntity
  8
Oog joris - sketch v1_Sketch1
100
AcDbLine
 10
-20.64804077148437
 20
44.43888854980468
 30
0.0
 11
-19.89590454101562
 21
45.06298828124999
 31
0.0
  0
LINE
  5
A6
330
70
100
AcDbEntity
  8
Oog joris - sketch v1_Sketch1
100
AcDbLine
 10
-12.19668579101562
 20
-40.74386596679687
 30
0.0
 11
-11.2843017578125
 21
-41.1070442199707
 31
0.0
  0
LINE
  5
A7
330
70
100
AcDbEntity
  8
Oog joris - sketch v1_Sketch1
100
AcDbLine
 10
-18.20941162109375
 20
-37.4392204284668
 30
0.0
 11
-17.39633178710937
 21
-37.98992538452149
 31
0.0
  0
LINE
  5
A8
330
70
100
AcDbEntity
  8
Oog joris - sketch v1_Sketch1
100
AcDbLine
 10
-57.14999389648437
 20
-76.19999694824219
 30
0.0
 11
-57.14999389648437
 21
19.05000305175781
 31
0.0
  0
LINE
  5
A9
330
70
100
AcDbEntity
  8
Oog joris - sketch v1_Sketch1
100
AcDbLine
 10
-11.46359252929687
 20
49.92825317382813
 30
0.0
 11
-10.546875
 21
50.26705932617187
 31
0.0
  0
LINE
  5
AA
330
70
100
AcDbEntity
  8
Oog joris - sketch v1_Sketch1
100
AcDbLine
 10
-11.2843017578125
 20
-41.1070442199707
 30
0.0
 11
-10.36111450195312
 21
-41.44182968139648
 31
0.0
  0
LINE
  5
AB
330
70
100
AcDbEntity
  8
Oog joris - sketch v1_Sketch1
100
AcDbLine
 10
-5.83099365234375
 20
51.52996826171875
 30
0.0
 11
-4.86761474609375
 21
51.69465637207031
 31
0.0
  0
LINE
  5
AC
330
70
100
AcDbEntity
  8
Oog joris - sketch v1_Sketch1
100
AcDbLine
 10
-12.36947631835937
 20
49.56138610839843
 30
0.0
 11
-11.46359252929687
 21
49.92825317382813
 31
0.0
  0
LINE
  5
AD
330
70
100
AcDbEntity
  8
Oog joris - sketch v1_Sketch1
100
AcDbLine
 10
-57.09078979492187
 20
21.65116119384766
 30
0.0
 11
-57.01678466796875
 21
22.95005798339844
 31
0.0
  0
LINE
  5
AE
330
70
100
AcDbEntity
  8
Oog joris - sketch v1_Sketch1
100
AcDbLine
 10
-8.684295654296875
 20
50.8592529296875
 30
0.0
 11
-7.740234375
 21
51.11206817626953
 31
0.0
  0
LINE
  5
AF
330
70
100
AcDbEntity
  8
Oog joris - sketch v1_Sketch1
100
AcDbLine
 10
-19.00506591796875
 20
-36.86363220214844
 30
0.0
 11
-18.20941162109375
 21
-37.4392204284668
 31
0.0
  0
LINE
  5
B0
330
70
100
AcDbEntity
  8
Oog joris - sketch v1_Sketch1
100
AcDbLine
 10
-14.86044311523437
 20
-39.48760604858398
 30
0.0
 11
-13.98562622070312
 21
-39.93376159667969
 31
0.0
  0
LINE
  5
B1
330
70
100
AcDbEntity
  8
Oog joris - sketch v1_Sketch1
100
AcDbLine
 10
-25.26251220703125
 20
-30.66193008422852
 30
0.0
 11
-24.65567016601563
 21
-31.43399810791016
 31
0.0
  0
LINE
  5
B2
330
70
100
AcDbEntity
  8
Oog joris - sketch v1_Sketch1
100
AcDbLine
 10
-56.4259033203125
 20
28.11871337890625
 30
0.0
 11
-56.204833984375
 21
29.40079498291016
 31
0.0
  0
LINE
  5
B3
330
70
100
AcDbEntity
  8
Oog joris - sketch v1_Sketch1
100
AcDbLine
 10
-7.740234375
 20
51.11206817626953
 30
0.0
 11
-6.788818359375
 21
51.33571624755859
 31
0.0
  0
LINE
  5
B4
330
70
100
AcDbEntity
  8
Oog joris - sketch v1_Sketch1
100
AcDbLine
 10
-28.83572387695313
 20
33.60772705078125
 30
0.0
 11
-28.4130859375
 21
34.48895263671875
 31
0.0
  0
LINE
  5
B5
330
70
100
AcDbEntity
  8
Oog joris - sketch v1_Sketch1
100
AcDbLine
 10
-57.13519287109375
 20
20.35092163085938
 30
0.0
 11
-57.09078979492187
 21
21.65116119384766
 31
0.0
  0
LINE
  5
B6
330
70
100
AcDbEntity
  8
Oog joris - sketch v1_Sketch1
100
AcDbLine
 10
46.6898193359375
 20
52.00727844238281
 30
0.0
 11
47.42794799804687
 21
50.93593597412109
 31
0.0
  0
LINE
  5
B7
330
70
100
AcDbEntity
  8
Oog joris - sketch v1_Sketch1
100
AcDbLine
 10
40.86849975585937
 20
58.99856567382812
 30
0.0
 11
41.76730346679687
 21
58.05790710449219
 31
0.0
  0
LINE
  5
B8
330
70
100
AcDbEntity
  8
Oog joris - sketch v1_Sketch1
100
AcDbLine
 10
51.88674926757812
 20
43.00594329833984
 30
0.0
 11
52.41860961914063
 21
41.81861877441406
 31
0.0
  0
LINE
  5
B9
330
70
100
AcDbEntity
  8
Oog joris - sketch v1_Sketch1
100
AcDbLine
 10
43.49945068359375
 20
56.11647033691406
 30
0.0
 11
44.3319091796875
 21
55.11666870117188
 31
0.0
  0
LINE
  5
BA
330
70
100
AcDbEntity
  8
Oog joris - sketch v1_Sketch1
100
AcDbLine
 10
-27.96353149414063
 20
35.35675811767578
 30
0.0
 11
-27.48745727539063
 21
36.21031188964844
 31
0.0
  0
LINE
  5
BB
330
70
100
AcDbEntity
  8
Oog joris - sketch v1_Sketch1
100
AcDbLine
 10
-22.69601440429688
 20
-33.63253784179688
 30
0.0
 11
-21.99853515625
 21
-34.32381820678711
 31
0.0
  0
LINE
  5
BC
330
70
100
AcDbEntity
  8
Oog joris - sketch v1_Sketch1
100
AcDbLine
 10
-24.02523803710938
 20
-32.18693923950195
 30
0.0
 11
-23.37179565429687
 21
-32.92001724243164
 31
0.0
  0
LINE
  5
BD
330
70
100
AcDbEntity
  8
Oog joris - sketch v1_Sketch1
100
AcDbLine
 10
-23.37179565429687
 20
-32.92001724243164
 30
0.0
 11
-22.69601440429688
 21
-33.63253784179688
 31
0.0
  0
LINE
  5
BE
330
70
100
AcDbEntity
  8
Oog joris - sketch v1_Sketch1
100
AcDbLine
 10
-17.39633178710937
 20
-37.98992538452149
 30
0.0
 11
-16.56661987304687
 21
-38.51522064208984
 31
0.0
  0
LINE
  5
BF
330
70
100
AcDbEntity
  8
Oog joris - sketch v1_Sketch1
100
AcDbLine
 10
-56.78018188476563
 20
25.54110717773438
 30
0.0
 11
-56.61770629882813
 21
26.83193206787109
 31
0.0
  0
LINE
  5
C0
330
70
100
AcDbEntity
  8
Oog joris - sketch v1_Sketch1
100
AcDbLine
 10
-29.938232421875
 20
30.89188385009766
 30
0.0
 11
-29.59866333007813
 21
31.80834197998047
 31
0.0
  0
LINE
  5
C1
330
70
100
AcDbEntity
  8
Oog joris - sketch v1_Sketch1
100
AcDbLine
 10
41.76730346679687
 20
58.05790710449219
 30
0.0
 11
42.6444091796875
 21
57.0970458984375
 31
0.0
  0
LINE
  5
C2
330
70
100
AcDbEntity
  8
Oog joris - sketch v1_Sketch1
100
AcDbLine
 10
-25.32763671875
 20
39.46610260009766
 30
0.0
 11
-24.72634887695313
 21
40.23658752441406
 31
0.0
  0
LINE
  5
C3
330
70
100
AcDbEntity
  8
Oog joris - sketch v1_Sketch1
100
AcDbLine
 10
39.0079345703125
 20
60.81727600097656
 30
0.0
 11
39.94857788085937
 21
59.91851806640625
 31
0.0
  0
LINE
  5
C4
330
70
100
AcDbEntity
  8
Oog joris - sketch v1_Sketch1
100
AcDbLine
 10
-23.45407104492188
 20
41.72021484375
 30
0.0
 11
-22.7843017578125
 21
42.43196868896484
 31
0.0
  0
LINE
  5
C5
330
70
100
AcDbEntity
  8
Oog joris - sketch v1_Sketch1
100
AcDbLine
 10
-15.01339721679687
 20
48.29607391357422
 30
0.0
 11
-14.14520263671875
 21
48.74491119384765
 31
0.0
  0
LINE
  5
C6
330
70
100
AcDbEntity
  8
Oog joris - sketch v1_Sketch1
100
AcDbLine
 10
-22.09292602539063
 20
43.12275695800781
 30
0.0
 11
-21.380615234375
 21
43.79193878173828
 31
0.0
  0
LINE
  5
C7
330
70
100
AcDbEntity
  8
Oog joris - sketch v1_Sketch1
100
AcDbLine
 10
-23.9559326171875
 20
70.93675231933594
 30
0.0
 11
-22.76861572265625
 21
71.4686279296875
 31
0.0
  0
LINE
  5
C8
330
70
100
AcDbEntity
  8
Oog joris - sketch v1_Sketch1
100
AcDbLine
 10
-56.9132080078125
 20
24.24693298339844
 30
0.0
 11
-56.78018188476563
 21
25.54110717773438
 31
0.0
  0
LINE
  5
C9
330
70
100
AcDbEntity
  8
Oog joris - sketch v1_Sketch1
100
AcDbLine
 10
-9.620147705078125
 20
50.57748413085938
 30
0.0
 11
-8.684295654296875
 21
50.8592529296875
 31
0.0
  0
LINE
  5
CA
330
70
100
AcDbEntity
  8
Oog joris - sketch v1_Sketch1
100
AcDbLine
 10
-24.72634887695313
 20
40.23658752441406
 30
0.0
 11
-24.10162353515625
 21
40.98818969726562
 31
0.0
  0
LINE
  5
CB
330
70
100
AcDbEntity
  8
Oog joris - sketch v1_Sketch1
100
AcDbLine
 10
52.41860961914063
 20
41.81861877441406
 30
0.0
 11
52.92330932617187
 21
40.6195068359375
 31
0.0
  0
LINE
  5
CC
330
70
100
AcDbEntity
  8
Oog joris - sketch v1_Sketch1
100
AcDbLine
 10
10.44900512695312
 20
50.30134582519531
 30
0.0
 11
11.3580322265625
 21
49.96891021728515
 31
0.0
  0
LINE
  5
CD
330
70
100
AcDbEntity
  8
Oog joris - sketch v1_Sketch1
100
AcDbLine
 10
-17.52935791015625
 20
46.7923355102539
 30
0.0
 11
-16.70626831054687
 21
47.31932067871094
 31
0.0
  0
LINE
  5
CE
330
70
100
AcDbEntity
  8
Oog joris - sketch v1_Sketch1
100
AcDbLine
 10
-29.6942138671875
 20
67.88006591796875
 30
0.0
 11
-28.57501220703125
 21
68.54335021972656
 31
0.0
  0
LINE
  5
CF
330
70
100
AcDbEntity
  8
Oog joris - sketch v1_Sketch1
100
AcDbLine
 10
22.76861572265625
 20
71.4686279296875
 30
0.0
 11
23.9559326171875
 21
70.93675231933594
 31
0.0
  0
LINE
  5
D0
330
70
100
AcDbEntity
  8
Oog joris - sketch v1_Sketch1
100
AcDbLine
 10
-22.76861572265625
 20
71.4686279296875
 30
0.0
 11
-21.56948852539063
 21
71.97332763671875
 31
0.0
  0
LINE
  5
D1
330
70
100
AcDbEntity
  8
Oog joris - sketch v1_Sketch1
100
AcDbLine
 10
-55.03073120117187
 20
34.46888732910156
 30
0.0
 11
-54.66546630859375
 21
35.71756744384766
 31
0.0
  0
LINE
  5
D2
330
70
100
AcDbEntity
  8
Oog joris - sketch v1_Sketch1
100
AcDbLine
 10
-5.196929931640625
 20
75.96322631835938
 30
0.0
 11
-3.900054931640625
 21
76.0667724609375
 31
0.0
  0
LINE
  5
D3
330
70
100
AcDbEntity
  8
Oog joris - sketch v1_Sketch1
100
AcDbLine
 10
-7.78192138671875
 20
75.66770935058594
 30
0.0
 11
-6.491119384765625
 21
75.83018493652343
 31
0.0
  0
LINE
  5
D4
330
70
100
AcDbEntity
  8
Oog joris - sketch v1_Sketch1
100
AcDbLine
 10
-22.7843017578125
 20
42.43196868896484
 30
0.0
 11
-22.09292602539063
 21
43.12275695800781
 31
0.0
  0
LINE
  5
D5
330
70
100
AcDbEntity
  8
Oog joris - sketch v1_Sketch1
100
AcDbLine
 10
-25.90493774414063
 20
38.67747497558594
 30
0.0
 11
-25.32763671875
 21
39.46610260009766
 31
0.0
  0
LINE
  5
D6
330
70
100
AcDbEntity
  8
Oog joris - sketch v1_Sketch1
100
AcDbLine
 10
38.04705810546875
 20
61.69439697265625
 30
0.0
 11
39.0079345703125
 21
60.81727600097656
 31
0.0
  0
LINE
  5
D7
330
70
100
AcDbEntity
  8
Oog joris - sketch v1_Sketch1
100
AcDbLine
 10
-14.14520263671875
 20
48.74491119384765
 30
0.0
 11
-13.26364135742187
 21
49.16681671142578
 31
0.0
  0
LINE
  5
D8
330
70
100
AcDbEntity
  8
Oog joris - sketch v1_Sketch1
100
AcDbLine
 10
31.74594116210938
 20
20.82731628417969
 30
0.0
 11
31.74667358398437
 21
19.85939788818359
 31
0.0
  0
LINE
  5
D9
330
70
100
AcDbEntity
  8
Oog joris - sketch v1_Sketch1
100
AcDbLine
 10
55.67547607421875
 20
31.94820404052734
 30
0.0
 11
55.95465087890625
 21
30.67750549316406
 31
0.0
  0
LINE
  5
DA
330
70
100
AcDbEntity
  8
Oog joris - sketch v1_Sketch1
100
AcDbLine
 10
-55.36746215820312
 20
33.21221923828125
 30
0.0
 11
-55.03073120117187
 21
34.46888732910156
 31
0.0
  0
LINE
  5
DB
330
70
100
AcDbEntity
  8
Oog joris - sketch v1_Sketch1
100
AcDbLine
 10
15.72830200195312
 20
47.90046691894531
 30
0.0
 11
16.56170654296875
 21
47.40823364257813
 31
0.0
  0
LINE
  5
DC
330
70
100
AcDbEntity
  8
Oog joris - sketch v1_Sketch1
100
AcDbLine
 10
-18.3358154296875
 20
46.24025726318359
 30
0.0
 11
-17.52935791015625
 21
46.7923355102539
 31
0.0
  0
LINE
  5
DD
330
70
100
AcDbEntity
  8
Oog joris - sketch v1_Sketch1
100
AcDbLine
 10
-53.40060424804687
 20
39.40921783447265
 30
0.0
 11
-52.92330932617187
 21
40.6195068359375
 31
0.0
  0
LINE
  5
DE
330
70
100
AcDbEntity
  8
Oog joris - sketch v1_Sketch1
100
AcDbLine
 10
-6.491119384765625
 20
75.83018493652343
 30
0.0
 11
-5.196929931640625
 21
75.96322631835938
 31
0.0
  0
LINE
  5
DF
330
70
100
AcDbEntity
  8
Oog joris - sketch v1_Sketch1
100
AcDbLine
 10
-15.86734008789062
 20
47.82072448730469
 30
0.0
 11
-15.01339721679687
 21
48.29607391357422
 31
0.0
  0
LINE
  5
E0
330
70
100
AcDbEntity
  8
Oog joris - sketch v1_Sketch1
100
AcDbLine
 10
-3.900054931640625
 20
76.0667724609375
 30
0.0
 11
-2.601165771484375
 21
76.14077758789062
 31
0.0
  0
LINE
  5
E1
330
70
100
AcDbEntity
  8
Oog joris - sketch v1_Sketch1
100
AcDbLine
 10
42.6444091796875
 20
57.0970458984375
 30
0.0
 11
43.49945068359375
 21
56.11647033691406
 31
0.0
  0
LINE
  5
E2
330
70
100
AcDbEntity
  8
Oog joris - sketch v1_Sketch1
100
AcDbLine
 10
-26.45767211914062
 20
37.8714599609375
 30
0.0
 11
-25.90493774414063
 21
38.67747497558594
 31
0.0
  0
LINE
  5
E3
330
70
100
AcDbEntity
  8
Oog joris - sketch v1_Sketch1
100
AcDbLine
 10
-36.06668090820313
 20
63.38189697265625
 30
0.0
 11
-35.04818725585938
 21
64.19140625
 31
0.0
  0
LINE
  5
E4
330
70
100
AcDbEntity
  8
Oog joris - sketch v1_Sketch1
100
AcDbLine
 10
-51.88674926757812
 20
43.00594329833984
 30
0.0
 11
-51.3280029296875
 21
44.18083953857421
 31
0.0
  0
LINE
  5
E5
330
70
100
AcDbEntity
  8
Oog joris - sketch v1_Sketch1
100
AcDbLine
 10
53.85018920898438
 20
38.18836975097656
 30
0.0
 11
54.27191162109375
 21
36.95761108398438
 31
0.0
  0
LINE
  5
E6
330
70
100
AcDbEntity
  8
Oog joris - sketch v1_Sketch1
100
AcDbLine
 10
16.56170654296875
 20
47.40823364257813
 30
0.0
 11
17.37969970703125
 21
46.89080810546875
 31
0.0
  0
LINE
  5
E7
330
70
100
AcDbEntity
  8
Oog joris - sketch v1_Sketch1
100
AcDbLine
 10
-10.35076904296875
 20
75.25483703613281
 30
0.0
 11
-9.068695068359375
 21
75.47589111328125
 31
0.0
  0
LINE
  5
E8
330
70
100
AcDbEntity
  8
Oog joris - sketch v1_Sketch1
100
AcDbLine
 10
-17.90762329101562
 20
73.32191467285156
 30
0.0
 11
-16.66757202148437
 21
73.71548461914063
 31
0.0
  0
LINE
  5
E9
330
70
100
AcDbEntity
  8
Oog joris - sketch v1_Sketch1
100
AcDbLine
 10
36.06668090820313
 20
63.38189697265625
 30
0.0
 11
37.06646728515625
 21
62.54942321777344
 31
0.0
  0
LINE
  5
EA
330
70
100
AcDbEntity
  8
Oog joris - sketch v1_Sketch1
100
AcDbLine
 10
-25.13082885742188
 20
70.37800598144531
 30
0.0
 11
-23.9559326171875
 21
70.93675231933594
 31
0.0
  0
LINE
  5
EB
330
70
100
AcDbEntity
  8
Oog joris - sketch v1_Sketch1
100
AcDbLine
 10
44.3319091796875
 20
55.11666870117188
 30
0.0
 11
45.14138793945313
 21
54.09820556640625
 31
0.0
  0
LINE
  5
EC
330
70
100
AcDbEntity
  8
Oog joris - sketch v1_Sketch1
100
AcDbLine
 10
-21.56948852539063
 20
71.97332763671875
 30
0.0
 11
-20.35922241210938
 21
72.45060729980469
 31
0.0
  0
LINE
  5
ED
330
70
100
AcDbEntity
  8
Oog joris - sketch v1_Sketch1
100
AcDbLine
 10
14.0184326171875
 20
48.80763244628906
 30
0.0
 11
14.88027954101562
 21
48.3670883178711
 31
0.0
  0
LINE
  5
EE
330
70
100
AcDbEntity
  8
Oog joris - sketch v1_Sketch1
100
AcDbLine
 10
-53.85018920898438
 20
38.18836975097656
 30
0.0
 11
-53.40060424804687
 21
39.40921783447265
 31
0.0
  0
LINE
  5
EF
330
70
100
AcDbEntity
  8
Oog joris - sketch v1_Sketch1
100
AcDbLine
 10
53.40060424804687
 20
39.40921783447265
 30
0.0
 11
53.85018920898438
 21
38.18836975097656
 31
0.0
  0
LINE
  5
F0
330
70
100
AcDbEntity
  8
Oog joris - sketch v1_Sketch1
100
AcDbLine
 10
31.71572875976563
 20
21.79475402832031
 30
0.0
 11
31.74594116210938
 21
20.82731628417969
 31
0.0
  0
LINE
  5
F1
330
70
100
AcDbEntity
  8
Oog joris - sketch v1_Sketch1
100
AcDbLine
 10
-54.66546630859375
 20
35.71756744384766
 30
0.0
 11
-54.27191162109375
 21
36.95761108398438
 31
0.0
  0
LINE
  5
F2
330
70
100
AcDbEntity
  8
Oog joris - sketch v1_Sketch1
100
AcDbLine
 10
-12.898193359375
 20
74.72547912597656
 30
0.0
 11
-11.62750244140625
 21
75.00465393066406
 31
0.0
  0
LINE
  5
F3
330
70
100
AcDbEntity
  8
Oog joris - sketch v1_Sketch1
100
AcDbLine
 10
-28.4130859375
 20
34.48895263671875
 30
0.0
 11
-27.96353149414063
 21
35.35675811767578
 31
0.0
  0
LINE
  5
F4
330
70
100
AcDbEntity
  8
Oog joris - sketch v1_Sketch1
100
AcDbLine
 10
34.01156616210938
 20
64.97752380371093
 30
0.0
 11
35.0482177734375
 21
64.19140625
 31
0.0
  0
LINE
  5
F5
330
70
100
AcDbEntity
  8
Oog joris - sketch v1_Sketch1
100
AcDbLine
 10
-37.06646728515625
 20
62.54942321777344
 30
0.0
 11
-36.06668090820313
 21
63.38189697265625
 31
0.0
  0
LINE
  5
F6
330
70
100
AcDbEntity
  8
Oog joris - sketch v1_Sketch1
100
AcDbLine
 10
-16.70626831054687
 20
47.31932067871094
 30
0.0
 11
-15.86734008789062
 21
47.82072448730469
 31
0.0
  0
LINE
  5
F7
330
70
100
AcDbEntity
  8
Oog joris - sketch v1_Sketch1
100
AcDbLine
 10
52.92330932617187
 20
40.6195068359375
 30
0.0
 11
53.40060424804687
 21
39.40921783447265
 31
0.0
  0
LINE
  5
F8
330
70
100
AcDbEntity
  8
Oog joris - sketch v1_Sketch1
100
AcDbLine
 10
18.96652221679687
 20
45.78239440917968
 30
0.0
 11
19.73388671875
 21
45.19242858886719
 31
0.0
  0
LINE
  5
F9
330
70
100
AcDbEntity
  8
Oog joris - sketch v1_Sketch1
100
AcDbLine
 10
-11.62750244140625
 20
75.00465393066406
 30
0.0
 11
-10.35076904296875
 21
75.25483703613281
 31
0.0
  0
LINE
  5
FA
330
70
100
AcDbEntity
  8
Oog joris - sketch v1_Sketch1
100
AcDbLine
 10
-20.35922241210938
 20
72.45060729980469
 30
0.0
 11
-19.13836669921875
 21
72.90020751953125
 31
0.0
  0
LINE
  5
FB
330
70
100
AcDbEntity
  8
Oog joris - sketch v1_Sketch1
100
AcDbLine
 10
-55.67547607421875
 20
31.94820404052734
 30
0.0
 11
-55.36746215820312
 21
33.21221923828125
 31
0.0
  0
LINE
  5
FC
330
70
100
AcDbEntity
  8
Oog joris - sketch v1_Sketch1
100
AcDbLine
 10
37.06646728515625
 20
62.54942321777344
 30
0.0
 11
38.04705810546875
 21
61.69439697265625
 31
0.0
  0
LINE
  5
FD
330
70
100
AcDbEntity
  8
Oog joris - sketch v1_Sketch1
100
AcDbLine
 10
-24.10162353515625
 20
40.98818969726562
 30
0.0
 11
-23.45407104492188
 21
41.72021484375
 31
0.0
  0
LINE
  5
FE
330
70
100
AcDbEntity
  8
Oog joris - sketch v1_Sketch1
100
AcDbLine
 10
14.88027954101562
 20
48.3670883178711
 30
0.0
 11
15.72830200195312
 21
47.90046691894531
 31
0.0
  0
LINE
  5
FF
330
70
100
AcDbEntity
  8
Oog joris - sketch v1_Sketch1
100
AcDbLine
 10
-16.56661987304687
 20
-38.51522064208984
 30
0.0
 11
-15.7210693359375
 21
-39.01461029052735
 31
0.0
  0
LINE
  5
100
330
70
100
AcDbEntity
  8
Oog joris - sketch v1_Sketch1
100
AcDbLine
 10
-50.74264526367187
 20
45.34272003173827
 30
0.0
 11
-50.1309814453125
 21
46.49097442626953
 31
0.0
  0
LINE
  5
101
330
70
100
AcDbEntity
  8
Oog joris - sketch v1_Sketch1
100
AcDbLine
 10
30.42095947265625
 20
29.40988922119141
 30
0.0
 11
30.68392944335938
 21
28.47837829589844
 31
0.0
  0
LINE
  5
102
330
70
100
AcDbEntity
  8
Oog joris - sketch v1_Sketch1
100
AcDbLine
 10
25.73486328125
 20
38.91514587402344
 30
0.0
 11
26.28970336914063
 21
38.12206268310547
 31
0.0
  0
LINE
  5
103
330
70
100
AcDbEntity
  8
Oog joris - sketch v1_Sketch1
100
AcDbLine
 10
20.35922241210938
 20
72.45060729980469
 30
0.0
 11
21.56948852539063
 21
71.97332763671875
 31
0.0
  0
LINE
  5
104
330
70
100
AcDbEntity
  8
Oog joris - sketch v1_Sketch1
100
AcDbLine
 10
0.967803955078125
 20
52.05523681640625
 30
0.0
 11
1.9346923828125
 21
52.01100158691406
 31
0.0
  0
LINE
  5
105
330
70
100
AcDbEntity
  8
Oog joris - sketch v1_Sketch1
100
AcDbLine
 10
28.68801879882813
 20
33.92371368408203
 30
0.0
 11
29.08935546875
 21
33.04292297363281
 31
0.0
  0
LINE
  5
106
330
70
100
AcDbEntity
  8
Oog joris - sketch v1_Sketch1
100
AcDbLine
 10
-46.6898193359375
 20
52.00727844238281
 30
0.0
 11
-45.92752075195313
 21
53.06155395507812
 31
0.0
  0
LINE
  5
107
330
70
100
AcDbEntity
  8
Oog joris - sketch v1_Sketch1
100
AcDbLine
 10
31.30081176757812
 20
25.641845703125
 30
0.0
 11
31.44845581054688
 21
24.68525695800781
 31
0.0
  0
LINE
  5
108
330
70
100
AcDbEntity
  8
Oog joris - sketch v1_Sketch1
100
AcDbLine
 10
-9.068695068359375
 20
75.47589111328125
 30
0.0
 11
-7.78192138671875
 21
75.66770935058594
 31
0.0
  0
LINE
  5
109
330
70
100
AcDbEntity
  8
Oog joris - sketch v1_Sketch1
100
AcDbLine
 10
31.56692504882812
 20
23.72461700439453
 30
0.0
 11
31.65606689453125
 21
22.76081848144531
 31
0.0
  0
LINE
  5
10A
330
70
100
AcDbEntity
  8
Oog joris - sketch v1_Sketch1
100
AcDbLine
 10
-52.92330932617187
 20
40.6195068359375
 30
0.0
 11
-52.41860961914063
 21
41.81861877441406
 31
0.0
  0
LINE
  5
10B
330
70
100
AcDbEntity
  8
Oog joris - sketch v1_Sketch1
100
AcDbLine
 10
32.957275390625
 20
65.73983764648438
 30
0.0
 11
34.01156616210938
 21
64.97752380371093
 31
0.0
  0
LINE
  5
10C
330
70
100
AcDbEntity
  8
Oog joris - sketch v1_Sketch1
100
AcDbLine
 10
-55.95465087890625
 20
30.67750549316406
 30
0.0
 11
-55.67547607421875
 21
31.94820404052734
 31
0.0
  0
LINE
  5
10D
330
70
100
AcDbEntity
  8
Oog joris - sketch v1_Sketch1
100
AcDbLine
 10
29.08935546875
 20
33.04292297363281
 30
0.0
 11
29.463623046875
 21
32.15031433105469
 31
0.0
  0
LINE
  5
10E
330
70
100
AcDbEntity
  8
Oog joris - sketch v1_Sketch1
100
AcDbLine
 10
9.5302734375
 20
50.60591125488281
 30
0.0
 11
10.44900512695312
 21
50.30134582519531
 31
0.0
  0
LINE
  5
10F
330
70
100
AcDbEntity
  8
Oog joris - sketch v1_Sketch1
100
AcDbLine
 10
31.65606689453125
 20
22.76081848144531
 30
0.0
 11
31.71572875976563
 21
21.79475402832031
 31
0.0
  0
LINE
  5
110
330
70
100
AcDbEntity
  8
Oog joris - sketch v1_Sketch1
100
AcDbLine
 10
4.821014404296875
 20
51.70184326171875
 30
0.0
 11
5.775390625
 21
51.54031372070313
 31
0.0
  0
LINE
  5
111
330
70
100
AcDbEntity
  8
Oog joris - sketch v1_Sketch1
100
AcDbLine
 10
29.69424438476563
 20
67.88006591796875
 30
0.0
 11
30.79803466796875
 21
67.19148254394531
 31
0.0
  0
LINE
  5
112
330
70
100
AcDbEntity
  8
Oog joris - sketch v1_Sketch1
100
AcDbLine
 10
-41.76727294921875
 20
58.05790710449219
 30
0.0
 11
-40.86849975585937
 21
58.99856567382812
 31
0.0
  0
LINE
  5
113
330
70
100
AcDbEntity
  8
Oog joris - sketch v1_Sketch1
100
AcDbLine
 10
-45.14141845703124
 20
54.09820556640625
 30
0.0
 11
-44.3319091796875
 21
55.11666870117188
 31
0.0
  0
LINE
  5
114
330
70
100
AcDbEntity
  8
Oog joris - sketch v1_Sketch1
100
AcDbLine
 10
-30.79806518554688
 20
67.19148254394531
 30
0.0
 11
-29.6942138671875
 21
67.88006591796875
 31
0.0
  0
LINE
  5
115
330
70
100
AcDbEntity
  8
Oog joris - sketch v1_Sketch1
100
AcDbLine
 10
30.9183349609375
 20
27.53927612304688
 30
0.0
 11
31.1240234375
 21
26.59347534179687
 31
0.0
  0
LINE
  5
116
330
70
100
AcDbEntity
  8
Oog joris - sketch v1_Sketch1
100
AcDbLine
 10
-52.41860961914063
 20
41.81861877441406
 30
0.0
 11
-51.88674926757812
 21
43.00594329833984
 31
0.0
  0
LINE
  5
117
330
70
100
AcDbEntity
  8
Oog joris - sketch v1_Sketch1
100
AcDbLine
 10
3.862213134765625
 20
51.834228515625
 30
0.0
 11
4.821014404296875
 21
51.70184326171875
 31
0.0
  0
LINE
  5
118
330
70
100
AcDbEntity
  8
Oog joris - sketch v1_Sketch1
100
AcDbLine
 10
7.66705322265625
 20
51.13037109375
 30
0.0
 11
8.6026611328125
 21
50.88233947753906
 31
0.0
  0
LINE
  5
119
330
70
100
AcDbEntity
  8
Oog joris - sketch v1_Sketch1
100
AcDbLine
 10
2.899810791015625
 20
51.93730163574219
 30
0.0
 11
3.862213134765625
 21
51.834228515625
 31
0.0
  0
LINE
  5
11A
330
70
100
AcDbEntity
  8
Oog joris - sketch v1_Sketch1
100
AcDbLine
 10
11.3580322265625
 20
49.96891021728515
 30
0.0
 11
12.25650024414062
 21
49.60891723632812
 31
0.0
  0
LINE
  5
11B
330
70
100
AcDbEntity
  8
Oog joris - sketch v1_Sketch1
100
AcDbLine
 10
23.9559326171875
 20
70.93675231933594
 30
0.0
 11
25.13082885742188
 21
70.37800598144531
 31
0.0
  0
LINE
  5
11C
330
70
100
AcDbEntity
  8
Oog joris - sketch v1_Sketch1
100
AcDbLine
 10
35.0482177734375
 20
64.19140625
 30
0.0
 11
36.06668090820313
 21
63.38189697265625
 31
0.0
  0
LINE
  5
11D
330
70
100
AcDbEntity
  8
Oog joris - sketch v1_Sketch1
100
AcDbLine
 10
19.73388671875
 20
45.19242858886719
 30
0.0
 11
20.48284912109375
 21
44.57933807373047
 31
0.0
  0
LINE
  5
11E
330
70
100
AcDbEntity
  8
Oog joris - sketch v1_Sketch1
100
AcDbLine
 10
31.44845581054688
 20
24.68525695800781
 30
0.0
 11
31.56692504882812
 21
23.72461700439453
 31
0.0
  0
LINE
  5
11F
330
70
100
AcDbEntity
  8
Oog joris - sketch v1_Sketch1
100
AcDbLine
 10
-14.1622314453125
 20
74.41744995117187
 30
0.0
 11
-12.898193359375
 21
74.72547912597656
 31
0.0
  0
LINE
  5
120
330
70
100
AcDbEntity
  8
Oog joris - sketch v1_Sketch1
100
AcDbLine
 10
27.44094848632812
 20
69.18098449707031
 30
0.0
 11
28.57501220703125
 21
68.54335021972656
 31
0.0
  0
LINE
  5
121
330
70
100
AcDbEntity
  8
Oog joris - sketch v1_Sketch1
100
AcDbLine
 10
-31.88592529296875
 20
66.47795104980469
 30
0.0
 11
-30.79806518554688
 21
67.19148254394531
 31
0.0
  0
LINE
  5
122
330
70
100
AcDbEntity
  8
Oog joris - sketch v1_Sketch1
100
AcDbLine
 10
-50.1309814453125
 20
46.49097442626953
 30
0.0
 11
-49.49334716796875
 21
47.625
 31
0.0
  0
LINE
  5
123
330
70
100
AcDbEntity
  8
Oog joris - sketch v1_Sketch1
100
AcDbLine
 10
-26.292724609375
 20
69.79263305664062
 30
0.0
 11
-25.13082885742188
 21
70.37800598144531
 31
0.0
  0
LINE
  5
124
330
70
100
AcDbEntity
  8
Oog joris - sketch v1_Sketch1
100
AcDbLine
 10
-34.01153564453125
 20
64.97752380371093
 30
0.0
 11
-32.957275390625
 21
65.73983764648438
 31
0.0
  0
LINE
  5
125
330
70
100
AcDbEntity
  8
Oog joris - sketch v1_Sketch1
100
AcDbLine
 10
26.292724609375
 20
69.79263305664062
 30
0.0
 11
27.44094848632812
 21
69.18098449707031
 31
0.0
  0
LINE
  5
126
330
70
100
AcDbEntity
  8
Oog joris - sketch v1_Sketch1
100
AcDbLine
 10
17.37969970703125
 20
46.89080810546875
 30
0.0
 11
18.18157958984375
 21
46.34869384765624
 31
0.0
  0
LINE
  5
127
330
70
100
AcDbEntity
  8
Oog joris - sketch v1_Sketch1
100
AcDbLine
 10
28.57501220703125
 20
68.54335021972656
 30
0.0
 11
29.69424438476563
 21
67.88006591796875
 31
0.0
  0
LINE
  5
128
330
70
100
AcDbEntity
  8
Oog joris - sketch v1_Sketch1
100
AcDbLine
 10
-48.1414794921875
 20
49.84806060791015
 30
0.0
 11
-47.42794799804687
 21
50.93593597412109
 31
0.0
  0
LINE
  5
129
330
70
100
AcDbEntity
  8
Oog joris - sketch v1_Sketch1
100
AcDbLine
 10
-27.44094848632812
 20
69.18098449707031
 30
0.0
 11
-26.292724609375
 21
69.79263305664062
 31
0.0
  0
LINE
  5
12A
330
70
100
AcDbEntity
  8
Oog joris - sketch v1_Sketch1
100
AcDbLine
 10
-54.27191162109375
 20
36.95761108398438
 30
0.0
 11
-53.85018920898438
 21
38.18836975097656
 31
0.0
  0
LINE
  5
12B
330
70
100
AcDbEntity
  8
Oog joris - sketch v1_Sketch1
100
AcDbLine
 10
25.13082885742188
 20
70.37800598144531
 30
0.0
 11
26.292724609375
 21
69.79263305664062
 31
0.0
  0
LINE
  5
12C
330
70
100
AcDbEntity
  8
Oog joris - sketch v1_Sketch1
100
AcDbLine
 10
-16.66757202148437
 20
73.71548461914063
 30
0.0
 11
-15.41888427734375
 21
74.08073425292968
 31
0.0
  0
LINE
  5
12D
330
70
100
AcDbEntity
  8
Oog joris - sketch v1_Sketch1
100
AcDbLine
 10
31.88592529296875
 20
66.47795104980469
 30
0.0
 11
32.957275390625
 21
65.73983764648438
 31
0.0
  0
LINE
  5
12E
330
70
100
AcDbEntity
  8
Oog joris - sketch v1_Sketch1
100
AcDbLine
 10
-15.41888427734375
 20
74.08073425292968
 30
0.0
 11
-14.1622314453125
 21
74.41744995117187
 31
0.0
  0
LINE
  5
12F
330
70
100
AcDbEntity
  8
Oog joris - sketch v1_Sketch1
100
AcDbLine
 10
13.14358520507812
 20
49.22170257568359
 30
0.0
 11
14.0184326171875
 21
48.80763244628906
 31
0.0
  0
LINE
  5
130
330
70
100
AcDbEntity
  8
Oog joris - sketch v1_Sketch1
100
AcDbLine
 10
29.810546875
 20
31.24671936035156
 30
0.0
 11
30.12979125976563
 21
30.33295440673828
 31
0.0
  0
LINE
  5
131
330
70
100
AcDbEntity
  8
Oog joris - sketch v1_Sketch1
100
AcDbLine
 10
-49.49334716796875
 20
47.625
 30
0.0
 11
-48.83004760742188
 21
48.74422454833984
 31
0.0
  0
LINE
  5
132
330
70
100
AcDbEntity
  8
Oog joris - sketch v1_Sketch1
100
AcDbLine
 10
16.66754150390625
 20
73.71548461914063
 30
0.0
 11
17.9075927734375
 21
73.32191467285156
 31
0.0
  0
LINE
  5
133
330
70
100
AcDbEntity
  8
Oog joris - sketch v1_Sketch1
100
AcDbLine
 10
-48.83004760742188
 20
48.74422454833984
 30
0.0
 11
-48.1414794921875
 21
49.84806060791015
 31
0.0
  0
LINE
  5
134
330
70
100
AcDbEntity
  8
Oog joris - sketch v1_Sketch1
100
AcDbLine
 10
19.13836669921875
 20
72.90020751953125
 30
0.0
 11
20.35922241210938
 21
72.45060729980469
 31
0.0
  0
LINE
  5
135
330
70
100
AcDbEntity
  8
Oog joris - sketch v1_Sketch1
100
AcDbLine
 10
14.16220092773437
 20
74.41744995117187
 30
0.0
 11
15.41891479492187
 21
74.08073425292968
 31
0.0
  0
LINE
  5
136
330
70
100
AcDbEntity
  8
Oog joris - sketch v1_Sketch1
100
AcDbLine
 10
30.79803466796875
 20
67.19148254394531
 30
0.0
 11
31.88592529296875
 21
66.47795104980469
 31
0.0
  0
LINE
  5
137
330
70
100
AcDbEntity
  8
Oog joris - sketch v1_Sketch1
100
AcDbLine
 10
7.78192138671875
 20
75.66770935058594
 30
0.0
 11
9.068695068359375
 21
75.47589111328125
 31
0.0
  0
LINE
  5
138
330
70
100
AcDbEntity
  8
Oog joris - sketch v1_Sketch1
100
AcDbLine
 10
-28.57501220703125
 20
68.54335021972656
 30
0.0
 11
-27.44094848632812
 21
69.18098449707031
 31
0.0
  0
LINE
  5
139
330
70
100
AcDbEntity
  8
Oog joris - sketch v1_Sketch1
100
AcDbLine
 10
21.56948852539063
 20
71.97332763671875
 30
0.0
 11
22.76861572265625
 21
71.4686279296875
 31
0.0
  0
LINE
  5
13A
330
70
100
AcDbEntity
  8
Oog joris - sketch v1_Sketch1
100
AcDbLine
 10
30.68392944335938
 20
28.47837829589844
 30
0.0
 11
30.9183349609375
 21
27.53927612304688
 31
0.0
  0
LINE
  5
13B
330
70
100
AcDbEntity
  8
Oog joris - sketch v1_Sketch1
100
AcDbLine
 10
-32.957275390625
 20
65.73983764648438
 30
0.0
 11
-31.88592529296875
 21
66.47795104980469
 31
0.0
  0
LINE
  5
13C
330
70
100
AcDbEntity
  8
Oog joris - sketch v1_Sketch1
100
AcDbLine
 10
-45.92752075195313
 20
53.06155395507812
 30
0.0
 11
-45.14141845703124
 21
54.09820556640625
 31
0.0
  0
LINE
  5
13D
330
70
100
AcDbEntity
  8
Oog joris - sketch v1_Sketch1
100
AcDbLine
 10
8.6026611328125
 20
50.88233947753906
 30
0.0
 11
9.5302734375
 21
50.60591125488281
 31
0.0
  0
LINE
  5
13E
330
70
100
AcDbEntity
  8
Oog joris - sketch v1_Sketch1
100
AcDbLine
 10
12.25650024414062
 20
49.60891723632812
 30
0.0
 11
13.14358520507812
 21
49.22170257568359
 31
0.0
  0
LINE
  5
13F
330
70
100
AcDbEntity
  8
Oog joris - sketch v1_Sketch1
100
AcDbLine
 10
-47.42794799804687
 20
50.93593597412109
 30
0.0
 11
-46.6898193359375
 21
52.00727844238281
 31
0.0
  0
LINE
  5
140
330
70
100
AcDbEntity
  8
Oog joris - sketch v1_Sketch1
100
AcDbLine
 10
29.39480590820313
 20
-23.43035507202149
 30
0.0
 11
29.75186157226563
 21
-22.51554870605469
 31
0.0
  0
LINE
  5
141
330
70
100
AcDbEntity
  8
Oog joris - sketch v1_Sketch1
100
AcDbLine
 10
24.55392456054688
 20
40.44876098632812
 30
0.0
 11
25.15609741210937
 21
39.69094848632813
 31
0.0
  0
LINE
  5
142
330
70
100
AcDbEntity
  8
Oog joris - sketch v1_Sketch1
100
AcDbLine
 10
15.41891479492187
 20
74.08073425292968
 30
0.0
 11
16.66754150390625
 21
73.71548461914063
 31
0.0
  0
LINE
  5
143
330
70
100
AcDbEntity
  8
Oog joris - sketch v1_Sketch1
100
AcDbLine
 10
3.90008544921875
 20
76.0667724609375
 30
0.0
 11
5.196929931640625
 21
75.96322631835938
 31
0.0
  0
LINE
  5
144
330
70
100
AcDbEntity
  8
Oog joris - sketch v1_Sketch1
100
AcDbLine
 10
-44.3319091796875
 20
55.11666870117188
 30
0.0
 11
-43.49942016601562
 21
56.11647033691406
 31
0.0
  0
LINE
  5
145
330
70
100
AcDbEntity
  8
Oog joris - sketch v1_Sketch1
100
AcDbLine
 10
21.21279907226563
 20
43.94371795654296
 30
0.0
 11
21.92303466796875
 21
43.28612518310547
 31
0.0
  0
LINE
  5
146
330
70
100
AcDbEntity
  8
Oog joris - sketch v1_Sketch1
100
AcDbLine
 10
-31.734130859375
 20
21.32373809814453
 30
0.0
 11
-31.68820190429688
 21
22.29999542236328
 31
0.0
  0
LINE
  5
147
330
70
100
AcDbEntity
  8
Oog joris - sketch v1_Sketch1
100
AcDbLine
 10
-31.74996948242188
 20
-11.46588897705078
 30
0.0
 11
-31.73590087890625
 21
-10.48397064208984
 31
0.0
  0
LINE
  5
148
330
70
100
AcDbEntity
  8
Oog joris - sketch v1_Sketch1
100
AcDbLine
 10
0.24822998046875
 20
-43.17902755737304
 30
0.0
 11
1.230010986328125
 21
-43.15616226196289
 31
0.0
  0
LINE
  5
149
330
70
100
AcDbEntity
  8
Oog joris - sketch v1_Sketch1
100
AcDbLine
 10
29.75186157226563
 20
-22.51554870605469
 30
0.0
 11
30.0804443359375
 21
-21.59013366699219
 31
0.0
  0
LINE
  5
14A
330
70
100
AcDbEntity
  8
Oog joris - sketch v1_Sketch1
100
AcDbLine
 10
-39.00790405273438
 20
60.81727600097656
 30
0.0
 11
-38.04705810546875
 21
61.69439697265625
 31
0.0
  0
LINE
  5
14B
330
70
100
AcDbEntity
  8
Oog joris - sketch v1_Sketch1
100
AcDbLine
 10
5.775390625
 20
51.54031372070313
 30
0.0
 11
6.72430419921875
 21
51.34975433349609
 31
0.0
  0
LINE
  5
14C
330
70
100
AcDbEntity
  8
Oog joris - sketch v1_Sketch1
100
AcDbLine
 10
3.189056396484375
 20
-43.01943588256835
 30
0.0
 11
4.164459228515625
 21
-42.90569686889648
 31
0.0
  0
LINE
  5
14D
330
70
100
AcDbEntity
  8
Oog joris - sketch v1_Sketch1
100
AcDbLine
 10
-31.74996948242188
 20
20.34653472900391
 30
0.0
 11
-31.734130859375
 21
21.32373809814453
 31
0.0
  0
LINE
  5
14E
330
70
100
AcDbEntity
  8
Oog joris - sketch v1_Sketch1
100
AcDbLine
 10
9.068695068359375
 20
75.47589111328125
 30
0.0
 11
10.35079956054687
 21
75.25483703613281
 31
0.0
  0
LINE
  5
14F
330
70
100
AcDbEntity
  8
Oog joris - sketch v1_Sketch1
100
AcDbLine
 10
26.28970336914063
 20
38.12206268310547
 30
0.0
 11
26.82015991210938
 21
37.31242370605469
 31
0.0
  0
LINE
  5
150
330
70
100
AcDbEntity
  8
Oog joris - sketch v1_Sketch1
100
AcDbLine
 10
26.82015991210938
 20
37.31242370605469
 30
0.0
 11
27.32565307617188
 21
36.48699951171875
 31
0.0
  0
LINE
  5
151
330
70
100
AcDbEntity
  8
Oog joris - sketch v1_Sketch1
100
AcDbLine
 10
12.898193359375
 20
74.72547912597656
 30
0.0
 11
14.16220092773437
 21
74.41744995117187
 31
0.0
  0
LINE
  5
152
330
70
100
AcDbEntity
  8
Oog joris - sketch v1_Sketch1
100
AcDbLine
 10
-21.27999877929688
 20
-34.99320220947266
 30
0.0
 11
-20.54107666015625
 21
-35.6400375366211
 31
0.0
  0
LINE
  5
153
330
70
100
AcDbEntity
  8
Oog joris - sketch v1_Sketch1
100
AcDbLine
 10
-38.04705810546875
 20
61.69439697265625
 30
0.0
 11
-37.06646728515625
 21
62.54942321777344
 31
0.0
  0
LINE
  5
154
330
70
100
AcDbEntity
  8
Oog joris - sketch v1_Sketch1
100
AcDbLine
 10
-39.94857788085937
 20
59.91851806640625
 30
0.0
 11
-39.00790405273438
 21
60.81727600097656
 31
0.0
  0
LINE
  5
155
330
70
100
AcDbEntity
  8
Oog joris - sketch v1_Sketch1
100
AcDbLine
 10
27.80575561523438
 20
35.64655303955078
 30
0.0
 11
28.260009765625
 21
34.79186248779297
 31
0.0
  0
LINE
  5
156
330
70
100
AcDbEntity
  8
Oog joris - sketch v1_Sketch1
100
AcDbLine
 10
-40.86849975585937
 20
58.99856567382812
 30
0.0
 11
-39.94857788085937
 21
59.91851806640625
 31
0.0
  0
LINE
  5
157
330
70
100
AcDbEntity
  8
Oog joris - sketch v1_Sketch1
100
AcDbLine
 10
-42.64437866210937
 20
57.0970458984375
 30
0.0
 11
-41.76727294921875
 21
58.05790710449219
 31
0.0
  0
LINE
  5
158
330
70
100
AcDbEntity
  8
Oog joris - sketch v1_Sketch1
100
AcDbLine
 10
10.35079956054687
 20
75.25483703613281
 30
0.0
 11
11.62750244140625
 21
75.00465393066406
 31
0.0
  0
LINE
  5
159
330
70
100
AcDbEntity
  8
Oog joris - sketch v1_Sketch1
100
AcDbLine
 10
-28.37744140625
 20
-25.670166015625
 30
0.0
 11
-27.92349243164063
 21
-26.54095840454102
 31
0.0
  0
LINE
  5
15A
330
70
100
AcDbEntity
  8
Oog joris - sketch v1_Sketch1
100
AcDbLine
 10
8.9632568359375
 20
-41.88853073120117
 30
0.0
 11
9.90093994140625
 21
-41.59675979614258
 31
0.0
  0
LINE
  5
15B
330
70
100
AcDbEntity
  8
Oog joris - sketch v1_Sketch1
100
AcDbLine
 10
25.15609741210937
 20
39.69094848632813
 30
0.0
 11
25.73486328125
 21
38.91514587402344
 31
0.0
  0
LINE
  5
15C
330
70
100
AcDbEntity
  8
Oog joris - sketch v1_Sketch1
100
AcDbLine
 10
-30.517822265625
 20
-20.18934631347656
 30
0.0
 11
-30.23233032226563
 21
-21.12895202636719
 31
0.0
  0
LINE
  5
15D
330
70
100
AcDbEntity
  8
Oog joris - sketch v1_Sketch1
100
AcDbLine
 10
27.32565307617188
 20
36.48699951171875
 30
0.0
 11
27.80575561523438
 21
35.64655303955078
 31
0.0
  0
LINE
  5
15E
330
70
100
AcDbEntity
  8
Oog joris - sketch v1_Sketch1
100
AcDbLine
 10
-2.694671630859375
 20
-43.06544113159179
 30
0.0
 11
-1.71502685546875
 21
-43.1336441040039
 31
0.0
  0
LINE
  5
15F
330
70
100
AcDbEntity
  8
Oog joris - sketch v1_Sketch1
100
AcDbLine
 10
-43.49942016601562
 20
56.11647033691406
 30
0.0
 11
-42.64437866210937
 21
57.0970458984375
 31
0.0
  0
LINE
  5
160
330
70
100
AcDbEntity
  8
Oog joris - sketch v1_Sketch1
100
AcDbLine
 10
6.491119384765625
 20
75.83018493652343
 30
0.0
 11
7.78192138671875
 21
75.66770935058594
 31
0.0
  0
LINE
  5
161
330
70
100
AcDbEntity
  8
Oog joris - sketch v1_Sketch1
100
AcDbLine
 10
19.40048217773437
 20
-36.56332397460938
 30
0.0
 11
20.16845703125
 21
-35.95132446289063
 31
0.0
  0
LINE
  5
162
330
70
100
AcDbEntity
  8
Oog joris - sketch v1_Sketch1
100
AcDbLine
 10
27.1954345703125
 20
-27.81509399414062
 30
0.0
 11
27.68914794921875
 21
-26.96620178222656
 31
0.0
  0
LINE
  5
163
330
70
100
AcDbEntity
  8
Oog joris - sketch v1_Sketch1
100
AcDbLine
 10
11.62750244140625
 20
75.00465393066406
 30
0.0
 11
12.898193359375
 21
74.72547912597656
 31
0.0
  0
LINE
  5
164
330
70
100
AcDbEntity
  8
Oog joris - sketch v1_Sketch1
100
AcDbLine
 10
50.74264526367187
 20
45.34272003173827
 30
0.0
 11
51.3280029296875
 21
44.18083953857421
 31
0.0
  0
LINE
  5
165
330
70
100
AcDbEntity
  8
Oog joris - sketch v1_Sketch1
100
AcDbLine
 10
2.601165771484375
 20
76.14077758789062
 30
0.0
 11
3.90008544921875
 21
76.0667724609375
 31
0.0
  0
LINE
  5
166
330
70
100
AcDbEntity
  8
Oog joris - sketch v1_Sketch1
100
AcDbLine
 10
2.210601806640625
 20
-43.10294723510742
 30
0.0
 11
3.189056396484375
 21
-43.01943588256835
 31
0.0
  0
LINE
  5
167
330
70
100
AcDbEntity
  8
Oog joris - sketch v1_Sketch1
100
AcDbLine
 10
-3.6717529296875
 20
-42.96696853637695
 30
0.0
 11
-2.694671630859375
 21
-43.06544113159179
 31
0.0
  0
LINE
  5
168
330
70
100
AcDbEntity
  8
Oog joris - sketch v1_Sketch1
100
AcDbLine
 10
1.9346923828125
 20
52.01100158691406
 30
0.0
 11
2.899810791015625
 21
51.93730163574219
 31
0.0
  0
LINE
  5
169
330
70
100
AcDbEntity
  8
Oog joris - sketch v1_Sketch1
100
AcDbLine
 10
-31.69146728515625
 20
-9.502952575683593
 30
0.0
 11
-31.69146728515625
 21
18.39295959472656
 31
0.0
  0
LINE
  5
16A
330
70
100
AcDbEntity
  8
Oog joris - sketch v1_Sketch1
100
AcDbLine
 10
20.48284912109375
 20
44.57933807373047
 30
0.0
 11
21.21279907226563
 21
43.94371795654296
 31
0.0
  0
LINE
  5
16B
330
70
100
AcDbEntity
  8
Oog joris - sketch v1_Sketch1
100
AcDbLine
 10
-31.73367309570313
 20
-12.44778060913086
 30
0.0
 11
-31.68701171875
 21
-13.42869186401367
 31
0.0
  0
LINE
  5
16C
330
70
100
AcDbEntity
  8
Oog joris - sketch v1_Sketch1
100
AcDbLine
 10
5.196929931640625
 20
75.96322631835938
 30
0.0
 11
6.491119384765625
 21
75.83018493652343
 31
0.0
  0
LINE
  5
16D
330
70
100
AcDbEntity
  8
Oog joris - sketch v1_Sketch1
100
AcDbLine
 10
28.260009765625
 20
34.79186248779297
 30
0.0
 11
28.68801879882813
 21
33.92371368408203
 31
0.0
  0
LINE
  5
16E
330
70
100
AcDbEntity
  8
Oog joris - sketch v1_Sketch1
100
AcDbLine
 10
23.928955078125
 20
41.18785858154296
 30
0.0
 11
24.55392456054688
 21
40.44876098632812
 31
0.0
  0
LINE
  5
16F
330
70
100
AcDbEntity
  8
Oog joris - sketch v1_Sketch1
100
AcDbLine
 10
21.92303466796875
 20
43.28612518310547
 30
0.0
 11
22.61288452148438
 21
42.60720062255859
 31
0.0
  0
LINE
  5
170
330
70
100
AcDbEntity
  8
Oog joris - sketch v1_Sketch1
100
AcDbLine
 10
-51.3280029296875
 20
44.18083953857421
 30
0.0
 11
-50.74264526367187
 21
45.34272003173827
 31
0.0
  0
LINE
  5
171
330
70
100
AcDbEntity
  8
Oog joris - sketch v1_Sketch1
100
AcDbLine
 10
-30.23233032226563
 20
-21.12895202636719
 30
0.0
 11
-29.91790771484375
 21
-22.05928039550781
 31
0.0
  0
LINE
  5
172
330
70
100
AcDbEntity
  8
Oog joris - sketch v1_Sketch1
100
AcDbLine
 10
-1.71502685546875
 20
-43.1336441040039
 30
0.0
 11
-0.733734130859375
 21
-43.17152023315429
 31
0.0
  0
LINE
  5
173
330
70
100
AcDbEntity
  8
Oog joris - sketch v1_Sketch1
100
AcDbLine
 10
1.300933837890625
 20
76.18519592285156
 30
0.0
 11
2.601165771484375
 21
76.14077758789062
 31
0.0
  0
LINE
  5
174
330
70
100
AcDbEntity
  8
Oog joris - sketch v1_Sketch1
100
AcDbLine
 10
31.1240234375
 20
26.59347534179687
 30
0.0
 11
31.30081176757812
 21
25.641845703125
 31
0.0
  0
LINE
  5
175
330
70
100
AcDbEntity
  8
Oog joris - sketch v1_Sketch1
100
AcDbLine
 10
30.12979125976563
 20
30.33295440673828
 30
0.0
 11
30.42095947265625
 21
29.40988922119141
 31
0.0
  0
LINE
  5
176
330
70
100
AcDbEntity
  8
Oog joris - sketch v1_Sketch1
100
AcDbLine
 10
6.72430419921875
 20
51.34975433349609
 30
0.0
 11
7.66705322265625
 21
51.13037109375
 31
0.0
  0
LINE
  5
177
330
70
100
AcDbEntity
  8
Oog joris - sketch v1_Sketch1
100
AcDbLine
 10
29.463623046875
 20
32.15031433105469
 30
0.0
 11
29.810546875
 21
31.24671936035156
 31
0.0
  0
LINE
  5
178
330
70
100
AcDbEntity
  8
Oog joris - sketch v1_Sketch1
100
AcDbLine
 10
22.61288452148438
 20
42.60720062255859
 30
0.0
 11
23.28176879882812
 21
41.90756225585937
 31
0.0
  0
LINE
  5
179
330
70
100
AcDbEntity
  8
Oog joris - sketch v1_Sketch1
100
AcDbLine
 10
57.09078979492187
 20
21.65116119384766
 30
0.0
 11
57.13519287109375
 21
20.35092163085938
 31
0.0
  0
LINE
  5
17A
330
70
100
AcDbEntity
  8
Oog joris - sketch v1_Sketch1
100
AcDbLine
 10
23.28176879882812
 20
41.90756225585937
 30
0.0
 11
23.928955078125
 21
41.18785858154296
 31
0.0
  0
LINE
  5
17B
330
70
100
AcDbEntity
  8
Oog joris - sketch v1_Sketch1
100
AcDbLine
 10
56.91323852539063
 20
24.24693298339844
 30
0.0
 11
57.01675415039062
 21
22.95005798339844
 31
0.0
  0
LINE
  5
17C
330
70
100
AcDbEntity
  8
Oog joris - sketch v1_Sketch1
100
AcDbLine
 10
0.0
 20
76.19999694824219
 30
0.0
 11
1.300933837890625
 21
76.18519592285156
 31
0.0
  0
LINE
  5
17D
330
70
100
AcDbEntity
  8
Oog joris - sketch v1_Sketch1
100
AcDbLine
 10
-57.14999389648437
 20
-76.19999694824219
 30
0.0
 11
57.14999389648437
 21
-76.19999694824219
 31
0.0
  0
LINE
  5
17E
330
70
100
AcDbEntity
  8
Oog joris - sketch v1_Sketch1
100
AcDbLine
 10
-31.36550903320312
 20
-16.35622024536132
 30
0.0
 11
-31.19815063476563
 21
-17.32387924194336
 31
0.0
  0
LINE
  5
17F
330
70
100
AcDbEntity
  8
Oog joris - sketch v1_Sketch1
100
AcDbLine
 10
-31.61224365234375
 20
23.27438354492187
 30
0.0
 11
-31.50631713867188
 21
24.24596405029297
 31
0.0
  0
LINE
  5
180
330
70
100
AcDbEntity
  8
Oog joris - sketch v1_Sketch1
100
AcDbLine
 10
57.01675415039062
 20
22.95005798339844
 30
0.0
 11
57.09078979492187
 21
21.65116119384766
 31
0.0
  0
LINE
  5
181
330
70
100
AcDbEntity
  8
Oog joris - sketch v1_Sketch1
100
AcDbLine
 10
-1.953521728515625
 20
52.00985717773438
 30
0.0
 11
-0.97723388671875
 21
52.05496215820312
 31
0.0
  0
LINE
  5
182
330
70
100
AcDbEntity
  8
Oog joris - sketch v1_Sketch1
100
AcDbLine
 10
31.65277099609375
 20
-13.91302490234375
 30
0.0
 11
31.71441650390625
 21
-12.93293762207031
 31
0.0
  0
LINE
  5
183
330
70
100
AcDbEntity
  8
Oog joris - sketch v1_Sketch1
100
AcDbLine
 10
57.13519287109375
 20
20.35092163085938
 30
0.0
 11
57.14999389648437
 21
19.05000305175781
 31
0.0
  0
LINE
  5
184
330
70
100
AcDbEntity
  8
Oog joris - sketch v1_Sketch1
100
AcDbLine
 10
56.4259033203125
 20
28.11871337890625
 30
0.0
 11
56.61770629882813
 21
26.83193206787109
 31
0.0
  0
LINE
  5
185
330
70
100
AcDbEntity
  8
Oog joris - sketch v1_Sketch1
100
AcDbLine
 10
31.7457275390625
 20
-11.951416015625
 30
0.0
 11
31.74667358398437
 21
-10.96939086914062
 31
0.0
  0
LINE
  5
186
330
70
100
AcDbEntity
  8
Oog joris - sketch v1_Sketch1
100
AcDbLine
 10
-4.64532470703125
 20
-42.83833312988281
 30
0.0
 11
-3.6717529296875
 21
-42.96696853637695
 31
0.0
  0
LINE
  5
187
330
70
100
AcDbEntity
  8
Oog joris - sketch v1_Sketch1
100
AcDbLine
 10
18.18157958984375
 20
46.34869384765624
 30
0.0
 11
18.96652221679687
 21
45.78239440917968
 31
0.0
  0
LINE
  5
188
330
70
100
AcDbEntity
  8
Oog joris - sketch v1_Sketch1
100
AcDbLine
 10
-31.50631713867188
 20
24.24596405029297
 30
0.0
 11
-31.37057495117188
 21
25.21382904052734
 31
0.0
  0
LINE
  5
189
330
70
100
AcDbEntity
  8
Oog joris - sketch v1_Sketch1
100
AcDbLine
 10
1.230010986328125
 20
-43.15616226196289
 30
0.0
 11
2.210601806640625
 21
-43.10294723510742
 31
0.0
  0
LINE
  5
18A
330
70
100
AcDbEntity
  8
Oog joris - sketch v1_Sketch1
100
AcDbLine
 10
-26.40316772460938
 20
-29.06334304809571
 30
0.0
 11
-25.84521484375
 21
-29.8714599609375
 31
0.0
  0
LINE
  5
18B
330
70
100
AcDbEntity
  8
Oog joris - sketch v1_Sketch1
100
AcDbLine
 10
-31.61007690429688
 20
-14.40769577026367
 30
0.0
 11
-31.50283813476562
 21
-15.38384628295898
 31
0.0
  0
LINE
  5
18C
330
70
100
AcDbEntity
  8
Oog joris - sketch v1_Sketch1
100
AcDbLine
 10
55.367431640625
 20
33.21221923828125
 30
0.0
 11
55.67547607421875
 21
31.94820404052734
 31
0.0
  0
LINE
  5
18D
330
70
100
AcDbEntity
  8
Oog joris - sketch v1_Sketch1
100
AcDbLine
 10
49.49334716796875
 20
47.625
 30
0.0
 11
50.1309814453125
 21
46.49097442626953
 31
0.0
  0
LINE
  5
18E
330
70
100
AcDbEntity
  8
Oog joris - sketch v1_Sketch1
100
AcDbLine
 10
-31.74996948242188
 20
-11.46588897705078
 30
0.0
 11
-31.73367309570313
 21
-12.44778060913086
 31
0.0
  0
LINE
  5
18F
330
70
100
AcDbEntity
  8
Oog joris - sketch v1_Sketch1
100
AcDbLine
 10
-7.535614013671875
 20
-42.27276992797851
 30
0.0
 11
-6.57818603515625
 21
-42.4910659790039
 31
0.0
  0
LINE
  5
190
330
70
100
AcDbEntity
  8
Oog joris - sketch v1_Sketch1
100
AcDbLine
 10
-31.68701171875
 20
-13.42869186401367
 30
0.0
 11
-31.61007690429688
 21
-14.40769577026367
 31
0.0
  0
LINE
  5
191
330
70
100
AcDbEntity
  8
Oog joris - sketch v1_Sketch1
100
AcDbLine
 10
-31.19815063476563
 20
-17.32387924194336
 30
0.0
 11
-31.00094604492188
 21
-18.28589630126953
 31
0.0
  0
LINE
  5
192
330
70
100
AcDbEntity
  8
Oog joris - sketch v1_Sketch1
100
AcDbLine
 10
-31.73590087890625
 20
-10.48397064208984
 30
0.0
 11
-31.69146728515625
 21
-9.502952575683593
 31
0.0
  0
LINE
  5
193
330
70
100
AcDbEntity
  8
Oog joris - sketch v1_Sketch1
100
AcDbLine
 10
-31.00094604492188
 20
-18.28589630126953
 30
0.0
 11
-30.77407836914062
 21
-19.24135589599609
 31
0.0
  0
LINE
  5
194
330
70
100
AcDbEntity
  8
Oog joris - sketch v1_Sketch1
100
AcDbLine
 10
55.95465087890625
 20
30.67750549316406
 30
0.0
 11
56.204833984375
 21
29.40079498291016
 31
0.0
  0
LINE
  5
195
330
70
100
AcDbEntity
  8
Oog joris - sketch v1_Sketch1
100
AcDbLine
 10
54.66549682617188
 20
35.71756744384766
 30
0.0
 11
55.03070068359375
 21
34.46888732910156
 31
0.0
  0
LINE
  5
196
330
70
100
AcDbEntity
  8
Oog joris - sketch v1_Sketch1
100
AcDbLine
 10
-21.99853515625
 20
-34.32381820678711
 30
0.0
 11
-21.27999877929688
 21
-34.99320220947266
 31
0.0
  0
LINE
  5
197
330
70
100
AcDbEntity
  8
Oog joris - sketch v1_Sketch1
100
AcDbLine
 10
-31.205078125
 20
26.17705535888672
 30
0.0
 11
-31.01004028320313
 21
27.13472747802735
 31
0.0
  0
LINE
  5
198
330
70
100
AcDbEntity
  8
Oog joris - sketch v1_Sketch1
100
AcDbLine
 10
-6.57818603515625
 20
-42.4910659790039
 30
0.0
 11
-5.614410400390625
 21
-42.67964935302734
 31
0.0
  0
LINE
  5
199
330
70
100
AcDbEntity
  8
Oog joris - sketch v1_Sketch1
100
AcDbLine
 10
56.204833984375
 20
29.40079498291016
 30
0.0
 11
56.4259033203125
 21
28.11871337890625
 31
0.0
  0
LINE
  5
19A
330
70
100
AcDbEntity
  8
Oog joris - sketch v1_Sketch1
100
AcDbLine
 10
-31.01004028320313
 20
27.13472747802735
 30
0.0
 11
-30.78558349609375
 21
28.08595275878906
 31
0.0
  0
LINE
  5
19B
330
70
100
AcDbEntity
  8
Oog joris - sketch v1_Sketch1
100
AcDbLine
 10
-30.78558349609375
 20
28.08595275878906
 30
0.0
 11
-30.531982421875
 21
29.02980804443359
 31
0.0
  0
LINE
  5
19C
330
70
100
AcDbEntity
  8
Oog joris - sketch v1_Sketch1
100
AcDbLine
 10
-29.20355224609375
 20
-23.88855361938476
 30
0.0
 11
-28.80426025390625
 21
-24.78575134277344
 31
0.0
  0
LINE
  5
19D
330
70
100
AcDbEntity
  8
Oog joris - sketch v1_Sketch1
100
AcDbLine
 10
56.78018188476563
 20
25.54110717773438
 30
0.0
 11
56.91323852539063
 21
24.24693298339844
 31
0.0
  0
LINE
  5
19E
330
70
100
AcDbEntity
  8
Oog joris - sketch v1_Sketch1
100
AcDbLine
 10
-8.485870361328125
 20
-42.02497100830078
 30
0.0
 11
-7.535614013671875
 21
-42.27276992797851
 31
0.0
  0
LINE
  5
19F
330
70
100
AcDbEntity
  8
Oog joris - sketch v1_Sketch1
100
AcDbLine
 10
30.65103149414063
 20
-19.71104431152344
 30
0.0
 11
30.89248657226562
 21
-18.75916290283203
 31
0.0
  0
LINE
  5
1A0
330
70
100
AcDbEntity
  8
Oog joris - sketch v1_Sketch1
100
AcDbLine
 10
-31.37057495117188
 20
25.21382904052734
 30
0.0
 11
-31.205078125
 21
26.17705535888672
 31
0.0
  0
LINE
  5
1A1
330
70
100
AcDbEntity
  8
Oog joris - sketch v1_Sketch1
100
AcDbLine
 10
26.67568969726563
 20
-28.64830398559571
 30
0.0
 11
27.1954345703125
 21
-27.81509399414062
 31
0.0
  0
LINE
  5
1A2
330
70
100
AcDbEntity
  8
Oog joris - sketch v1_Sketch1
100
AcDbLine
 10
54.27191162109375
 20
36.95761108398438
 30
0.0
 11
54.66549682617188
 21
35.71756744384766
 31
0.0
  0
LINE
  5
1A3
330
70
100
AcDbEntity
  8
Oog joris - sketch v1_Sketch1
100
AcDbLine
 10
-25.84521484375
 20
-29.8714599609375
 30
0.0
 11
-25.26251220703125
 21
-30.66193008422852
 31
0.0
  0
LINE
  5
1A4
330
70
100
AcDbEntity
  8
Oog joris - sketch v1_Sketch1
100
AcDbLine
 10
-31.50283813476562
 20
-15.38384628295898
 30
0.0
 11
-31.36550903320312
 21
-16.35622024536132
 31
0.0
  0
LINE
  5
1A5
330
70
100
AcDbEntity
  8
Oog joris - sketch v1_Sketch1
100
AcDbLine
 10
-10.36111450195312
 20
-41.44182968139648
 30
0.0
 11
-9.427978515625
 21
-41.74790573120117
 31
0.0
  0
LINE
  5
1A6
330
70
100
AcDbEntity
  8
Oog joris - sketch v1_Sketch1
100
AcDbLine
 10
48.830078125
 20
48.74422454833984
 30
0.0
 11
49.49334716796875
 21
47.625
 31
0.0
  0
LINE
  5
1A7
330
70
100
AcDbEntity
  8
Oog joris - sketch v1_Sketch1
100
AcDbLine
 10
50.1309814453125
 20
46.49097442626953
 30
0.0
 11
50.74264526367187
 21
45.34272003173827
 31
0.0
  0
LINE
  5
1A8
330
70
100
AcDbEntity
  8
Oog joris - sketch v1_Sketch1
100
AcDbLine
 10
15.29739379882812
 20
-39.25179290771485
 30
0.0
 11
16.15048217773437
 21
-38.76539611816406
 31
0.0
  0
LINE
  5
1A9
330
70
100
AcDbEntity
  8
Oog joris - sketch v1_Sketch1
100
AcDbLine
 10
-27.44281005859375
 20
-27.39729690551758
 30
0.0
 11
-26.93588256835937
 21
-28.23836135864258
 31
0.0
  0
LINE
  5
1AA
330
70
100
AcDbEntity
  8
Oog joris - sketch v1_Sketch1
100
AcDbLine
 10
-21.380615234375
 20
43.79193878173828
 30
0.0
 11
-20.64804077148437
 21
44.43888854980468
 31
0.0
  0
LINE
  5
1AB
330
70
100
AcDbEntity
  8
Oog joris - sketch v1_Sketch1
100
AcDbLine
 10
-19.13836669921875
 20
72.90020751953125
 30
0.0
 11
-17.90762329101562
 21
73.32191467285156
 31
0.0
  0
LINE
  5
1AC
330
70
100
AcDbEntity
  8
Oog joris - sketch v1_Sketch1
100
AcDbLine
 10
-2.927947998046875
 20
51.93470764160156
 30
0.0
 11
-1.953521728515625
 21
52.00985717773438
 31
0.0
  0
LINE
  5
1AD
330
70
100
AcDbEntity
  8
Oog joris - sketch v1_Sketch1
100
AcDbLine
 10
31.1043701171875
 20
-17.80027770996094
 30
0.0
 11
31.2864990234375
 21
-16.83528900146484
 31
0.0
  0
LINE
  5
1AE
330
70
100
AcDbEntity
  8
Oog joris - sketch v1_Sketch1
100
AcDbLine
 10
-9.427978515625
 20
-41.74790573120117
 30
0.0
 11
-8.485870361328125
 21
-42.02497100830078
 31
0.0
  0
LINE
  5
1AF
330
70
100
AcDbEntity
  8
Oog joris - sketch v1_Sketch1
100
AcDbLine
 10
-30.77407836914062
 20
-19.24135589599609
 30
0.0
 11
-30.517822265625
 21
-20.18934631347656
 31
0.0
  0
LINE
  5
1B0
330
70
100
AcDbEntity
  8
Oog joris - sketch v1_Sketch1
100
AcDbLine
 10
-26.93588256835937
 20
-28.23836135864258
 30
0.0
 11
-26.40316772460938
 21
-29.06334304809571
 31
0.0
  0
LINE
  5
1B1
330
70
100
AcDbEntity
  8
Oog joris - sketch v1_Sketch1
100
AcDbLine
 10
-19.12493896484375
 20
45.66362762451172
 30
0.0
 11
-18.3358154296875
 21
46.24025726318359
 31
0.0
  0
LINE
  5
1B2
330
70
100
AcDbEntity
  8
Oog joris - sketch v1_Sketch1
100
AcDbLine
 10
-3.899658203125
 20
51.82960510253906
 30
0.0
 11
-2.927947998046875
 21
51.93470764160156
 31
0.0
  0
LINE
  5
1B3
330
70
100
AcDbEntity
  8
Oog joris - sketch v1_Sketch1
100
AcDbLine
 10
-27.92349243164063
 20
-26.54095840454102
 30
0.0
 11
-27.44281005859375
 21
-27.39729690551758
 31
0.0
  0
LINE
  5
1B4
330
70
100
AcDbEntity
  8
Oog joris - sketch v1_Sketch1
100
AcDbLine
 10
-29.91790771484375
 20
-22.05928039550781
 30
0.0
 11
-29.57485961914063
 21
-22.97944259643555
 31
0.0
  0
LINE
  5
1B5
330
70
100
AcDbEntity
  8
Oog joris - sketch v1_Sketch1
100
AcDbLine
 10
-28.80426025390625
 20
-24.78575134277344
 30
0.0
 11
-28.37744140625
 21
-25.670166015625
 31
0.0
  0
LINE
  5
1B6
330
70
100
AcDbEntity
  8
Oog joris - sketch v1_Sketch1
100
AcDbLine
 10
-29.57485961914063
 20
-22.97944259643555
 30
0.0
 11
-29.20355224609375
 21
-23.88855361938476
 31
0.0
  0
LINE
  5
1B7
330
70
100
AcDbEntity
  8
Oog joris - sketch v1_Sketch1
100
AcDbLine
 10
55.03070068359375
 20
34.46888732910156
 30
0.0
 11
55.367431640625
 21
33.21221923828125
 31
0.0
  0
LINE
  5
1B8
330
70
100
AcDbEntity
  8
Oog joris - sketch v1_Sketch1
100
AcDbLine
 10
56.61770629882813
 20
26.83193206787109
 30
0.0
 11
56.78018188476563
 21
25.54110717773438
 31
0.0
  0
LINE
  5
1B9
330
70
100
AcDbEntity
  8
Oog joris - sketch v1_Sketch1
100
AcDbLine
 10
17.9075927734375
 20
73.32191467285156
 30
0.0
 11
19.13836669921875
 21
72.90020751953125
 31
0.0
  0
LINE
  5
1BA
330
70
100
AcDbEntity
  8
Oog joris - sketch v1_Sketch1
100
AcDbLine
 10
-30.24942016601563
 20
29.96542358398438
 30
0.0
 11
-29.938232421875
 21
30.89188385009766
 31
0.0
  0
LINE
  5
1BB
330
70
100
AcDbEntity
  8
Oog joris - sketch v1_Sketch1
100
AcDbLine
 10
-31.74996948242188
 20
20.34653472900391
 30
0.0
 11
-31.73574829101563
 21
19.36929321289062
 31
0.0
  0
LINE
  5
1BC
330
70
100
AcDbEntity
  8
Oog joris - sketch v1_Sketch1
100
AcDbLine
 10
-31.68820190429688
 20
22.29999542236328
 30
0.0
 11
-31.61224365234375
 21
23.27438354492187
 31
0.0
  0
LINE
  5
1BD
330
70
100
AcDbEntity
  8
Oog joris - sketch v1_Sketch1
100
AcDbLine
 10
-5.614410400390625
 20
-42.67964935302734
 30
0.0
 11
-4.64532470703125
 21
-42.83833312988281
 31
0.0
  0
LINE
  5
1BE
330
70
100
AcDbEntity
  8
Oog joris - sketch v1_Sketch1
100
AcDbLine
 10
-30.531982421875
 20
29.02980804443359
 30
0.0
 11
-30.24942016601563
 21
29.96542358398438
 31
0.0
  0
LINE
  5
1BF
330
70
100
AcDbEntity
  8
Oog joris - sketch v1_Sketch1
100
AcDbLine
 10
31.43869018554688
 20
-15.86513519287109
 30
0.0
 11
31.56082153320312
 21
-14.8907356262207
 31
0.0
  0
LINE
  5
1C0
330
70
100
AcDbEntity
  8
Oog joris - sketch v1_Sketch1
100
AcDbLine
 10
16.9881591796875
 20
-38.25284576416016
 30
0.0
 11
17.80953979492187
 21
-37.71463775634766
 31
0.0
  0
LINE
  5
1C1
330
70
100
AcDbEntity
  8
Oog joris - sketch v1_Sketch1
100
AcDbLine
 10
20.91717529296875
 20
-35.31586074829102
 30
0.0
 11
21.64584350585938
 21
-34.65754699707031
 31
0.0
  0
LINE
  5
1C2
330
70
100
AcDbEntity
  8
Oog joris - sketch v1_Sketch1
100
AcDbLine
 10
17.80953979492187
 20
-37.71463775634766
 30
0.0
 11
18.6138916015625
 21
-37.15128707885742
 31
0.0
  0
LINE
  5
1C3
330
70
100
AcDbEntity
  8
Oog joris - sketch v1_Sketch1
100
AcDbLine
 10
0.0
 20
52.07000732421875
 30
0.0
 11
0.967803955078125
 21
52.05523681640625
 31
0.0
  0
LINE
  5
1C4
330
70
100
AcDbEntity
  8
Oog joris - sketch v1_Sketch1
100
AcDbLine
 10
23.04046630859375
 20
-33.27490997314453
 30
0.0
 11
23.70498657226562
 21
-32.55190658569336
 31
0.0
  0
LINE
  5
1C5
330
70
100
AcDbEntity
  8
Oog joris - sketch v1_Sketch1
100
AcDbLine
 10
5.135894775390625
 20
-42.76184844970702
 30
0.0
 11
6.1024169921875
 21
-42.58802795410156
 31
0.0
  0
LINE
  5
1C6
330
70
100
AcDbEntity
  8
Oog joris - sketch v1_Sketch1
100
AcDbLine
 10
16.15048217773437
 20
-38.76539611816406
 30
0.0
 11
16.9881591796875
 21
-38.25284576416016
 31
0.0
  0
LINE
  5
1C7
330
70
100
AcDbEntity
  8
Oog joris - sketch v1_Sketch1
100
AcDbLine
 10
13.54812622070312
 20
-40.14429855346679
 30
0.0
 11
14.42965698242187
 21
-39.71157455444336
 31
0.0
  0
LINE
  5
1C8
330
70
100
AcDbEntity
  8
Oog joris - sketch v1_Sketch1
100
AcDbLine
 10
4.164459228515625
 20
-42.90569686889648
 30
0.0
 11
5.135894775390625
 21
-42.76184844970702
 31
0.0
  0
LINE
  5
1C9
330
70
100
AcDbEntity
  8
Oog joris - sketch v1_Sketch1
100
AcDbLine
 10
57.14999389648437
 20
-76.19999694824219
 30
0.0
 11
57.14999389648437
 21
19.05000305175781
 31
0.0
  0
LINE
  5
1CA
330
70
100
AcDbEntity
  8
Oog joris - sketch v1_Sketch1
100
AcDbLine
 10
7.0631103515625
 20
-42.38440322875976
 30
0.0
 11
8.01702880859375
 21
-42.15116119384766
 31
0.0
  0
LINE
  5
1CB
330
70
100
AcDbEntity
  8
Oog joris - sketch v1_Sketch1
100
AcDbLine
 10
21.64584350585938
 20
-34.65754699707031
 30
0.0
 11
22.35382080078125
 21
-33.97701263427734
 31
0.0
  0
LINE
  5
1CC
330
70
100
AcDbEntity
  8
Oog joris - sketch v1_Sketch1
100
AcDbLine
 10
25.5601806640625
 20
-30.2645263671875
 30
0.0
 11
26.13043212890625
 21
-29.46504211425781
 31
0.0
  0
LINE
  5
1CD
330
70
100
AcDbEntity
  8
Oog joris - sketch v1_Sketch1
100
AcDbLine
 10
20.16845703125
 20
-35.95132446289063
 30
0.0
 11
20.91717529296875
 21
-35.31586074829102
 31
0.0
  0
LINE
  5
1CE
330
70
100
AcDbEntity
  8
Oog joris - sketch v1_Sketch1
100
AcDbLine
 10
18.6138916015625
 20
-37.15128707885742
 30
0.0
 11
19.40048217773437
 21
-36.56332397460938
 31
0.0
  0
LINE
  5
1CF
330
70
100
AcDbEntity
  8
Oog joris - sketch v1_Sketch1
100
AcDbLine
 10
-0.733734130859375
 20
-43.17152023315429
 30
0.0
 11
0.24822998046875
 21
-43.17902755737304
 31
0.0
  0
LINE
  5
1D0
330
70
100
AcDbEntity
  8
Oog joris - sketch v1_Sketch1
100
AcDbLine
 10
-31.73574829101563
 20
19.36929321289062
 30
0.0
 11
-31.69146728515625
 21
18.39295959472656
 31
0.0
  0
LINE
  5
1D1
330
70
100
AcDbEntity
  8
Oog joris - sketch v1_Sketch1
100
AcDbLine
 10
22.35382080078125
 20
-33.97701263427734
 30
0.0
 11
23.04046630859375
 21
-33.27490997314453
 31
0.0
  0
LINE
  5
1D2
330
70
100
AcDbEntity
  8
Oog joris - sketch v1_Sketch1
100
AcDbLine
 10
8.01702880859375
 20
-42.15116119384766
 30
0.0
 11
8.9632568359375
 21
-41.88853073120117
 31
0.0
  0
LINE
  5
1D3
330
70
100
AcDbEntity
  8
Oog joris - sketch v1_Sketch1
100
AcDbLine
 10
14.42965698242187
 20
-39.71157455444336
 30
0.0
 11
15.29739379882812
 21
-39.25179290771485
 31
0.0
  0
LINE
  5
1D4
330
70
100
AcDbEntity
  8
Oog joris - sketch v1_Sketch1
100
AcDbLine
 10
31.74667358398437
 20
-10.96939086914062
 30
0.0
 11
31.74667358398437
 21
19.85939788818359
 31
0.0
  0
LINE
  5
1D5
330
70
100
AcDbEntity
  8
Oog joris - sketch v1_Sketch1
100
AcDbLine
 10
26.13043212890625
 20
-29.46504211425781
 30
0.0
 11
26.67568969726563
 21
-28.64830398559571
 31
0.0
  0
LINE
  5
1D6
330
70
100
AcDbEntity
  8
Oog joris - sketch v1_Sketch1
100
AcDbLine
 10
9.90093994140625
 20
-41.59675979614258
 30
0.0
 11
10.82913208007812
 21
-41.27613067626953
 31
0.0
  0
LINE
  5
1D7
330
70
100
AcDbEntity
  8
Oog joris - sketch v1_Sketch1
100
AcDbLine
 10
24.34689331054688
 20
-31.80870437622071
 30
0.0
 11
24.96548461914063
 21
-31.04600143432617
 31
0.0
  0
LINE
  5
1D8
330
70
100
AcDbEntity
  8
Oog joris - sketch v1_Sketch1
100
AcDbLine
 10
24.96548461914063
 20
-31.04600143432617
 30
0.0
 11
25.5601806640625
 21
-30.2645263671875
 31
0.0
  0
LINE
  5
1D9
330
70
100
AcDbEntity
  8
Oog joris - sketch v1_Sketch1
100
AcDbLine
 10
6.1024169921875
 20
-42.58802795410156
 30
0.0
 11
7.0631103515625
 21
-42.38440322875976
 31
0.0
  0
LINE
  5
1DA
330
70
100
AcDbEntity
  8
Oog joris - sketch v1_Sketch1
100
AcDbLine
 10
10.82913208007812
 20
-41.27613067626953
 30
0.0
 11
11.74700927734375
 21
-40.92695617675781
 31
0.0
  0
LINE
  5
1DB
330
70
100
AcDbEntity
  8
Oog joris - sketch v1_Sketch1
100
AcDbLine
 10
23.70498657226562
 20
-32.55190658569336
 30
0.0
 11
24.34689331054688
 21
-31.80870437622071
 31
0.0
  0
LINE
  5
1DC
330
70
100
AcDbEntity
  8
Oog joris - sketch v1_Sketch1
100
AcDbLine
 10
12.65359497070312
 20
-40.54955673217773
 30
0.0
 11
13.54812622070312
 21
-40.14429855346679
 31
0.0
  0
LINE
  5
1DD
330
70
100
AcDbEntity
  8
Oog joris - sketch v1_Sketch1
100
AcDbLine
 10
11.74700927734375
 20
-40.92695617675781
 30
0.0
 11
12.65359497070312
 21
-40.54955673217773
 31
0.0
  0
ENDSEC
  0
SECTION
  2
OBJECTS
  0
DICTIONARY
  5
C
330
0
100
AcDbDictionary
281
     1
  3
ACAD_COLOR
350
63
  3
ACAD_DETAILVIEWSTYLE
350
6A
  3
ACAD_GROUP
350
D
  3
ACAD_LAYOUT
350
62
  3
ACAD_MATERIAL
350
10
  3
ACAD_MLEADERSTYLE
350
66
  3
ACAD_MLINESTYLE
350
5F
  3
ACAD_PLOTSETTINGS
350
61
  3
ACAD_PLOTSTYLENAME
350
E
  3
ACAD_SCALELIST
350
42
  3
ACAD_SECTIONVIEWSTYLE
350
68
  3
ACAD_TABLESTYLE
350
64
  3
ACAD_VISUALSTYLE
350
29
  3
ACDB_RECOMPOSE_DATA
350
1E6
  3
AcDbVariableDictionary
350
1DE
  0
DICTIONARY
  5
63
102
{ACAD_REACTORS
330
C
102
}
330
C
100
AcDbDictionary
281
     1
  0
DICTIONARY
  5
6A
102
{ACAD_REACTORS
330
C
102
}
330
C
100
AcDbDictionary
281
     1
  3
Imperial24
350
6B
  0
DICTIONARY
  5
D
102
{ACAD_REACTORS
330
C
102
}
330
C
100
AcDbDictionary
281
     1
  0
DICTIONARY
  5
62
102
{ACAD_REACTORS
330
C
102
}
330
C
100
AcDbDictionary
281
     1
  3
Layout1
350
6F
  3
Layout2
350
77
  3
Model
350
73
  0
DICTIONARY
  5
10
102
{ACAD_REACTORS
330
C
102
}
330
C
100
AcDbDictionary
281
     1
  3
ByBlock
350
19
  3
ByLayer
350
11
  3
Global
350
21
  0
DICTIONARY
  5
66
102
{ACAD_REACTORS
330
C
102
}
330
C
100
AcDbDictionary
281
     1
  3
Standard
350
67
  0
DICTIONARY
  5
5F
102
{ACAD_REACTORS
330
C
102
}
330
C
100
AcDbDictionary
281
     1
  3
Standard
350
60
  0
DICTIONARY
  5
61
102
{ACAD_REACTORS
330
C
102
}
330
C
100
AcDbDictionary
281
     1
  0
ACDBDICTIONARYWDFLT
  5
E
102
{ACAD_REACTORS
330
C
102
}
330
C
100
AcDbDictionary
281
     1
  3
Normal
350
F
100
AcDbDictionaryWithDefault
340
F
  0
DICTIONARY
  5
42
102
{ACAD_REACTORS
330
C
102
}
330
C
100
AcDbDictionary
281
     1
  3
A0
350
43
  3
A1
350
44
  3
A2
350
45
  3
A3
350
46
  3
A4
350
47
  3
A5
350
48
  3
A6
350
49
  3
A7
350
4A
  3
A8
350
4B
  3
A9
350
4C
  3
B0
350
4D
  3
B1
350
4E
  3
B2
350
4F
  3
B3
350
50
  3
B4
350
51
  3
B5
350
52
  3
B6
350
53
  0
DICTIONARY
  5
68
102
{ACAD_REACTORS
330
C
102
}
330
C
100
AcDbDictionary
281
     1
  3
Imperial24
350
69
  0
DICTIONARY
  5
64
102
{ACAD_REACTORS
330
C
102
}
330
C
100
AcDbDictionary
281
     1
  3
Standard
350
65
  0
DICTIONARY
  5
29
102
{ACAD_REACTORS
330
C
102
}
330
C
100
AcDbDictionary
281
     1
  3
2dWireframe
350
2F
  3
Basic
350
2E
  3
Brighten
350
35
  3
ColorChange
350
39
  3
Conceptual
350
32
  3
Dim
350
34
  3
EdgeColorOff
350
41
  3
Facepattern
350
38
  3
Flat
350
2A
  3
FlatWithEdges
350
2B
  3
Gouraud
350
2C
  3
GouraudWithEdges
350
2D
  3
Hidden
350
31
  3
JitterOff
350
3F
  3
Linepattern
350
37
  3
OverhangOff
350
40
  3
Realistic
350
33
  3
Shaded
350
3E
  3
Shaded with edges
350
3D
  3
Shades of Gray
350
3A
  3
Sketchy
350
3B
  3
Thicken
350
36
  3
Wireframe
350
30
  3
X-Ray
350
3C
  0
XRECORD
  5
1E6
102
{ACAD_REACTORS
330
C
102
}
330
C
100
AcDbXrecord
280
     1
 90
        1
330
65
  0
DICTIONARY
  5
1DE
102
{ACAD_REACTORS
330
C
102
}
330
C
100
AcDbDictionary
281
     1
  3
CANNOSCALE
350
1E3
  3
CMLEADERSTYLE
350
1E0
  3
CTABLESTYLE
350
1DF
  3
CVIEWDETAILSTYLE
350
1E1
  3
CVIEWSECTIONSTYLE
350
1E2
  0
ACDBDETAILVIEWSTYLE
  5
6B
102
{ACAD_XDICTIONARY
360
1E9
102
}
102
{ACAD_REACTORS
330
6A
102
}
330
6A
100
AcDbModelDocViewStyle
 70
     0
  3
Imperial24
290
     0
100
AcDbDetailViewStyle
 70
     0
 71
     0
 90
        3
 71
     1
340
55
 62
   256
 40
0.24
340
0
 62
   256
 40
0.24
300

 40
0.36
280
     3
 71
     2
340
5D
 90
       25
 62
   256
 71
     3
340
55
 62
   256
 40
0.24
 90
        1
 40
0.75
 90
        1
300
%<\AcVar ViewType \f "%tc1">% %<\AcVar ViewDetailId>%\PSCALE %<\AcVar ViewScale \f "%sn">%
 71
     4
340
5D
 90
       25
 62
   256
340
5D
 90
       25
 62
   256
280
     0
  0
LAYOUT
  5
6F
102
{ACAD_REACTORS
330
62
102
}
330
62
100
AcDbPlotSettings
  1

  2

  4

  6

 40
0.0
 41
0.0
 42
0.0
 43
0.0
 44
0.0
 45
0.0
 46
0.0
 47
0.0
 48
0.0
 49
0.0
140
0.0
141
0.0
142
1.0
143
1.0
 70
   688
 72
     0
 73
     0
 74
     5
  7

 75
    16
147
1.0
 76
     0
 77
     2
 78
   300
148
0.0
149
0.0
100
AcDbLayout
  1
Layout1
 70
     1
 71
     1
 10
0.0
 20
0.0
 11
12.0
 21
9.0
 12
0.0
 22
0.0
 32
0.0
 14
0.0
 24
0.0
 34
0.0
 15
0.0
 25
0.0
 35
0.0
146
0.0
 13
0.0
 23
0.0
 33
0.0
 16
1.0
 26
0.0
 36
0.0
 17
0.0
 27
1.0
 37
0.0
 76
     0
330
6C
  0
LAYOUT
  5
77
102
{ACAD_REACTORS
330
62
102
}
330
62
100
AcDbPlotSettings
  1

  2

  4

  6

 40
0.0
 41
0.0
 42
0.0
 43
0.0
 44
0.0
 45
0.0
 46
0.0
 47
0.0
 48
0.0
 49
0.0
140
0.0
141
0.0
142
1.0
143
1.0
 70
   688
 72
     0
 73
     0
 74
     5
  7

 75
    16
147
1.0
 76
     0
 77
     2
 78
   300
148
0.0
149
0.0
100
AcDbLayout
  1
Layout2
 70
     1
 71
     2
 10
0.0
 20
0.0
 11
12.0
 21
9.0
 12
0.0
 22
0.0
 32
0.0
 14
0.0
 24
0.0
 34
0.0
 15
0.0
 25
0.0
 35
0.0
146
0.0
 13
0.0
 23
0.0
 33
0.0
 16
1.0
 26
0.0
 36
0.0
 17
0.0
 27
1.0
 37
0.0
 76
     0
330
74
  0
LAYOUT
  5
73
102
{ACAD_REACTORS
330
62
102
}
330
62
100
AcDbPlotSettings
  1

  2

  4

  6

 40
0.0
 41
0.0
 42
0.0
 43
0.0
 44
0.0
 45
0.0
 46
0.0
 47
0.0
 48
0.0
 49
0.0
140
0.0
141
0.0
142
1.0
143
1.0
 70
  1712
 72
     0
 73
     0
 74
     0
  7

 75
     0
147
1.0
 76
     0
 77
     2
 78
   300
148
0.0
149
0.0
100
AcDbLayout
  1
Model
 70
     1
 71
     0
 10
0.0
 20
0.0
 11
12.0
 21
9.0
 12
0.0
 22
0.0
 32
0.0
 14
0.0
 24
0.0
 34
0.0
 15
0.0
 25
0.0
 35
0.0
146
0.0
 13
0.0
 23
0.0
 33
0.0
 16
1.0
 26
0.0
 36
0.0
 17
0.0
 27
1.0
 37
0.0
 76
     0
330
70
  0
MATERIAL
  5
19
102
{ACAD_XDICTIONARY
360
1A
102
}
102
{ACAD_REACTORS
330
10
102
}
330
10
100
AcDbMaterial
  1
ByBlock
 72
     0
 43
0.0208333333333333
 43
0.0
 43
0.0
 43
0.0
 43
0.0
 43
0.0208333333333333
 43
0.0
 43
0.0
 43
0.0
 43
0.0
 43
1.0
 43
0.0
 43
0.0
 43
0.0
 43
0.0
 43
1.0
 77
     0
 47
0.0208333333333333
 47
0.0
 47
0.0
 47
0.0
 47
0.0
 47
0.0208333333333333
 47
0.0
 47
0.0
 47
0.0
 47
0.0
 47
1.0
 47
0.0
 47
0.0
 47
0.0
 47
0.0
 47
1.0
171
     0
 49
0.0208333333333333
 49
0.0
 49
0.0
 49
0.0
 49
0.0
 49
0.0208333333333333
 49
0.0
 49
0.0
 49
0.0
 49
0.0
 49
1.0
 49
0.0
 49
0.0
 49
0.0
 49
0.0
 49
1.0
175
     0
142
0.0208333333333333
142
0.0
142
0.0
142
0.0
142
0.0
142
0.0208333333333333
142
0.0
142
0.0
142
0.0
142
0.0
142
1.0
142
0.0
142
0.0
142
0.0
142
0.0
142
1.0
179
     0
144
0.0208333333333333
144
0.0
144
0.0
144
0.0
144
0.0
144
0.0208333333333333
144
0.0
144
0.0
144
0.0
144
0.0
144
1.0
144
0.0
144
0.0
144
0.0
144
0.0
144
1.0
147
0.0208333333333333
147
0.0
147
0.0
147
0.0
147
0.0
147
0.0208333333333333
147
0.0
147
0.0
147
0.0
147
0.0
147
1.0
147
0.0
147
0.0
147
0.0
147
0.0
147
1.0
  0
MATERIAL
  5
11
102
{ACAD_XDICTIONARY
360
12
102
}
102
{ACAD_REACTORS
330
10
102
}
330
10
100
AcDbMaterial
  1
ByLayer
 72
     0
 43
0.0208333333333333
 43
0.0
 43
0.0
 43
0.0
 43
0.0
 43
0.0208333333333333
 43
0.0
 43
0.0
 43
0.0
 43
0.0
 43
1.0
 43
0.0
 43
0.0
 43
0.0
 43
0.0
 43
1.0
 77
     0
 47
0.0208333333333333
 47
0.0
 47
0.0
 47
0.0
 47
0.0
 47
0.0208333333333333
 47
0.0
 47
0.0
 47
0.0
 47
0.0
 47
1.0
 47
0.0
 47
0.0
 47
0.0
 47
0.0
 47
1.0
171
     0
 49
0.0208333333333333
 49
0.0
 49
0.0
 49
0.0
 49
0.0
 49
0.0208333333333333
 49
0.0
 49
0.0
 49
0.0
 49
0.0
 49
1.0
 49
0.0
 49
0.0
 49
0.0
 49
0.0
 49
1.0
175
     0
142
0.0208333333333333
142
0.0
142
0.0
142
0.0
142
0.0
142
0.0208333333333333
142
0.0
142
0.0
142
0.0
142
0.0
142
1.0
142
0.0
142
0.0
142
0.0
142
0.0
142
1.0
179
     0
144
0.0208333333333333
144
0.0
144
0.0
144
0.0
144
0.0
144
0.0208333333333333
144
0.0
144
0.0
144
0.0
144
0.0
144
1.0
144
0.0
144
0.0
144
0.0
144
0.0
144
1.0
147
0.0208333333333333
147
0.0
147
0.0
147
0.0
147
0.0
147
0.0208333333333333
147
0.0
147
0.0
147
0.0
147
0.0
147
1.0
147
0.0
147
0.0
147
0.0
147
0.0
147
1.0
  0
MATERIAL
  5
21
102
{ACAD_XDICTIONARY
360
22
102
}
102
{ACAD_REACTORS
330
10
102
}
330
10
100
AcDbMaterial
  1
Global
 72
     0
 43
0.0208333333333333
 43
0.0
 43
0.0
 43
0.0
 43
0.0
 43
0.0208333333333333
 43
0.0
 43
0.0
 43
0.0
 43
0.0
 43
1.0
 43
0.0
 43
0.0
 43
0.0
 43
0.0
 43
1.0
 77
     0
 47
0.0208333333333333
 47
0.0
 47
0.0
 47
0.0
 47
0.0
 47
0.0208333333333333
 47
0.0
 47
0.0
 47
0.0
 47
0.0
 47
1.0
 47
0.0
 47
0.0
 47
0.0
 47
0.0
 47
1.0
171
     0
 49
0.0208333333333333
 49
0.0
 49
0.0
 49
0.0
 49
0.0
 49
0.0208333333333333
 49
0.0
 49
0.0
 49
0.0
 49
0.0
 49
1.0
 49
0.0
 49
0.0
 49
0.0
 49
0.0
 49
1.0
175
     0
142
0.0208333333333333
142
0.0
142
0.0
142
0.0
142
0.0
142
0.0208333333333333
142
0.0
142
0.0
142
0.0
142
0.0
142
1.0
142
0.0
142
0.0
142
0.0
142
0.0
142
1.0
179
     0
144
0.0208333333333333
144
0.0
144
0.0
144
0.0
144
0.0
144
0.0208333333333333
144
0.0
144
0.0
144
0.0
144
0.0
144
1.0
144
0.0
144
0.0
144
0.0
144
0.0
144
1.0
147
0.0208333333333333
147
0.0
147
0.0
147
0.0
147
0.0
147
0.0208333333333333
147
0.0
147
0.0
147
0.0
147
0.0
147
1.0
147
0.0
147
0.0
147
0.0
147
0.0
147
1.0
  0
MLEADERSTYLE
  5
67
102
{ACAD_REACTORS
330
66
102
}
330
66
100
AcDbMLeaderStyle
179
     2
170
     2
171
     1
172
     0
 90
        2
 40
0.0
 41
0.0
173
     1
 91
-1056964608
340
5B
 92
       -2
290
     1
 42
0.09
291
     1
 43
0.36
  3
Standard
 44
0.18
300

342
55
174
     1
178
     6
175
     1
176
     0
 93
-1056964608
 45
0.18
292
     0
297
     0
 46
0.18
 94
-1056964608
 47
1.0
 49
1.0
140
1.0
293
     1
141
0.0
294
     1
177
     0
142
1.0
295
     0
296
     0
143
0.125
271
     0
272
     9
273
     9
298
     1
  0
MLINESTYLE
  5
60
102
{ACAD_REACTORS
330
5F
102
}
330
5F
100
AcDbMlineStyle
  2
STANDARD
 70
     0
  3

 62
   256
 51
90.0
 52
90.0
 71
     2
 49
0.5
 62
   256
  6
BYLAYER
 49
-0.5
 62
   256
  6
BYLAYER
  0
ACDBPLACEHOLDER
  5
F
102
{ACAD_REACTORS
330
E
102
}
330
E
  0
SCALE
  5
43
102
{ACAD_REACTORS
330
42
102
}
330
42
100
AcDbScale
 70
     0
300
1:1
140
1.0
141
1.0
290
     1
  0
SCALE
  5
44
102
{ACAD_REACTORS
330
42
102
}
330
42
100
AcDbScale
 70
     0
300
1/128" = 1'-0"
140
0.0078125
141
12.0
290
     0
  0
SCALE
  5
45
102
{ACAD_REACTORS
330
42
102
}
330
42
100
AcDbScale
 70
     0
300
1/64" = 1'-0"
140
0.015625
141
12.0
290
     0
  0
SCALE
  5
46
102
{ACAD_REACTORS
330
42
102
}
330
42
100
AcDbScale
 70
     0
300
1/32" = 1'-0"
140
0.03125
141
12.0
290
     0
  0
SCALE
  5
47
102
{ACAD_REACTORS
330
42
102
}
330
42
100
AcDbScale
 70
     0
300
1/16" = 1'-0"
140
0.0625
141
12.0
290
     0
  0
SCALE
  5
48
102
{ACAD_REACTORS
330
42
102
}
330
42
100
AcDbScale
 70
     0
300
3/32" = 1'-0"
140
0.09375
141
12.0
290
     0
  0
SCALE
  5
49
102
{ACAD_REACTORS
330
42
102
}
330
42
100
AcDbScale
 70
     0
300
1/8" = 1'-0"
140
0.125
141
12.0
290
     0
  0
SCALE
  5
4A
102
{ACAD_REACTORS
330
42
102
}
330
42
100
AcDbScale
 70
     0
300
3/16" = 1'-0"
140
0.1875
141
12.0
290
     0
  0
SCALE
  5
4B
102
{ACAD_REACTORS
330
42
102
}
330
42
100
AcDbScale
 70
     0
300
1/4" = 1'-0"
140
0.25
141
12.0
290
     0
  0
SCALE
  5
4C
102
{ACAD_REACTORS
330
42
102
}
330
42
100
AcDbScale
 70
     0
300
3/8" = 1'-0"
140
0.375
141
12.0
290
     0
  0
SCALE
  5
4D
102
{ACAD_REACTORS
330
42
102
}
330
42
100
AcDbScale
 70
     0
300
1/2" = 1'-0"
140
0.5
141
12.0
290
     0
  0
SCALE
  5
4E
102
{ACAD_REACTORS
330
42
102
}
330
42
100
AcDbScale
 70
     0
300
3/4" = 1'-0"
140
0.75
141
12.0
290
     0
  0
SCALE
  5
4F
102
{ACAD_REACTORS
330
42
102
}
330
42
100
AcDbScale
 70
     0
300
1" = 1'-0"
140
1.0
141
12.0
290
     0
  0
SCALE
  5
50
102
{ACAD_REACTORS
330
42
102
}
330
42
100
AcDbScale
 70
     0
300
1-1/2" = 1'-0"
140
1.5
141
12.0
290
     0
  0
SCALE
  5
51
102
{ACAD_REACTORS
330
42
102
}
330
42
100
AcDbScale
 70
     0
300
3" = 1'-0"
140
3.0
141
12.0
290
     0
  0
SCALE
  5
52
102
{ACAD_REACTORS
330
42
102
}
330
42
100
AcDbScale
 70
     0
300
6" = 1'-0"
140
6.0
141
12.0
290
     0
  0
SCALE
  5
53
102
{ACAD_REACTORS
330
42
102
}
330
42
100
AcDbScale
 70
     0
300
1'-0" = 1'-0"
140
12.0
141
12.0
290
     0
  0
ACDBSECTIONVIEWSTYLE
  5
69
102
{ACAD_XDICTIONARY
360
1E7
102
}
102
{ACAD_REACTORS
330
68
102
}
330
68
100
AcDbModelDocViewStyle
 70
     0
  3
Imperial24
290
     0
100
AcDbSectionViewStyle
 70
     0
 71
     0
 90
       78
 71
     1
340
55
 62
   256
 40
0.24
340
0
340
0
 62
   256
 40
0.24
300
I, O, Q, S, X, Z
 40
0.48
 90
        3
 40
0.18
 90
        1
 71
     2
340
5D
 90
       25
 62
   256
340
5D
 90
       50
 62
   256
 40
0.24
 40
0.0
 40
0.24
 71
     3
340
55
 62
   256
 40
0.24
 90
        1
 40
0.75
 90
        1
300
%<\AcVar ViewType \f "%tc1">% %<\AcVar ViewSectionStartId>%-%<\AcVar ViewSectionEndId>%\PSCALE %<\AcVar ViewScale \f "%sn">%
 71
     4
 62
   256
 62
   257
300
ANSI31
 40
1.0
 90
        0
290
     0
290
     0
 90
        6
 40
0.0
 40
1.570796326794896
 40
0.2617993877991494
 40
1.308996938995747
 40
-0.2617993877991494
 40
1.832595714594046
  0
TABLESTYLE
  5
65
102
{ACAD_XDICTIONARY
360
1E4
102
}
102
{ACAD_REACTORS
330
64
102
}
330
64
100
AcDbTableStyle
280
     0
  3
Standard
 70
     0
 71
     0
 40
0.06
 41
0.06
280
     0
281
     0
  7
Standard
140
0.18
170
     2
 62
     0
 63
     7
283
     0
 90
      512
 91
        0
  1

274
    -2
284
     1
 64
     0
275
    -2
285
     1
 65
     0
276
    -2
286
     1
 66
     0
277
    -2
287
     1
 67
     0
278
    -2
288
     1
 68
     0
279
    -2
289
     1
 69
     0
  7
Standard
140
0.25
170
     5
 62
     0
 63
     7
283
     0
 90
      512
 91
        0
  1

274
    -2
284
     1
 64
     0
275
    -2
285
     1
 65
     0
276
    -2
286
     1
 66
     0
277
    -2
287
     1
 67
     0
278
    -2
288
     1
 68
     0
279
    -2
289
     1
 69
     0
  7
Standard
140
0.18
170
     5
 62
     0
 63
     7
283
     0
 90
      512
 91
        0
  1

274
    -2
284
     1
 64
     0
275
    -2
285
     1
 65
     0
276
    -2
286
     1
 66
     0
277
    -2
287
     1
 67
     0
278
    -2
288
     1
 68
     0
279
    -2
289
     1
 69
     0
  0
VISUALSTYLE
  5
2F
102
{ACAD_REACTORS
330
29
102
}
330
29
100
AcDbVisualStyle
  2
2dWireframe
 70
     4
177
     3
291
     0
 70
    58
 90
        0
176
     1
 90
        2
176
     1
 90
        0
176
     1
 90
        0
176
     1
 40
0.6
176
     1
 40
30.0
176
     1
 62
     7
420
 16777215
176
     1
 90
        1
176
     1
 90
        4
176
     1
 62
     7
176
     1
 62
   257
176
     1
 90
        1
176
     1
 90
        1
176
     1
 40
1.0
176
     1
 90
        0
176
     1
 62
   257
176
     1
 40
1.0
176
     1
 90
        1
176
     1
 90
        6
176
     1
 90
        2
176
     1
 62
     7
176
     1
 90
        5
176
     1
 90
        0
176
     1
 90
        0
176
     1
290
     0
176
     1
 90
        1
176
     1
 40
0.0
176
     1
 90
        0
176
     1
290
     1
176
     1
290
     1
176
     1
290
     0
176
     1
290
     0
176
     1
290
     0
176
     1
290
     0
176
     1
290
     0
176
     1
290
     0
176
     1
290
     0
176
     1
 90
       50
176
     1
 40
0.0
176
     1
 40
1.0
176
     1
 90
        0
176
     1
 62
    18
420
        0
176
     1
 90
       50
176
     1
 90
        3
176
     1
 62
     5
420
      255
176
     1
290
     0
176
     1
 90
       50
176
     1
 90
       50
176
     1
 90
       50
176
     1
290
     0
176
     1
 90
       50
176
     1
 62
   256
176
     0
 40
1.0
176
     0
 90
        2
176
     1
  1
strokes_ogs.tif
176
     1
290
     0
176
     1
 40
1.0
176
     1
 40
1.0
176
     1
1001
ACAD
1000
AcDbSavedByObjectVersion
1070
     0
  0
VISUALSTYLE
  5
2E
102
{ACAD_REACTORS
330
29
102
}
330
29
100
AcDbVisualStyle
  2
Basic
 70
     7
177
     3
291
     1
 70
    58
 90
        1
176
     1
 90
        0
176
     1
 90
        1
176
     1
 90
        0
176
     1
 40
0.6
176
     1
 40
30.0
176
     1
 62
     7
420
 16777215
176
     1
 90
        0
176
     1
 90
        4
176
     1
 62
     7
176
     1
 62
   257
176
     1
 90
        1
176
     1
 90
        1
176
     1
 40
1.0
176
     1
 90
        8
176
     1
 62
     7
176
     1
 40
1.0
176
     1
 90
        1
176
     1
 90
        6
176
     1
 90
        2
176
     1
 62
     7
176
     1
 90
        5
176
     1
 90
        0
176
     1
 90
        0
176
     1
290
     0
176
     1
 90
        1
176
     1
 40
0.0
176
     1
 90
        0
176
     1
290
     0
176
     1
290
     1
176
     1
290
     1
176
     1
290
     0
176
     1
290
     0
176
     1
290
     0
176
     1
290
     0
176
     1
290
     0
176
     1
290
     0
176
     1
 90
       50
176
     1
 40
0.0
176
     1
 40
1.0
176
     1
 90
        0
176
     1
 62
    18
420
        0
176
     1
 90
       50
176
     1
 90
        3
176
     1
 62
     5
420
      255
176
     1
290
     0
176
     1
 90
       50
176
     1
 90
       50
176
     1
 90
       50
176
     1
290
     0
176
     1
 90
       50
176
     1
 62
   256
176
     0
 40
1.0
176
     0
 90
        2
176
     1
  1
strokes_ogs.tif
176
     1
290
     0
176
     1
 40
1.0
176
     1
 40
1.0
176
     1
1001
ACAD
1000
AcDbSavedByObjectVersion
1070
     0
  0
VISUALSTYLE
  5
35
102
{ACAD_REACTORS
330
29
102
}
330
29
100
AcDbVisualStyle
  2
Brighten
 70
    12
177
     3
291
     1
 70
    58
 90
        2
176
     1
 90
        2
176
     1
 90
        0
176
     1
 90
        0
176
     1
 40
0.6
176
     1
 40
30.0
176
     1
 62
     7
420
 16777215
176
     1
 90
        1
176
     1
 90
        4
176
     1
 62
     7
176
     1
 62
   257
176
     1
 90
        1
176
     1
 90
        1
176
     1
 40
1.0
176
     1
 90
        8
176
     1
 62
     7
176
     1
 40
1.0
176
     1
 90
        1
176
     1
 90
        6
176
     1
 90
        2
176
     1
 62
     7
176
     1
 90
        5
176
     1
 90
        0
176
     1
 90
        0
176
     1
290
     0
176
     1
 90
        1
176
     1
 40
50.0
176
     1
 90
        0
176
     1
290
     0
176
     1
290
     1
176
     1
290
     1
176
     1
290
     0
176
     1
290
     0
176
     1
290
     0
176
     1
290
     0
176
     1
290
     0
176
     1
290
     0
176
     1
 90
       50
176
     1
 40
0.0
176
     1
 40
1.0
176
     1
 90
        0
176
     1
 62
    18
420
        0
176
     1
 90
       50
176
     1
 90
        3
176
     1
 62
     5
420
      255
176
     1
290
     0
176
     1
 90
       50
176
     1
 90
       50
176
     1
 90
       50
176
     1
290
     0
176
     1
 90
       50
176
     1
 62
   256
176
     0
 40
1.0
176
     0
 90
        2
176
     1
  1
strokes_ogs.tif
176
     1
290
     0
176
     1
 40
1.0
176
     1
 40
1.0
176
     1
1001
ACAD
1000
AcDbSavedByObjectVersion
1070
     0
  0
VISUALSTYLE
  5
39
102
{ACAD_REACTORS
330
29
102
}
330
29
100
AcDbVisualStyle
  2
ColorChange
 70
    16
177
     3
291
     1
 70
    58
 90
        2
176
     1
 90
        2
176
     1
 90
        3
176
     1
 90
        0
176
     1
 40
0.6
176
     1
 40
30.0
176
     1
 62
     8
420
  8421504
176
     1
 90
        1
176
     1
 90
        4
176
     1
 62
     7
176
     1
 62
   257
176
     1
 90
        1
176
     1
 90
        1
176
     1
 40
1.0
176
     1
 90
        8
176
     1
 62
     8
420
  8421504
176
     1
 40
1.0
176
     1
 90
        1
176
     1
 90
        6
176
     1
 90
        2
176
     1
 62
     7
176
     1
 90
        5
176
     1
 90
        0
176
     1
 90
        0
176
     1
290
     0
176
     1
 90
        1
176
     1
 40
0.0
176
     1
 90
        0
176
     1
290
     0
176
     1
290
     1
176
     1
290
     1
176
     1
290
     0
176
     1
290
     0
176
     1
290
     0
176
     1
290
     0
176
     1
290
     0
176
     1
290
     0
176
     1
 90
       50
176
     1
 40
0.0
176
     1
 40
1.0
176
     1
 90
        0
176
     1
 62
    18
420
        0
176
     1
 90
       50
176
     1
 90
        3
176
     1
 62
     5
420
      255
176
     1
290
     0
176
     1
 90
       50
176
     1
 90
       50
176
     1
 90
       50
176
     1
290
     0
176
     1
 90
       50
176
     1
 62
   256
176
     0
 40
1.0
176
     0
 90
        2
176
     1
  1
strokes_ogs.tif
176
     1
290
     0
176
     1
 40
1.0
176
     1
 40
1.0
176
     1
1001
ACAD
1000
AcDbSavedByObjectVersion
1070
     0
  0
VISUALSTYLE
  5
32
102
{ACAD_REACTORS
330
29
102
}
330
29
100
AcDbVisualStyle
  2
Conceptual
 70
     9
177
     3
291
     0
 70
    58
 90
        3
176
     1
 90
        2
176
     1
 90
        0
176
     1
 90
        0
176
     1
 40
0.6
176
     1
 40
30.0
176
     1
 62
     7
420
 16777215
176
     1
 90
        2
176
     1
 90
        2
176
     1
 62
     7
176
     1
 62
   257
176
     1
 90
        1
176
     1
 90
        1
176
     1
 40
179.0
176
     1
 90
        8
176
     1
 62
     7
176
     1
 40
1.0
176
     1
 90
        1
176
     1
 90
        6
176
     1
 90
        2
176
     1
 62
     7
176
     1
 90
        3
176
     1
 90
        0
176
     1
 90
        0
176
     1
290
     0
176
     1
 90
        1
176
     1
 40
0.0
176
     1
 90
        0
176
     1
290
     0
176
     1
290
     1
176
     1
290
     1
176
     1
290
     0
176
     1
290
     0
176
     1
290
     0
176
     1
290
     0
176
     1
290
     0
176
     1
290
     0
176
     1
 90
       50
176
     1
 40
0.0
176
     1
 40
1.0
176
     1
 90
        0
176
     1
 62
    18
420
        0
176
     1
 90
       50
176
     1
 90
        3
176
     1
 62
     5
420
      255
176
     1
290
     0
176
     1
 90
       50
176
     1
 90
       50
176
     1
 90
       50
176
     1
290
     0
176
     1
 90
       50
176
     1
 62
   256
176
     0
 40
1.0
176
     0
 90
        2
176
     1
  1
strokes_ogs.tif
176
     1
290
     0
176
     1
 40
1.0
176
     1
 40
1.0
176
     1
1001
ACAD
1000
AcDbSavedByObjectVersion
1070
     0
  0
VISUALSTYLE
  5
34
102
{ACAD_REACTORS
330
29
102
}
330
29
100
AcDbVisualStyle
  2
Dim
 70
    11
177
     3
291
     1
 70
    58
 90
        2
176
     1
 90
        2
176
     1
 90
        0
176
     1
 90
        0
176
     1
 40
0.6
176
     1
 40
30.0
176
     1
 62
     7
420
 16777215
176
     1
 90
        1
176
     1
 90
        4
176
     1
 62
     7
176
     1
 62
   257
176
     1
 90
        1
176
     1
 90
        1
176
     1
 40
1.0
176
     1
 90
        8
176
     1
 62
     7
176
     1
 40
1.0
176
     1
 90
        1
176
     1
 90
        6
176
     1
 90
        2
176
     1
 62
     7
176
     1
 90
        5
176
     1
 90
        0
176
     1
 90
        0
176
     1
290
     0
176
     1
 90
        1
176
     1
 40
-50.0
176
     1
 90
        0
176
     1
290
     0
176
     1
290
     1
176
     1
290
     1
176
     1
290
     0
176
     1
290
     0
176
     1
290
     0
176
     1
290
     0
176
     1
290
     0
176
     1
290
     0
176
     1
 90
       50
176
     1
 40
0.0
176
     1
 40
1.0
176
     1
 90
        0
176
     1
 62
    18
420
        0
176
     1
 90
       50
176
     1
 90
        3
176
     1
 62
     5
420
      255
176
     1
290
     0
176
     1
 90
       50
176
     1
 90
       50
176
     1
 90
       50
176
     1
290
     0
176
     1
 90
       50
176
     1
 62
   256
176
     0
 40
1.0
176
     0
 90
        2
176
     1
  1
strokes_ogs.tif
176
     1
290
     0
176
     1
 40
1.0
176
     1
 40
1.0
176
     1
1001
ACAD
1000
AcDbSavedByObjectVersion
1070
     0
  0
VISUALSTYLE
  5
41
102
{ACAD_REACTORS
330
29
102
}
330
29
100
AcDbVisualStyle
  2
EdgeColorOff
 70
    22
177
     3
291
     1
 70
    58
 90
        2
176
     0
 90
        2
176
     0
 90
        0
176
     0
 90
        0
176
     0
 40
0.6
176
     0
 40
30.0
176
     0
 62
     7
420
 16777215
176
     0
 90
        1
176
     0
 90
        4
176
     0
 62
     7
176
     0
 62
   257
176
     0
 90
        1
176
     0
 90
        1
176
     0
 40
1.0
176
     0
 90
        8
176
     2
 62
     7
176
     0
 40
1.0
176
     0
 90
        1
176
     0
 90
        6
176
     0
 90
        2
176
     0
 62
     7
176
     0
 90
        5
176
     0
 90
        0
176
     0
 90
        0
176
     0
290
     0
176
     0
 90
        1
176
     0
 40
0.0
176
     0
 90
        0
176
     0
290
     0
176
     0
290
     1
176
     0
290
     1
176
     0
290
     0
176
     0
290
     0
176
     0
290
     0
176
     0
290
     0
176
     0
290
     0
176
     0
290
     0
176
     0
 90
       50
176
     0
 40
0.0
176
     0
 40
1.0
176
     0
 90
        0
176
     0
 62
    18
420
        0
176
     0
 90
       50
176
     0
 90
        3
176
     0
 62
     5
420
      255
176
     0
290
     0
176
     0
 90
       50
176
     0
 90
       50
176
     0
 90
       50
176
     0
290
     0
176
     0
 90
       50
176
     0
 62
   256
176
     0
 40
1.0
176
     0
 90
        2
176
     0
  1
strokes_ogs.tif
176
     0
290
     0
176
     0
 40
1.0
176
     0
 40
1.0
176
     0
1001
ACAD
1000
AcDbSavedByObjectVersion
1070
     0
  0
VISUALSTYLE
  5
38
102
{ACAD_REACTORS
330
29
102
}
330
29
100
AcDbVisualStyle
  2
Facepattern
 70
    15
177
     3
291
     1
 70
    58
 90
        2
176
     1
 90
        2
176
     1
 90
        0
176
     1
 90
        0
176
     1
 40
0.6
176
     1
 40
30.0
176
     1
 62
     7
420
 16777215
176
     1
 90
        1
176
     1
 90
        4
176
     1
 62
     7
176
     1
 62
   257
176
     1
 90
        1
176
     1
 90
        1
176
     1
 40
1.0
176
     1
 90
        8
176
     1
 62
     7
176
     1
 40
1.0
176
     1
 90
        1
176
     1
 90
        6
176
     1
 90
        2
176
     1
 62
     7
176
     1
 90
        5
176
     1
 90
        0
176
     1
 90
        0
176
     1
290
     0
176
     1
 90
        1
176
     1
 40
0.0
176
     1
 90
        0
176
     1
290
     0
176
     1
290
     1
176
     1
290
     1
176
     1
290
     0
176
     1
290
     0
176
     1
290
     0
176
     1
290
     0
176
     1
290
     0
176
     1
290
     0
176
     1
 90
       50
176
     1
 40
0.0
176
     1
 40
1.0
176
     1
 90
        0
176
     1
 62
    18
420
        0
176
     1
 90
       50
176
     1
 90
        3
176
     1
 62
     5
420
      255
176
     1
290
     0
176
     1
 90
       50
176
     1
 90
       50
176
     1
 90
       50
176
     1
290
     0
176
     1
 90
       50
176
     1
 62
   256
176
     0
 40
1.0
176
     0
 90
        2
176
     1
  1
strokes_ogs.tif
176
     1
290
     0
176
     1
 40
1.0
176
     1
 40
1.0
176
     1
1001
ACAD
1000
AcDbSavedByObjectVersion
1070
     0
  0
VISUALSTYLE
  5
2A
102
{ACAD_REACTORS
330
29
102
}
330
29
100
AcDbVisualStyle
  2
Flat
 70
     0
177
     3
291
     1
 70
    58
 90
        2
176
     1
 90
        1
176
     1
 90
        1
176
     1
 90
        2
176
     1
 40
0.6
176
     1
 40
30.0
176
     1
 62
     7
420
 16777215
176
     1
 90
        0
176
     1
 90
        0
176
     1
 62
     7
176
     1
 62
   257
176
     1
 90
        1
176
     1
 90
        1
176
     1
 40
1.0
176
     1
 90
        8
176
     1
 62
     7
176
     1
 40
1.0
176
     1
 90
        1
176
     1
 90
        6
176
     1
 90
        2
176
     1
 62
     7
176
     1
 90
        5
176
     1
 90
        0
176
     1
 90
        0
176
     1
290
     0
176
     1
 90
       13
176
     1
 40
0.0
176
     1
 90
        0
176
     1
290
     0
176
     1
290
     1
176
     1
290
     1
176
     1
290
     0
176
     1
290
     0
176
     1
290
     0
176
     1
290
     0
176
     1
290
     0
176
     1
290
     0
176
     1
 90
       50
176
     1
 40
0.0
176
     1
 40
1.0
176
     1
 90
        0
176
     1
 62
    18
420
        0
176
     1
 90
       50
176
     1
 90
        3
176
     1
 62
     5
420
      255
176
     1
290
     0
176
     1
 90
       50
176
     1
 90
       50
176
     1
 90
       50
176
     1
290
     0
176
     1
 90
       50
176
     1
 62
   256
176
     0
 40
1.0
176
     0
 90
        2
176
     1
  1
strokes_ogs.tif
176
     1
290
     0
176
     1
 40
1.0
176
     1
 40
1.0
176
     1
1001
ACAD
1000
AcDbSavedByObjectVersion
1070
     0
  0
VISUALSTYLE
  5
2B
102
{ACAD_REACTORS
330
29
102
}
330
29
100
AcDbVisualStyle
  2
FlatWithEdges
 70
     1
177
     3
291
     1
 70
    58
 90
        2
176
     1
 90
        1
176
     1
 90
        1
176
     1
 90
        2
176
     1
 40
0.6
176
     1
 40
30.0
176
     1
 62
     7
420
 16777215
176
     1
 90
        1
176
     1
 90
        0
176
     1
 62
     7
176
     1
 62
   257
176
     1
 90
        1
176
     1
 90
        1
176
     1
 40
1.0
176
     1
 90
        0
176
     1
 62
   257
176
     1
 40
1.0
176
     1
 90
        1
176
     1
 90
        6
176
     1
 90
        2
176
     1
 62
     7
176
     1
 90
        5
176
     1
 90
        0
176
     1
 90
        0
176
     1
290
     0
176
     1
 90
       13
176
     1
 40
0.0
176
     1
 90
        0
176
     1
290
     0
176
     1
290
     1
176
     1
290
     1
176
     1
290
     0
176
     1
290
     0
176
     1
290
     0
176
     1
290
     0
176
     1
290
     0
176
     1
290
     0
176
     1
 90
       50
176
     1
 40
0.0
176
     1
 40
1.0
176
     1
 90
        0
176
     1
 62
    18
420
        0
176
     1
 90
       50
176
     1
 90
        3
176
     1
 62
     5
420
      255
176
     1
290
     0
176
     1
 90
       50
176
     1
 90
       50
176
     1
 90
       50
176
     1
290
     0
176
     1
 90
       50
176
     1
 62
   256
176
     0
 40
1.0
176
     0
 90
        2
176
     1
  1
strokes_ogs.tif
176
     1
290
     0
176
     1
 40
1.0
176
     1
 40
1.0
176
     1
1001
ACAD
1000
AcDbSavedByObjectVersion
1070
     0
  0
VISUALSTYLE
  5
2C
102
{ACAD_REACTORS
330
29
102
}
330
29
100
AcDbVisualStyle
  2
Gouraud
 70
     2
177
     3
291
     1
 70
    58
 90
        2
176
     1
 90
        2
176
     1
 90
        1
176
     1
 90
        2
176
     1
 40
0.6
176
     1
 40
30.0
176
     1
 62
     7
420
 16777215
176
     1
 90
        0
176
     1
 90
        0
176
     1
 62
     7
176
     1
 62
   257
176
     1
 90
        1
176
     1
 90
        1
176
     1
 40
1.0
176
     1
 90
        0
176
     1
 62
     7
176
     1
 40
1.0
176
     1
 90
        1
176
     1
 90
        6
176
     1
 90
        2
176
     1
 62
     7
176
     1
 90
        5
176
     1
 90
        0
176
     1
 90
        0
176
     1
290
     0
176
     1
 90
       13
176
     1
 40
0.0
176
     1
 90
        0
176
     1
290
     0
176
     1
290
     1
176
     1
290
     1
176
     1
290
     0
176
     1
290
     0
176
     1
290
     0
176
     1
290
     0
176
     1
290
     0
176
     1
290
     0
176
     1
 90
       50
176
     1
 40
0.0
176
     1
 40
1.0
176
     1
 90
        0
176
     1
 62
    18
420
        0
176
     1
 90
       50
176
     1
 90
        3
176
     1
 62
     5
420
      255
176
     1
290
     0
176
     1
 90
       50
176
     1
 90
       50
176
     1
 90
       50
176
     1
290
     0
176
     1
 90
       50
176
     1
 62
   256
176
     0
 40
1.0
176
     0
 90
        2
176
     1
  1
strokes_ogs.tif
176
     1
290
     0
176
     1
 40
1.0
176
     1
 40
1.0
176
     1
1001
ACAD
1000
AcDbSavedByObjectVersion
1070
     0
  0
VISUALSTYLE
  5
2D
102
{ACAD_REACTORS
330
29
102
}
330
29
100
AcDbVisualStyle
  2
GouraudWithEdges
 70
     3
177
     3
291
     1
 70
    58
 90
        2
176
     1
 90
        2
176
     1
 90
        1
176
     1
 90
        2
176
     1
 40
0.6
176
     1
 40
30.0
176
     1
 62
     7
420
 16777215
176
     1
 90
        1
176
     1
 90
        0
176
     1
 62
     7
176
     1
 62
   257
176
     1
 90
        1
176
     1
 90
        1
176
     1
 40
1.0
176
     1
 90
        0
176
     1
 62
   257
176
     1
 40
1.0
176
     1
 90
        1
176
     1
 90
        6
176
     1
 90
        2
176
     1
 62
     7
176
     1
 90
        5
176
     1
 90
        0
176
     1
 90
        0
176
     1
290
     0
176
     1
 90
       13
176
     1
 40
0.0
176
     1
 90
        0
176
     1
290
     0
176
     1
290
     1
176
     1
290
     1
176
     1
290
     0
176
     1
290
     0
176
     1
290
     0
176
     1
290
     0
176
     1
290
     0
176
     1
290
     0
176
     1
 90
       50
176
     1
 40
0.0
176
     1
 40
1.0
176
     1
 90
        0
176
     1
 62
    18
420
        0
176
     1
 90
       50
176
     1
 90
        3
176
     1
 62
     5
420
      255
176
     1
290
     0
176
     1
 90
       50
176
     1
 90
       50
176
     1
 90
       50
176
     1
290
     0
176
     1
 90
       50
176
     1
 62
   256
176
     0
 40
1.0
176
     0
 90
        2
176
     1
  1
strokes_ogs.tif
176
     1
290
     0
176
     1
 40
1.0
176
     1
 40
1.0
176
     1
1001
ACAD
1000
AcDbSavedByObjectVersion
1070
     0
  0
VISUALSTYLE
  5
31
102
{ACAD_REACTORS
330
29
102
}
330
29
100
AcDbVisualStyle
  2
Hidden
 70
     6
177
     3
291
     0
 70
    58
 90
        1
176
     1
 90
        2
176
     1
 90
        2
176
     1
 90
        0
176
     1
 40
0.6
176
     1
 40
30.0
176
     1
 62
     7
420
 16777215
176
     1
 90
        2
176
     1
 90
        2
176
     1
 62
     7
176
     1
 62
   257
176
     1
 90
        2
176
     1
 90
        1
176
     1
 40
40.0
176
     1
 90
        0
176
     1
 62
   257
176
     1
 40
1.0
176
     1
 90
        1
176
     1
 90
        6
176
     1
 90
        2
176
     1
 62
     7
176
     1
 90
        3
176
     1
 90
        0
176
     1
 90
        0
176
     1
290
     0
176
     1
 90
        1
176
     1
 40
0.0
176
     1
 90
        0
176
     1
290
     0
176
     1
290
     1
176
     1
290
     1
176
     1
290
     0
176
     1
290
     0
176
     1
290
     0
176
     1
290
     0
176
     1
290
     0
176
     1
290
     0
176
     1
 90
       50
176
     1
 40
0.0
176
     1
 40
1.0
176
     1
 90
        0
176
     1
 62
    18
420
        0
176
     1
 90
       50
176
     1
 90
        3
176
     1
 62
     5
420
      255
176
     1
290
     0
176
     1
 90
       50
176
     1
 90
       50
176
     1
 90
       50
176
     1
290
     0
176
     1
 90
       50
176
     1
 62
   256
176
     0
 40
1.0
176
     0
 90
        2
176
     1
  1
strokes_ogs.tif
176
     1
290
     0
176
     1
 40
1.0
176
     1
 40
1.0
176
     1
1001
ACAD
1000
AcDbSavedByObjectVersion
1070
     0
  0
VISUALSTYLE
  5
3F
102
{ACAD_REACTORS
330
29
102
}
330
29
100
AcDbVisualStyle
  2
JitterOff
 70
    20
177
     3
291
     1
 70
    58
 90
        2
176
     0
 90
        2
176
     0
 90
        0
176
     0
 90
        0
176
     0
 40
0.6
176
     0
 40
30.0
176
     0
 62
     7
420
 16777215
176
     0
 90
        1
176
     0
 90
        4
176
     0
 62
     7
176
     0
 62
   257
176
     0
 90
        1
176
     0
 90
        1
176
     0
 40
1.0
176
     0
 90
       10
176
     2
 62
     7
176
     0
 40
1.0
176
     0
 90
        1
176
     0
 90
        6
176
     0
 90
        2
176
     0
 62
     7
176
     0
 90
        5
176
     0
 90
        0
176
     0
 90
        0
176
     0
290
     0
176
     0
 90
        1
176
     0
 40
0.0
176
     0
 90
        0
176
     0
290
     0
176
     0
290
     1
176
     0
290
     1
176
     0
290
     0
176
     0
290
     0
176
     0
290
     0
176
     0
290
     0
176
     0
290
     0
176
     0
290
     0
176
     0
 90
       50
176
     0
 40
0.0
176
     0
 40
1.0
176
     0
 90
        0
176
     0
 62
    18
420
        0
176
     0
 90
       50
176
     0
 90
        3
176
     0
 62
     5
420
      255
176
     0
290
     0
176
     0
 90
       50
176
     0
 90
       50
176
     0
 90
       50
176
     0
290
     0
176
     0
 90
       50
176
     0
 62
   256
176
     0
 40
1.0
176
     0
 90
        2
176
     0
  1
strokes_ogs.tif
176
     0
290
     0
176
     0
 40
1.0
176
     0
 40
1.0
176
     0
1001
ACAD
1000
AcDbSavedByObjectVersion
1070
     0
  0
VISUALSTYLE
  5
37
102
{ACAD_REACTORS
330
29
102
}
330
29
100
AcDbVisualStyle
  2
Linepattern
 70
    14
177
     3
291
     1
 70
    58
 90
        2
176
     1
 90
        2
176
     1
 90
        0
176
     1
 90
        0
176
     1
 40
0.6
176
     1
 40
30.0
176
     1
 62
     7
420
 16777215
176
     1
 90
        1
176
     1
 90
        4
176
     1
 62
     7
176
     1
 62
   257
176
     1
 90
        7
176
     1
 90
        7
176
     1
 40
1.0
176
     1
 90
        8
176
     1
 62
     7
176
     1
 40
1.0
176
     1
 90
        1
176
     1
 90
        6
176
     1
 90
        2
176
     1
 62
     7
176
     1
 90
        5
176
     1
 90
        0
176
     1
 90
        0
176
     1
290
     0
176
     1
 90
        1
176
     1
 40
0.0
176
     1
 90
        0
176
     1
290
     0
176
     1
290
     1
176
     1
290
     1
176
     1
290
     0
176
     1
290
     0
176
     1
290
     0
176
     1
290
     0
176
     1
290
     0
176
     1
290
     0
176
     1
 90
       50
176
     1
 40
0.0
176
     1
 40
1.0
176
     1
 90
        0
176
     1
 62
    18
420
        0
176
     1
 90
       50
176
     1
 90
        3
176
     1
 62
     5
420
      255
176
     1
290
     0
176
     1
 90
       50
176
     1
 90
       50
176
     1
 90
       50
176
     1
290
     0
176
     1
 90
       50
176
     1
 62
   256
176
     0
 40
1.0
176
     0
 90
        2
176
     1
  1
strokes_ogs.tif
176
     1
290
     0
176
     1
 40
1.0
176
     1
 40
1.0
176
     1
1001
ACAD
1000
AcDbSavedByObjectVersion
1070
     0
  0
VISUALSTYLE
  5
40
102
{ACAD_REACTORS
330
29
102
}
330
29
100
AcDbVisualStyle
  2
OverhangOff
 70
    21
177
     3
291
     1
 70
    58
 90
        2
176
     0
 90
        2
176
     0
 90
        0
176
     0
 90
        0
176
     0
 40
0.6
176
     0
 40
30.0
176
     0
 62
     7
420
 16777215
176
     0
 90
        1
176
     0
 90
        4
176
     0
 62
     7
176
     0
 62
   257
176
     0
 90
        1
176
     0
 90
        1
176
     0
 40
1.0
176
     0
 90
        9
176
     2
 62
     7
176
     0
 40
1.0
176
     0
 90
        1
176
     0
 90
        6
176
     0
 90
        2
176
     0
 62
     7
176
     0
 90
        5
176
     0
 90
        0
176
     0
 90
        0
176
     0
290
     0
176
     0
 90
        1
176
     0
 40
0.0
176
     0
 90
        0
176
     0
290
     0
176
     0
290
     1
176
     0
290
     1
176
     0
290
     0
176
     0
290
     0
176
     0
290
     0
176
     0
290
     0
176
     0
290
     0
176
     0
290
     0
176
     0
 90
       50
176
     0
 40
0.0
176
     0
 40
1.0
176
     0
 90
        0
176
     0
 62
    18
420
        0
176
     0
 90
       50
176
     0
 90
        3
176
     0
 62
     5
420
      255
176
     0
290
     0
176
     0
 90
       50
176
     0
 90
       50
176
     0
 90
       50
176
     0
290
     0
176
     0
 90
       50
176
     0
 62
   256
176
     0
 40
1.0
176
     0
 90
        2
176
     0
  1
strokes_ogs.tif
176
     0
290
     0
176
     0
 40
1.0
176
     0
 40
1.0
176
     0
1001
ACAD
1000
AcDbSavedByObjectVersion
1070
     0
  0
VISUALSTYLE
  5
33
102
{ACAD_REACTORS
330
29
102
}
330
29
100
AcDbVisualStyle
  2
Realistic
 70
     8
177
     3
291
     0
 70
    58
 90
        2
176
     1
 90
        3
176
     1
 90
        0
176
     1
 90
        2
176
     1
 40
0.6
176
     1
 40
30.0
176
     1
 62
     7
420
 16777215
176
     1
 90
        0
176
     1
 90
        0
176
     1
 62
     7
176
     1
 62
   257
176
     1
 90
        1
176
     1
 90
        1
176
     1
 40
1.0
176
     1
 90
        8
176
     1
 62
   257
176
     1
 40
1.0
176
     1
 90
        1
176
     1
 90
        6
176
     1
 90
        2
176
     1
 62
     7
176
     1
 90
        3
176
     1
 90
        0
176
     1
 90
        0
176
     1
290
     0
176
     1
 90
       13
176
     1
 40
0.0
176
     1
 90
        0
176
     1
290
     0
176
     1
290
     1
176
     1
290
     1
176
     1
290
     0
176
     1
290
     0
176
     1
290
     0
176
     1
290
     0
176
     1
290
     0
176
     1
290
     0
176
     1
 90
       50
176
     1
 40
0.0
176
     1
 40
1.0
176
     1
 90
        0
176
     1
 62
    18
420
        0
176
     1
 90
       50
176
     1
 90
        3
176
     1
 62
     5
420
      255
176
     1
290
     0
176
     1
 90
       50
176
     1
 90
       50
176
     1
 90
       50
176
     1
290
     0
176
     1
 90
       50
176
     1
 62
   256
176
     0
 40
1.0
176
     0
 90
        2
176
     1
  1
strokes_ogs.tif
176
     1
290
     0
176
     1
 40
1.0
176
     1
 40
1.0
176
     1
1001
ACAD
1000
AcDbSavedByObjectVersion
1070
     0
  0
VISUALSTYLE
  5
3E
102
{ACAD_REACTORS
330
29
102
}
330
29
100
AcDbVisualStyle
  2
Shaded
 70
    27
177
     3
291
     0
 70
    58
 90
        2
176
     1
 90
        2
176
     1
 90
        1
176
     1
 90
        2
176
     1
 40
0.6
176
     1
 40
30.0
176
     1
 62
     7
420
 16777215
176
     1
 90
        0
176
     1
 90
        4
176
     1
 62
     7
176
     1
 62
   257
176
     1
 90
        1
176
     1
 90
        1
176
     1
 40
1.0
176
     1
 90
        8
176
     1
 62
   257
176
     1
 40
1.0
176
     1
 90
        1
176
     1
 90
        6
176
     1
 90
        2
176
     1
 62
     8
420
  7895160
176
     1
 90
        3
176
     1
 90
        0
176
     1
 90
        0
176
     1
290
     0
176
     1
 90
        5
176
     1
 40
0.0
176
     1
 90
        0
176
     1
290
     0
176
     1
290
     1
176
     1
290
     1
176
     1
290
     0
176
     1
290
     0
176
     1
290
     0
176
     1
290
     0
176
     1
290
     0
176
     1
290
     0
176
     1
 90
       50
176
     1
 40
0.0
176
     1
 40
1.0
176
     1
 90
        0
176
     1
 62
    18
420
        0
176
     1
 90
       50
176
     1
 90
        3
176
     1
 62
     5
420
      255
176
     1
290
     0
176
     1
 90
       50
176
     1
 90
       50
176
     1
 90
       50
176
     1
290
     0
176
     1
 90
       50
176
     1
 62
   256
176
     0
 40
1.0
176
     0
 90
        2
176
     1
  1
strokes_ogs.tif
176
     1
290
     0
176
     1
 40
1.0
176
     1
 40
1.0
176
     1
1001
ACAD
1000
AcDbSavedByObjectVersion
1070
     0
  0
VISUALSTYLE
  5
3D
102
{ACAD_REACTORS
330
29
102
}
330
29
100
AcDbVisualStyle
  2
Shaded with edges
 70
    26
177
     3
291
     0
 70
    58
 90
        2
176
     1
 90
        2
176
     1
 90
        1
176
     1
 90
        2
176
     1
 40
0.6
176
     1
 40
30.0
176
     1
 62
     7
420
 16777215
176
     1
 90
        1
176
     1
 90
        2
176
     1
 62
     7
176
     1
 62
   257
176
     1
 90
        2
176
     1
 90
        1
176
     1
 40
1.0
176
     1
 90
        8
176
     1
 62
   257
176
     1
 40
1.0
176
     1
 90
        1
176
     1
 90
        6
176
     1
 90
        2
176
     1
 62
     7
176
     1
 90
        3
176
     1
 90
        0
176
     1
 90
        0
176
     1
290
     0
176
     1
 90
        5
176
     1
 40
0.0
176
     1
 90
        0
176
     1
290
     0
176
     1
290
     1
176
     1
290
     1
176
     1
290
     0
176
     1
290
     0
176
     1
290
     0
176
     1
290
     0
176
     1
290
     0
176
     1
290
     0
176
     1
 90
       50
176
     1
 40
0.0
176
     1
 40
1.0
176
     1
 90
        0
176
     1
 62
    18
420
        0
176
     1
 90
       50
176
     1
 90
        3
176
     1
 62
     5
420
      255
176
     1
290
     0
176
     1
 90
       50
176
     1
 90
       50
176
     1
 90
       50
176
     1
290
     0
176
     1
 90
       50
176
     1
 62
   256
176
     0
 40
1.0
176
     0
 90
        2
176
     1
  1
strokes_ogs.tif
176
     1
290
     0
176
     1
 40
1.0
176
     1
 40
1.0
176
     1
1001
ACAD
1000
AcDbSavedByObjectVersion
1070
     0
  0
VISUALSTYLE
  5
3A
102
{ACAD_REACTORS
330
29
102
}
330
29
100
AcDbVisualStyle
  2
Shades of Gray
 70
    23
177
     3
291
     0
 70
    58
 90
        2
176
     1
 90
        2
176
     1
 90
        3
176
     1
 90
        0
176
     1
 40
0.6
176
     1
 40
30.0
176
     1
 62
     7
420
 16777215
176
     1
 90
        2
176
     1
 90
        2
176
     1
 62
     7
176
     1
 62
     7
176
     1
 90
        1
176
     1
 90
        1
176
     1
 40
40.0
176
     1
 90
        8
176
     1
 62
     7
176
     1
 40
1.0
176
     1
 90
        1
176
     1
 90
        6
176
     1
 90
        2
176
     1
 62
     7
176
     1
 90
        3
176
     1
 90
        0
176
     1
 90
        0
176
     1
290
     0
176
     1
 90
        1
176
     1
 40
0.0
176
     1
 90
        0
176
     1
290
     0
176
     1
290
     1
176
     1
290
     1
176
     1
290
     0
176
     1
290
     0
176
     1
290
     0
176
     1
290
     0
176
     1
290
     0
176
     1
290
     0
176
     1
 90
       50
176
     1
 40
0.0
176
     1
 40
1.0
176
     1
 90
        0
176
     1
 62
    18
420
        0
176
     1
 90
       50
176
     1
 90
        3
176
     1
 62
     5
420
      255
176
     1
290
     0
176
     1
 90
       50
176
     1
 90
       50
176
     1
 90
       50
176
     1
290
     0
176
     1
 90
       50
176
     1
 62
   256
176
     0
 40
1.0
176
     0
 90
        2
176
     1
  1
strokes_ogs.tif
176
     1
290
     0
176
     1
 40
1.0
176
     1
 40
1.0
176
     1
1001
ACAD
1000
AcDbSavedByObjectVersion
1070
     0
  0
VISUALSTYLE
  5
3B
102
{ACAD_REACTORS
330
29
102
}
330
29
100
AcDbVisualStyle
  2
Sketchy
 70
    24
177
     3
291
     0
 70
    58
 90
        1
176
     1
 90
        2
176
     1
 90
        2
176
     1
 90
        0
176
     1
 40
0.6
176
     1
 40
30.0
176
     1
 62
     7
420
 16777215
176
     1
 90
        2
176
     1
 90
        2
176
     1
 62
     7
176
     1
 62
     7
176
     1
 90
        1
176
     1
 90
        1
176
     1
 40
40.0
176
     1
 90
       11
176
     1
 62
     7
176
     1
 40
1.0
176
     1
 90
        1
176
     1
 90
        6
176
     1
 90
        2
176
     1
 62
     7
176
     1
 90
        6
176
     1
 90
        0
176
     1
 90
        0
176
     1
290
     0
176
     1
 90
        1
176
     1
 40
0.0
176
     1
 90
        0
176
     1
290
     0
176
     1
290
     1
176
     1
290
     1
176
     1
290
     0
176
     1
290
     0
176
     1
290
     0
176
     1
290
     0
176
     1
290
     0
176
     1
290
     0
176
     1
 90
       50
176
     1
 40
0.0
176
     1
 40
1.0
176
     1
 90
        0
176
     1
 62
    18
420
        0
176
     1
 90
       50
176
     1
 90
        3
176
     1
 62
     5
420
      255
176
     1
290
     0
176
     1
 90
       50
176
     1
 90
       50
176
     1
 90
       50
176
     1
290
     0
176
     1
 90
       50
176
     1
 62
   256
176
     0
 40
1.0
176
     0
 90
        2
176
     1
  1
strokes_ogs.tif
176
     1
290
     0
176
     1
 40
1.0
176
     1
 40
1.0
176
     1
1001
ACAD
1000
AcDbSavedByObjectVersion
1070
     0
  0
VISUALSTYLE
  5
36
102
{ACAD_REACTORS
330
29
102
}
330
29
100
AcDbVisualStyle
  2
Thicken
 70
    13
177
     3
291
     1
 70
    58
 90
        2
176
     1
 90
        2
176
     1
 90
        0
176
     1
 90
        0
176
     1
 40
0.6
176
     1
 40
30.0
176
     1
 62
     7
420
 16777215
176
     1
 90
        1
176
     1
 90
        4
176
     1
 62
     7
176
     1
 62
   257
176
     1
 90
        1
176
     1
 90
        1
176
     1
 40
1.0
176
     1
 90
       12
176
     1
 62
     7
176
     1
 40
1.0
176
     1
 90
        1
176
     1
 90
        6
176
     1
 90
        2
176
     1
 62
     7
176
     1
 90
        5
176
     1
 90
        0
176
     1
 90
        0
176
     1
290
     0
176
     1
 90
        1
176
     1
 40
0.0
176
     1
 90
        0
176
     1
290
     0
176
     1
290
     1
176
     1
290
     1
176
     1
290
     0
176
     1
290
     0
176
     1
290
     0
176
     1
290
     0
176
     1
290
     0
176
     1
290
     0
176
     1
 90
       50
176
     1
 40
0.0
176
     1
 40
1.0
176
     1
 90
        0
176
     1
 62
    18
420
        0
176
     1
 90
       50
176
     1
 90
        3
176
     1
 62
     5
420
      255
176
     1
290
     0
176
     1
 90
       50
176
     1
 90
       50
176
     1
 90
       50
176
     1
290
     0
176
     1
 90
       50
176
     1
 62
   256
176
     0
 40
1.0
176
     0
 90
        2
176
     1
  1
strokes_ogs.tif
176
     1
290
     0
176
     1
 40
1.0
176
     1
 40
1.0
176
     1
1001
ACAD
1000
AcDbSavedByObjectVersion
1070
     0
  0
VISUALSTYLE
  5
30
102
{ACAD_REACTORS
330
29
102
}
330
29
100
AcDbVisualStyle
  2
Wireframe
 70
     5
177
     3
291
     0
 70
    58
 90
        0
176
     1
 90
        2
176
     1
 90
        0
176
     1
 90
        0
176
     1
 40
0.6
176
     1
 40
30.0
176
     1
 62
     7
420
 16777215
176
     1
 90
        1
176
     1
 90
        4
176
     1
 62
     7
176
     1
 62
   257
176
     1
 90
        1
176
     1
 90
        1
176
     1
 40
1.0
176
     1
 90
        0
176
     1
 62
   257
176
     1
 40
1.0
176
     1
 90
        1
176
     1
 90
        6
176
     1
 90
        2
176
     1
 62
     7
176
     1
 90
        3
176
     1
 90
        0
176
     1
 90
        0
176
     1
290
     0
176
     1
 90
        1
176
     1
 40
0.0
176
     1
 90
        0
176
     1
290
     0
176
     1
290
     1
176
     1
290
     1
176
     1
290
     0
176
     1
290
     0
176
     1
290
     0
176
     1
290
     0
176
     1
290
     0
176
     1
290
     0
176
     1
 90
       50
176
     1
 40
0.0
176
     1
 40
1.0
176
     1
 90
        0
176
     1
 62
    18
420
        0
176
     1
 90
       50
176
     1
 90
        3
176
     1
 62
     5
420
      255
176
     1
290
     0
176
     1
 90
       50
176
     1
 90
       50
176
     1
 90
       50
176
     1
290
     0
176
     1
 90
       50
176
     1
 62
   256
176
     0
 40
1.0
176
     0
 90
        2
176
     1
  1
strokes_ogs.tif
176
     1
290
     0
176
     1
 40
1.0
176
     1
 40
1.0
176
     1
1001
ACAD
1000
AcDbSavedByObjectVersion
1070
     0
  0
VISUALSTYLE
  5
3C
102
{ACAD_REACTORS
330
29
102
}
330
29
100
AcDbVisualStyle
  2
X-Ray
 70
    25
177
     3
291
     0
 70
    58
 90
        2
176
     1
 90
        2
176
     1
 90
        1
176
     1
 90
        1
176
     1
 40
0.5
176
     1
 40
30.0
176
     1
 62
     7
420
 16777215
176
     1
 90
        1
176
     1
 90
        0
176
     1
 62
     7
176
     1
 62
   257
176
     1
 90
        1
176
     1
 90
        1
176
     1
 40
1.0
176
     1
 90
        8
176
     1
 62
     7
176
     1
 40
1.0
176
     1
 90
        1
176
     1
 90
        6
176
     1
 90
        2
176
     1
 62
     7
176
     1
 90
        3
176
     1
 90
        0
176
     1
 90
        0
176
     1
290
     0
176
     1
 90
       13
176
     1
 40
0.0
176
     1
 90
        0
176
     1
290
     0
176
     1
290
     1
176
     1
290
     1
176
     1
290
     0
176
     1
290
     0
176
     1
290
     0
176
     1
290
     0
176
     1
290
     0
176
     1
290
     0
176
     1
 90
       50
176
     1
 40
0.0
176
     1
 40
1.0
176
     1
 90
        0
176
     1
 62
    18
420
        0
176
     1
 90
       50
176
     1
 90
        3
176
     1
 62
     5
420
      255
176
     1
290
     0
176
     1
 90
       50
176
     1
 90
       50
176
     1
 90
       50
176
     1
290
     0
176
     1
 90
       50
176
     1
 62
   256
176
     0
 40
1.0
176
     0
 90
        2
176
     1
  1
strokes_ogs.tif
176
     1
290
     0
176
     1
 40
1.0
176
     1
 40
1.0
176
     1
1001
ACAD
1000
AcDbSavedByObjectVersion
1070
     0
  0
DICTIONARYVAR
  5
1E3
102
{ACAD_REACTORS
330
1DE
102
}
330
1DE
100
DictionaryVariables
280
     0
  1
1:1
  0
DICTIONARYVAR
  5
1E0
102
{ACAD_REACTORS
330
1DE
102
}
330
1DE
100
DictionaryVariables
280
     0
  1
STANDARD
  0
DICTIONARYVAR
  5
1DF
102
{ACAD_REACTORS
330
1DE
102
}
330
1DE
100
DictionaryVariables
280
     0
  1
STANDARD
  0
DICTIONARYVAR
  5
1E1
102
{ACAD_REACTORS
330
1DE
102
}
330
1DE
100
DictionaryVariables
280
     0
  1
Imperial24
  0
DICTIONARYVAR
  5
1E2
102
{ACAD_REACTORS
330
1DE
102
}
330
1DE
100
DictionaryVariables
280
     0
  1
Imperial24
  0
DICTIONARY
  5
1E9
330
6B
100
AcDbDictionary
280
     1
281
     1
  3
ACAD_XREC_ROUNDTRIP
360
1EA
  0
DICTIONARY
  5
1A
330
19
100
AcDbDictionary
280
     1
281
     1
  3
BUMPTILE
360
1C
  3
DIFFUSETILE
360
1B
  3
OPACITYTILE
360
1F
  3
REFLECTIONTILE
360
1E
  3
REFRACTIONTILE
360
20
  3
SPECULARTILE
360
1D
  0
DICTIONARY
  5
12
330
11
100
AcDbDictionary
280
     1
281
     1
  3
BUMPTILE
360
14
  3
DIFFUSETILE
360
13
  3
OPACITYTILE
360
17
  3
REFLECTIONTILE
360
16
  3
REFRACTIONTILE
360
18
  3
SPECULARTILE
360
15
  0
DICTIONARY
  5
22
330
21
100
AcDbDictionary
280
     1
281
     1
  3
BUMPTILE
360
24
  3
DIFFUSETILE
360
23
  3
OPACITYTILE
360
27
  3
REFLECTIONTILE
360
26
  3
REFRACTIONTILE
360
28
  3
SPECULARTILE
360
25
  0
DICTIONARY
  5
1E7
330
69
100
AcDbDictionary
280
     1
281
     1
  3
ACAD_XREC_ROUNDTRIP
360
1E8
  0
DICTIONARY
  5
1E4
330
65
100
AcDbDictionary
280
     1
281
     1
  3
ACAD_ROUNDTRIP_2008_TABLESTYLE_CELLSTYLEMAP
360
1E5
  0
XRECORD
  5
1EA
102
{ACAD_REACTORS
330
1E9
102
}
330
1E9
100
AcDbXrecord
280
     1
102
DISPLAYNAME
  1
Imperial24
102
FLAGS
 90
        0
  0
XRECORD
  5
1C
102
{ACAD_REACTORS
330
1A
102
}
330
1A
100
AcDbXrecord
280
     1
270
     1
271
     1
  0
XRECORD
  5
1B
102
{ACAD_REACTORS
330
1A
102
}
330
1A
100
AcDbXrecord
280
     1
270
     1
271
     1
  0
XRECORD
  5
1F
102
{ACAD_REACTORS
330
1A
102
}
330
1A
100
AcDbXrecord
280
     1
270
     1
271
     1
  0
XRECORD
  5
1E
102
{ACAD_REACTORS
330
1A
102
}
330
1A
100
AcDbXrecord
280
     1
270
     1
271
     1
  0
XRECORD
  5
20
102
{ACAD_REACTORS
330
1A
102
}
330
1A
100
AcDbXrecord
280
     1
270
     1
271
     1
  0
XRECORD
  5
1D
102
{ACAD_REACTORS
330
1A
102
}
330
1A
100
AcDbXrecord
280
     1
270
     1
271
     1
  0
XRECORD
  5
14
102
{ACAD_REACTORS
330
12
102
}
330
12
100
AcDbXrecord
280
     1
270
     1
271
     1
  0
XRECORD
  5
13
102
{ACAD_REACTORS
330
12
102
}
330
12
100
AcDbXrecord
280
     1
270
     1
271
     1
  0
XRECORD
  5
17
102
{ACAD_REACTORS
330
12
102
}
330
12
100
AcDbXrecord
280
     1
270
     1
271
     1
  0
XRECORD
  5
16
102
{ACAD_REACTORS
330
12
102
}
330
12
100
AcDbXrecord
280
     1
270
     1
271
     1
  0
XRECORD
  5
18
102
{ACAD_REACTORS
330
12
102
}
330
12
100
AcDbXrecord
280
     1
270
     1
271
     1
  0
XRECORD
  5
15
102
{ACAD_REACTORS
330
12
102
}
330
12
100
AcDbXrecord
280
     1
270
     1
271
     1
  0
XRECORD
  5
24
102
{ACAD_REACTORS
330
22
102
}
330
22
100
AcDbXrecord
280
     1
270
     1
271
     1
  0
XRECORD
  5
23
102
{ACAD_REACTORS
330
22
102
}
330
22
100
AcDbXrecord
280
     1
270
     1
271
     1
  0
XRECORD
  5
27
102
{ACAD_REACTORS
330
22
102
}
330
22
100
AcDbXrecord
280
     1
270
     1
271
     1
  0
XRECORD
  5
26
102
{ACAD_REACTORS
330
22
102
}
330
22
100
AcDbXrecord
280
     1
270
     1
271
     1
  0
XRECORD
  5
28
102
{ACAD_REACTORS
330
22
102
}
330
22
100
AcDbXrecord
280
     1
270
     1
271
     1
  0
XRECORD
  5
25
102
{ACAD_REACTORS
330
22
102
}
330
22
100
AcDbXrecord
280
     1
270
     1
271
     1
  0
XRECORD
  5
1E8
102
{ACAD_REACTORS
330
1E7
102
}
330
1E7
100
AcDbXrecord
280
     1
102
DISPLAYNAME
  1
Imperial24
102
FLAGS
 90
        0
  0
CELLSTYLEMAP
  5
1E5
102
{ACAD_REACTORS
330
1E4
102
}
330
1E4
100
AcDbCellStyleMap
 90
        3
300
CELLSTYLE
  1
TABLEFORMAT_BEGIN
 90
        5
170
     1
 91
        0
 92
    32768
 62
   257
 93
        1
300
CONTENTFORMAT
  1
CONTENTFORMAT_BEGIN
 90
        0
 91
        0
 92
      512
 93
        0
300

 40
0.0
140
1.0
 94
        5
 62
     0
340
55
144
0.25
309
CONTENTFORMAT_END
171
     0
 94
        0
309
TABLEFORMAT_END
  1
CELLSTYLE_BEGIN
 90
        1
 91
        1
300
_TITLE
309
CELLSTYLE_END
300
CELLSTYLE
  1
TABLEFORMAT_BEGIN
 90
        5
170
     1
 91
        0
 92
        0
 62
   257
 93
        1
300
CONTENTFORMAT
  1
CONTENTFORMAT_BEGIN
 90
        0
 91
        0
 92
      512
 93
        0
300

 40
0.0
140
1.0
 94
        5
 62
     0
340
55
144
0.18
309
CONTENTFORMAT_END
171
     0
 94
        0
309
TABLEFORMAT_END
  1
CELLSTYLE_BEGIN
 90
        2
 91
        1
300
_HEADER
309
CELLSTYLE_END
300
CELLSTYLE
  1
TABLEFORMAT_BEGIN
 90
        5
170
     1
 91
        0
 92
        0
 62
   257
 93
        1
300
CONTENTFORMAT
  1
CONTENTFORMAT_BEGIN
 90
        0
 91
        0
 92
      512
 93
        0
300

 40
0.0
140
1.0
 94
        2
 62
     0
340
55
144
0.18
309
CONTENTFORMAT_END
171
     0
 94
        0
309
TABLEFORMAT_END
  1
CELLSTYLE_BEGIN
 90
        3
 91
        2
300
_DATA
309
CELLSTYLE_END
  0
ENDSEC
  0
EOF
