999
DXF created by G-Code Ripper <by Scorch, www.scorchworks.com>
0
SECTION
2
HEADER
0
ENDSEC
0
SECTION
2
TABLES
0
TABLE
2
LTYPE
70
1
0
LTYPE
2
CONTINUOUS
70
64
3
Solid line
72
65
73
0
40
0.000000
0
ENDTAB
0
TABLE
2
LAYER
70
6
0
LAYER
2
1
70
64
62
7
6
CONTINUOUS
0
LAYER
2
2
70
64
62
7
6
CONTINUOUS
0
ENDTAB
0
TABLE
2
STYLE
70
0
0
ENDTAB
0
ENDSEC
0
SECTION
2
BLOCKS
0
ENDSEC
0
SECTION
2
ENTITIES
  0
LINE
  5
30
100
AcDbEntity
  8
1
 62
10
100
AcDbLine
 10
2.8206
 20
5.1136
 30
0.1180
 11
2.8206
 21
5.1136
 31
0.0400
  0
LINE
  5
30
100
AcDbEntity
  8
1
 62
10
100
AcDbLine
 10
2.8206
 20
5.1136
 30
0.0400
 11
2.8201
 21
5.1169
 31
0.0400
  0
LINE
  5
30
100
AcDbEntity
  8
1
 62
10
100
AcDbLine
 10
2.8201
 20
5.1169
 30
0.0400
 11
2.8194
 21
5.1201
 31
0.0400
  0
LINE
  5
30
100
AcDbEntity
  8
1
 62
10
100
AcDbLine
 10
2.8194
 20
5.1201
 30
0.0400
 11
2.8183
 21
5.1232
 31
0.0400
  0
LINE
  5
30
100
AcDbEntity
  8
1
 62
10
100
AcDbLine
 10
2.8183
 20
5.1232
 30
0.0400
 11
2.8170
 21
5.1262
 31
0.0400
  0
LINE
  5
30
100
AcDbEntity
  8
1
 62
10
100
AcDbLine
 10
2.8170
 20
5.1262
 30
0.0400
 11
2.8155
 21
5.1291
 31
0.0400
  0
LINE
  5
30
100
AcDbEntity
  8
1
 62
10
100
AcDbLine
 10
2.8155
 20
5.1291
 30
0.0400
 11
2.8137
 21
5.1319
 31
0.0400
  0
LINE
  5
30
100
AcDbEntity
  8
1
 62
10
100
AcDbLine
 10
2.8137
 20
5.1319
 30
0.0400
 11
2.8116
 21
5.1345
 31
0.0400
  0
LINE
  5
30
100
AcDbEntity
  8
1
 62
10
100
AcDbLine
 10
2.8116
 20
5.1345
 30
0.0400
 11
2.8094
 21
5.1369
 31
0.0400
  0
LINE
  5
30
100
AcDbEntity
  8
1
 62
10
100
AcDbLine
 10
2.8094
 20
5.1369
 30
0.0400
 11
2.8069
 21
5.1391
 31
0.0400
  0
LINE
  5
30
100
AcDbEntity
  8
1
 62
10
100
AcDbLine
 10
2.8069
 20
5.1391
 30
0.0400
 11
2.8043
 21
5.1410
 31
0.0400
  0
LINE
  5
30
100
AcDbEntity
  8
1
 62
10
100
AcDbLine
 10
2.8043
 20
5.1410
 30
0.0400
 11
2.8015
 21
5.1428
 31
0.0400
  0
LINE
  5
30
100
AcDbEntity
  8
1
 62
10
100
AcDbLine
 10
2.8015
 20
5.1428
 30
0.0400
 11
2.7985
 21
5.1443
 31
0.0400
  0
LINE
  5
30
100
AcDbEntity
  8
1
 62
10
100
AcDbLine
 10
2.7985
 20
5.1443
 30
0.0400
 11
2.7954
 21
5.1455
 31
0.0400
  0
LINE
  5
30
100
AcDbEntity
  8
1
 62
10
100
AcDbLine
 10
2.7954
 20
5.1455
 30
0.0400
 11
2.7923
 21
5.1464
 31
0.0400
  0
LINE
  5
30
100
AcDbEntity
  8
1
 62
10
100
AcDbLine
 10
2.7923
 20
5.1464
 30
0.0400
 11
2.7891
 21
5.1471
 31
0.0400
  0
LINE
  5
30
100
AcDbEntity
  8
1
 62
10
100
AcDbLine
 10
2.7891
 20
5.1471
 30
0.0400
 11
2.7858
 21
5.1475
 31
0.0400
  0
LINE
  5
30
100
AcDbEntity
  8
1
 62
10
100
AcDbLine
 10
2.7858
 20
5.1475
 30
0.0400
 11
2.7825
 21
5.1476
 31
0.0400
  0
LINE
  5
30
100
AcDbEntity
  8
1
 62
10
100
AcDbLine
 10
2.7825
 20
5.1476
 30
0.0400
 11
2.7793
 21
5.1474
 31
0.0400
  0
LINE
  5
30
100
AcDbEntity
  8
1
 62
10
100
AcDbLine
 10
2.7793
 20
5.1474
 30
0.0400
 11
2.4231
 21
5.0998
 31
0.0400
  0
LINE
  5
30
100
AcDbEntity
  8
1
 62
10
100
AcDbLine
 10
2.4231
 20
5.0998
 30
0.0400
 11
2.3676
 21
5.0901
 31
0.0400
  0
LINE
  5
30
100
AcDbEntity
  8
1
 62
10
100
AcDbLine
 10
2.3676
 20
5.0901
 30
0.0400
 11
2.3155
 21
5.0803
 31
0.0400
  0
LINE
  5
30
100
AcDbEntity
  8
1
 62
10
100
AcDbLine
 10
2.3155
 20
5.0803
 30
0.0400
 11
2.2673
 21
5.0703
 31
0.0400
  0
LINE
  5
30
100
AcDbEntity
  8
1
 62
10
100
AcDbLine
 10
2.2673
 20
5.0703
 30
0.0400
 11
2.2234
 21
5.0604
 31
0.0400
  0
LINE
  5
30
100
AcDbEntity
  8
1
 62
10
100
AcDbLine
 10
2.2234
 20
5.0604
 30
0.0400
 11
2.1845
 21
5.0507
 31
0.0400
  0
LINE
  5
30
100
AcDbEntity
  8
1
 62
10
100
AcDbLine
 10
2.1845
 20
5.0507
 30
0.0400
 11
2.1511
 21
5.0413
 31
0.0400
  0
LINE
  5
30
100
AcDbEntity
  8
1
 62
10
100
AcDbLine
 10
2.1511
 20
5.0413
 30
0.0400
 11
2.1235
 21
5.0324
 31
0.0400
  0
LINE
  5
30
100
AcDbEntity
  8
1
 62
10
100
AcDbLine
 10
2.1235
 20
5.0324
 30
0.0400
 11
2.1082
 21
5.0264
 31
0.0400
  0
LINE
  5
30
100
AcDbEntity
  8
1
 62
10
100
AcDbLine
 10
2.1082
 20
5.0264
 30
0.0400
 11
2.1161
 21
5.0252
 31
0.0400
  0
LINE
  5
30
100
AcDbEntity
  8
1
 62
10
100
AcDbLine
 10
2.1161
 20
5.0252
 30
0.0400
 11
2.1429
 21
5.0229
 31
0.0400
  0
LINE
  5
30
100
AcDbEntity
  8
1
 62
10
100
AcDbLine
 10
2.1429
 20
5.0229
 30
0.0400
 11
2.1757
 21
5.0216
 31
0.0400
  0
LINE
  5
30
100
AcDbEntity
  8
1
 62
10
100
AcDbLine
 10
2.1757
 20
5.0216
 30
0.0400
 11
2.2140
 21
5.0213
 31
0.0400
  0
LINE
  5
30
100
AcDbEntity
  8
1
 62
10
100
AcDbLine
 10
2.2140
 20
5.0213
 30
0.0400
 11
2.2573
 21
5.0221
 31
0.0400
  0
LINE
  5
30
100
AcDbEntity
  8
1
 62
10
100
AcDbLine
 10
2.2573
 20
5.0221
 30
0.0400
 11
2.3051
 21
5.0239
 31
0.0400
  0
LINE
  5
30
100
AcDbEntity
  8
1
 62
10
100
AcDbLine
 10
2.3051
 20
5.0239
 30
0.0400
 11
2.4121
 21
5.0304
 31
0.0400
  0
LINE
  5
30
100
AcDbEntity
  8
1
 62
10
100
AcDbLine
 10
2.4121
 20
5.0304
 30
0.0400
 11
2.8834
 21
5.0873
 31
0.0400
  0
LINE
  5
30
100
AcDbEntity
  8
1
 62
10
100
AcDbLine
 10
2.8834
 20
5.0873
 30
0.0400
 11
2.8942
 21
5.0891
 31
0.0400
  0
LINE
  5
30
100
AcDbEntity
  8
1
 62
10
100
AcDbLine
 10
2.8942
 20
5.0892
 30
0.0400
 11
2.9496
 21
5.0989
 31
0.0400
  0
LINE
  5
30
100
AcDbEntity
  8
1
 62
10
100
AcDbLine
 10
2.9496
 20
5.0989
 30
0.0400
 11
3.0017
 21
5.1087
 31
0.0400
  0
LINE
  5
30
100
AcDbEntity
  8
1
 62
10
100
AcDbLine
 10
3.0017
 20
5.1087
 30
0.0400
 11
3.0500
 21
5.1186
 31
0.0400
  0
LINE
  5
30
100
AcDbEntity
  8
1
 62
10
100
AcDbLine
 10
3.0500
 20
5.1186
 30
0.0400
 11
3.0938
 21
5.1285
 31
0.0400
  0
LINE
  5
30
100
AcDbEntity
  8
1
 62
10
100
AcDbLine
 10
3.0938
 20
5.1285
 30
0.0400
 11
3.1327
 21
5.1382
 31
0.0400
  0
LINE
  5
30
100
AcDbEntity
  8
1
 62
10
100
AcDbLine
 10
3.1327
 20
5.1382
 30
0.0400
 11
3.1661
 21
5.1476
 31
0.0400
  0
LINE
  5
30
100
AcDbEntity
  8
1
 62
10
100
AcDbLine
 10
3.1661
 20
5.1476
 30
0.0400
 11
3.1937
 21
5.1566
 31
0.0400
  0
LINE
  5
30
100
AcDbEntity
  8
1
 62
10
100
AcDbLine
 10
3.1937
 20
5.1566
 30
0.0400
 11
3.2090
 21
5.1625
 31
0.0400
  0
LINE
  5
30
100
AcDbEntity
  8
1
 62
10
100
AcDbLine
 10
3.2090
 20
5.1625
 30
0.0400
 11
3.2011
 21
5.1638
 31
0.0400
  0
LINE
  5
30
100
AcDbEntity
  8
1
 62
10
100
AcDbLine
 10
3.2011
 20
5.1638
 30
0.0400
 11
3.1743
 21
5.1660
 31
0.0400
  0
LINE
  5
30
100
AcDbEntity
  8
1
 62
10
100
AcDbLine
 10
3.1743
 20
5.1660
 30
0.0400
 11
3.1415
 21
5.1673
 31
0.0400
  0
LINE
  5
30
100
AcDbEntity
  8
1
 62
10
100
AcDbLine
 10
3.1415
 20
5.1673
 30
0.0400
 11
3.1032
 21
5.1676
 31
0.0400
  0
LINE
  5
30
100
AcDbEntity
  8
1
 62
10
100
AcDbLine
 10
3.1032
 20
5.1676
 30
0.0400
 11
3.0599
 21
5.1669
 31
0.0400
  0
LINE
  5
30
100
AcDbEntity
  8
1
 62
10
100
AcDbLine
 10
3.0599
 20
5.1669
 30
0.0400
 11
3.0121
 21
5.1651
 31
0.0400
  0
LINE
  5
30
100
AcDbEntity
  8
1
 62
10
100
AcDbLine
 10
3.0121
 20
5.1651
 30
0.0400
 11
2.9051
 21
5.1585
 31
0.0400
  0
LINE
  5
30
100
AcDbEntity
  8
1
 62
10
100
AcDbLine
 10
2.9051
 20
5.1585
 30
0.0400
 11
2.7793
 21
5.1474
 31
0.0400
  0
LINE
  5
30
100
AcDbEntity
  8
1
 62
10
100
AcDbLine
 10
2.7793
 20
5.1474
 30
0.0400
 11
2.6005
 21
5.1265
 31
0.0400
  0
LINE
  5
30
100
AcDbEntity
  8
1
 62
10
100
AcDbLine
 10
2.6005
 20
5.1265
 30
0.0400
 11
2.5973
 21
5.1259
 31
0.0400
  0
LINE
  5
30
100
AcDbEntity
  8
1
 62
10
100
AcDbLine
 10
2.5973
 20
5.1259
 30
0.0400
 11
2.5941
 21
5.1251
 31
0.0400
  0
LINE
  5
30
100
AcDbEntity
  8
1
 62
10
100
AcDbLine
 10
2.5941
 20
5.1251
 30
0.0400
 11
2.5910
 21
5.1239
 31
0.0400
  0
LINE
  5
30
100
AcDbEntity
  8
1
 62
10
100
AcDbLine
 10
2.5910
 20
5.1239
 30
0.0400
 11
2.5880
 21
5.1225
 31
0.0400
  0
LINE
  5
30
100
AcDbEntity
  8
1
 62
10
100
AcDbLine
 10
2.5880
 20
5.1225
 30
0.0400
 11
2.5852
 21
5.1209
 31
0.0400
  0
LINE
  5
30
100
AcDbEntity
  8
1
 62
10
100
AcDbLine
 10
2.5852
 20
5.1209
 30
0.0400
 11
2.5825
 21
5.1190
 31
0.0400
  0
LINE
  5
30
100
AcDbEntity
  8
1
 62
10
100
AcDbLine
 10
2.5825
 20
5.1190
 30
0.0400
 11
2.5800
 21
5.1169
 31
0.0400
  0
LINE
  5
30
100
AcDbEntity
  8
1
 62
10
100
AcDbLine
 10
2.5800
 20
5.1169
 30
0.0400
 11
2.5776
 21
5.1145
 31
0.0400
  0
LINE
  5
30
100
AcDbEntity
  8
1
 62
10
100
AcDbLine
 10
2.5776
 20
5.1145
 30
0.0400
 11
2.5755
 21
5.1120
 31
0.0400
  0
LINE
  5
30
100
AcDbEntity
  8
1
 62
10
100
AcDbLine
 10
2.5755
 20
5.1120
 30
0.0400
 11
2.5736
 21
5.1093
 31
0.0400
  0
LINE
  5
30
100
AcDbEntity
  8
1
 62
10
100
AcDbLine
 10
2.5736
 20
5.1093
 30
0.0400
 11
2.5720
 21
5.1065
 31
0.0400
  0
LINE
  5
30
100
AcDbEntity
  8
1
 62
10
100
AcDbLine
 10
2.5720
 20
5.1065
 30
0.0400
 11
2.5706
 21
5.1035
 31
0.0400
  0
LINE
  5
30
100
AcDbEntity
  8
1
 62
10
100
AcDbLine
 10
2.5706
 20
5.1035
 30
0.0400
 11
2.5695
 21
5.1004
 31
0.0400
  0
LINE
  5
30
100
AcDbEntity
  8
1
 62
10
100
AcDbLine
 10
2.5695
 20
5.1004
 30
0.0400
 11
2.5686
 21
5.0972
 31
0.0400
  0
LINE
  5
30
100
AcDbEntity
  8
1
 62
10
100
AcDbLine
 10
2.5686
 20
5.0972
 30
0.0400
 11
2.5681
 21
5.0940
 31
0.0400
  0
LINE
  5
30
100
AcDbEntity
  8
1
 62
10
100
AcDbLine
 10
2.5681
 20
5.0940
 30
0.0400
 11
2.5678
 21
5.0907
 31
0.0400
  0
LINE
  5
30
100
AcDbEntity
  8
1
 62
10
100
AcDbLine
 10
2.5678
 20
5.0907
 30
0.0400
 11
2.5678
 21
5.0874
 31
0.0400
  0
LINE
  5
30
100
AcDbEntity
  8
1
 62
10
100
AcDbLine
 10
2.5678
 20
5.0874
 30
0.0400
 11
2.5681
 21
5.0841
 31
0.0400
  0
LINE
  5
30
100
AcDbEntity
  8
1
 62
10
100
AcDbLine
 10
2.9841
 20
5.6291
 30
0.1180
 11
2.9841
 21
5.6291
 31
0.0400
  0
LINE
  5
30
100
AcDbEntity
  8
1
 62
10
100
AcDbLine
 10
2.9841
 20
5.6291
 30
0.0400
 11
2.9853
 21
5.6252
 31
0.0400
  0
LINE
  5
30
100
AcDbEntity
  8
1
 62
10
100
AcDbLine
 10
2.9853
 20
5.6252
 30
0.0400
 11
2.9869
 21
5.6214
 31
0.0400
  0
LINE
  5
30
100
AcDbEntity
  8
1
 62
10
100
AcDbLine
 10
2.9869
 20
5.6214
 30
0.0400
 11
2.9888
 21
5.6177
 31
0.0400
  0
LINE
  5
30
100
AcDbEntity
  8
1
 62
10
100
AcDbLine
 10
2.9888
 20
5.6177
 30
0.0400
 11
2.9910
 21
5.6142
 31
0.0400
  0
LINE
  5
30
100
AcDbEntity
  8
1
 62
10
100
AcDbLine
 10
2.9910
 20
5.6142
 30
0.0400
 11
2.9935
 21
5.6110
 31
0.0400
  0
LINE
  5
30
100
AcDbEntity
  8
1
 62
10
100
AcDbLine
 10
2.9935
 20
5.6110
 30
0.0400
 11
2.9963
 21
5.6079
 31
0.0400
  0
LINE
  5
30
100
AcDbEntity
  8
1
 62
10
100
AcDbLine
 10
2.9963
 20
5.6079
 30
0.0400
 11
2.9993
 21
5.6052
 31
0.0400
  0
LINE
  5
30
100
AcDbEntity
  8
1
 62
10
100
AcDbLine
 10
2.9993
 20
5.6052
 30
0.0400
 11
3.0026
 21
5.6026
 31
0.0400
  0
LINE
  5
30
100
AcDbEntity
  8
1
 62
10
100
AcDbLine
 10
3.0026
 20
5.6026
 30
0.0400
 11
3.0061
 21
5.6004
 31
0.0400
  0
LINE
  5
30
100
AcDbEntity
  8
1
 62
10
100
AcDbLine
 10
3.0061
 20
5.6004
 30
0.0400
 11
3.0097
 21
5.5985
 31
0.0400
  0
LINE
  5
30
100
AcDbEntity
  8
1
 62
10
100
AcDbLine
 10
3.0097
 20
5.5985
 30
0.0400
 11
3.0135
 21
5.5969
 31
0.0400
  0
LINE
  5
30
100
AcDbEntity
  8
1
 62
10
100
AcDbLine
 10
3.0135
 20
5.5969
 30
0.0400
 11
3.0175
 21
5.5957
 31
0.0400
  0
LINE
  5
30
100
AcDbEntity
  8
1
 62
10
100
AcDbLine
 10
3.0175
 20
5.5957
 30
0.0400
 11
3.0215
 21
5.5948
 31
0.0400
  0
LINE
  5
30
100
AcDbEntity
  8
1
 62
10
100
AcDbLine
 10
3.0215
 20
5.5948
 30
0.0400
 11
3.0256
 21
5.5943
 31
0.0400
  0
LINE
  5
30
100
AcDbEntity
  8
1
 62
10
100
AcDbLine
 10
3.0256
 20
5.5943
 30
0.0400
 11
3.0297
 21
5.5941
 31
0.0400
  0
LINE
  5
30
100
AcDbEntity
  8
1
 62
10
100
AcDbLine
 10
3.0297
 20
5.5941
 30
0.0400
 11
3.0338
 21
5.5943
 31
0.0400
  0
LINE
  5
30
100
AcDbEntity
  8
1
 62
10
100
AcDbLine
 10
3.0338
 20
5.5943
 30
0.0400
 11
3.0379
 21
5.5948
 31
0.0400
  0
LINE
  5
30
100
AcDbEntity
  8
1
 62
10
100
AcDbLine
 10
3.0379
 20
5.5948
 30
0.0400
 11
3.0419
 21
5.5957
 31
0.0400
  0
LINE
  5
30
100
AcDbEntity
  8
1
 62
10
100
AcDbLine
 10
3.0419
 20
5.5957
 30
0.0400
 11
3.2831
 21
5.6663
 31
0.0400
  0
LINE
  5
30
100
AcDbEntity
  8
1
 62
10
100
AcDbLine
 10
3.2831
 20
5.6663
 30
0.0400
 11
3.3376
 21
5.6841
 31
0.0400
  0
LINE
  5
30
100
AcDbEntity
  8
1
 62
10
100
AcDbLine
 10
3.3376
 20
5.6841
 30
0.0400
 11
3.3888
 21
5.7016
 31
0.0400
  0
LINE
  5
30
100
AcDbEntity
  8
1
 62
10
100
AcDbLine
 10
3.3888
 20
5.7016
 30
0.0400
 11
3.4361
 21
5.7186
 31
0.0400
  0
LINE
  5
30
100
AcDbEntity
  8
1
 62
10
100
AcDbLine
 10
3.4361
 20
5.7186
 30
0.0400
 11
3.4790
 21
5.7350
 31
0.0400
  0
LINE
  5
30
100
AcDbEntity
  8
1
 62
10
100
AcDbLine
 10
3.4790
 20
5.7350
 30
0.0400
 11
3.5170
 21
5.7505
 31
0.0400
  0
LINE
  5
30
100
AcDbEntity
  8
1
 62
10
100
AcDbLine
 10
3.5170
 20
5.7505
 30
0.0400
 11
3.5496
 21
5.7650
 31
0.0400
  0
LINE
  5
30
100
AcDbEntity
  8
1
 62
10
100
AcDbLine
 10
3.5496
 20
5.7650
 30
0.0400
 11
3.5763
 21
5.7782
 31
0.0400
  0
LINE
  5
30
100
AcDbEntity
  8
1
 62
10
100
AcDbLine
 10
3.5763
 20
5.7782
 30
0.0400
 11
3.5957
 21
5.7891
 31
0.0400
  0
LINE
  5
30
100
AcDbEntity
  8
1
 62
10
100
AcDbLine
 10
3.5957
 20
5.7891
 30
0.0400
 11
3.5850
 21
5.7894
 31
0.0400
  0
LINE
  5
30
100
AcDbEntity
  8
1
 62
10
100
AcDbLine
 10
3.5850
 20
5.7894
 30
0.0400
 11
3.5582
 21
5.7881
 31
0.0400
  0
LINE
  5
30
100
AcDbEntity
  8
1
 62
10
100
AcDbLine
 10
3.5582
 20
5.7881
 30
0.0400
 11
3.5253
 21
5.7850
 31
0.0400
  0
LINE
  5
30
100
AcDbEntity
  8
1
 62
10
100
AcDbLine
 10
3.5253
 20
5.7850
 30
0.0400
 11
3.4870
 21
5.7800
 31
0.0400
  0
LINE
  5
30
100
AcDbEntity
  8
1
 62
10
100
AcDbLine
 10
3.4870
 20
5.7800
 30
0.0400
 11
3.4438
 21
5.7733
 31
0.0400
  0
LINE
  5
30
100
AcDbEntity
  8
1
 62
10
100
AcDbLine
 10
3.4438
 20
5.7733
 30
0.0400
 11
3.3962
 21
5.7649
 31
0.0400
  0
LINE
  5
30
100
AcDbEntity
  8
1
 62
10
100
AcDbLine
 10
3.3962
 20
5.7649
 30
0.0400
 11
3.3447
 21
5.7548
 31
0.0400
  0
LINE
  5
30
100
AcDbEntity
  8
1
 62
10
100
AcDbLine
 10
3.3447
 20
5.7548
 30
0.0400
 11
3.2900
 21
5.7433
 31
0.0400
  0
LINE
  5
30
100
AcDbEntity
  8
1
 62
10
100
AcDbLine
 10
3.2900
 20
5.7433
 30
0.0400
 11
2.8372
 21
5.6230
 31
0.0400
  0
LINE
  5
30
100
AcDbEntity
  8
1
 62
10
100
AcDbLine
 10
2.8372
 20
5.6230
 30
0.0400
 11
2.8136
 21
5.6155
 31
0.0400
  0
LINE
  5
30
100
AcDbEntity
  8
1
 62
10
100
AcDbLine
 10
2.8136
 20
5.6155
 30
0.0400
 11
2.7591
 21
5.5978
 31
0.0400
  0
LINE
  5
30
100
AcDbEntity
  8
1
 62
10
100
AcDbLine
 10
2.7591
 20
5.5978
 30
0.0400
 11
2.7079
 21
5.5803
 31
0.0400
  0
LINE
  5
30
100
AcDbEntity
  8
1
 62
10
100
AcDbLine
 10
2.7079
 20
5.5803
 30
0.0400
 11
2.6606
 21
5.5632
 31
0.0400
  0
LINE
  5
30
100
AcDbEntity
  8
1
 62
10
100
AcDbLine
 10
2.6606
 20
5.5632
 30
0.0400
 11
2.6177
 21
5.5468
 31
0.0400
  0
LINE
  5
30
100
AcDbEntity
  8
1
 62
10
100
AcDbLine
 10
2.6177
 20
5.5468
 30
0.0400
 11
2.5797
 21
5.5313
 31
0.0400
  0
LINE
  5
30
100
AcDbEntity
  8
1
 62
10
100
AcDbLine
 10
2.5797
 20
5.5313
 30
0.0400
 11
2.5471
 21
5.5168
 31
0.0400
  0
LINE
  5
30
100
AcDbEntity
  8
1
 62
10
100
AcDbLine
 10
2.5471
 20
5.5168
 30
0.0400
 11
2.5204
 21
5.5037
 31
0.0400
  0
LINE
  5
30
100
AcDbEntity
  8
1
 62
10
100
AcDbLine
 10
2.5204
 20
5.5037
 30
0.0400
 11
2.5011
 21
5.4927
 31
0.0400
  0
LINE
  5
30
100
AcDbEntity
  8
1
 62
10
100
AcDbLine
 10
2.5011
 20
5.4927
 30
0.0400
 11
2.5117
 21
5.4925
 31
0.0400
  0
LINE
  5
30
100
AcDbEntity
  8
1
 62
10
100
AcDbLine
 10
2.5117
 20
5.4925
 30
0.0400
 11
2.5386
 21
5.4938
 31
0.0400
  0
LINE
  5
30
100
AcDbEntity
  8
1
 62
10
100
AcDbLine
 10
2.5386
 20
5.4938
 30
0.0400
 11
2.5715
 21
5.4969
 31
0.0400
  0
LINE
  5
30
100
AcDbEntity
  8
1
 62
10
100
AcDbLine
 10
2.5715
 20
5.4969
 30
0.0400
 11
2.6098
 21
5.5018
 31
0.0400
  0
LINE
  5
30
100
AcDbEntity
  8
1
 62
10
100
AcDbLine
 10
2.6098
 20
5.5018
 30
0.0400
 11
2.6530
 21
5.5086
 31
0.0400
  0
LINE
  5
30
100
AcDbEntity
  8
1
 62
10
100
AcDbLine
 10
2.6530
 20
5.5086
 30
0.0400
 11
2.7006
 21
5.5170
 31
0.0400
  0
LINE
  5
30
100
AcDbEntity
  8
1
 62
10
100
AcDbLine
 10
2.7006
 20
5.5170
 30
0.0400
 11
2.7520
 21
5.5270
 31
0.0400
  0
LINE
  5
30
100
AcDbEntity
  8
1
 62
10
100
AcDbLine
 10
2.7520
 20
5.5270
 30
0.0400
 11
2.8067
 21
5.5385
 31
0.0400
  0
LINE
  5
30
100
AcDbEntity
  8
1
 62
10
100
AcDbLine
 10
2.8067
 20
5.5385
 30
0.0400
 11
3.0419
 21
5.5957
 31
0.0400
  0
LINE
  5
30
100
AcDbEntity
  8
1
 62
10
100
AcDbLine
 10
3.0419
 20
5.5957
 30
0.0400
 11
3.2149
 21
5.6451
 31
0.0400
  0
LINE
  5
30
100
AcDbEntity
  8
1
 62
10
100
AcDbLine
 10
3.2149
 20
5.6451
 30
0.0400
 11
3.2188
 21
5.6465
 31
0.0400
  0
LINE
  5
30
100
AcDbEntity
  8
1
 62
10
100
AcDbLine
 10
3.2188
 20
5.6465
 30
0.0400
 11
3.2225
 21
5.6482
 31
0.0400
  0
LINE
  5
30
100
AcDbEntity
  8
1
 62
10
100
AcDbLine
 10
3.2225
 20
5.6482
 30
0.0400
 11
3.2261
 21
5.6502
 31
0.0400
  0
LINE
  5
30
100
AcDbEntity
  8
1
 62
10
100
AcDbLine
 10
3.2261
 20
5.6502
 30
0.0400
 11
3.2295
 21
5.6525
 31
0.0400
  0
LINE
  5
30
100
AcDbEntity
  8
1
 62
10
100
AcDbLine
 10
3.2295
 20
5.6525
 30
0.0400
 11
3.2327
 21
5.6551
 31
0.0400
  0
LINE
  5
30
100
AcDbEntity
  8
1
 62
10
100
AcDbLine
 10
3.2327
 20
5.6551
 30
0.0400
 11
3.2357
 21
5.6580
 31
0.0400
  0
LINE
  5
30
100
AcDbEntity
  8
1
 62
10
100
AcDbLine
 10
3.2357
 20
5.6580
 30
0.0400
 11
3.2383
 21
5.6611
 31
0.0400
  0
LINE
  5
30
100
AcDbEntity
  8
1
 62
10
100
AcDbLine
 10
3.2383
 20
5.6611
 30
0.0400
 11
3.2407
 21
5.6645
 31
0.0400
  0
LINE
  5
30
100
AcDbEntity
  8
1
 62
10
100
AcDbLine
 10
3.2407
 20
5.6645
 30
0.0400
 11
3.2428
 21
5.6680
 31
0.0400
  0
LINE
  5
30
100
AcDbEntity
  8
1
 62
10
100
AcDbLine
 10
3.2428
 20
5.6680
 30
0.0400
 11
3.2446
 21
5.6717
 31
0.0400
  0
LINE
  5
30
100
AcDbEntity
  8
1
 62
10
100
AcDbLine
 10
3.2446
 20
5.6717
 30
0.0400
 11
3.2461
 21
5.6756
 31
0.0400
  0
LINE
  5
30
100
AcDbEntity
  8
1
 62
10
100
AcDbLine
 10
3.2461
 20
5.6756
 30
0.0400
 11
3.2472
 21
5.6796
 31
0.0400
  0
LINE
  5
30
100
AcDbEntity
  8
1
 62
10
100
AcDbLine
 10
3.2472
 20
5.6796
 30
0.0400
 11
3.2480
 21
5.6836
 31
0.0400
  0
LINE
  5
30
100
AcDbEntity
  8
1
 62
10
100
AcDbLine
 10
3.2480
 20
5.6836
 30
0.0400
 11
3.2484
 21
5.6877
 31
0.0400
  0
LINE
  5
30
100
AcDbEntity
  8
1
 62
10
100
AcDbLine
 10
3.2484
 20
5.6877
 30
0.0400
 11
3.2484
 21
5.6918
 31
0.0400
  0
LINE
  5
30
100
AcDbEntity
  8
1
 62
10
100
AcDbLine
 10
3.2484
 20
5.6918
 30
0.0400
 11
3.2481
 21
5.6959
 31
0.0400
  0
LINE
  5
30
100
AcDbEntity
  8
1
 62
10
100
AcDbLine
 10
3.2481
 20
5.6959
 30
0.0400
 11
3.2474
 21
5.7000
 31
0.0400
  0
LINE
  5
30
100
AcDbEntity
  8
1
 62
10
100
AcDbLine
 10
3.2474
 20
5.7000
 30
0.0400
 11
3.2464
 21
5.7040
 31
0.0400
  0
LINE
  5
30
100
AcDbEntity
  8
1
 62
10
100
AcDbLine
 10
2.8453
 20
6.3031
 30
0.1180
 11
2.8453
 21
6.3031
 31
0.0400
  0
LINE
  5
30
100
AcDbEntity
  8
1
 62
10
100
AcDbLine
 10
2.8453
 20
6.3031
 30
0.0400
 11
2.8439
 21
6.3061
 31
0.0400
  0
LINE
  5
30
100
AcDbEntity
  8
1
 62
10
100
AcDbLine
 10
2.8439
 20
6.3061
 30
0.0400
 11
2.8423
 21
6.3089
 31
0.0400
  0
LINE
  5
30
100
AcDbEntity
  8
1
 62
10
100
AcDbLine
 10
2.8423
 20
6.3089
 30
0.0400
 11
2.8404
 21
6.3116
 31
0.0400
  0
LINE
  5
30
100
AcDbEntity
  8
1
 62
10
100
AcDbLine
 10
2.8404
 20
6.3116
 30
0.0400
 11
2.8382
 21
6.3141
 31
0.0400
  0
LINE
  5
30
100
AcDbEntity
  8
1
 62
10
100
AcDbLine
 10
2.8382
 20
6.3141
 30
0.0400
 11
2.8359
 21
6.3164
 31
0.0400
  0
LINE
  5
30
100
AcDbEntity
  8
1
 62
10
100
AcDbLine
 10
2.8359
 20
6.3164
 30
0.0400
 11
2.8334
 21
6.3186
 31
0.0400
  0
LINE
  5
30
100
AcDbEntity
  8
1
 62
10
100
AcDbLine
 10
2.8334
 20
6.3186
 30
0.0400
 11
2.8307
 21
6.3204
 31
0.0400
  0
LINE
  5
30
100
AcDbEntity
  8
1
 62
10
100
AcDbLine
 10
2.8307
 20
6.3204
 30
0.0400
 11
2.8278
 21
6.3221
 31
0.0400
  0
LINE
  5
30
100
AcDbEntity
  8
1
 62
10
100
AcDbLine
 10
2.8278
 20
6.3221
 30
0.0400
 11
2.8249
 21
6.3235
 31
0.0400
  0
LINE
  5
30
100
AcDbEntity
  8
1
 62
10
100
AcDbLine
 10
2.8249
 20
6.3235
 30
0.0400
 11
2.8218
 21
6.3246
 31
0.0400
  0
LINE
  5
30
100
AcDbEntity
  8
1
 62
10
100
AcDbLine
 10
2.8218
 20
6.3246
 30
0.0400
 11
2.8186
 21
6.3254
 31
0.0400
  0
LINE
  5
30
100
AcDbEntity
  8
1
 62
10
100
AcDbLine
 10
2.8186
 20
6.3254
 30
0.0400
 11
2.8153
 21
6.3260
 31
0.0400
  0
LINE
  5
30
100
AcDbEntity
  8
1
 62
10
100
AcDbLine
 10
2.8153
 20
6.3260
 30
0.0400
 11
2.8121
 21
6.3263
 31
0.0400
  0
LINE
  5
30
100
AcDbEntity
  8
1
 62
10
100
AcDbLine
 10
2.8121
 20
6.3263
 30
0.0400
 11
2.8088
 21
6.3263
 31
0.0400
  0
LINE
  5
30
100
AcDbEntity
  8
1
 62
10
100
AcDbLine
 10
2.8088
 20
6.3263
 30
0.0400
 11
2.8055
 21
6.3260
 31
0.0400
  0
LINE
  5
30
100
AcDbEntity
  8
1
 62
10
100
AcDbLine
 10
2.8055
 20
6.3260
 30
0.0400
 11
2.8023
 21
6.3254
 31
0.0400
  0
LINE
  5
30
100
AcDbEntity
  8
1
 62
10
100
AcDbLine
 10
2.8023
 20
6.3254
 30
0.0400
 11
2.7991
 21
6.3245
 31
0.0400
  0
LINE
  5
30
100
AcDbEntity
  8
1
 62
10
100
AcDbLine
 10
2.7991
 20
6.3245
 30
0.0400
 11
2.7960
 21
6.3234
 31
0.0400
  0
LINE
  5
30
100
AcDbEntity
  8
1
 62
10
100
AcDbLine
 10
2.7960
 20
6.3234
 30
0.0400
 11
2.7062
 21
6.2856
 31
0.0400
  0
LINE
  5
30
100
AcDbEntity
  8
1
 62
10
100
AcDbLine
 10
2.7062
 20
6.2856
 30
0.0400
 11
2.5549
 21
6.2195
 31
0.0400
  0
LINE
  5
30
100
AcDbEntity
  8
1
 62
10
100
AcDbLine
 10
2.5549
 20
6.2195
 30
0.0400
 11
2.4873
 21
6.1888
 31
0.0400
  0
LINE
  5
30
100
AcDbEntity
  8
1
 62
10
100
AcDbLine
 10
2.4873
 20
6.1888
 30
0.0400
 11
2.4259
 21
6.1600
 31
0.0400
  0
LINE
  5
30
100
AcDbEntity
  8
1
 62
10
100
AcDbLine
 10
2.4259
 20
6.1600
 30
0.0400
 11
2.3717
 21
6.1335
 31
0.0400
  0
LINE
  5
30
100
AcDbEntity
  8
1
 62
10
100
AcDbLine
 10
2.3717
 20
6.1335
 30
0.0400
 11
2.3251
 21
6.1096
 31
0.0400
  0
LINE
  5
30
100
AcDbEntity
  8
1
 62
10
100
AcDbLine
 10
2.3251
 20
6.1096
 30
0.0400
 11
2.2868
 21
6.0887
 31
0.0400
  0
LINE
  5
30
100
AcDbEntity
  8
1
 62
10
100
AcDbLine
 10
2.2868
 20
6.0887
 30
0.0400
 11
2.2715
 21
6.0795
 31
0.0400
  0
LINE
  5
30
100
AcDbEntity
  8
1
 62
10
100
AcDbLine
 10
2.2715
 20
6.0795
 30
0.0400
 11
2.2811
 21
6.0814
 31
0.0400
  0
LINE
  5
30
100
AcDbEntity
  8
1
 62
10
100
AcDbLine
 10
2.2811
 20
6.0814
 30
0.0400
 11
2.3216
 21
6.0913
 31
0.0400
  0
LINE
  5
30
100
AcDbEntity
  8
1
 62
10
100
AcDbLine
 10
2.3216
 20
6.0913
 30
0.0400
 11
2.3703
 21
6.1048
 31
0.0400
  0
LINE
  5
30
100
AcDbEntity
  8
1
 62
10
100
AcDbLine
 10
2.3703
 20
6.1048
 30
0.0400
 11
2.4266
 21
6.1216
 31
0.0400
  0
LINE
  5
30
100
AcDbEntity
  8
1
 62
10
100
AcDbLine
 10
2.4266
 20
6.1216
 30
0.0400
 11
2.4898
 21
6.1415
 31
0.0400
  0
LINE
  5
30
100
AcDbEntity
  8
1
 62
10
100
AcDbLine
 10
2.4898
 20
6.1415
 30
0.0400
 11
2.5591
 21
6.1644
 31
0.0400
  0
LINE
  5
30
100
AcDbEntity
  8
1
 62
10
100
AcDbLine
 10
2.5591
 20
6.1644
 30
0.0400
 11
2.6338
 21
6.1900
 31
0.0400
  0
LINE
  5
30
100
AcDbEntity
  8
1
 62
10
100
AcDbLine
 10
2.6338
 20
6.1900
 30
0.0400
 11
3.3989
 21
6.4865
 31
0.0400
  0
LINE
  5
30
100
AcDbEntity
  8
1
 62
10
100
AcDbLine
 10
3.3989
 20
6.4865
 30
0.0400
 11
3.5503
 21
6.5526
 31
0.0400
  0
LINE
  5
30
100
AcDbEntity
  8
1
 62
10
100
AcDbLine
 10
3.5503
 20
6.5526
 30
0.0400
 11
3.6179
 21
6.5833
 31
0.0400
  0
LINE
  5
30
100
AcDbEntity
  8
1
 62
10
100
AcDbLine
 10
3.6179
 20
6.5833
 30
0.0400
 11
3.6792
 21
6.6121
 31
0.0400
  0
LINE
  5
30
100
AcDbEntity
  8
1
 62
10
100
AcDbLine
 10
3.6792
 20
6.6121
 30
0.0400
 11
3.7335
 21
6.6386
 31
0.0400
  0
LINE
  5
30
100
AcDbEntity
  8
1
 62
10
100
AcDbLine
 10
3.7335
 20
6.6386
 30
0.0400
 11
3.7801
 21
6.6625
 31
0.0400
  0
LINE
  5
30
100
AcDbEntity
  8
1
 62
10
100
AcDbLine
 10
3.7801
 20
6.6625
 30
0.0400
 11
3.8184
 21
6.6835
 31
0.0400
  0
LINE
  5
30
100
AcDbEntity
  8
1
 62
10
100
AcDbLine
 10
3.8184
 20
6.6835
 30
0.0400
 11
3.8337
 21
6.6926
 31
0.0400
  0
LINE
  5
30
100
AcDbEntity
  8
1
 62
10
100
AcDbLine
 10
3.8337
 20
6.6926
 30
0.0400
 11
3.8241
 21
6.6907
 31
0.0400
  0
LINE
  5
30
100
AcDbEntity
  8
1
 62
10
100
AcDbLine
 10
3.8241
 20
6.6907
 30
0.0400
 11
3.7836
 21
6.6808
 31
0.0400
  0
LINE
  5
30
100
AcDbEntity
  8
1
 62
10
100
AcDbLine
 10
3.7836
 20
6.6808
 30
0.0400
 11
3.7348
 21
6.6674
 31
0.0400
  0
LINE
  5
30
100
AcDbEntity
  8
1
 62
10
100
AcDbLine
 10
3.7348
 20
6.6674
 30
0.0400
 11
3.6785
 21
6.6506
 31
0.0400
  0
LINE
  5
30
100
AcDbEntity
  8
1
 62
10
100
AcDbLine
 10
3.6785
 20
6.6506
 30
0.0400
 11
3.6154
 21
6.6306
 31
0.0400
  0
LINE
  5
30
100
AcDbEntity
  8
1
 62
10
100
AcDbLine
 10
3.6154
 20
6.6306
 30
0.0400
 11
3.5461
 21
6.6077
 31
0.0400
  0
LINE
  5
30
100
AcDbEntity
  8
1
 62
10
100
AcDbLine
 10
3.5461
 20
6.6077
 30
0.0400
 11
3.4714
 21
6.5822
 31
0.0400
  0
LINE
  5
30
100
AcDbEntity
  8
1
 62
10
100
AcDbLine
 10
3.4714
 20
6.5822
 30
0.0400
 11
2.7960
 21
6.3235
 31
0.0400
  0
LINE
  5
30
100
AcDbEntity
  8
1
 62
10
100
AcDbLine
 10
2.7960
 20
6.3234
 30
0.0400
 11
2.7062
 21
6.2856
 31
0.0400
  0
LINE
  5
30
100
AcDbEntity
  8
1
 62
10
100
AcDbLine
 10
2.7062
 20
6.2856
 30
0.0400
 11
2.6305
 21
6.2526
 31
0.0400
  0
LINE
  5
30
100
AcDbEntity
  8
1
 62
10
100
AcDbLine
 10
2.6305
 20
6.2526
 30
0.0400
 11
2.6275
 21
6.2512
 31
0.0400
  0
LINE
  5
30
100
AcDbEntity
  8
1
 62
10
100
AcDbLine
 10
2.6275
 20
6.2512
 30
0.0400
 11
2.6247
 21
6.2495
 31
0.0400
  0
LINE
  5
30
100
AcDbEntity
  8
1
 62
10
100
AcDbLine
 10
2.6247
 20
6.2495
 30
0.0400
 11
2.6221
 21
6.2475
 31
0.0400
  0
LINE
  5
30
100
AcDbEntity
  8
1
 62
10
100
AcDbLine
 10
2.6221
 20
6.2475
 30
0.0400
 11
2.6196
 21
6.2453
 31
0.0400
  0
LINE
  5
30
100
AcDbEntity
  8
1
 62
10
100
AcDbLine
 10
2.6196
 20
6.2453
 30
0.0400
 11
2.6173
 21
6.2430
 31
0.0400
  0
LINE
  5
30
100
AcDbEntity
  8
1
 62
10
100
AcDbLine
 10
2.6173
 20
6.2430
 30
0.0400
 11
2.6152
 21
6.2404
 31
0.0400
  0
LINE
  5
30
100
AcDbEntity
  8
1
 62
10
100
AcDbLine
 10
2.6152
 20
6.2404
 30
0.0400
 11
2.6134
 21
6.2377
 31
0.0400
  0
LINE
  5
30
100
AcDbEntity
  8
1
 62
10
100
AcDbLine
 10
2.6134
 20
6.2377
 30
0.0400
 11
2.6118
 21
6.2348
 31
0.0400
  0
LINE
  5
30
100
AcDbEntity
  8
1
 62
10
100
AcDbLine
 10
2.6118
 20
6.2348
 30
0.0400
 11
2.6105
 21
6.2318
 31
0.0400
  0
LINE
  5
30
100
AcDbEntity
  8
1
 62
10
100
AcDbLine
 10
2.6105
 20
6.2318
 30
0.0400
 11
2.6094
 21
6.2287
 31
0.0400
  0
LINE
  5
30
100
AcDbEntity
  8
1
 62
10
100
AcDbLine
 10
2.6094
 20
6.2287
 30
0.0400
 11
2.6086
 21
6.2255
 31
0.0400
  0
LINE
  5
30
100
AcDbEntity
  8
1
 62
10
100
AcDbLine
 10
2.6086
 20
6.2255
 30
0.0400
 11
2.6081
 21
6.2222
 31
0.0400
  0
LINE
  5
30
100
AcDbEntity
  8
1
 62
10
100
AcDbLine
 10
2.6081
 20
6.2222
 30
0.0400
 11
2.6079
 21
6.2189
 31
0.0400
  0
LINE
  5
30
100
AcDbEntity
  8
1
 62
10
100
AcDbLine
 10
2.6079
 20
6.2189
 30
0.0400
 11
2.6079
 21
6.2156
 31
0.0400
  0
LINE
  5
30
100
AcDbEntity
  8
1
 62
10
100
AcDbLine
 10
2.6079
 20
6.2156
 30
0.0400
 11
2.6083
 21
6.2124
 31
0.0400
  0
LINE
  5
30
100
AcDbEntity
  8
1
 62
10
100
AcDbLine
 10
2.6083
 20
6.2124
 30
0.0400
 11
2.6089
 21
6.2091
 31
0.0400
  0
LINE
  5
30
100
AcDbEntity
  8
1
 62
10
100
AcDbLine
 10
2.6089
 20
6.2091
 30
0.0400
 11
2.6098
 21
6.2060
 31
0.0400
  0
LINE
  5
30
100
AcDbEntity
  8
1
 62
10
100
AcDbLine
 10
2.6098
 20
6.2060
 30
0.0400
 11
2.6110
 21
6.2029
 31
0.0400
  0
LINE
  5
30
100
AcDbEntity
  8
1
 62
10
100
AcDbLine
 10
2.6110
 20
6.2029
 30
0.0400
 11
2.6110
 21
6.2029
 31
0.0400
  0
LINE
  5
30
100
AcDbEntity
  8
1
 62
10
100
AcDbLine
 10
5.8933
 20
6.4636
 30
0.1180
 11
5.8933
 21
6.4636
 31
0.0400
  0
LINE
  5
30
100
AcDbEntity
  8
1
 62
10
100
AcDbLine
 10
5.8933
 20
6.4636
 30
0.0400
 11
5.8922
 21
6.4605
 31
0.0400
  0
LINE
  5
30
100
AcDbEntity
  8
1
 62
10
100
AcDbLine
 10
5.8922
 20
6.4605
 30
0.0400
 11
5.8913
 21
6.4573
 31
0.0400
  0
LINE
  5
30
100
AcDbEntity
  8
1
 62
10
100
AcDbLine
 10
5.8913
 20
6.4573
 30
0.0400
 11
5.8908
 21
6.4541
 31
0.0400
  0
LINE
  5
30
100
AcDbEntity
  8
1
 62
10
100
AcDbLine
 10
5.8908
 20
6.4541
 30
0.0400
 11
5.8905
 21
6.4508
 31
0.0400
  0
LINE
  5
30
100
AcDbEntity
  8
1
 62
10
100
AcDbLine
 10
5.8905
 20
6.4508
 30
0.0400
 11
5.8905
 21
6.4475
 31
0.0400
  0
LINE
  5
30
100
AcDbEntity
  8
1
 62
10
100
AcDbLine
 10
5.8905
 20
6.4475
 30
0.0400
 11
5.8908
 21
6.4442
 31
0.0400
  0
LINE
  5
30
100
AcDbEntity
  8
1
 62
10
100
AcDbLine
 10
5.8908
 20
6.4442
 30
0.0400
 11
5.8914
 21
6.4410
 31
0.0400
  0
LINE
  5
30
100
AcDbEntity
  8
1
 62
10
100
AcDbLine
 10
5.8914
 20
6.4410
 30
0.0400
 11
5.8923
 21
6.4378
 31
0.0400
  0
LINE
  5
30
100
AcDbEntity
  8
1
 62
10
100
AcDbLine
 10
5.8923
 20
6.4378
 30
0.0400
 11
5.8934
 21
6.4347
 31
0.0400
  0
LINE
  5
30
100
AcDbEntity
  8
1
 62
10
100
AcDbLine
 10
5.8934
 20
6.4347
 30
0.0400
 11
5.8948
 21
6.4318
 31
0.0400
  0
LINE
  5
30
100
AcDbEntity
  8
1
 62
10
100
AcDbLine
 10
5.8948
 20
6.4318
 30
0.0400
 11
5.8965
 21
6.4289
 31
0.0400
  0
LINE
  5
30
100
AcDbEntity
  8
1
 62
10
100
AcDbLine
 10
5.8965
 20
6.4289
 30
0.0400
 11
5.8984
 21
6.4262
 31
0.0400
  0
LINE
  5
30
100
AcDbEntity
  8
1
 62
10
100
AcDbLine
 10
5.8984
 20
6.4262
 30
0.0400
 11
5.9005
 21
6.4237
 31
0.0400
  0
LINE
  5
30
100
AcDbEntity
  8
1
 62
10
100
AcDbLine
 10
5.9005
 20
6.4237
 30
0.0400
 11
5.9028
 21
6.4214
 31
0.0400
  0
LINE
  5
30
100
AcDbEntity
  8
1
 62
10
100
AcDbLine
 10
5.9028
 20
6.4214
 30
0.0400
 11
5.9054
 21
6.4193
 31
0.0400
  0
LINE
  5
30
100
AcDbEntity
  8
1
 62
10
100
AcDbLine
 10
5.9054
 20
6.4193
 30
0.0400
 11
5.9081
 21
6.4174
 31
0.0400
  0
LINE
  5
30
100
AcDbEntity
  8
1
 62
10
100
AcDbLine
 10
5.9081
 20
6.4174
 30
0.0400
 11
5.9109
 21
6.4158
 31
0.0400
  0
LINE
  5
30
100
AcDbEntity
  8
1
 62
10
100
AcDbLine
 10
5.9109
 20
6.4158
 30
0.0400
 11
5.9139
 21
6.4144
 31
0.0400
  0
LINE
  5
30
100
AcDbEntity
  8
1
 62
10
100
AcDbLine
 10
5.9139
 20
6.4144
 30
0.0400
 11
5.9140
 21
6.4144
 31
0.0400
  0
LINE
  5
30
100
AcDbEntity
  8
1
 62
10
100
AcDbLine
 10
5.9140
 20
6.4144
 30
0.0400
 11
6.5062
 21
6.1900
 31
0.0400
  0
LINE
  5
30
100
AcDbEntity
  8
1
 62
10
100
AcDbLine
 10
6.5062
 20
6.1900
 30
0.0400
 11
6.5809
 21
6.1644
 31
0.0400
  0
LINE
  5
30
100
AcDbEntity
  8
1
 62
10
100
AcDbLine
 10
6.5809
 20
6.1644
 30
0.0400
 11
6.6502
 21
6.1415
 31
0.0400
  0
LINE
  5
30
100
AcDbEntity
  8
1
 62
10
100
AcDbLine
 10
6.6502
 20
6.1415
 30
0.0400
 11
6.7134
 21
6.1216
 31
0.0400
  0
LINE
  5
30
100
AcDbEntity
  8
1
 62
10
100
AcDbLine
 10
6.7134
 20
6.1216
 30
0.0400
 11
6.7697
 21
6.1048
 31
0.0400
  0
LINE
  5
30
100
AcDbEntity
  8
1
 62
10
100
AcDbLine
 10
6.7697
 20
6.1048
 30
0.0400
 11
6.8184
 21
6.0913
 31
0.0400
  0
LINE
  5
30
100
AcDbEntity
  8
1
 62
10
100
AcDbLine
 10
6.8184
 20
6.0913
 30
0.0400
 11
6.8589
 21
6.0814
 31
0.0400
  0
LINE
  5
30
100
AcDbEntity
  8
1
 62
10
100
AcDbLine
 10
6.8589
 20
6.0814
 30
0.0400
 11
6.8685
 21
6.0795
 31
0.0400
  0
LINE
  5
30
100
AcDbEntity
  8
1
 62
10
100
AcDbLine
 10
6.8685
 20
6.0795
 30
0.0400
 11
6.8532
 21
6.0887
 31
0.0400
  0
LINE
  5
30
100
AcDbEntity
  8
1
 62
10
100
AcDbLine
 10
6.8532
 20
6.0887
 30
0.0400
 11
6.8149
 21
6.1096
 31
0.0400
  0
LINE
  5
30
100
AcDbEntity
  8
1
 62
10
100
AcDbLine
 10
6.8149
 20
6.1096
 30
0.0400
 11
6.7683
 21
6.1335
 31
0.0400
  0
LINE
  5
30
100
AcDbEntity
  8
1
 62
10
100
AcDbLine
 10
6.7683
 20
6.1335
 30
0.0400
 11
6.7141
 21
6.1600
 31
0.0400
  0
LINE
  5
30
100
AcDbEntity
  8
1
 62
10
100
AcDbLine
 10
6.7141
 20
6.1600
 30
0.0400
 11
6.6528
 21
6.1888
 31
0.0400
  0
LINE
  5
30
100
AcDbEntity
  8
1
 62
10
100
AcDbLine
 10
6.6528
 20
6.1888
 30
0.0400
 11
6.5852
 21
6.2195
 31
0.0400
  0
LINE
  5
30
100
AcDbEntity
  8
1
 62
10
100
AcDbLine
 10
6.5852
 20
6.2195
 30
0.0400
 11
6.4338
 21
6.2856
 31
0.0400
  0
LINE
  5
30
100
AcDbEntity
  8
1
 62
10
100
AcDbLine
 10
6.4338
 20
6.2856
 30
0.0400
 11
5.6686
 21
6.5822
 31
0.0400
  0
LINE
  5
30
100
AcDbEntity
  8
1
 62
10
100
AcDbLine
 10
5.6686
 20
6.5822
 30
0.0400
 11
5.5939
 21
6.6077
 31
0.0400
  0
LINE
  5
30
100
AcDbEntity
  8
1
 62
10
100
AcDbLine
 10
5.5939
 20
6.6077
 30
0.0400
 11
5.5246
 21
6.6306
 31
0.0400
  0
LINE
  5
30
100
AcDbEntity
  8
1
 62
10
100
AcDbLine
 10
5.5246
 20
6.6306
 30
0.0400
 11
5.4615
 21
6.6506
 31
0.0400
  0
LINE
  5
30
100
AcDbEntity
  8
1
 62
10
100
AcDbLine
 10
5.4615
 20
6.6506
 30
0.0400
 11
5.4052
 21
6.6674
 31
0.0400
  0
LINE
  5
30
100
AcDbEntity
  8
1
 62
10
100
AcDbLine
 10
5.4052
 20
6.6674
 30
0.0400
 11
5.3564
 21
6.6808
 31
0.0400
  0
LINE
  5
30
100
AcDbEntity
  8
1
 62
10
100
AcDbLine
 10
5.3564
 20
6.6808
 30
0.0400
 11
5.3159
 21
6.6907
 31
0.0400
  0
LINE
  5
30
100
AcDbEntity
  8
1
 62
10
100
AcDbLine
 10
5.3159
 20
6.6907
 30
0.0400
 11
5.3063
 21
6.6926
 31
0.0400
  0
LINE
  5
30
100
AcDbEntity
  8
1
 62
10
100
AcDbLine
 10
5.3063
 20
6.6926
 30
0.0400
 11
5.3216
 21
6.6835
 31
0.0400
  0
LINE
  5
30
100
AcDbEntity
  8
1
 62
10
100
AcDbLine
 10
5.3216
 20
6.6835
 30
0.0400
 11
5.3599
 21
6.6625
 31
0.0400
  0
LINE
  5
30
100
AcDbEntity
  8
1
 62
10
100
AcDbLine
 10
5.3599
 20
6.6625
 30
0.0400
 11
5.4065
 21
6.6386
 31
0.0400
  0
LINE
  5
30
100
AcDbEntity
  8
1
 62
10
100
AcDbLine
 10
5.4065
 20
6.6386
 30
0.0400
 11
5.4608
 21
6.6121
 31
0.0400
  0
LINE
  5
30
100
AcDbEntity
  8
1
 62
10
100
AcDbLine
 10
5.4608
 20
6.6121
 30
0.0400
 11
5.5221
 21
6.5833
 31
0.0400
  0
LINE
  5
30
100
AcDbEntity
  8
1
 62
10
100
AcDbLine
 10
5.5221
 20
6.5833
 30
0.0400
 11
5.5897
 21
6.5526
 31
0.0400
  0
LINE
  5
30
100
AcDbEntity
  8
1
 62
10
100
AcDbLine
 10
5.5897
 20
6.5526
 30
0.0400
 11
5.7411
 21
6.4865
 31
0.0400
  0
LINE
  5
30
100
AcDbEntity
  8
1
 62
10
100
AcDbLine
 10
5.7411
 20
6.4865
 30
0.0400
 11
5.9140
 21
6.4144
 31
0.0400
  0
LINE
  5
30
100
AcDbEntity
  8
1
 62
10
100
AcDbLine
 10
5.9140
 20
6.4144
 30
0.0400
 11
6.0811
 21
6.3476
 31
0.0400
  0
LINE
  5
30
100
AcDbEntity
  8
1
 62
10
100
AcDbLine
 10
6.0811
 20
6.3475
 30
0.0400
 11
6.0842
 21
6.3464
 31
0.0400
  0
LINE
  5
30
100
AcDbEntity
  8
1
 62
10
100
AcDbLine
 10
6.0842
 20
6.3464
 30
0.0400
 11
6.0874
 21
6.3456
 31
0.0400
  0
LINE
  5
30
100
AcDbEntity
  8
1
 62
10
100
AcDbLine
 10
6.0874
 20
6.3456
 30
0.0400
 11
6.0907
 21
6.3451
 31
0.0400
  0
LINE
  5
30
100
AcDbEntity
  8
1
 62
10
100
AcDbLine
 10
6.0907
 20
6.3451
 30
0.0400
 11
6.0939
 21
6.3449
 31
0.0400
  0
LINE
  5
30
100
AcDbEntity
  8
1
 62
10
100
AcDbLine
 10
6.0939
 20
6.3449
 30
0.0400
 11
6.0972
 21
6.3450
 31
0.0400
  0
LINE
  5
30
100
AcDbEntity
  8
1
 62
10
100
AcDbLine
 10
6.0972
 20
6.3450
 30
0.0400
 11
6.1005
 21
6.3453
 31
0.0400
  0
LINE
  5
30
100
AcDbEntity
  8
1
 62
10
100
AcDbLine
 10
6.1005
 20
6.3453
 30
0.0400
 11
6.1037
 21
6.3459
 31
0.0400
  0
LINE
  5
30
100
AcDbEntity
  8
1
 62
10
100
AcDbLine
 10
6.1037
 20
6.3459
 30
0.0400
 11
6.1069
 21
6.3468
 31
0.0400
  0
LINE
  5
30
100
AcDbEntity
  8
1
 62
10
100
AcDbLine
 10
6.1069
 20
6.3468
 30
0.0400
 11
6.1100
 21
6.3480
 31
0.0400
  0
LINE
  5
30
100
AcDbEntity
  8
1
 62
10
100
AcDbLine
 10
6.1100
 20
6.3480
 30
0.0400
 11
6.1129
 21
6.3495
 31
0.0400
  0
LINE
  5
30
100
AcDbEntity
  8
1
 62
10
100
AcDbLine
 10
6.1129
 20
6.3495
 30
0.0400
 11
6.1157
 21
6.3512
 31
0.0400
  0
LINE
  5
30
100
AcDbEntity
  8
1
 62
10
100
AcDbLine
 10
6.1157
 20
6.3512
 30
0.0400
 11
6.1184
 21
6.3531
 31
0.0400
  0
LINE
  5
30
100
AcDbEntity
  8
1
 62
10
100
AcDbLine
 10
6.1184
 20
6.3531
 30
0.0400
 11
6.1209
 21
6.3553
 31
0.0400
  0
LINE
  5
30
100
AcDbEntity
  8
1
 62
10
100
AcDbLine
 10
6.1209
 20
6.3553
 30
0.0400
 11
6.1232
 21
6.3576
 31
0.0400
  0
LINE
  5
30
100
AcDbEntity
  8
1
 62
10
100
AcDbLine
 10
6.1232
 20
6.3576
 30
0.0400
 11
6.1252
 21
6.3602
 31
0.0400
  0
LINE
  5
30
100
AcDbEntity
  8
1
 62
10
100
AcDbLine
 10
6.1252
 20
6.3602
 30
0.0400
 11
6.1271
 21
6.3629
 31
0.0400
  0
LINE
  5
30
100
AcDbEntity
  8
1
 62
10
100
AcDbLine
 10
6.1271
 20
6.3629
 30
0.0400
 11
6.1287
 21
6.3658
 31
0.0400
  0
LINE
  5
30
100
AcDbEntity
  8
1
 62
10
100
AcDbLine
 10
6.1287
 20
6.3658
 30
0.0400
 11
6.1300
 21
6.3688
 31
0.0400
  0
LINE
  5
30
100
AcDbEntity
  8
1
 62
10
100
AcDbLine
 10
6.1300
 20
6.3688
 30
0.0400
 11
6.1300
 21
6.3689
 31
0.0400
  0
LINE
  5
30
100
AcDbEntity
  8
1
 62
10
100
AcDbLine
 10
6.0323
 20
5.6514
 30
0.1180
 11
6.0323
 21
5.6514
 31
0.0400
  0
LINE
  5
30
100
AcDbEntity
  8
1
 62
10
100
AcDbLine
 10
6.0323
 20
5.6514
 30
0.0400
 11
6.0331
 21
5.6554
 31
0.0400
  0
LINE
  5
30
100
AcDbEntity
  8
1
 62
10
100
AcDbLine
 10
6.0331
 20
5.6554
 30
0.0400
 11
6.0336
 21
5.6595
 31
0.0400
  0
LINE
  5
30
100
AcDbEntity
  8
1
 62
10
100
AcDbLine
 10
6.0336
 20
5.6595
 30
0.0400
 11
6.0337
 21
5.6636
 31
0.0400
  0
LINE
  5
30
100
AcDbEntity
  8
1
 62
10
100
AcDbLine
 10
6.0337
 20
5.6636
 30
0.0400
 11
6.0334
 21
5.6678
 31
0.0400
  0
LINE
  5
30
100
AcDbEntity
  8
1
 62
10
100
AcDbLine
 10
6.0334
 20
5.6678
 30
0.0400
 11
6.0328
 21
5.6718
 31
0.0400
  0
LINE
  5
30
100
AcDbEntity
  8
1
 62
10
100
AcDbLine
 10
6.0328
 20
5.6718
 30
0.0400
 11
6.0319
 21
5.6758
 31
0.0400
  0
LINE
  5
30
100
AcDbEntity
  8
1
 62
10
100
AcDbLine
 10
6.0319
 20
5.6758
 30
0.0400
 11
6.0306
 21
5.6797
 31
0.0400
  0
LINE
  5
30
100
AcDbEntity
  8
1
 62
10
100
AcDbLine
 10
6.0306
 20
5.6797
 30
0.0400
 11
6.0289
 21
5.6835
 31
0.0400
  0
LINE
  5
30
100
AcDbEntity
  8
1
 62
10
100
AcDbLine
 10
6.0289
 20
5.6835
 30
0.0400
 11
6.0269
 21
5.6871
 31
0.0400
  0
LINE
  5
30
100
AcDbEntity
  8
1
 62
10
100
AcDbLine
 10
6.0269
 20
5.6871
 30
0.0400
 11
6.0247
 21
5.6906
 31
0.0400
  0
LINE
  5
30
100
AcDbEntity
  8
1
 62
10
100
AcDbLine
 10
6.0247
 20
5.6906
 30
0.0400
 11
6.0221
 21
5.6938
 31
0.0400
  0
LINE
  5
30
100
AcDbEntity
  8
1
 62
10
100
AcDbLine
 10
6.0221
 20
5.6938
 30
0.0400
 11
6.0193
 21
5.6968
 31
0.0400
  0
LINE
  5
30
100
AcDbEntity
  8
1
 62
10
100
AcDbLine
 10
6.0193
 20
5.6968
 30
0.0400
 11
6.0162
 21
5.6995
 31
0.0400
  0
LINE
  5
30
100
AcDbEntity
  8
1
 62
10
100
AcDbLine
 10
6.0162
 20
5.6995
 30
0.0400
 11
6.0129
 21
5.7019
 31
0.0400
  0
LINE
  5
30
100
AcDbEntity
  8
1
 62
10
100
AcDbLine
 10
6.0129
 20
5.7019
 30
0.0400
 11
6.0094
 21
5.7041
 31
0.0400
  0
LINE
  5
30
100
AcDbEntity
  8
1
 62
10
100
AcDbLine
 10
6.0094
 20
5.7041
 30
0.0400
 11
6.0057
 21
5.7059
 31
0.0400
  0
LINE
  5
30
100
AcDbEntity
  8
1
 62
10
100
AcDbLine
 10
6.0057
 20
5.7059
 30
0.0400
 11
6.0018
 21
5.7074
 31
0.0400
  0
LINE
  5
30
100
AcDbEntity
  8
1
 62
10
100
AcDbLine
 10
6.0018
 20
5.7074
 30
0.0400
 11
5.9980
 21
5.7086
 31
0.0400
  0
LINE
  5
30
100
AcDbEntity
  8
1
 62
10
100
AcDbLine
 10
5.9980
 20
5.7086
 30
0.0400
 11
5.8500
 21
5.7433
 31
0.0400
  0
LINE
  5
30
100
AcDbEntity
  8
1
 62
10
100
AcDbLine
 10
5.8500
 20
5.7433
 30
0.0400
 11
5.7953
 21
5.7548
 31
0.0400
  0
LINE
  5
30
100
AcDbEntity
  8
1
 62
10
100
AcDbLine
 10
5.7953
 20
5.7548
 30
0.0400
 11
5.7438
 21
5.7649
 31
0.0400
  0
LINE
  5
30
100
AcDbEntity
  8
1
 62
10
100
AcDbLine
 10
5.7438
 20
5.7649
 30
0.0400
 11
5.6962
 21
5.7733
 31
0.0400
  0
LINE
  5
30
100
AcDbEntity
  8
1
 62
10
100
AcDbLine
 10
5.6962
 20
5.7733
 30
0.0400
 11
5.6530
 21
5.7800
 31
0.0400
  0
LINE
  5
30
100
AcDbEntity
  8
1
 62
10
100
AcDbLine
 10
5.6530
 20
5.7800
 30
0.0400
 11
5.6147
 21
5.7850
 31
0.0400
  0
LINE
  5
30
100
AcDbEntity
  8
1
 62
10
100
AcDbLine
 10
5.6147
 20
5.7850
 30
0.0400
 11
5.5819
 21
5.7881
 31
0.0400
  0
LINE
  5
30
100
AcDbEntity
  8
1
 62
10
100
AcDbLine
 10
5.5819
 20
5.7881
 30
0.0400
 11
5.5550
 21
5.7894
 31
0.0400
  0
LINE
  5
30
100
AcDbEntity
  8
1
 62
10
100
AcDbLine
 10
5.5550
 20
5.7894
 30
0.0400
 11
5.5443
 21
5.7891
 31
0.0400
  0
LINE
  5
30
100
AcDbEntity
  8
1
 62
10
100
AcDbLine
 10
5.5443
 20
5.7891
 30
0.0400
 11
5.5637
 21
5.7782
 31
0.0400
  0
LINE
  5
30
100
AcDbEntity
  8
1
 62
10
100
AcDbLine
 10
5.5637
 20
5.7782
 30
0.0400
 11
5.5904
 21
5.7650
 31
0.0400
  0
LINE
  5
30
100
AcDbEntity
  8
1
 62
10
100
AcDbLine
 10
5.5904
 20
5.7650
 30
0.0400
 11
5.6230
 21
5.7505
 31
0.0400
  0
LINE
  5
30
100
AcDbEntity
  8
1
 62
10
100
AcDbLine
 10
5.6230
 20
5.7505
 30
0.0400
 11
5.6610
 21
5.7350
 31
0.0400
  0
LINE
  5
30
100
AcDbEntity
  8
1
 62
10
100
AcDbLine
 10
5.6610
 20
5.7350
 30
0.0400
 11
5.7039
 21
5.7186
 31
0.0400
  0
LINE
  5
30
100
AcDbEntity
  8
1
 62
10
100
AcDbLine
 10
5.7039
 20
5.7186
 30
0.0400
 11
5.7512
 21
5.7016
 31
0.0400
  0
LINE
  5
30
100
AcDbEntity
  8
1
 62
10
100
AcDbLine
 10
5.7512
 20
5.7016
 30
0.0400
 11
5.8024
 21
5.6841
 31
0.0400
  0
LINE
  5
30
100
AcDbEntity
  8
1
 62
10
100
AcDbLine
 10
5.8024
 20
5.6841
 30
0.0400
 11
5.8569
 21
5.6663
 31
0.0400
  0
LINE
  5
30
100
AcDbEntity
  8
1
 62
10
100
AcDbLine
 10
5.8569
 20
5.6663
 30
0.0400
 11
6.3092
 21
5.5439
 31
0.0400
  0
LINE
  5
30
100
AcDbEntity
  8
1
 62
10
100
AcDbLine
 10
6.3092
 20
5.5439
 30
0.0400
 11
6.3333
 21
5.5385
 31
0.0400
  0
LINE
  5
30
100
AcDbEntity
  8
1
 62
10
100
AcDbLine
 10
6.3333
 20
5.5385
 30
0.0400
 11
6.3880
 21
5.5270
 31
0.0400
  0
LINE
  5
30
100
AcDbEntity
  8
1
 62
10
100
AcDbLine
 10
6.3880
 20
5.5270
 30
0.0400
 11
6.4394
 21
5.5170
 31
0.0400
  0
LINE
  5
30
100
AcDbEntity
  8
1
 62
10
100
AcDbLine
 10
6.4394
 20
5.5170
 30
0.0400
 11
6.4870
 21
5.5086
 31
0.0400
  0
LINE
  5
30
100
AcDbEntity
  8
1
 62
10
100
AcDbLine
 10
6.4870
 20
5.5086
 30
0.0400
 11
6.5303
 21
5.5018
 31
0.0400
  0
LINE
  5
30
100
AcDbEntity
  8
1
 62
10
100
AcDbLine
 10
6.5303
 20
5.5018
 30
0.0400
 11
6.5686
 21
5.4969
 31
0.0400
  0
LINE
  5
30
100
AcDbEntity
  8
1
 62
10
100
AcDbLine
 10
6.5686
 20
5.4969
 30
0.0400
 11
6.6014
 21
5.4938
 31
0.0400
  0
LINE
  5
30
100
AcDbEntity
  8
1
 62
10
100
AcDbLine
 10
6.6014
 20
5.4938
 30
0.0400
 11
6.6283
 21
5.4925
 31
0.0400
  0
LINE
  5
30
100
AcDbEntity
  8
1
 62
10
100
AcDbLine
 10
6.6283
 20
5.4925
 30
0.0400
 11
6.6389
 21
5.4927
 31
0.0400
  0
LINE
  5
30
100
AcDbEntity
  8
1
 62
10
100
AcDbLine
 10
6.6389
 20
5.4927
 30
0.0400
 11
6.6196
 21
5.5037
 31
0.0400
  0
LINE
  5
30
100
AcDbEntity
  8
1
 62
10
100
AcDbLine
 10
6.6196
 20
5.5037
 30
0.0400
 11
6.5929
 21
5.5168
 31
0.0400
  0
LINE
  5
30
100
AcDbEntity
  8
1
 62
10
100
AcDbLine
 10
6.5929
 20
5.5168
 30
0.0400
 11
6.5603
 21
5.5313
 31
0.0400
  0
LINE
  5
30
100
AcDbEntity
  8
1
 62
10
100
AcDbLine
 10
6.5603
 20
5.5313
 30
0.0400
 11
6.5223
 21
5.5468
 31
0.0400
  0
LINE
  5
30
100
AcDbEntity
  8
1
 62
10
100
AcDbLine
 10
6.5223
 20
5.5468
 30
0.0400
 11
6.4794
 21
5.5632
 31
0.0400
  0
LINE
  5
30
100
AcDbEntity
  8
1
 62
10
100
AcDbLine
 10
6.4794
 20
5.5632
 30
0.0400
 11
6.4321
 21
5.5803
 31
0.0400
  0
LINE
  5
30
100
AcDbEntity
  8
1
 62
10
100
AcDbLine
 10
6.4321
 20
5.5803
 30
0.0400
 11
6.3809
 21
5.5978
 31
0.0400
  0
LINE
  5
30
100
AcDbEntity
  8
1
 62
10
100
AcDbLine
 10
6.3809
 20
5.5978
 30
0.0400
 11
6.3264
 21
5.6155
 31
0.0400
  0
LINE
  5
30
100
AcDbEntity
  8
1
 62
10
100
AcDbLine
 10
6.3264
 20
5.6155
 30
0.0400
 11
5.9980
 21
5.7086
 31
0.0400
  0
LINE
  5
30
100
AcDbEntity
  8
1
 62
10
100
AcDbLine
 10
5.9980
 20
5.7086
 30
0.0400
 11
5.8500
 21
5.7433
 31
0.0400
  0
LINE
  5
30
100
AcDbEntity
  8
1
 62
10
100
AcDbLine
 10
5.8500
 20
5.7433
 30
0.0400
 11
5.8226
 21
5.7491
 31
0.0400
  0
LINE
  5
30
100
AcDbEntity
  8
1
 62
10
100
AcDbLine
 10
5.8226
 20
5.7491
 30
0.0400
 11
5.8185
 21
5.7498
 31
0.0400
  0
LINE
  5
30
100
AcDbEntity
  8
1
 62
10
100
AcDbLine
 10
5.8185
 20
5.7498
 30
0.0400
 11
5.8144
 21
5.7501
 31
0.0400
  0
LINE
  5
30
100
AcDbEntity
  8
1
 62
10
100
AcDbLine
 10
5.8144
 20
5.7501
 30
0.0400
 11
5.8103
 21
5.7500
 31
0.0400
  0
LINE
  5
30
100
AcDbEntity
  8
1
 62
10
100
AcDbLine
 10
5.8103
 20
5.7500
 30
0.0400
 11
5.8062
 21
5.7496
 31
0.0400
  0
LINE
  5
30
100
AcDbEntity
  8
1
 62
10
100
AcDbLine
 10
5.8062
 20
5.7496
 30
0.0400
 11
5.8022
 21
5.7489
 31
0.0400
  0
LINE
  5
30
100
AcDbEntity
  8
1
 62
10
100
AcDbLine
 10
5.8022
 20
5.7489
 30
0.0400
 11
5.7982
 21
5.7478
 31
0.0400
  0
LINE
  5
30
100
AcDbEntity
  8
1
 62
10
100
AcDbLine
 10
5.7982
 20
5.7478
 30
0.0400
 11
5.7943
 21
5.7463
 31
0.0400
  0
LINE
  5
30
100
AcDbEntity
  8
1
 62
10
100
AcDbLine
 10
5.7943
 20
5.7463
 30
0.0400
 11
5.7906
 21
5.7445
 31
0.0400
  0
LINE
  5
30
100
AcDbEntity
  8
1
 62
10
100
AcDbLine
 10
5.7906
 20
5.7445
 30
0.0400
 11
5.7871
 21
5.7424
 31
0.0400
  0
LINE
  5
30
100
AcDbEntity
  8
1
 62
10
100
AcDbLine
 10
5.7871
 20
5.7424
 30
0.0400
 11
5.7837
 21
5.7400
 31
0.0400
  0
LINE
  5
30
100
AcDbEntity
  8
1
 62
10
100
AcDbLine
 10
5.7837
 20
5.7400
 30
0.0400
 11
5.7806
 21
5.7373
 31
0.0400
  0
LINE
  5
30
100
AcDbEntity
  8
1
 62
10
100
AcDbLine
 10
5.7806
 20
5.7373
 30
0.0400
 11
5.7777
 21
5.7344
 31
0.0400
  0
LINE
  5
30
100
AcDbEntity
  8
1
 62
10
100
AcDbLine
 10
5.7777
 20
5.7344
 30
0.0400
 11
5.7751
 21
5.7312
 31
0.0400
  0
LINE
  5
30
100
AcDbEntity
  8
1
 62
10
100
AcDbLine
 10
5.7751
 20
5.7312
 30
0.0400
 11
5.7728
 21
5.7278
 31
0.0400
  0
LINE
  5
30
100
AcDbEntity
  8
1
 62
10
100
AcDbLine
 10
5.7728
 20
5.7278
 30
0.0400
 11
5.7708
 21
5.7242
 31
0.0400
  0
LINE
  5
30
100
AcDbEntity
  8
1
 62
10
100
AcDbLine
 10
5.7708
 20
5.7242
 30
0.0400
 11
5.7691
 21
5.7205
 31
0.0400
  0
LINE
  5
30
100
AcDbEntity
  8
1
 62
10
100
AcDbLine
 10
5.7691
 20
5.7205
 30
0.0400
 11
5.7677
 21
5.7166
 31
0.0400
  0
LINE
  5
30
100
AcDbEntity
  8
1
 62
10
100
AcDbLine
 10
5.7677
 20
5.7166
 30
0.0400
 11
5.7667
 21
5.7126
 31
0.0400
  0
LINE
  5
30
100
AcDbEntity
  8
1
 62
10
100
AcDbLine
 10
5.7667
 20
5.7126
 30
0.0400
 11
5.7667
 21
5.7126
 31
0.0400
  0
LINE
  5
30
100
AcDbEntity
  8
1
 62
10
100
AcDbLine
 10
6.3945
 20
5.1061
 30
0.1180
 11
6.3945
 21
5.1061
 31
0.0400
  0
LINE
  5
30
100
AcDbEntity
  8
1
 62
10
100
AcDbLine
 10
6.3945
 20
5.1061
 30
0.0400
 11
6.3947
 21
5.1094
 31
0.0400
  0
LINE
  5
30
100
AcDbEntity
  8
1
 62
10
100
AcDbLine
 10
6.3947
 20
5.1094
 30
0.0400
 11
6.3946
 21
5.1127
 31
0.0400
  0
LINE
  5
30
100
AcDbEntity
  8
1
 62
10
100
AcDbLine
 10
6.3946
 20
5.1127
 30
0.0400
 11
6.3942
 21
5.1160
 31
0.0400
  0
LINE
  5
30
100
AcDbEntity
  8
1
 62
10
100
AcDbLine
 10
6.3942
 20
5.1160
 30
0.0400
 11
6.3935
 21
5.1192
 31
0.0400
  0
LINE
  5
30
100
AcDbEntity
  8
1
 62
10
100
AcDbLine
 10
6.3935
 20
5.1192
 30
0.0400
 11
6.3926
 21
5.1223
 31
0.0400
  0
LINE
  5
30
100
AcDbEntity
  8
1
 62
10
100
AcDbLine
 10
6.3926
 20
5.1223
 30
0.0400
 11
6.3914
 21
5.1254
 31
0.0400
  0
LINE
  5
30
100
AcDbEntity
  8
1
 62
10
100
AcDbLine
 10
6.3914
 20
5.1254
 30
0.0400
 11
6.3899
 21
5.1284
 31
0.0400
  0
LINE
  5
30
100
AcDbEntity
  8
1
 62
10
100
AcDbLine
 10
6.3899
 20
5.1284
 30
0.0400
 11
6.3881
 21
5.1312
 31
0.0400
  0
LINE
  5
30
100
AcDbEntity
  8
1
 62
10
100
AcDbLine
 10
6.3881
 20
5.1312
 30
0.0400
 11
6.3862
 21
5.1338
 31
0.0400
  0
LINE
  5
30
100
AcDbEntity
  8
1
 62
10
100
AcDbLine
 10
6.3862
 20
5.1338
 30
0.0400
 11
6.3840
 21
5.1363
 31
0.0400
  0
LINE
  5
30
100
AcDbEntity
  8
1
 62
10
100
AcDbLine
 10
6.3840
 20
5.1363
 30
0.0400
 11
6.3816
 21
5.1385
 31
0.0400
  0
LINE
  5
30
100
AcDbEntity
  8
1
 62
10
100
AcDbLine
 10
6.3816
 20
5.1385
 30
0.0400
 11
6.3790
 21
5.1406
 31
0.0400
  0
LINE
  5
30
100
AcDbEntity
  8
1
 62
10
100
AcDbLine
 10
6.3790
 20
5.1406
 30
0.0400
 11
6.3762
 21
5.1424
 31
0.0400
  0
LINE
  5
30
100
AcDbEntity
  8
1
 62
10
100
AcDbLine
 10
6.3762
 20
5.1424
 30
0.0400
 11
6.3733
 21
5.1439
 31
0.0400
  0
LINE
  5
30
100
AcDbEntity
  8
1
 62
10
100
AcDbLine
 10
6.3733
 20
5.1439
 30
0.0400
 11
6.3703
 21
5.1452
 31
0.0400
  0
LINE
  5
30
100
AcDbEntity
  8
1
 62
10
100
AcDbLine
 10
6.3703
 20
5.1452
 30
0.0400
 11
6.3672
 21
5.1463
 31
0.0400
  0
LINE
  5
30
100
AcDbEntity
  8
1
 62
10
100
AcDbLine
 10
6.3672
 20
5.1463
 30
0.0400
 11
6.3640
 21
5.1470
 31
0.0400
  0
LINE
  5
30
100
AcDbEntity
  8
1
 62
10
100
AcDbLine
 10
6.3640
 20
5.1470
 30
0.0400
 11
6.3607
 21
5.1475
 31
0.0400
  0
LINE
  5
30
100
AcDbEntity
  8
1
 62
10
100
AcDbLine
 10
6.3607
 20
5.1474
 30
0.0400
 11
6.2349
 21
5.1585
 31
0.0400
  0
LINE
  5
30
100
AcDbEntity
  8
1
 62
10
100
AcDbLine
 10
6.2349
 20
5.1585
 30
0.0400
 11
6.1279
 21
5.1651
 31
0.0400
  0
LINE
  5
30
100
AcDbEntity
  8
1
 62
10
100
AcDbLine
 10
6.1279
 20
5.1651
 30
0.0400
 11
6.0801
 21
5.1669
 31
0.0400
  0
LINE
  5
30
100
AcDbEntity
  8
1
 62
10
100
AcDbLine
 10
6.0801
 20
5.1669
 30
0.0400
 11
6.0368
 21
5.1676
 31
0.0400
  0
LINE
  5
30
100
AcDbEntity
  8
1
 62
10
100
AcDbLine
 10
6.0368
 20
5.1676
 30
0.0400
 11
5.9985
 21
5.1673
 31
0.0400
  0
LINE
  5
30
100
AcDbEntity
  8
1
 62
10
100
AcDbLine
 10
5.9985
 20
5.1673
 30
0.0400
 11
5.9657
 21
5.1660
 31
0.0400
  0
LINE
  5
30
100
AcDbEntity
  8
1
 62
10
100
AcDbLine
 10
5.9657
 20
5.1660
 30
0.0400
 11
5.9389
 21
5.1638
 31
0.0400
  0
LINE
  5
30
100
AcDbEntity
  8
1
 62
10
100
AcDbLine
 10
5.9389
 20
5.1638
 30
0.0400
 11
5.9310
 21
5.1625
 31
0.0400
  0
LINE
  5
30
100
AcDbEntity
  8
1
 62
10
100
AcDbLine
 10
5.9310
 20
5.1625
 30
0.0400
 11
5.9463
 21
5.1566
 31
0.0400
  0
LINE
  5
30
100
AcDbEntity
  8
1
 62
10
100
AcDbLine
 10
5.9463
 20
5.1566
 30
0.0400
 11
5.9739
 21
5.1476
 31
0.0400
  0
LINE
  5
30
100
AcDbEntity
  8
1
 62
10
100
AcDbLine
 10
5.9739
 20
5.1476
 30
0.0400
 11
6.0073
 21
5.1382
 31
0.0400
  0
LINE
  5
30
100
AcDbEntity
  8
1
 62
10
100
AcDbLine
 10
6.0073
 20
5.1382
 30
0.0400
 11
6.0462
 21
5.1285
 31
0.0400
  0
LINE
  5
30
100
AcDbEntity
  8
1
 62
10
100
AcDbLine
 10
6.0462
 20
5.1285
 30
0.0400
 11
6.0901
 21
5.1186
 31
0.0400
  0
LINE
  5
30
100
AcDbEntity
  8
1
 62
10
100
AcDbLine
 10
6.0901
 20
5.1186
 30
0.0400
 11
6.1383
 21
5.1087
 31
0.0400
  0
LINE
  5
30
100
AcDbEntity
  8
1
 62
10
100
AcDbLine
 10
6.1383
 20
5.1087
 30
0.0400
 11
6.1904
 21
5.0989
 31
0.0400
  0
LINE
  5
30
100
AcDbEntity
  8
1
 62
10
100
AcDbLine
 10
6.1904
 20
5.0989
 30
0.0400
 11
6.2459
 21
5.0892
 31
0.0400
  0
LINE
  5
30
100
AcDbEntity
  8
1
 62
10
100
AcDbLine
 10
6.2459
 20
5.0892
 30
0.0400
 11
6.7171
 21
5.0313
 31
0.0400
  0
LINE
  5
30
100
AcDbEntity
  8
1
 62
10
100
AcDbLine
 10
6.7171
 20
5.0313
 30
0.0400
 11
6.7279
 21
5.0305
 31
0.0400
  0
LINE
  5
30
100
AcDbEntity
  8
1
 62
10
100
AcDbLine
 10
6.7279
 20
5.0304
 30
0.0400
 11
6.8349
 21
5.0239
 31
0.0400
  0
LINE
  5
30
100
AcDbEntity
  8
1
 62
10
100
AcDbLine
 10
6.8349
 20
5.0239
 30
0.0400
 11
6.8827
 21
5.0221
 31
0.0400
  0
LINE
  5
30
100
AcDbEntity
  8
1
 62
10
100
AcDbLine
 10
6.8827
 20
5.0221
 30
0.0400
 11
6.9260
 21
5.0213
 31
0.0400
  0
LINE
  5
30
100
AcDbEntity
  8
1
 62
10
100
AcDbLine
 10
6.9260
 20
5.0213
 30
0.0400
 11
6.9643
 21
5.0216
 31
0.0400
  0
LINE
  5
30
100
AcDbEntity
  8
1
 62
10
100
AcDbLine
 10
6.9643
 20
5.0216
 30
0.0400
 11
6.9971
 21
5.0229
 31
0.0400
  0
LINE
  5
30
100
AcDbEntity
  8
1
 62
10
100
AcDbLine
 10
6.9971
 20
5.0229
 30
0.0400
 11
7.0239
 21
5.0252
 31
0.0400
  0
LINE
  5
30
100
AcDbEntity
  8
1
 62
10
100
AcDbLine
 10
7.0239
 20
5.0252
 30
0.0400
 11
7.0318
 21
5.0264
 31
0.0400
  0
LINE
  5
30
100
AcDbEntity
  8
1
 62
10
100
AcDbLine
 10
7.0318
 20
5.0264
 30
0.0400
 11
7.0165
 21
5.0324
 31
0.0400
  0
LINE
  5
30
100
AcDbEntity
  8
1
 62
10
100
AcDbLine
 10
7.0165
 20
5.0324
 30
0.0400
 11
6.9889
 21
5.0413
 31
0.0400
  0
LINE
  5
30
100
AcDbEntity
  8
1
 62
10
100
AcDbLine
 10
6.9889
 20
5.0413
 30
0.0400
 11
6.9555
 21
5.0507
 31
0.0400
  0
LINE
  5
30
100
AcDbEntity
  8
1
 62
10
100
AcDbLine
 10
6.9555
 20
5.0507
 30
0.0400
 11
6.9166
 21
5.0604
 31
0.0400
  0
LINE
  5
30
100
AcDbEntity
  8
1
 62
10
100
AcDbLine
 10
6.9166
 20
5.0604
 30
0.0400
 11
6.8727
 21
5.0703
 31
0.0400
  0
LINE
  5
30
100
AcDbEntity
  8
1
 62
10
100
AcDbLine
 10
6.8727
 20
5.0703
 30
0.0400
 11
6.8245
 21
5.0803
 31
0.0400
  0
LINE
  5
30
100
AcDbEntity
  8
1
 62
10
100
AcDbLine
 10
6.8245
 20
5.0803
 30
0.0400
 11
6.7724
 21
5.0901
 31
0.0400
  0
LINE
  5
30
100
AcDbEntity
  8
1
 62
10
100
AcDbLine
 10
6.7724
 20
5.0901
 30
0.0400
 11
6.7170
 21
5.0998
 31
0.0400
  0
LINE
  5
30
100
AcDbEntity
  8
1
 62
10
100
AcDbLine
 10
6.7170
 20
5.0998
 30
0.0400
 11
6.3607
 21
5.1474
 31
0.0400
  0
LINE
  5
30
100
AcDbEntity
  8
1
 62
10
100
AcDbLine
 10
6.3607
 20
5.1474
 30
0.0400
 11
6.2349
 21
5.1585
 31
0.0400
  0
LINE
  5
30
100
AcDbEntity
  8
1
 62
10
100
AcDbLine
 10
6.2349
 20
5.1585
 30
0.0400
 11
6.1813
 21
5.1618
 31
0.0400
  0
LINE
  5
30
100
AcDbEntity
  8
1
 62
10
100
AcDbLine
 10
6.1813
 20
5.1618
 30
0.0400
 11
6.1780
 21
5.1619
 31
0.0400
  0
LINE
  5
30
100
AcDbEntity
  8
1
 62
10
100
AcDbLine
 10
6.1780
 20
5.1619
 30
0.0400
 11
6.1747
 21
5.1616
 31
0.0400
  0
LINE
  5
30
100
AcDbEntity
  8
1
 62
10
100
AcDbLine
 10
6.1747
 20
5.1616
 30
0.0400
 11
6.1715
 21
5.1611
 31
0.0400
  0
LINE
  5
30
100
AcDbEntity
  8
1
 62
10
100
AcDbLine
 10
6.1715
 20
5.1611
 30
0.0400
 11
6.1683
 21
5.1603
 31
0.0400
  0
LINE
  5
30
100
AcDbEntity
  8
1
 62
10
100
AcDbLine
 10
6.1683
 20
5.1603
 30
0.0400
 11
6.1652
 21
5.1592
 31
0.0400
  0
LINE
  5
30
100
AcDbEntity
  8
1
 62
10
100
AcDbLine
 10
6.1652
 20
5.1592
 30
0.0400
 11
6.1621
 21
5.1579
 31
0.0400
  0
LINE
  5
30
100
AcDbEntity
  8
1
 62
10
100
AcDbLine
 10
6.1621
 20
5.1579
 30
0.0400
 11
6.1593
 21
5.1563
 31
0.0400
  0
LINE
  5
30
100
AcDbEntity
  8
1
 62
10
100
AcDbLine
 10
6.1593
 20
5.1563
 30
0.0400
 11
6.1565
 21
5.1545
 31
0.0400
  0
LINE
  5
30
100
AcDbEntity
  8
1
 62
10
100
AcDbLine
 10
6.1565
 20
5.1545
 30
0.0400
 11
6.1540
 21
5.1524
 31
0.0400
  0
LINE
  5
30
100
AcDbEntity
  8
1
 62
10
100
AcDbLine
 10
6.1540
 20
5.1524
 30
0.0400
 11
6.1516
 21
5.1501
 31
0.0400
  0
LINE
  5
30
100
AcDbEntity
  8
1
 62
10
100
AcDbLine
 10
6.1516
 20
5.1501
 30
0.0400
 11
6.1494
 21
5.1476
 31
0.0400
  0
LINE
  5
30
100
AcDbEntity
  8
1
 62
10
100
AcDbLine
 10
6.1494
 20
5.1476
 30
0.0400
 11
6.1475
 21
5.1449
 31
0.0400
  0
LINE
  5
30
100
AcDbEntity
  8
1
 62
10
100
AcDbLine
 10
6.1475
 20
5.1449
 30
0.0400
 11
6.1458
 21
5.1421
 31
0.0400
  0
LINE
  5
30
100
AcDbEntity
  8
1
 62
10
100
AcDbLine
 10
6.1458
 20
5.1421
 30
0.0400
 11
6.1444
 21
5.1392
 31
0.0400
  0
LINE
  5
30
100
AcDbEntity
  8
1
 62
10
100
AcDbLine
 10
6.1444
 20
5.1392
 30
0.0400
 11
6.1432
 21
5.1361
 31
0.0400
  0
LINE
  5
30
100
AcDbEntity
  8
1
 62
10
100
AcDbLine
 10
6.1432
 20
5.1361
 30
0.0400
 11
6.1423
 21
5.1329
 31
0.0400
  0
LINE
  5
30
100
AcDbEntity
  8
1
 62
10
100
AcDbLine
 10
6.1423
 20
5.1329
 30
0.0400
 11
6.1416
 21
5.1297
 31
0.0400
  0
LINE
  5
30
100
AcDbEntity
  8
1
 62
10
100
AcDbLine
 10
6.1416
 20
5.1297
 30
0.0400
 11
6.1413
 21
5.1265
 31
0.0400
  0
LINE
  5
30
100
AcDbEntity
  8
1
 62
10
100
AcDbLine
 10
7.5191
 20
4.0559
 30
0.1180
 11
7.5191
 21
4.0559
 31
0.0400
  0
LINE
  5
30
100
AcDbEntity
  8
1
 62
10
100
AcDbLine
 10
7.5191
 20
4.0559
 30
0.0400
 11
7.5279
 21
4.0607
 31
0.0400
  0
LINE
  5
30
100
AcDbEntity
  8
1
 62
10
100
AcDbLine
 10
7.5279
 20
4.0607
 30
0.0400
 11
7.5363
 21
4.0662
 31
0.0400
  0
LINE
  5
30
100
AcDbEntity
  8
1
 62
10
100
AcDbLine
 10
7.5363
 20
4.0662
 30
0.0400
 11
7.5442
 21
4.0725
 31
0.0400
  0
LINE
  5
30
100
AcDbEntity
  8
1
 62
10
100
AcDbLine
 10
7.5442
 20
4.0725
 30
0.0400
 11
7.5515
 21
4.0794
 31
0.0400
  0
LINE
  5
30
100
AcDbEntity
  8
1
 62
10
100
AcDbLine
 10
7.5515
 20
4.0794
 30
0.0400
 11
7.5582
 21
4.0869
 31
0.0400
  0
LINE
  5
30
100
AcDbEntity
  8
1
 62
10
100
AcDbLine
 10
7.5582
 20
4.0869
 30
0.0400
 11
7.5641
 21
4.0950
 31
0.0400
  0
LINE
  5
30
100
AcDbEntity
  8
1
 62
10
100
AcDbLine
 10
7.5641
 20
4.0950
 30
0.0400
 11
7.5694
 21
4.1035
 31
0.0400
  0
LINE
  5
30
100
AcDbEntity
  8
1
 62
10
100
AcDbLine
 10
7.5694
 20
4.1035
 30
0.0400
 11
7.5739
 21
4.1125
 31
0.0400
  0
LINE
  5
30
100
AcDbEntity
  8
1
 62
10
100
AcDbLine
 10
7.5739
 20
4.1125
 30
0.0400
 11
7.5776
 21
4.1219
 31
0.0400
  0
LINE
  5
30
100
AcDbEntity
  8
1
 62
10
100
AcDbLine
 10
7.5776
 20
4.1219
 30
0.0400
 11
7.5805
 21
4.1315
 31
0.0400
  0
LINE
  5
30
100
AcDbEntity
  8
1
 62
10
100
AcDbLine
 10
7.5805
 20
4.1315
 30
0.0400
 11
7.5825
 21
4.1414
 31
0.0400
  0
LINE
  5
30
100
AcDbEntity
  8
1
 62
10
100
AcDbLine
 10
7.5825
 20
4.1414
 30
0.0400
 11
7.5836
 21
4.1513
 31
0.0400
  0
LINE
  5
30
100
AcDbEntity
  8
1
 62
10
100
AcDbLine
 10
7.5836
 20
4.1513
 30
0.0400
 11
7.5839
 21
4.1614
 31
0.0400
  0
LINE
  5
30
100
AcDbEntity
  8
1
 62
10
100
AcDbLine
 10
7.5839
 20
4.1614
 30
0.0400
 11
7.5833
 21
4.1714
 31
0.0400
  0
LINE
  5
30
100
AcDbEntity
  8
1
 62
10
100
AcDbLine
 10
7.5833
 20
4.1714
 30
0.0400
 11
7.5818
 21
4.1814
 31
0.0400
  0
LINE
  5
30
100
AcDbEntity
  8
1
 62
10
100
AcDbLine
 10
7.5818
 20
4.1814
 30
0.0400
 11
7.5795
 21
4.1911
 31
0.0400
  0
LINE
  5
30
100
AcDbEntity
  8
1
 62
10
100
AcDbLine
 10
7.5795
 20
4.1911
 30
0.0400
 11
7.5763
 21
4.2007
 31
0.0400
  0
LINE
  5
30
100
AcDbEntity
  8
1
 62
10
100
AcDbLine
 10
7.5763
 20
4.2007
 30
0.0400
 11
7.5723
 21
4.2099
 31
0.0400
  0
LINE
  5
30
100
AcDbEntity
  8
1
 62
10
100
AcDbLine
 10
7.5723
 20
4.2099
 30
0.0400
 11
7.5723
 21
4.2099
 31
0.0400
  0
LINE
  5
30
100
AcDbEntity
  8
1
 62
10
100
AcDbLine
 10
7.5722
 20
4.2099
 30
0.0400
 11
7.5660
 21
4.2213
 31
0.0400
  0
LINE
  5
30
100
AcDbEntity
  8
1
 62
10
100
AcDbLine
 10
7.5660
 20
4.2213
 30
0.0400
 11
7.5588
 21
4.2322
 31
0.0400
  0
LINE
  5
30
100
AcDbEntity
  8
1
 62
10
100
AcDbLine
 10
7.5588
 20
4.2322
 30
0.0400
 11
7.5507
 21
4.2424
 31
0.0400
  0
LINE
  5
30
100
AcDbEntity
  8
1
 62
10
100
AcDbLine
 10
7.5507
 20
4.2424
 30
0.0400
 11
7.5418
 21
4.2518
 31
0.0400
  0
LINE
  5
30
100
AcDbEntity
  8
1
 62
10
100
AcDbLine
 10
7.5418
 20
4.2518
 30
0.0400
 11
7.5320
 21
4.2604
 31
0.0400
  0
LINE
  5
30
100
AcDbEntity
  8
1
 62
10
100
AcDbLine
 10
7.5320
 20
4.2604
 30
0.0400
 11
7.5216
 21
4.2682
 31
0.0400
  0
LINE
  5
30
100
AcDbEntity
  8
1
 62
10
100
AcDbLine
 10
7.5216
 20
4.2682
 30
0.0400
 11
7.5212
 21
4.2684
 31
0.0400
  0
LINE
  5
30
100
AcDbEntity
  8
1
 62
10
100
AcDbLine
 10
7.5212
 20
4.2684
 30
0.0400
 11
7.4946
 21
4.2836
 31
0.0400
  0
LINE
  5
30
100
AcDbEntity
  8
1
 62
10
100
AcDbLine
 10
7.4946
 20
4.2836
 30
0.0400
 11
7.4695
 21
4.2934
 31
0.0400
  0
LINE
  5
30
100
AcDbEntity
  8
1
 62
10
100
AcDbLine
 10
7.4695
 20
4.2934
 30
0.0400
 11
7.4604
 21
4.2956
 31
0.0400
  0
LINE
  5
30
100
AcDbEntity
  8
1
 62
10
100
AcDbLine
 10
7.4604
 20
4.2956
 30
0.0400
 11
7.4512
 21
4.2970
 31
0.0400
  0
LINE
  5
30
100
AcDbEntity
  8
1
 62
10
100
AcDbLine
 10
7.4512
 20
4.2970
 30
0.0400
 11
7.4419
 21
4.2977
 31
0.0400
  0
LINE
  5
30
100
AcDbEntity
  8
1
 62
10
100
AcDbLine
 10
7.4419
 20
4.2977
 30
0.0400
 11
7.4325
 21
4.2975
 31
0.0400
  0
LINE
  5
30
100
AcDbEntity
  8
1
 62
10
100
AcDbLine
 10
7.4325
 20
4.2975
 30
0.0400
 11
7.4232
 21
4.2964
 31
0.0400
  0
LINE
  5
30
100
AcDbEntity
  8
1
 62
10
100
AcDbLine
 10
7.4232
 20
4.2964
 30
0.0400
 11
7.4141
 21
4.2946
 31
0.0400
  0
LINE
  5
30
100
AcDbEntity
  8
1
 62
10
100
AcDbLine
 10
7.4141
 20
4.2946
 30
0.0400
 11
7.4051
 21
4.2920
 31
0.0400
  0
LINE
  5
30
100
AcDbEntity
  8
1
 62
10
100
AcDbLine
 10
7.4051
 20
4.2920
 30
0.0400
 11
7.3964
 21
4.2886
 31
0.0400
  0
LINE
  5
30
100
AcDbEntity
  8
1
 62
10
100
AcDbLine
 10
7.3964
 20
4.2886
 30
0.0400
 11
7.3880
 21
4.2845
 31
0.0400
  0
LINE
  5
30
100
AcDbEntity
  8
1
 62
10
100
AcDbLine
 10
7.3880
 20
4.2845
 30
0.0400
 11
7.3857
 21
4.2832
 31
0.0400
  0
LINE
  5
30
100
AcDbEntity
  8
1
 62
10
100
AcDbLine
 10
7.3857
 20
4.2832
 30
0.0400
 11
7.3550
 21
4.2623
 31
0.0400
  0
LINE
  5
30
100
AcDbEntity
  8
1
 62
10
100
AcDbLine
 10
7.3550
 20
4.2623
 30
0.0400
 11
7.3474
 21
4.2551
 31
0.0400
  0
LINE
  5
30
100
AcDbEntity
  8
1
 62
10
100
AcDbLine
 10
7.3474
 20
4.2551
 30
0.0400
 11
7.3406
 21
4.2472
 31
0.0400
  0
LINE
  5
30
100
AcDbEntity
  8
1
 62
10
100
AcDbLine
 10
7.3406
 20
4.2472
 30
0.0400
 11
7.3344
 21
4.2387
 31
0.0400
  0
LINE
  5
30
100
AcDbEntity
  8
1
 62
10
100
AcDbLine
 10
7.3344
 20
4.2387
 30
0.0400
 11
7.3290
 21
4.2298
 31
0.0400
  0
LINE
  5
30
100
AcDbEntity
  8
1
 62
10
100
AcDbLine
 10
7.3290
 20
4.2298
 30
0.0400
 11
7.3243
 21
4.2204
 31
0.0400
  0
LINE
  5
30
100
AcDbEntity
  8
1
 62
10
100
AcDbLine
 10
7.3243
 20
4.2204
 30
0.0400
 11
7.3206
 21
4.2106
 31
0.0400
  0
LINE
  5
30
100
AcDbEntity
  8
1
 62
10
100
AcDbLine
 10
7.3206
 20
4.2106
 30
0.0400
 11
7.3176
 21
4.2006
 31
0.0400
  0
LINE
  5
30
100
AcDbEntity
  8
1
 62
10
100
AcDbLine
 10
7.3176
 20
4.2006
 30
0.0400
 11
7.3156
 21
4.1903
 31
0.0400
  0
LINE
  5
30
100
AcDbEntity
  8
1
 62
10
100
AcDbLine
 10
7.3156
 20
4.1903
 30
0.0400
 11
7.3148
 21
4.1838
 31
0.0400
  0
LINE
  5
30
100
AcDbEntity
  8
1
 62
10
100
AcDbLine
 10
7.3148
 20
4.1838
 30
0.0400
 11
7.3147
 21
4.1834
 31
0.0400
  0
LINE
  5
30
100
AcDbEntity
  8
1
 62
10
100
AcDbLine
 10
7.3147
 20
4.1834
 30
0.0400
 11
7.3137
 21
4.1692
 31
0.0400
  0
LINE
  5
30
100
AcDbEntity
  8
1
 62
10
100
AcDbLine
 10
7.3137
 20
4.1692
 30
0.0400
 11
7.3139
 21
4.1550
 31
0.0400
  0
LINE
  5
30
100
AcDbEntity
  8
1
 62
10
100
AcDbLine
 10
7.3139
 20
4.1550
 30
0.0400
 11
7.3153
 21
4.1409
 31
0.0400
  0
LINE
  5
30
100
AcDbEntity
  8
1
 62
10
100
AcDbLine
 10
7.3153
 20
4.1409
 30
0.0400
 11
7.3180
 21
4.1269
 31
0.0400
  0
LINE
  5
30
100
AcDbEntity
  8
1
 62
10
100
AcDbLine
 10
7.3180
 20
4.1269
 30
0.0400
 11
7.3219
 21
4.1132
 31
0.0400
  0
LINE
  5
30
100
AcDbEntity
  8
1
 62
10
100
AcDbLine
 10
7.3219
 20
4.1132
 30
0.0400
 11
7.3269
 21
4.0999
 31
0.0400
  0
LINE
  5
30
100
AcDbEntity
  8
1
 62
10
100
AcDbLine
 10
7.3269
 20
4.0999
 30
0.0400
 11
7.3331
 21
4.0871
 31
0.0400
  0
LINE
  5
30
100
AcDbEntity
  8
1
 62
10
100
AcDbLine
 10
7.3331
 20
4.0871
 30
0.0400
 11
7.3404
 21
4.0749
 31
0.0400
  0
LINE
  5
30
100
AcDbEntity
  8
1
 62
10
100
AcDbLine
 10
7.3404
 20
4.0749
 30
0.0400
 11
7.3488
 21
4.0634
 31
0.0400
  0
LINE
  5
30
100
AcDbEntity
  8
1
 62
10
100
AcDbLine
 10
7.3488
 20
4.0634
 30
0.0400
 11
7.3581
 21
4.0526
 31
0.0400
  0
LINE
  5
30
100
AcDbEntity
  8
1
 62
10
100
AcDbLine
 10
7.3581
 20
4.0526
 30
0.0400
 11
7.3683
 21
4.0427
 31
0.0400
  0
LINE
  5
30
100
AcDbEntity
  8
1
 62
10
100
AcDbLine
 10
7.3683
 20
4.0427
 30
0.0400
 11
7.3793
 21
4.0337
 31
0.0400
  0
LINE
  5
30
100
AcDbEntity
  8
1
 62
10
100
AcDbLine
 10
7.3793
 20
4.0337
 30
0.0400
 11
7.3910
 21
4.0258
 31
0.0400
  0
LINE
  5
30
100
AcDbEntity
  8
1
 62
10
100
AcDbLine
 10
7.3910
 20
4.0258
 30
0.0400
 11
7.4035
 21
4.0188
 31
0.0400
  0
LINE
  5
30
100
AcDbEntity
  8
1
 62
10
100
AcDbLine
 10
7.4035
 20
4.0188
 30
0.0400
 11
7.4164
 21
4.0130
 31
0.0400
  0
LINE
  5
30
100
AcDbEntity
  8
1
 62
10
100
AcDbLine
 10
7.4164
 20
4.0130
 30
0.0400
 11
7.4299
 21
4.0083
 31
0.0400
  0
LINE
  5
30
100
AcDbEntity
  8
1
 62
10
100
AcDbLine
 10
7.4299
 20
4.0083
 30
0.0400
 11
7.4437
 21
4.0049
 31
0.0400
  0
LINE
  5
30
100
AcDbEntity
  8
1
 62
10
100
AcDbLine
 10
7.4437
 20
4.0049
 30
0.0400
 11
7.4476
 21
4.0041
 31
0.0400
  0
LINE
  5
30
100
AcDbEntity
  8
1
 62
10
100
AcDbLine
 10
7.4476
 20
4.0042
 30
0.0400
 11
7.4575
 21
4.0024
 31
0.0400
  0
LINE
  5
30
100
AcDbEntity
  8
1
 62
10
100
AcDbLine
 10
7.4575
 20
4.0024
 30
0.0400
 11
7.5044
 21
4.0004
 31
0.0400
  0
LINE
  5
30
100
AcDbEntity
  8
1
 62
10
100
AcDbLine
 10
7.5044
 20
4.0004
 30
0.0400
 11
7.5522
 21
4.0022
 31
0.0400
  0
LINE
  5
30
100
AcDbEntity
  8
1
 62
10
100
AcDbLine
 10
7.5522
 20
4.0022
 30
0.0400
 11
7.5570
 21
4.0027
 31
0.0400
  0
LINE
  5
30
100
AcDbEntity
  8
1
 62
10
100
AcDbLine
 10
7.5570
 20
4.0027
 30
0.0400
 11
7.5678
 21
4.0294
 31
0.0400
  0
LINE
  5
30
100
AcDbEntity
  8
1
 62
10
100
AcDbLine
 10
7.5678
 20
4.0294
 30
0.0400
 11
7.5762
 21
4.0569
 31
0.0400
  0
LINE
  5
30
100
AcDbEntity
  8
1
 62
10
100
AcDbLine
 10
7.5762
 20
4.0569
 30
0.0400
 11
7.5823
 21
4.0850
 31
0.0400
  0
LINE
  5
30
100
AcDbEntity
  8
1
 62
10
100
AcDbLine
 10
7.5823
 20
4.0850
 30
0.0400
 11
7.5858
 21
4.1136
 31
0.0400
  0
LINE
  5
30
100
AcDbEntity
  8
1
 62
10
100
AcDbLine
 10
7.5858
 20
4.1136
 30
0.0400
 11
7.5867
 21
4.1318
 31
0.0400
  0
LINE
  5
30
100
AcDbEntity
  8
1
 62
10
100
AcDbLine
 10
7.5867
 20
4.1318
 30
0.0400
 11
7.5868
 21
4.1330
 31
0.0400
  0
LINE
  5
30
100
AcDbEntity
  8
1
 62
10
100
AcDbLine
 10
7.5868
 20
4.1330
 30
0.0400
 11
7.5872
 21
4.1460
 31
0.0400
  0
LINE
  5
30
100
AcDbEntity
  8
1
 62
10
100
AcDbLine
 10
7.5872
 20
4.1460
 30
0.0400
 11
7.5866
 21
4.1590
 31
0.0400
  0
LINE
  5
30
100
AcDbEntity
  8
1
 62
10
100
AcDbLine
 10
7.5866
 20
4.1590
 30
0.0400
 11
7.5847
 21
4.1719
 31
0.0400
  0
LINE
  5
30
100
AcDbEntity
  8
1
 62
10
100
AcDbLine
 10
7.5847
 20
4.1719
 30
0.0400
 11
7.5818
 21
4.1845
 31
0.0400
  0
LINE
  5
30
100
AcDbEntity
  8
1
 62
10
100
AcDbLine
 10
7.5818
 20
4.1845
 30
0.0400
 11
7.5778
 21
4.1969
 31
0.0400
  0
LINE
  5
30
100
AcDbEntity
  8
1
 62
10
100
AcDbLine
 10
7.5778
 20
4.1969
 30
0.0400
 11
7.5727
 21
4.2089
 31
0.0400
  0
LINE
  5
30
100
AcDbEntity
  8
1
 62
10
100
AcDbLine
 10
7.5727
 20
4.2089
 30
0.0400
 11
7.5722
 21
4.2099
 31
0.0400
  0
LINE
  5
30
100
AcDbEntity
  8
1
 62
10
100
AcDbLine
 10
7.5722
 20
4.2099
 30
0.0400
 11
7.5660
 21
4.2213
 31
0.0400
  0
LINE
  5
30
100
AcDbEntity
  8
1
 62
10
100
AcDbLine
 10
7.5660
 20
4.2213
 30
0.0400
 11
7.5588
 21
4.2322
 31
0.0400
  0
LINE
  5
30
100
AcDbEntity
  8
1
 62
10
100
AcDbLine
 10
7.5588
 20
4.2322
 30
0.0400
 11
7.5507
 21
4.2424
 31
0.0400
  0
LINE
  5
30
100
AcDbEntity
  8
1
 62
10
100
AcDbLine
 10
7.5507
 20
4.2424
 30
0.0400
 11
7.5418
 21
4.2518
 31
0.0400
  0
LINE
  5
30
100
AcDbEntity
  8
1
 62
10
100
AcDbLine
 10
7.5418
 20
4.2518
 30
0.0400
 11
7.5320
 21
4.2604
 31
0.0400
  0
LINE
  5
30
100
AcDbEntity
  8
1
 62
10
100
AcDbLine
 10
7.5320
 20
4.2604
 30
0.0400
 11
7.5216
 21
4.2682
 31
0.0400
  0
LINE
  5
30
100
AcDbEntity
  8
1
 62
10
100
AcDbLine
 10
7.5216
 20
4.2682
 30
0.0400
 11
7.5212
 21
4.2684
 31
0.0400
  0
LINE
  5
30
100
AcDbEntity
  8
1
 62
10
100
AcDbLine
 10
7.5212
 20
4.2684
 30
0.0400
 11
7.4946
 21
4.2836
 31
0.0400
  0
LINE
  5
30
100
AcDbEntity
  8
1
 62
10
100
AcDbLine
 10
7.4946
 20
4.2836
 30
0.0400
 11
7.4695
 21
4.2934
 31
0.0400
  0
LINE
  5
30
100
AcDbEntity
  8
1
 62
10
100
AcDbLine
 10
7.4695
 20
4.2934
 30
0.0400
 11
7.4604
 21
4.2956
 31
0.0400
  0
LINE
  5
30
100
AcDbEntity
  8
1
 62
10
100
AcDbLine
 10
7.4604
 20
4.2956
 30
0.0400
 11
7.4512
 21
4.2970
 31
0.0400
  0
LINE
  5
30
100
AcDbEntity
  8
1
 62
10
100
AcDbLine
 10
7.4512
 20
4.2970
 30
0.0400
 11
7.4419
 21
4.2977
 31
0.0400
  0
LINE
  5
30
100
AcDbEntity
  8
1
 62
10
100
AcDbLine
 10
7.4419
 20
4.2977
 30
0.0400
 11
7.4325
 21
4.2975
 31
0.0400
  0
LINE
  5
30
100
AcDbEntity
  8
1
 62
10
100
AcDbLine
 10
7.4325
 20
4.2975
 30
0.0400
 11
7.4260
 21
4.2968
 31
0.0400
  0
LINE
  5
30
100
AcDbEntity
  8
1
 62
10
100
AcDbLine
 10
7.4260
 20
4.2968
 30
0.0400
 11
7.4166
 21
4.2932
 31
0.0400
  0
LINE
  5
30
100
AcDbEntity
  8
1
 62
10
100
AcDbLine
 10
7.4166
 20
4.2932
 30
0.0400
 11
7.4076
 21
4.2888
 31
0.0400
  0
LINE
  5
30
100
AcDbEntity
  8
1
 62
10
100
AcDbLine
 10
7.4076
 20
4.2888
 30
0.0400
 11
7.3990
 21
4.2836
 31
0.0400
  0
LINE
  5
30
100
AcDbEntity
  8
1
 62
10
100
AcDbLine
 10
7.3990
 20
4.2836
 30
0.0400
 11
7.3908
 21
4.2777
 31
0.0400
  0
LINE
  5
30
100
AcDbEntity
  8
1
 62
10
100
AcDbLine
 10
7.3908
 20
4.2777
 30
0.0400
 11
7.3832
 21
4.2711
 31
0.0400
  0
LINE
  5
30
100
AcDbEntity
  8
1
 62
10
100
AcDbLine
 10
7.3832
 20
4.2711
 30
0.0400
 11
7.3762
 21
4.2639
 31
0.0400
  0
LINE
  5
30
100
AcDbEntity
  8
1
 62
10
100
AcDbLine
 10
7.3762
 20
4.2639
 30
0.0400
 11
7.3699
 21
4.2561
 31
0.0400
  0
LINE
  5
30
100
AcDbEntity
  8
1
 62
10
100
AcDbLine
 10
7.3699
 20
4.2561
 30
0.0400
 11
7.3643
 21
4.2478
 31
0.0400
  0
LINE
  5
30
100
AcDbEntity
  8
1
 62
10
100
AcDbLine
 10
7.3643
 20
4.2478
 30
0.0400
 11
7.3594
 21
4.2390
 31
0.0400
  0
LINE
  5
30
100
AcDbEntity
  8
1
 62
10
100
AcDbLine
 10
7.3594
 20
4.2390
 30
0.0400
 11
7.3553
 21
4.2298
 31
0.0400
  0
LINE
  5
30
100
AcDbEntity
  8
1
 62
10
100
AcDbLine
 10
7.3553
 20
4.2298
 30
0.0400
 11
7.3520
 21
4.2203
 31
0.0400
  0
LINE
  5
30
100
AcDbEntity
  8
1
 62
10
100
AcDbLine
 10
7.3520
 20
4.2203
 30
0.0400
 11
7.3496
 21
4.2105
 31
0.0400
  0
LINE
  5
30
100
AcDbEntity
  8
1
 62
10
100
AcDbLine
 10
7.3496
 20
4.2105
 30
0.0400
 11
7.3480
 21
4.2006
 31
0.0400
  0
LINE
  5
30
100
AcDbEntity
  8
1
 62
10
100
AcDbLine
 10
7.3480
 20
4.2006
 30
0.0400
 11
7.3473
 21
4.1906
 31
0.0400
  0
LINE
  5
30
100
AcDbEntity
  8
1
 62
10
100
AcDbLine
 10
7.3473
 20
4.1906
 30
0.0400
 11
7.3475
 21
4.1805
 31
0.0400
  0
LINE
  5
30
100
AcDbEntity
  8
1
 62
10
100
AcDbLine
 10
7.3475
 20
4.1805
 30
0.0400
 11
7.3485
 21
4.1705
 31
0.0400
  0
LINE
  5
30
100
AcDbEntity
  8
1
 62
10
100
AcDbLine
 10
7.3485
 20
4.1705
 30
0.0400
 11
7.3504
 21
4.1607
 31
0.0400
  0
LINE
  5
30
100
AcDbEntity
  8
1
 62
10
100
AcDbLine
 10
7.3504
 20
4.1607
 30
0.0400
 11
7.3532
 21
4.1511
 31
0.0400
  0
LINE
  5
30
100
AcDbEntity
  8
1
 62
10
100
AcDbLine
 10
7.7652
 20
4.5202
 30
0.1180
 11
7.7652
 21
4.5202
 31
0.0400
  0
LINE
  5
30
100
AcDbEntity
  8
1
 62
10
100
AcDbLine
 10
7.7652
 20
4.5202
 30
0.0400
 11
7.7576
 21
4.5136
 31
0.0400
  0
LINE
  5
30
100
AcDbEntity
  8
1
 62
10
100
AcDbLine
 10
7.7576
 20
4.5136
 30
0.0400
 11
7.7506
 21
4.5064
 31
0.0400
  0
LINE
  5
30
100
AcDbEntity
  8
1
 62
10
100
AcDbLine
 10
7.7506
 20
4.5064
 30
0.0400
 11
7.7442
 21
4.4986
 31
0.0400
  0
LINE
  5
30
100
AcDbEntity
  8
1
 62
10
100
AcDbLine
 10
7.7442
 20
4.4986
 30
0.0400
 11
7.7386
 21
4.4903
 31
0.0400
  0
LINE
  5
30
100
AcDbEntity
  8
1
 62
10
100
AcDbLine
 10
7.7386
 20
4.4903
 30
0.0400
 11
7.7337
 21
4.4816
 31
0.0400
  0
LINE
  5
30
100
AcDbEntity
  8
1
 62
10
100
AcDbLine
 10
7.7337
 20
4.4816
 30
0.0400
 11
7.7296
 21
4.4724
 31
0.0400
  0
LINE
  5
30
100
AcDbEntity
  8
1
 62
10
100
AcDbLine
 10
7.7296
 20
4.4724
 30
0.0400
 11
7.7263
 21
4.4629
 31
0.0400
  0
LINE
  5
30
100
AcDbEntity
  8
1
 62
10
100
AcDbLine
 10
7.7263
 20
4.4629
 30
0.0400
 11
7.7238
 21
4.4532
 31
0.0400
  0
LINE
  5
30
100
AcDbEntity
  8
1
 62
10
100
AcDbLine
 10
7.7238
 20
4.4532
 30
0.0400
 11
7.7222
 21
4.4432
 31
0.0400
  0
LINE
  5
30
100
AcDbEntity
  8
1
 62
10
100
AcDbLine
 10
7.7222
 20
4.4432
 30
0.0400
 11
7.7215
 21
4.4332
 31
0.0400
  0
LINE
  5
30
100
AcDbEntity
  8
1
 62
10
100
AcDbLine
 10
7.7215
 20
4.4332
 30
0.0400
 11
7.7216
 21
4.4232
 31
0.0400
  0
LINE
  5
30
100
AcDbEntity
  8
1
 62
10
100
AcDbLine
 10
7.7216
 20
4.4232
 30
0.0400
 11
7.7226
 21
4.4132
 31
0.0400
  0
LINE
  5
30
100
AcDbEntity
  8
1
 62
10
100
AcDbLine
 10
7.7226
 20
4.4132
 30
0.0400
 11
7.7245
 21
4.4033
 31
0.0400
  0
LINE
  5
30
100
AcDbEntity
  8
1
 62
10
100
AcDbLine
 10
7.7245
 20
4.4033
 30
0.0400
 11
7.7272
 21
4.3936
 31
0.0400
  0
LINE
  5
30
100
AcDbEntity
  8
1
 62
10
100
AcDbLine
 10
7.7272
 20
4.3936
 30
0.0400
 11
7.7308
 21
4.3842
 31
0.0400
  0
LINE
  5
30
100
AcDbEntity
  8
1
 62
10
100
AcDbLine
 10
7.7308
 20
4.3842
 30
0.0400
 11
7.7352
 21
4.3752
 31
0.0400
  0
LINE
  5
30
100
AcDbEntity
  8
1
 62
10
100
AcDbLine
 10
7.7352
 20
4.3752
 30
0.0400
 11
7.7403
 21
4.3666
 31
0.0400
  0
LINE
  5
30
100
AcDbEntity
  8
1
 62
10
100
AcDbLine
 10
7.7403
 20
4.3666
 30
0.0400
 11
7.7462
 21
4.3584
 31
0.0400
  0
LINE
  5
30
100
AcDbEntity
  8
1
 62
10
100
AcDbLine
 10
7.7461
 20
4.3584
 30
0.0400
 11
7.7625
 21
4.3358
 31
0.0400
  0
LINE
  5
30
100
AcDbEntity
  8
1
 62
10
100
AcDbLine
 10
7.7625
 20
4.3358
 30
0.0400
 11
7.7789
 21
4.3090
 31
0.0400
  0
LINE
  5
30
100
AcDbEntity
  8
1
 62
10
100
AcDbLine
 10
7.7789
 20
4.3090
 30
0.0400
 11
7.7929
 21
4.2808
 31
0.0400
  0
LINE
  5
30
100
AcDbEntity
  8
1
 62
10
100
AcDbLine
 10
7.7929
 20
4.2808
 30
0.0400
 11
7.8043
 21
4.2514
 31
0.0400
  0
LINE
  5
30
100
AcDbEntity
  8
1
 62
10
100
AcDbLine
 10
7.8043
 20
4.2514
 30
0.0400
 11
7.8132
 21
4.2212
 31
0.0400
  0
LINE
  5
30
100
AcDbEntity
  8
1
 62
10
100
AcDbLine
 10
7.8132
 20
4.2212
 30
0.0400
 11
7.8194
 21
4.1904
 31
0.0400
  0
LINE
  5
30
100
AcDbEntity
  8
1
 62
10
100
AcDbLine
 10
7.8194
 20
4.1904
 30
0.0400
 11
7.8229
 21
4.1591
 31
0.0400
  0
LINE
  5
30
100
AcDbEntity
  8
1
 62
10
100
AcDbLine
 10
7.8229
 20
4.1591
 30
0.0400
 11
7.8261
 21
4.1058
 31
0.0400
  0
LINE
  5
30
100
AcDbEntity
  8
1
 62
10
100
AcDbLine
 10
7.8261
 20
4.1058
 30
0.0400
 11
7.8261
 21
4.1055
 31
0.0400
  0
LINE
  5
30
100
AcDbEntity
  8
1
 62
10
100
AcDbLine
 10
7.8261
 20
4.1055
 30
0.0400
 11
7.8261
 21
4.1035
 31
0.0400
  0
LINE
  5
30
100
AcDbEntity
  8
1
 62
10
100
AcDbLine
 10
7.8261
 20
4.1035
 30
0.0400
 11
7.8238
 21
4.0464
 31
0.0400
  0
LINE
  5
30
100
AcDbEntity
  8
1
 62
10
100
AcDbLine
 10
7.8238
 20
4.0464
 30
0.0400
 11
7.8237
 21
4.0446
 31
0.0400
  0
LINE
  5
30
100
AcDbEntity
  8
1
 62
10
100
AcDbLine
 10
7.8237
 20
4.0446
 30
0.0400
 11
7.8209
 21
4.0221
 31
0.0400
  0
LINE
  5
30
100
AcDbEntity
  8
1
 62
10
100
AcDbLine
 10
7.8209
 20
4.0221
 30
0.0400
 11
7.9270
 21
4.0419
 31
0.0400
  0
LINE
  5
30
100
AcDbEntity
  8
1
 62
10
100
AcDbLine
 10
7.9270
 20
4.0419
 30
0.0400
 11
7.9520
 21
4.0488
 31
0.0400
  0
LINE
  5
30
100
AcDbEntity
  8
1
 62
10
100
AcDbLine
 10
7.9520
 20
4.0488
 30
0.0400
 11
7.9906
 21
4.0632
 31
0.0400
  0
LINE
  5
30
100
AcDbEntity
  8
1
 62
10
100
AcDbLine
 10
7.9906
 20
4.0632
 30
0.0400
 11
8.0755
 21
4.1028
 31
0.0400
  0
LINE
  5
30
100
AcDbEntity
  8
1
 62
10
100
AcDbLine
 10
8.0755
 20
4.1028
 30
0.0400
 11
8.1397
 21
4.1432
 31
0.0400
  0
LINE
  5
30
100
AcDbEntity
  8
1
 62
10
100
AcDbLine
 10
8.1397
 20
4.1432
 30
0.0400
 11
8.1781
 21
4.1718
 31
0.0400
  0
LINE
  5
30
100
AcDbEntity
  8
1
 62
10
100
AcDbLine
 10
8.1781
 20
4.1718
 30
0.0400
 11
8.2095
 21
4.2016
 31
0.0400
  0
LINE
  5
30
100
AcDbEntity
  8
1
 62
10
100
AcDbLine
 10
8.2095
 20
4.2016
 30
0.0400
 11
8.2410
 21
4.2393
 31
0.0400
  0
LINE
  5
30
100
AcDbEntity
  8
1
 62
10
100
AcDbLine
 10
8.2410
 20
4.2393
 30
0.0400
 11
8.2700
 21
4.2784
 31
0.0400
  0
LINE
  5
30
100
AcDbEntity
  8
1
 62
10
100
AcDbLine
 10
8.2700
 20
4.2784
 30
0.0400
 11
8.2703
 21
4.2788
 31
0.0400
  0
LINE
  5
30
100
AcDbEntity
  8
1
 62
10
100
AcDbLine
 10
8.2703
 20
4.2788
 30
0.0400
 11
8.2716
 21
4.2803
 31
0.0400
  0
LINE
  5
30
100
AcDbEntity
  8
1
 62
10
100
AcDbLine
 10
8.2716
 20
4.2803
 30
0.0400
 11
8.2730
 21
4.2817
 31
0.0400
  0
LINE
  5
30
100
AcDbEntity
  8
1
 62
10
100
AcDbLine
 10
8.2730
 20
4.2817
 30
0.0400
 11
8.2804
 21
4.2884
 31
0.0400
  0
LINE
  5
30
100
AcDbEntity
  8
1
 62
10
100
AcDbLine
 10
8.2804
 20
4.2884
 30
0.0400
 11
8.2814
 21
4.2892
 31
0.0400
  0
LINE
  5
30
100
AcDbEntity
  8
1
 62
10
100
AcDbLine
 10
8.2814
 20
4.2892
 30
0.0400
 11
8.2830
 21
4.2904
 31
0.0400
  0
LINE
  5
30
100
AcDbEntity
  8
1
 62
10
100
AcDbLine
 10
8.2830
 20
4.2904
 30
0.0400
 11
8.2846
 21
4.2914
 31
0.0400
  0
LINE
  5
30
100
AcDbEntity
  8
1
 62
10
100
AcDbLine
 10
8.2846
 20
4.2914
 30
0.0400
 11
8.2864
 21
4.2923
 31
0.0400
  0
LINE
  5
30
100
AcDbEntity
  8
1
 62
10
100
AcDbLine
 10
8.2864
 20
4.2923
 30
0.0400
 11
8.2960
 21
4.2966
 31
0.0400
  0
LINE
  5
30
100
AcDbEntity
  8
1
 62
10
100
AcDbLine
 10
8.2960
 20
4.2966
 30
0.0400
 11
8.2962
 21
4.2967
 31
0.0400
  0
LINE
  5
30
100
AcDbEntity
  8
1
 62
10
100
AcDbLine
 10
8.2962
 20
4.2967
 30
0.0400
 11
8.2980
 21
4.2974
 31
0.0400
  0
LINE
  5
30
100
AcDbEntity
  8
1
 62
10
100
AcDbLine
 10
8.2980
 20
4.2974
 30
0.0400
 11
8.2999
 21
4.2979
 31
0.0400
  0
LINE
  5
30
100
AcDbEntity
  8
1
 62
10
100
AcDbLine
 10
8.2999
 20
4.2979
 30
0.0400
 11
8.3018
 21
4.2983
 31
0.0400
  0
LINE
  5
30
100
AcDbEntity
  8
1
 62
10
100
AcDbLine
 10
8.3018
 20
4.2983
 30
0.0400
 11
8.3038
 21
4.2985
 31
0.0400
  0
LINE
  5
30
100
AcDbEntity
  8
1
 62
10
100
AcDbLine
 10
8.3038
 20
4.2985
 30
0.0400
 11
8.3136
 21
4.2990
 31
0.0400
  0
LINE
  5
30
100
AcDbEntity
  8
1
 62
10
100
AcDbLine
 10
8.3136
 20
4.2990
 30
0.0400
 11
8.3137
 21
4.2990
 31
0.0400
  0
LINE
  5
30
100
AcDbEntity
  8
1
 62
10
100
AcDbLine
 10
8.3137
 20
4.2990
 30
0.0400
 11
8.3157
 21
4.2990
 31
0.0400
  0
LINE
  5
30
100
AcDbEntity
  8
1
 62
10
100
AcDbLine
 10
8.3157
 20
4.2990
 30
0.0400
 11
8.3176
 21
4.2989
 31
0.0400
  0
LINE
  5
30
100
AcDbEntity
  8
1
 62
10
100
AcDbLine
 10
8.3176
 20
4.2989
 30
0.0400
 11
8.3196
 21
4.2985
 31
0.0400
  0
LINE
  5
30
100
AcDbEntity
  8
1
 62
10
100
AcDbLine
 10
8.3196
 20
4.2985
 30
0.0400
 11
8.3215
 21
4.2981
 31
0.0400
  0
LINE
  5
30
100
AcDbEntity
  8
1
 62
10
100
AcDbLine
 10
8.3215
 20
4.2981
 30
0.0400
 11
8.3326
 21
4.2947
 31
0.0400
  0
LINE
  5
30
100
AcDbEntity
  8
1
 62
10
100
AcDbLine
 10
8.3326
 20
4.2947
 30
0.0400
 11
8.3343
 21
4.2941
 31
0.0400
  0
LINE
  5
30
100
AcDbEntity
  8
1
 62
10
100
AcDbLine
 10
8.3343
 20
4.2941
 30
0.0400
 11
8.3361
 21
4.2933
 31
0.0400
  0
LINE
  5
30
100
AcDbEntity
  8
1
 62
10
100
AcDbLine
 10
8.3361
 20
4.2933
 30
0.0400
 11
8.3378
 21
4.2923
 31
0.0400
  0
LINE
  5
30
100
AcDbEntity
  8
1
 62
10
100
AcDbLine
 10
8.3378
 20
4.2923
 30
0.0400
 11
8.3394
 21
4.2912
 31
0.0400
  0
LINE
  5
30
100
AcDbEntity
  8
1
 62
10
100
AcDbLine
 10
8.3394
 20
4.2912
 30
0.0400
 11
8.3488
 21
4.2842
 31
0.0400
  0
LINE
  5
30
100
AcDbEntity
  8
1
 62
10
100
AcDbLine
 10
8.3488
 20
4.2842
 30
0.0400
 11
8.3501
 21
4.2832
 31
0.0400
  0
LINE
  5
30
100
AcDbEntity
  8
1
 62
10
100
AcDbLine
 10
8.3501
 20
4.2832
 30
0.0400
 11
8.3515
 21
4.2818
 31
0.0400
  0
LINE
  5
30
100
AcDbEntity
  8
1
 62
10
100
AcDbLine
 10
8.3515
 20
4.2818
 30
0.0400
 11
8.3528
 21
4.2804
 31
0.0400
  0
LINE
  5
30
100
AcDbEntity
  8
1
 62
10
100
AcDbLine
 10
8.3528
 20
4.2804
 30
0.0400
 11
8.3540
 21
4.2788
 31
0.0400
  0
LINE
  5
30
100
AcDbEntity
  8
1
 62
10
100
AcDbLine
 10
8.3540
 20
4.2788
 30
0.0400
 11
8.3605
 21
4.2692
 31
0.0400
  0
LINE
  5
30
100
AcDbEntity
  8
1
 62
10
100
AcDbLine
 10
8.3605
 20
4.2692
 30
0.0400
 11
8.3608
 21
4.2687
 31
0.0400
  0
LINE
  5
30
100
AcDbEntity
  8
1
 62
10
100
AcDbLine
 10
8.3608
 20
4.2687
 30
0.0400
 11
8.3618
 21
4.2670
 31
0.0400
  0
LINE
  5
30
100
AcDbEntity
  8
1
 62
10
100
AcDbLine
 10
8.3618
 20
4.2670
 30
0.0400
 11
8.3626
 21
4.2652
 31
0.0400
  0
LINE
  5
30
100
AcDbEntity
  8
1
 62
10
100
AcDbLine
 10
8.3626
 20
4.2652
 30
0.0400
 11
8.3633
 21
4.2634
 31
0.0400
  0
LINE
  5
30
100
AcDbEntity
  8
1
 62
10
100
AcDbLine
 10
8.3633
 20
4.2634
 30
0.0400
 11
8.3638
 21
4.2615
 31
0.0400
  0
LINE
  5
30
100
AcDbEntity
  8
1
 62
10
100
AcDbLine
 10
8.3638
 20
4.2615
 30
0.0400
 11
8.3664
 21
4.2502
 31
0.0400
  0
LINE
  5
30
100
AcDbEntity
  8
1
 62
10
100
AcDbLine
 10
8.3664
 20
4.2502
 30
0.0400
 11
8.3667
 21
4.2485
 31
0.0400
  0
LINE
  5
30
100
AcDbEntity
  8
1
 62
10
100
AcDbLine
 10
8.3667
 20
4.2485
 30
0.0400
 11
8.3669
 21
4.2465
 31
0.0400
  0
LINE
  5
30
100
AcDbEntity
  8
1
 62
10
100
AcDbLine
 10
8.3669
 20
4.2465
 30
0.0400
 11
8.3670
 21
4.2446
 31
0.0400
  0
LINE
  5
30
100
AcDbEntity
  8
1
 62
10
100
AcDbLine
 10
8.3670
 20
4.2446
 30
0.0400
 11
8.3668
 21
4.2426
 31
0.0400
  0
LINE
  5
30
100
AcDbEntity
  8
1
 62
10
100
AcDbLine
 10
8.3668
 20
4.2426
 30
0.0400
 11
8.3665
 21
4.2407
 31
0.0400
  0
LINE
  5
30
100
AcDbEntity
  8
1
 62
10
100
AcDbLine
 10
8.3665
 20
4.2407
 30
0.0400
 11
8.3640
 21
4.2286
 31
0.0400
  0
LINE
  5
30
100
AcDbEntity
  8
1
 62
10
100
AcDbLine
 10
8.3640
 20
4.2286
 30
0.0400
 11
8.3639
 21
4.2283
 31
0.0400
  0
LINE
  5
30
100
AcDbEntity
  8
1
 62
10
100
AcDbLine
 10
8.3639
 20
4.2283
 30
0.0400
 11
8.3634
 21
4.2264
 31
0.0400
  0
LINE
  5
30
100
AcDbEntity
  8
1
 62
10
100
AcDbLine
 10
8.3634
 20
4.2264
 30
0.0400
 11
8.3628
 21
4.2245
 31
0.0400
  0
LINE
  5
30
100
AcDbEntity
  8
1
 62
10
100
AcDbLine
 10
8.3628
 20
4.2245
 30
0.0400
 11
8.3619
 21
4.2227
 31
0.0400
  0
LINE
  5
30
100
AcDbEntity
  8
1
 62
10
100
AcDbLine
 10
8.3619
 20
4.2227
 30
0.0400
 11
8.3610
 21
4.2210
 31
0.0400
  0
LINE
  5
30
100
AcDbEntity
  8
1
 62
10
100
AcDbLine
 10
8.3610
 20
4.2210
 30
0.0400
 11
8.3554
 21
4.2122
 31
0.0400
  0
LINE
  5
30
100
AcDbEntity
  8
1
 62
10
100
AcDbLine
 10
8.3554
 20
4.2122
 30
0.0400
 11
8.3544
 21
4.2107
 31
0.0400
  0
LINE
  5
30
100
AcDbEntity
  8
1
 62
10
100
AcDbLine
 10
8.3544
 20
4.2107
 30
0.0400
 11
8.3185
 21
4.1628
 31
0.0400
  0
LINE
  5
30
100
AcDbEntity
  8
1
 62
10
100
AcDbLine
 10
8.3185
 20
4.1628
 30
0.0400
 11
8.3181
 21
4.1623
 31
0.0400
  0
LINE
  5
30
100
AcDbEntity
  8
1
 62
10
100
AcDbLine
 10
8.3181
 20
4.1623
 30
0.0400
 11
8.2763
 21
4.1093
 31
0.0400
  0
LINE
  5
30
100
AcDbEntity
  8
1
 62
10
100
AcDbLine
 10
8.2763
 20
4.1093
 30
0.0400
 11
8.2762
 21
4.1092
 31
0.0400
  0
LINE
  5
30
100
AcDbEntity
  8
1
 62
10
100
AcDbLine
 10
8.2762
 20
4.1092
 30
0.0400
 11
8.2749
 21
4.1077
 31
0.0400
  0
LINE
  5
30
100
AcDbEntity
  8
1
 62
10
100
AcDbLine
 10
8.2749
 20
4.1077
 30
0.0400
 11
8.2463
 21
4.0777
 31
0.0400
  0
LINE
  5
30
100
AcDbEntity
  8
1
 62
10
100
AcDbLine
 10
8.2463
 20
4.0777
 30
0.0400
 11
8.2462
 21
4.0776
 31
0.0400
  0
LINE
  5
30
100
AcDbEntity
  8
1
 62
10
100
AcDbLine
 10
8.2462
 20
4.0776
 30
0.0400
 11
8.2447
 21
4.0763
 31
0.0400
  0
LINE
  5
30
100
AcDbEntity
  8
1
 62
10
100
AcDbLine
 10
8.2447
 20
4.0763
 30
0.0400
 11
8.2089
 21
4.0452
 31
0.0400
  0
LINE
  5
30
100
AcDbEntity
  8
1
 62
10
100
AcDbLine
 10
8.2089
 20
4.0452
 30
0.0400
 11
8.2075
 21
4.0441
 31
0.0400
  0
LINE
  5
30
100
AcDbEntity
  8
1
 62
10
100
AcDbLine
 10
8.2075
 20
4.0441
 30
0.0400
 11
8.1428
 21
3.9964
 31
0.0400
  0
LINE
  5
30
100
AcDbEntity
  8
1
 62
10
100
AcDbLine
 10
8.1428
 20
3.9964
 30
0.0400
 11
8.1422
 21
3.9959
 31
0.0400
  0
LINE
  5
30
100
AcDbEntity
  8
1
 62
10
100
AcDbLine
 10
8.1422
 20
3.9959
 30
0.0400
 11
8.1405
 21
3.9949
 31
0.0400
  0
LINE
  5
30
100
AcDbEntity
  8
1
 62
10
100
AcDbLine
 10
8.1405
 20
3.9949
 30
0.0400
 11
8.0694
 21
3.9548
 31
0.0400
  0
LINE
  5
30
100
AcDbEntity
  8
1
 62
10
100
AcDbLine
 10
8.0694
 20
3.9548
 30
0.0400
 11
8.0678
 21
3.9540
 31
0.0400
  0
LINE
  5
30
100
AcDbEntity
  8
1
 62
10
100
AcDbLine
 10
8.0678
 20
3.9540
 30
0.0400
 11
8.0092
 21
3.9267
 31
0.0400
  0
LINE
  5
30
100
AcDbEntity
  8
1
 62
10
100
AcDbLine
 10
8.0092
 20
3.9267
 30
0.0400
 11
8.0091
 21
3.9267
 31
0.0400
  0
LINE
  5
30
100
AcDbEntity
  8
1
 62
10
100
AcDbLine
 10
8.0091
 20
3.9267
 30
0.0400
 11
8.0073
 21
3.9260
 31
0.0400
  0
LINE
  5
30
100
AcDbEntity
  8
1
 62
10
100
AcDbLine
 10
8.0073
 20
3.9260
 30
0.0400
 11
7.9482
 21
3.9049
 31
0.0400
  0
LINE
  5
30
100
AcDbEntity
  8
1
 62
10
100
AcDbLine
 10
7.9482
 20
3.9049
 30
0.0400
 11
7.9482
 21
3.9049
 31
0.0400
  0
LINE
  5
30
100
AcDbEntity
  8
1
 62
10
100
AcDbLine
 10
7.9482
 20
3.9049
 30
0.0400
 11
7.9463
 21
3.9043
 31
0.0400
  0
LINE
  5
30
100
AcDbEntity
  8
1
 62
10
100
AcDbLine
 10
7.9463
 20
3.9043
 30
0.0400
 11
7.8826
 21
3.8878
 31
0.0400
  0
LINE
  5
30
100
AcDbEntity
  8
1
 62
10
100
AcDbLine
 10
7.8826
 20
3.8878
 30
0.0400
 11
7.8810
 21
3.8875
 31
0.0400
  0
LINE
  5
30
100
AcDbEntity
  8
1
 62
10
100
AcDbLine
 10
7.8810
 20
3.8875
 30
0.0400
 11
7.8084
 21
3.8742
 31
0.0400
  0
LINE
  5
30
100
AcDbEntity
  8
1
 62
10
100
AcDbLine
 10
7.8084
 20
3.8742
 30
0.0400
 11
7.8076
 21
3.8741
 31
0.0400
  0
LINE
  5
30
100
AcDbEntity
  8
1
 62
10
100
AcDbLine
 10
7.8076
 20
3.8741
 30
0.0400
 11
7.7778
 21
3.8698
 31
0.0400
  0
LINE
  5
30
100
AcDbEntity
  8
1
 62
10
100
AcDbLine
 10
7.7778
 20
3.8698
 30
0.0400
 11
7.7637
 21
3.8411
 31
0.0400
  0
LINE
  5
30
100
AcDbEntity
  8
1
 62
10
100
AcDbLine
 10
7.7637
 20
3.8411
 30
0.0400
 11
7.7296
 21
3.7816
 31
0.0400
  0
LINE
  5
30
100
AcDbEntity
  8
1
 62
10
100
AcDbLine
 10
7.7296
 20
3.7816
 30
0.0400
 11
7.6904
 21
3.7253
 31
0.0400
  0
LINE
  5
30
100
AcDbEntity
  8
1
 62
10
100
AcDbLine
 10
7.6904
 20
3.7253
 30
0.0400
 11
7.6465
 21
3.6726
 31
0.0400
  0
LINE
  5
30
100
AcDbEntity
  8
1
 62
10
100
AcDbLine
 10
7.6465
 20
3.6726
 30
0.0400
 11
7.5981
 21
3.6239
 31
0.0400
  0
LINE
  5
30
100
AcDbEntity
  8
1
 62
10
100
AcDbLine
 10
7.5981
 20
3.6239
 30
0.0400
 11
7.5457
 21
3.5796
 31
0.0400
  0
LINE
  5
30
100
AcDbEntity
  8
1
 62
10
100
AcDbLine
 10
7.5457
 20
3.5796
 30
0.0400
 11
7.4896
 21
3.5401
 31
0.0400
  0
LINE
  5
30
100
AcDbEntity
  8
1
 62
10
100
AcDbLine
 10
7.4896
 20
3.5401
 30
0.0400
 11
7.4303
 21
3.5056
 31
0.0400
  0
LINE
  5
30
100
AcDbEntity
  8
1
 62
10
100
AcDbLine
 10
7.4303
 20
3.5056
 30
0.0400
 11
7.3682
 21
3.4764
 31
0.0400
  0
LINE
  5
30
100
AcDbEntity
  8
1
 62
10
100
AcDbLine
 10
7.3682
 20
3.4764
 30
0.0400
 11
7.3038
 21
3.4527
 31
0.0400
  0
LINE
  5
30
100
AcDbEntity
  8
1
 62
10
100
AcDbLine
 10
7.3038
 20
3.4527
 30
0.0400
 11
7.2443
 21
3.4346
 31
0.0400
  0
LINE
  5
30
100
AcDbEntity
  8
1
 62
10
100
AcDbLine
 10
7.2443
 20
3.4346
 30
0.0400
 11
7.2429
 21
3.4342
 31
0.0400
  0
LINE
  5
30
100
AcDbEntity
  8
1
 62
10
100
AcDbLine
 10
7.2429
 20
3.4342
 30
0.0400
 11
7.1814
 21
3.4198
 31
0.0400
  0
LINE
  5
30
100
AcDbEntity
  8
1
 62
10
100
AcDbLine
 10
7.1814
 20
3.4198
 30
0.0400
 11
7.1797
 21
3.4195
 31
0.0400
  0
LINE
  5
30
100
AcDbEntity
  8
1
 62
10
100
AcDbLine
 10
7.1797
 20
3.4195
 30
0.0400
 11
7.1333
 21
3.4123
 31
0.0400
  0
LINE
  5
30
100
AcDbEntity
  8
1
 62
10
100
AcDbLine
 10
7.1333
 20
3.4123
 30
0.0400
 11
7.1360
 21
3.4093
 31
0.0400
  0
LINE
  5
30
100
AcDbEntity
  8
1
 62
10
100
AcDbLine
 10
7.1360
 20
3.4093
 30
0.0400
 11
7.1365
 21
3.4087
 31
0.0400
  0
LINE
  5
30
100
AcDbEntity
  8
1
 62
10
100
AcDbLine
 10
7.1365
 20
3.4087
 30
0.0400
 11
7.1377
 21
3.4072
 31
0.0400
  0
LINE
  5
30
100
AcDbEntity
  8
1
 62
10
100
AcDbLine
 10
7.1377
 20
3.4072
 30
0.0400
 11
7.1639
 21
3.3695
 31
0.0400
  0
LINE
  5
30
100
AcDbEntity
  8
1
 62
10
100
AcDbLine
 10
7.1639
 20
3.3695
 30
0.0400
 11
7.1641
 21
3.3692
 31
0.0400
  0
LINE
  5
30
100
AcDbEntity
  8
1
 62
10
100
AcDbLine
 10
7.1641
 20
3.3692
 30
0.0400
 11
7.1652
 21
3.3675
 31
0.0400
  0
LINE
  5
30
100
AcDbEntity
  8
1
 62
10
100
AcDbLine
 10
7.1652
 20
3.3675
 30
0.0400
 11
7.1871
 21
3.3274
 31
0.0400
  0
LINE
  5
30
100
AcDbEntity
  8
1
 62
10
100
AcDbLine
 10
7.1871
 20
3.3274
 30
0.0400
 11
7.1879
 21
3.3257
 31
0.0400
  0
LINE
  5
30
100
AcDbEntity
  8
1
 62
10
100
AcDbLine
 10
7.1879
 20
3.3257
 30
0.0400
 11
7.2064
 21
3.2838
 31
0.0400
  0
LINE
  5
30
100
AcDbEntity
  8
1
 62
10
100
AcDbLine
 10
7.2064
 20
3.2838
 30
0.0400
 11
7.2070
 21
3.2824
 31
0.0400
  0
LINE
  5
30
100
AcDbEntity
  8
1
 62
10
100
AcDbLine
 10
7.2070
 20
3.2824
 30
0.0400
 11
7.2228
 21
3.2390
 31
0.0400
  0
LINE
  5
30
100
AcDbEntity
  8
1
 62
10
100
AcDbLine
 10
7.2228
 20
3.2390
 30
0.0400
 11
7.2232
 21
3.2380
 31
0.0400
  0
LINE
  5
30
100
AcDbEntity
  8
1
 62
10
100
AcDbLine
 10
7.2232
 20
3.2380
 30
0.0400
 11
7.2449
 21
3.1676
 31
0.0400
  0
LINE
  5
30
100
AcDbEntity
  8
1
 62
10
100
AcDbLine
 10
7.2449
 20
3.1676
 30
0.0400
 11
7.2451
 21
3.1670
 31
0.0400
  0
LINE
  5
30
100
AcDbEntity
  8
1
 62
10
100
AcDbLine
 10
7.2451
 20
3.1670
 30
0.0400
 11
7.2471
 21
3.1595
 31
0.0400
  0
LINE
  5
30
100
AcDbEntity
  8
1
 62
10
100
AcDbLine
 10
7.2471
 20
3.1595
 30
0.0400
 11
7.2767
 21
3.0284
 31
0.0400
  0
LINE
  5
30
100
AcDbEntity
  8
1
 62
10
100
AcDbLine
 10
7.2767
 20
3.0284
 30
0.0400
 11
7.2947
 21
2.8951
 31
0.0400
  0
LINE
  5
30
100
AcDbEntity
  8
1
 62
10
100
AcDbLine
 10
7.2947
 20
2.8951
 30
0.0400
 11
7.3010
 21
2.7608
 31
0.0400
  0
LINE
  5
30
100
AcDbEntity
  8
1
 62
10
100
AcDbLine
 10
7.3010
 20
2.7608
 30
0.0400
 11
7.2956
 21
2.6264
 31
0.0400
  0
LINE
  5
30
100
AcDbEntity
  8
1
 62
10
100
AcDbLine
 10
7.2956
 20
2.6264
 30
0.0400
 11
7.2785
 21
2.4931
 31
0.0400
  0
LINE
  5
30
100
AcDbEntity
  8
1
 62
10
100
AcDbLine
 10
7.2785
 20
2.4931
 30
0.0400
 11
7.2498
 21
2.3617
 31
0.0400
  0
LINE
  5
30
100
AcDbEntity
  8
1
 62
10
100
AcDbLine
 10
7.2498
 20
2.3617
 30
0.0400
 11
7.2437
 21
2.3385
 31
0.0400
  0
LINE
  5
30
100
AcDbEntity
  8
1
 62
10
100
AcDbLine
 10
7.2437
 20
2.3385
 30
0.0400
 11
7.2436
 21
2.3380
 31
0.0400
  0
LINE
  5
30
100
AcDbEntity
  8
1
 62
10
100
AcDbLine
 10
7.2436
 20
2.3380
 30
0.0400
 11
7.2271
 21
2.2801
 31
0.0400
  0
LINE
  5
30
100
AcDbEntity
  8
1
 62
10
100
AcDbLine
 10
7.2271
 20
2.2801
 30
0.0400
 11
7.2270
 21
2.2796
 31
0.0400
  0
LINE
  5
30
100
AcDbEntity
  8
1
 62
10
100
AcDbLine
 10
7.2270
 20
2.2796
 30
0.0400
 11
7.2095
 21
2.2269
 31
0.0400
  0
LINE
  5
30
100
AcDbEntity
  8
1
 62
10
100
AcDbLine
 10
7.2095
 20
2.2269
 30
0.0400
 11
7.1651
 21
2.1170
 31
0.0400
  0
LINE
  5
30
100
AcDbEntity
  8
1
 62
10
100
AcDbLine
 10
7.1651
 20
2.1170
 30
0.0400
 11
7.1113
 21
2.0113
 31
0.0400
  0
LINE
  5
30
100
AcDbEntity
  8
1
 62
10
100
AcDbLine
 10
7.1113
 20
2.0113
 30
0.0400
 11
7.0484
 21
1.9107
 31
0.0400
  0
LINE
  5
30
100
AcDbEntity
  8
1
 62
10
100
AcDbLine
 10
7.0484
 20
1.9107
 30
0.0400
 11
6.9770
 21
1.8160
 31
0.0400
  0
LINE
  5
30
100
AcDbEntity
  8
1
 62
10
100
AcDbLine
 10
6.9770
 20
1.8160
 30
0.0400
 11
6.8976
 21
1.7279
 31
0.0400
  0
LINE
  5
30
100
AcDbEntity
  8
1
 62
10
100
AcDbLine
 10
6.8976
 20
1.7279
 30
0.0400
 11
6.8128
 21
1.6362
 31
0.0400
  0
LINE
  5
30
100
AcDbEntity
  8
1
 62
10
100
AcDbLine
 10
6.8128
 20
1.6362
 30
0.0400
 11
6.8122
 21
1.6356
 31
0.0400
  0
LINE
  5
30
100
AcDbEntity
  8
1
 62
10
100
AcDbLine
 10
6.8122
 20
1.6356
 30
0.0400
 11
6.7703
 21
1.5897
 31
0.0400
  0
LINE
  5
30
100
AcDbEntity
  8
1
 62
10
100
AcDbLine
 10
6.7703
 20
1.5897
 30
0.0400
 11
6.7327
 21
1.5404
 31
0.0400
  0
LINE
  5
30
100
AcDbEntity
  8
1
 62
10
100
AcDbLine
 10
6.7327
 20
1.5404
 30
0.0400
 11
6.6994
 21
1.4879
 31
0.0400
  0
LINE
  5
30
100
AcDbEntity
  8
1
 62
10
100
AcDbLine
 10
6.6994
 20
1.4879
 30
0.0400
 11
6.6709
 21
1.4328
 31
0.0400
  0
LINE
  5
30
100
AcDbEntity
  8
1
 62
10
100
AcDbLine
 10
6.6709
 20
1.4328
 30
0.0400
 11
6.6472
 21
1.3754
 31
0.0400
  0
LINE
  5
30
100
AcDbEntity
  8
1
 62
10
100
AcDbLine
 10
6.6472
 20
1.3754
 30
0.0400
 11
6.6287
 21
1.3161
 31
0.0400
  0
LINE
  5
30
100
AcDbEntity
  8
1
 62
10
100
AcDbLine
 10
6.6287
 20
1.3161
 30
0.0400
 11
6.6154
 21
1.2555
 31
0.0400
  0
LINE
  5
30
100
AcDbEntity
  8
1
 62
10
100
AcDbLine
 10
6.6154
 20
1.2555
 30
0.0400
 11
6.6074
 21
1.1939
 31
0.0400
  0
LINE
  5
30
100
AcDbEntity
  8
1
 62
10
100
AcDbLine
 10
6.6074
 20
1.1939
 30
0.0400
 11
6.6065
 21
1.1815
 31
0.0400
  0
LINE
  5
30
100
AcDbEntity
  8
1
 62
10
100
AcDbLine
 10
6.6065
 20
1.1815
 30
0.0400
 11
6.6065
 21
1.1811
 31
0.0400
  0
LINE
  5
30
100
AcDbEntity
  8
1
 62
10
100
AcDbLine
 10
6.6065
 20
1.1811
 30
0.0400
 11
6.5994
 21
1.0994
 31
0.0400
  0
LINE
  5
30
100
AcDbEntity
  8
1
 62
10
100
AcDbLine
 10
6.5994
 20
1.0994
 30
0.0400
 11
6.5993
 21
1.0987
 31
0.0400
  0
LINE
  5
30
100
AcDbEntity
  8
1
 62
10
100
AcDbLine
 10
6.5993
 20
1.0987
 30
0.0400
 11
6.5908
 21
1.0425
 31
0.0400
  0
LINE
  5
30
100
AcDbEntity
  8
1
 62
10
100
AcDbLine
 10
6.5908
 20
1.0425
 30
0.0400
 11
6.5732
 21
0.9651
 31
0.0400
  0
LINE
  5
30
100
AcDbEntity
  8
1
 62
10
100
AcDbLine
 10
6.5732
 20
0.9651
 30
0.0400
 11
6.5488
 21
0.8895
 31
0.0400
  0
LINE
  5
30
100
AcDbEntity
  8
1
 62
10
100
AcDbLine
 10
6.5488
 20
0.8895
 30
0.0400
 11
6.5180
 21
0.8164
 31
0.0400
  0
LINE
  5
30
100
AcDbEntity
  8
1
 62
10
100
AcDbLine
 10
6.5180
 20
0.8164
 30
0.0400
 11
6.4809
 21
0.7462
 31
0.0400
  0
LINE
  5
30
100
AcDbEntity
  8
1
 62
10
100
AcDbLine
 10
6.4809
 20
0.7462
 30
0.0400
 11
6.4378
 21
0.6795
 31
0.0400
  0
LINE
  5
30
100
AcDbEntity
  8
1
 62
10
100
AcDbLine
 10
6.4378
 20
0.6795
 30
0.0400
 11
6.3891
 21
0.6168
 31
0.0400
  0
LINE
  5
30
100
AcDbEntity
  8
1
 62
10
100
AcDbLine
 10
6.3891
 20
0.6168
 30
0.0400
 11
6.3598
 21
0.5791
 31
0.0400
  0
LINE
  5
30
100
AcDbEntity
  8
1
 62
10
100
AcDbLine
 10
6.3598
 20
0.5791
 30
0.0400
 11
6.3348
 21
0.5402
 31
0.0400
  0
LINE
  5
30
100
AcDbEntity
  8
1
 62
10
100
AcDbLine
 10
6.3348
 20
0.5402
 30
0.0400
 11
6.3254
 21
0.5224
 31
0.0400
  0
LINE
  5
30
100
AcDbEntity
  8
1
 62
10
100
AcDbLine
 10
6.3254
 20
0.5224
 30
0.0400
 11
6.3176
 21
0.5038
 31
0.0400
  0
LINE
  5
30
100
AcDbEntity
  8
1
 62
10
100
AcDbLine
 10
6.3176
 20
0.5038
 30
0.0400
 11
6.3114
 21
0.4847
 31
0.0400
  0
LINE
  5
30
100
AcDbEntity
  8
1
 62
10
100
AcDbLine
 10
6.3114
 20
0.4847
 30
0.0400
 11
6.3070
 21
0.4650
 31
0.0400
  0
LINE
  5
30
100
AcDbEntity
  8
1
 62
10
100
AcDbLine
 10
6.3070
 20
0.4650
 30
0.0400
 11
6.3042
 21
0.4451
 31
0.0400
  0
LINE
  5
30
100
AcDbEntity
  8
1
 62
10
100
AcDbLine
 10
6.3042
 20
0.4451
 30
0.0400
 11
6.3032
 21
0.4250
 31
0.0400
  0
LINE
  5
30
100
AcDbEntity
  8
1
 62
10
100
AcDbLine
 10
6.3032
 20
0.4250
 30
0.0400
 11
6.3034
 21
0.4146
 31
0.0400
  0
LINE
  5
30
100
AcDbEntity
  8
1
 62
10
100
AcDbLine
 10
6.3034
 20
0.4146
 30
0.0400
 11
6.3035
 21
0.4102
 31
0.0400
  0
LINE
  5
30
100
AcDbEntity
  8
1
 62
10
100
AcDbLine
 10
6.3035
 20
0.4102
 30
0.0400
 11
6.3030
 21
0.3963
 31
0.0400
  0
LINE
  5
30
100
AcDbEntity
  8
1
 62
10
100
AcDbLine
 10
6.3030
 20
0.3963
 30
0.0400
 11
6.3013
 21
0.3825
 31
0.0400
  0
LINE
  5
30
100
AcDbEntity
  8
1
 62
10
100
AcDbLine
 10
6.3013
 20
0.3825
 30
0.0400
 11
6.2985
 21
0.3689
 31
0.0400
  0
LINE
  5
30
100
AcDbEntity
  8
1
 62
10
100
AcDbLine
 10
6.2985
 20
0.3689
 30
0.0400
 11
6.2944
 21
0.3556
 31
0.0400
  0
LINE
  5
30
100
AcDbEntity
  8
1
 62
10
100
AcDbLine
 10
6.2944
 20
0.3556
 30
0.0400
 11
6.2892
 21
0.3427
 31
0.0400
  0
LINE
  5
30
100
AcDbEntity
  8
1
 62
10
100
AcDbLine
 10
6.2892
 20
0.3427
 30
0.0400
 11
6.2829
 21
0.3303
 31
0.0400
  0
LINE
  5
30
100
AcDbEntity
  8
1
 62
10
100
AcDbLine
 10
6.2829
 20
0.3303
 30
0.0400
 11
6.2755
 21
0.3185
 31
0.0400
  0
LINE
  5
30
100
AcDbEntity
  8
1
 62
10
100
AcDbLine
 10
6.2755
 20
0.3185
 30
0.0400
 11
6.2672
 21
0.3074
 31
0.0400
  0
LINE
  5
30
100
AcDbEntity
  8
1
 62
10
100
AcDbLine
 10
6.2672
 20
0.3074
 30
0.0400
 11
6.2579
 21
0.2970
 31
0.0400
  0
LINE
  5
30
100
AcDbEntity
  8
1
 62
10
100
AcDbLine
 10
6.2579
 20
0.2970
 30
0.0400
 11
6.2574
 21
0.2965
 31
0.0400
  0
LINE
  5
30
100
AcDbEntity
  8
1
 62
10
100
AcDbLine
 10
6.2574
 20
0.2965
 30
0.0400
 11
6.2170
 21
0.2578
 31
0.0400
  0
LINE
  5
30
100
AcDbEntity
  8
1
 62
10
100
AcDbLine
 10
6.2170
 20
0.2578
 30
0.0400
 11
6.2021
 21
0.2385
 31
0.0400
  0
LINE
  5
30
100
AcDbEntity
  8
1
 62
10
100
AcDbLine
 10
6.2021
 20
0.2385
 30
0.0400
 11
6.1896
 21
0.2167
 31
0.0400
  0
LINE
  5
30
100
AcDbEntity
  8
1
 62
10
100
AcDbLine
 10
6.1896
 20
0.2167
 30
0.0400
 11
6.1697
 21
0.1736
 31
0.0400
  0
LINE
  5
30
100
AcDbEntity
  8
1
 62
10
100
AcDbLine
 10
6.1697
 20
0.1736
 30
0.0400
 11
6.1691
 21
0.1723
 31
0.0400
  0
LINE
  5
30
100
AcDbEntity
  8
1
 62
10
100
AcDbLine
 10
6.1691
 20
0.1723
 30
0.0400
 11
6.1580
 21
0.1534
 31
0.0400
  0
LINE
  5
30
100
AcDbEntity
  8
1
 62
10
100
AcDbLine
 10
6.1580
 20
0.1534
 30
0.0400
 11
6.1415
 21
0.1296
 31
0.0400
  0
LINE
  5
30
100
AcDbEntity
  8
1
 62
10
100
AcDbLine
 10
6.1415
 20
0.1296
 30
0.0400
 11
6.1229
 21
0.1073
 31
0.0400
  0
LINE
  5
30
100
AcDbEntity
  8
1
 62
10
100
AcDbLine
 10
6.1229
 20
0.1073
 30
0.0400
 11
6.1025
 21
0.0867
 31
0.0400
  0
LINE
  5
30
100
AcDbEntity
  8
1
 62
10
100
AcDbLine
 10
6.1025
 20
0.0867
 30
0.0400
 11
6.0804
 21
0.0680
 31
0.0400
  0
LINE
  5
30
100
AcDbEntity
  8
1
 62
10
100
AcDbLine
 10
6.0804
 20
0.0680
 30
0.0400
 11
6.0567
 21
0.0513
 31
0.0400
  0
LINE
  5
30
100
AcDbEntity
  8
1
 62
10
100
AcDbLine
 10
6.0567
 20
0.0513
 30
0.0400
 11
6.0317
 21
0.0367
 31
0.0400
  0
LINE
  5
30
100
AcDbEntity
  8
1
 62
10
100
AcDbLine
 10
6.0317
 20
0.0367
 30
0.0400
 11
6.0055
 21
0.0243
 31
0.0400
  0
LINE
  5
30
100
AcDbEntity
  8
1
 62
10
100
AcDbLine
 10
6.0055
 20
0.0243
 30
0.0400
 11
5.9783
 21
0.0143
 31
0.0400
  0
LINE
  5
30
100
AcDbEntity
  8
1
 62
10
100
AcDbLine
 10
5.9783
 20
0.0143
 30
0.0400
 11
5.9604
 21
0.0086
 31
0.0400
  0
LINE
  5
30
100
AcDbEntity
  8
1
 62
10
100
AcDbLine
 10
5.9604
 20
0.0086
 30
0.0400
 11
5.9598
 21
0.0085
 31
0.0400
  0
LINE
  5
30
100
AcDbEntity
  8
1
 62
10
100
AcDbLine
 10
5.9598
 20
0.0085
 30
0.0400
 11
5.9180
 21
-0.0037
 31
0.0400
  0
LINE
  5
30
100
AcDbEntity
  8
1
 62
10
100
AcDbLine
 10
5.9180
 20
-0.0037
 30
0.0400
 11
5.9172
 21
-0.0039
 31
0.0400
  0
LINE
  5
30
100
AcDbEntity
  8
1
 62
10
100
AcDbLine
 10
5.9172
 20
-0.0039
 30
0.0400
 11
5.8537
 21
-0.0197
 31
0.0400
  0
LINE
  5
30
100
AcDbEntity
  8
1
 62
10
100
AcDbLine
 10
5.8537
 20
-0.0197
 30
0.0400
 11
5.8527
 21
-0.0199
 31
0.0400
  0
LINE
  5
30
100
AcDbEntity
  8
1
 62
10
100
AcDbLine
 10
5.8527
 20
-0.0199
 30
0.0400
 11
5.8508
 21
-0.0202
 31
0.0400
  0
LINE
  5
30
100
AcDbEntity
  8
1
 62
10
100
AcDbLine
 10
5.8508
 20
-0.0202
 30
0.0400
 11
5.8324
 21
-0.0224
 31
0.0400
  0
LINE
  5
30
100
AcDbEntity
  8
1
 62
10
100
AcDbLine
 10
5.8324
 20
-0.0224
 30
0.0400
 11
5.8310
 21
-0.0225
 31
0.0400
  0
LINE
  5
30
100
AcDbEntity
  8
1
 62
10
100
AcDbLine
 10
5.8310
 20
-0.0225
 30
0.0400
 11
5.8290
 21
-0.0225
 31
0.0400
  0
LINE
  5
30
100
AcDbEntity
  8
1
 62
10
100
AcDbLine
 10
5.8290
 20
-0.0225
 30
0.0400
 11
5.8270
 21
-0.0224
 31
0.0400
  0
LINE
  5
30
100
AcDbEntity
  8
1
 62
10
100
AcDbLine
 10
5.8270
 20
-0.0224
 30
0.0400
 11
5.8251
 21
-0.0220
 31
0.0400
  0
LINE
  5
30
100
AcDbEntity
  8
1
 62
10
100
AcDbLine
 10
5.8251
 20
-0.0220
 30
0.0400
 11
5.8125
 21
-0.0193
 31
0.0400
  0
LINE
  5
30
100
AcDbEntity
  8
1
 62
10
100
AcDbLine
 10
5.8125
 20
-0.0193
 30
0.0400
 11
5.8116
 21
-0.0191
 31
0.0400
  0
LINE
  5
30
100
AcDbEntity
  8
1
 62
10
100
AcDbLine
 10
5.8116
 20
-0.0191
 30
0.0400
 11
5.8097
 21
-0.0185
 31
0.0400
  0
LINE
  5
30
100
AcDbEntity
  8
1
 62
10
100
AcDbLine
 10
5.8097
 20
-0.0185
 30
0.0400
 11
5.8079
 21
-0.0178
 31
0.0400
  0
LINE
  5
30
100
AcDbEntity
  8
1
 62
10
100
AcDbLine
 10
5.8079
 20
-0.0178
 30
0.0400
 11
5.8061
 21
-0.0169
 31
0.0400
  0
LINE
  5
30
100
AcDbEntity
  8
1
 62
10
100
AcDbLine
 10
5.8061
 20
-0.0169
 30
0.0400
 11
5.8045
 21
-0.0158
 31
0.0400
  0
LINE
  5
30
100
AcDbEntity
  8
1
 62
10
100
AcDbLine
 10
5.8045
 20
-0.0158
 30
0.0400
 11
5.8029
 21
-0.0147
 31
0.0400
  0
LINE
  5
30
100
AcDbEntity
  8
1
 62
10
100
AcDbLine
 10
5.8029
 20
-0.0147
 30
0.0400
 11
5.8015
 21
-0.0133
 31
0.0400
  0
LINE
  5
30
100
AcDbEntity
  8
1
 62
10
100
AcDbLine
 10
5.8015
 20
-0.0133
 30
0.0400
 11
5.7954
 21
-0.0074
 31
0.0400
  0
LINE
  5
30
100
AcDbEntity
  8
1
 62
10
100
AcDbLine
 10
5.7954
 20
-0.0074
 30
0.0400
 11
5.7947
 21
-0.0067
 31
0.0400
  0
LINE
  5
30
100
AcDbEntity
  8
1
 62
10
100
AcDbLine
 10
5.7947
 20
-0.0067
 30
0.0400
 11
5.7934
 21
-0.0052
 31
0.0400
  0
LINE
  5
30
100
AcDbEntity
  8
1
 62
10
100
AcDbLine
 10
5.7934
 20
-0.0052
 30
0.0400
 11
5.7923
 21
-0.0036
 31
0.0400
  0
LINE
  5
30
100
AcDbEntity
  8
1
 62
10
100
AcDbLine
 10
5.7923
 20
-0.0036
 30
0.0400
 11
5.7913
 21
-0.0019
 31
0.0400
  0
LINE
  5
30
100
AcDbEntity
  8
1
 62
10
100
AcDbLine
 10
5.7913
 20
-0.0019
 30
0.0400
 11
5.7905
 21
-0.0001
 31
0.0400
  0
LINE
  5
30
100
AcDbEntity
  8
1
 62
10
100
AcDbLine
 10
5.7905
 20
-0.0001
 30
0.0400
 11
5.7898
 21
0.0017
 31
0.0400
  0
LINE
  5
30
100
AcDbEntity
  8
1
 62
10
100
AcDbLine
 10
5.7898
 20
0.0017
 30
0.0400
 11
5.7893
 21
0.0036
 31
0.0400
  0
LINE
  5
30
100
AcDbEntity
  8
1
 62
10
100
AcDbLine
 10
5.7893
 20
0.0036
 30
0.0400
 11
5.7871
 21
0.0131
 31
0.0400
  0
LINE
  5
30
100
AcDbEntity
  8
1
 62
10
100
AcDbLine
 10
5.7871
 20
0.0131
 30
0.0400
 11
5.7871
 21
0.0132
 31
0.0400
  0
LINE
  5
30
100
AcDbEntity
  8
1
 62
10
100
AcDbLine
 10
5.7871
 20
0.0132
 30
0.0400
 11
5.7867
 21
0.0151
 31
0.0400
  0
LINE
  5
30
100
AcDbEntity
  8
1
 62
10
100
AcDbLine
 10
5.7867
 20
0.0151
 30
0.0400
 11
5.7866
 21
0.0171
 31
0.0400
  0
LINE
  5
30
100
AcDbEntity
  8
1
 62
10
100
AcDbLine
 10
5.7866
 20
0.0171
 30
0.0400
 11
5.7866
 21
0.0190
 31
0.0400
  0
LINE
  5
30
100
AcDbEntity
  8
1
 62
10
100
AcDbLine
 10
5.7866
 20
0.0190
 30
0.0400
 11
5.7867
 21
0.0210
 31
0.0400
  0
LINE
  5
30
100
AcDbEntity
  8
1
 62
10
100
AcDbLine
 10
5.7867
 20
0.0210
 30
0.0400
 11
5.7884
 21
0.0340
 31
0.0400
  0
LINE
  5
30
100
AcDbEntity
  8
1
 62
10
100
AcDbLine
 10
5.7884
 20
0.0340
 30
0.0400
 11
5.7887
 21
0.0357
 31
0.0400
  0
LINE
  5
30
100
AcDbEntity
  8
1
 62
10
100
AcDbLine
 10
5.7887
 20
0.0357
 30
0.0400
 11
5.7892
 21
0.0376
 31
0.0400
  0
LINE
  5
30
100
AcDbEntity
  8
1
 62
10
100
AcDbLine
 10
5.7892
 20
0.0376
 30
0.0400
 11
5.7922
 21
0.0476
 31
0.0400
  0
LINE
  5
30
100
AcDbEntity
  8
1
 62
10
100
AcDbLine
 10
5.7922
 20
0.0476
 30
0.0400
 11
5.7925
 21
0.0485
 31
0.0400
  0
LINE
  5
30
100
AcDbEntity
  8
1
 62
10
100
AcDbLine
 10
5.7925
 20
0.0485
 30
0.0400
 11
5.7932
 21
0.0503
 31
0.0400
  0
LINE
  5
30
100
AcDbEntity
  8
1
 62
10
100
AcDbLine
 10
5.7932
 20
0.0503
 30
0.0400
 11
5.8091
 21
0.0854
 31
0.0400
  0
LINE
  5
30
100
AcDbEntity
  8
1
 62
10
100
AcDbLine
 10
5.8091
 20
0.0854
 30
0.0400
 11
5.8099
 21
0.0871
 31
0.0400
  0
LINE
  5
30
100
AcDbEntity
  8
1
 62
10
100
AcDbLine
 10
5.8099
 20
0.0871
 30
0.0400
 11
5.8287
 21
0.1207
 31
0.0400
  0
LINE
  5
30
100
AcDbEntity
  8
1
 62
10
100
AcDbLine
 10
5.8287
 20
0.1207
 30
0.0400
 11
5.8294
 21
0.1218
 31
0.0400
  0
LINE
  5
30
100
AcDbEntity
  8
1
 62
10
100
AcDbLine
 10
5.8294
 20
0.1218
 30
0.0400
 11
5.8377
 21
0.1348
 31
0.0400
  0
LINE
  5
30
100
AcDbEntity
  8
1
 62
10
100
AcDbLine
 10
5.8377
 20
0.1348
 30
0.0400
 11
5.9072
 21
0.2466
 31
0.0400
  0
LINE
  5
30
100
AcDbEntity
  8
1
 62
10
100
AcDbLine
 10
5.9072
 20
0.2466
 30
0.0400
 11
5.9648
 21
0.3459
 31
0.0400
  0
LINE
  5
30
100
AcDbEntity
  8
1
 62
10
100
AcDbLine
 10
5.9648
 20
0.3459
 30
0.0400
 11
6.0025
 21
0.4191
 31
0.0400
  0
LINE
  5
30
100
AcDbEntity
  8
1
 62
10
100
AcDbLine
 10
6.0025
 20
0.4191
 30
0.0400
 11
6.0395
 21
0.5029
 31
0.0400
  0
LINE
  5
30
100
AcDbEntity
  8
1
 62
10
100
AcDbLine
 10
6.0395
 20
0.5029
 30
0.0400
 11
6.0691
 21
0.5896
 31
0.0400
  0
LINE
  5
30
100
AcDbEntity
  8
1
 62
10
100
AcDbLine
 10
6.0691
 20
0.5896
 30
0.0400
 11
6.0910
 21
0.6786
 31
0.0400
  0
LINE
  5
30
100
AcDbEntity
  8
1
 62
10
100
AcDbLine
 10
6.0910
 20
0.6786
 30
0.0400
 11
6.1050
 21
0.7692
 31
0.0400
  0
LINE
  5
30
100
AcDbEntity
  8
1
 62
10
100
AcDbLine
 10
6.1050
 20
0.7692
 30
0.0400
 11
6.1111
 21
0.8606
 31
0.0400
  0
LINE
  5
30
100
AcDbEntity
  8
1
 62
10
100
AcDbLine
 10
6.1111
 20
0.8606
 30
0.0400
 11
6.1112
 21
0.8674
 31
0.0400
  0
LINE
  5
30
100
AcDbEntity
  8
1
 62
10
100
AcDbLine
 10
6.1112
 20
0.8674
 30
0.0400
 11
6.1097
 21
0.8834
 31
0.0400
  0
LINE
  5
30
100
AcDbEntity
  8
1
 62
10
100
AcDbLine
 10
6.1097
 20
0.8834
 30
0.0400
 11
6.1070
 21
0.8907
 31
0.0400
  0
LINE
  5
30
100
AcDbEntity
  8
1
 62
10
100
AcDbLine
 10
6.1070
 20
0.8907
 30
0.0400
 11
6.1062
 21
0.8915
 31
0.0400
  0
LINE
  5
30
100
AcDbEntity
  8
1
 62
10
100
AcDbLine
 10
6.1062
 20
0.8915
 30
0.0400
 11
6.1044
 21
0.8921
 31
0.0400
  0
LINE
  5
30
100
AcDbEntity
  8
1
 62
10
100
AcDbLine
 10
6.1044
 20
0.8921
 30
0.0400
 11
6.0954
 21
0.8890
 31
0.0400
  0
LINE
  5
30
100
AcDbEntity
  8
1
 62
10
100
AcDbLine
 10
6.0954
 20
0.8890
 30
0.0400
 11
6.0860
 21
0.8829
 31
0.0400
  0
LINE
  5
30
100
AcDbEntity
  8
1
 62
10
100
AcDbLine
 10
6.0860
 20
0.8829
 30
0.0400
 11
6.0778
 21
0.8741
 31
0.0400
  0
LINE
  5
30
100
AcDbEntity
  8
1
 62
10
100
AcDbLine
 10
6.0778
 20
0.8741
 30
0.0400
 11
6.0757
 21
0.8708
 31
0.0400
  0
LINE
  5
30
100
AcDbEntity
  8
1
 62
10
100
AcDbLine
 10
6.0757
 20
0.8708
 30
0.0400
 11
6.0655
 21
0.8447
 31
0.0400
  0
LINE
  5
30
100
AcDbEntity
  8
1
 62
10
100
AcDbLine
 10
6.0655
 20
0.8447
 30
0.0400
 11
6.0580
 21
0.8165
 31
0.0400
  0
LINE
  5
30
100
AcDbEntity
  8
1
 62
10
100
AcDbLine
 10
6.0580
 20
0.8165
 30
0.0400
 11
6.0546
 21
0.7962
 31
0.0400
  0
LINE
  5
30
100
AcDbEntity
  8
1
 62
10
100
AcDbLine
 10
6.0546
 20
0.7962
 30
0.0400
 11
6.0544
 21
0.7954
 31
0.0400
  0
LINE
  5
30
100
AcDbEntity
  8
1
 62
10
100
AcDbLine
 10
6.0544
 20
0.7954
 30
0.0400
 11
6.0465
 21
0.7573
 31
0.0400
  0
LINE
  5
30
100
AcDbEntity
  8
1
 62
10
100
AcDbLine
 10
6.0465
 20
0.7573
 30
0.0400
 11
6.0462
 21
0.7559
 31
0.0400
  0
LINE
  5
30
100
AcDbEntity
  8
1
 62
10
100
AcDbLine
 10
6.0462
 20
0.7559
 30
0.0400
 11
6.0401
 21
0.7360
 31
0.0400
  0
LINE
  5
30
100
AcDbEntity
  8
1
 62
10
100
AcDbLine
 10
6.0401
 20
0.7360
 30
0.0400
 11
6.0294
 21
0.7090
 31
0.0400
  0
LINE
  5
30
100
AcDbEntity
  8
1
 62
10
100
AcDbLine
 10
6.0294
 20
0.7090
 30
0.0400
 11
6.0165
 21
0.6829
 31
0.0400
  0
LINE
  5
30
100
AcDbEntity
  8
1
 62
10
100
AcDbLine
 10
6.0165
 20
0.6829
 30
0.0400
 11
6.0013
 21
0.6581
 31
0.0400
  0
LINE
  5
30
100
AcDbEntity
  8
1
 62
10
100
AcDbLine
 10
6.0013
 20
0.6581
 30
0.0400
 11
5.9840
 21
0.6347
 31
0.0400
  0
LINE
  5
30
100
AcDbEntity
  8
1
 62
10
100
AcDbLine
 10
5.9840
 20
0.6347
 30
0.0400
 11
5.9647
 21
0.6130
 31
0.0400
  0
LINE
  5
30
100
AcDbEntity
  8
1
 62
10
100
AcDbLine
 10
5.9647
 20
0.6130
 30
0.0400
 11
5.9641
 21
0.6124
 31
0.0400
  0
LINE
  5
30
100
AcDbEntity
  8
1
 62
10
100
AcDbLine
 10
5.9641
 20
0.6124
 30
0.0400
 11
5.9476
 21
0.5950
 31
0.0400
  0
LINE
  5
30
100
AcDbEntity
  8
1
 62
10
100
AcDbLine
 10
5.9476
 20
0.5950
 30
0.0400
 11
5.9326
 21
0.5763
 31
0.0400
  0
LINE
  5
30
100
AcDbEntity
  8
1
 62
10
100
AcDbLine
 10
5.9326
 20
0.5763
 30
0.0400
 11
5.9193
 21
0.5563
 31
0.0400
  0
LINE
  5
30
100
AcDbEntity
  8
1
 62
10
100
AcDbLine
 10
5.9193
 20
0.5563
 30
0.0400
 11
5.9079
 21
0.5353
 31
0.0400
  0
LINE
  5
30
100
AcDbEntity
  8
1
 62
10
100
AcDbLine
 10
5.9079
 20
0.5353
 30
0.0400
 11
5.8983
 21
0.5133
 31
0.0400
  0
LINE
  5
30
100
AcDbEntity
  8
1
 62
10
100
AcDbLine
 10
5.8983
 20
0.5133
 30
0.0400
 11
5.8906
 21
0.4906
 31
0.0400
  0
LINE
  5
30
100
AcDbEntity
  8
1
 62
10
100
AcDbLine
 10
5.8906
 20
0.4906
 30
0.0400
 11
5.8877
 21
0.4795
 31
0.0400
  0
LINE
  5
30
100
AcDbEntity
  8
1
 62
10
100
AcDbLine
 10
5.8877
 20
0.4795
 30
0.0400
 11
5.8869
 21
0.4750
 31
0.0400
  0
LINE
  5
30
100
AcDbEntity
  8
1
 62
10
100
AcDbLine
 10
5.8869
 20
0.4750
 30
0.0400
 11
5.8838
 21
0.4618
 31
0.0400
  0
LINE
  5
30
100
AcDbEntity
  8
1
 62
10
100
AcDbLine
 10
5.8838
 20
0.4618
 30
0.0400
 11
5.8795
 21
0.4489
 31
0.0400
  0
LINE
  5
30
100
AcDbEntity
  8
1
 62
10
100
AcDbLine
 10
5.8795
 20
0.4489
 30
0.0400
 11
5.8741
 21
0.4364
 31
0.0400
  0
LINE
  5
30
100
AcDbEntity
  8
1
 62
10
100
AcDbLine
 10
5.8741
 20
0.4364
 30
0.0400
 11
5.8677
 21
0.4245
 31
0.0400
  0
LINE
  5
30
100
AcDbEntity
  8
1
 62
10
100
AcDbLine
 10
5.8677
 20
0.4245
 30
0.0400
 11
5.8602
 21
0.4131
 31
0.0400
  0
LINE
  5
30
100
AcDbEntity
  8
1
 62
10
100
AcDbLine
 10
5.8602
 20
0.4131
 30
0.0400
 11
5.8518
 21
0.4025
 31
0.0400
  0
LINE
  5
30
100
AcDbEntity
  8
1
 62
10
100
AcDbLine
 10
5.8518
 20
0.4025
 30
0.0400
 11
5.8425
 21
0.3926
 31
0.0400
  0
LINE
  5
30
100
AcDbEntity
  8
1
 62
10
100
AcDbLine
 10
5.8425
 20
0.3926
 30
0.0400
 11
5.8324
 21
0.3836
 31
0.0400
  0
LINE
  5
30
100
AcDbEntity
  8
1
 62
10
100
AcDbLine
 10
5.8324
 20
0.3836
 30
0.0400
 11
5.8215
 21
0.3755
 31
0.0400
  0
LINE
  5
30
100
AcDbEntity
  8
1
 62
10
100
AcDbLine
 10
5.8215
 20
0.3755
 30
0.0400
 11
5.8099
 21
0.3684
 31
0.0400
  0
LINE
  5
30
100
AcDbEntity
  8
1
 62
10
100
AcDbLine
 10
5.8099
 20
0.3684
 30
0.0400
 11
5.7978
 21
0.3623
 31
0.0400
  0
LINE
  5
30
100
AcDbEntity
  8
1
 62
10
100
AcDbLine
 10
5.7978
 20
0.3623
 30
0.0400
 11
5.7852
 21
0.3573
 31
0.0400
  0
LINE
  5
30
100
AcDbEntity
  8
1
 62
10
100
AcDbLine
 10
5.7852
 20
0.3573
 30
0.0400
 11
5.7722
 21
0.3534
 31
0.0400
  0
LINE
  5
30
100
AcDbEntity
  8
1
 62
10
100
AcDbLine
 10
5.7722
 20
0.3534
 30
0.0400
 11
5.7589
 21
0.3506
 31
0.0400
  0
LINE
  5
30
100
AcDbEntity
  8
1
 62
10
100
AcDbLine
 10
5.7589
 20
0.3506
 30
0.0400
 11
5.7516
 21
0.3495
 31
0.0400
  0
LINE
  5
30
100
AcDbEntity
  8
1
 62
10
100
AcDbLine
 10
5.7516
 20
0.3495
 30
0.0400
 11
5.7506
 21
0.3494
 31
0.0400
  0
LINE
  5
30
100
AcDbEntity
  8
1
 62
10
100
AcDbLine
 10
5.7506
 20
0.3494
 30
0.0400
 11
5.6752
 21
0.3413
 31
0.0400
  0
LINE
  5
30
100
AcDbEntity
  8
1
 62
10
100
AcDbLine
 10
5.6752
 20
0.3413
 30
0.0400
 11
5.6744
 21
0.3413
 31
0.0400
  0
LINE
  5
30
100
AcDbEntity
  8
1
 62
10
100
AcDbLine
 10
5.6744
 20
0.3413
 30
0.0400
 11
5.5335
 21
0.3315
 31
0.0400
  0
LINE
  5
30
100
AcDbEntity
  8
1
 62
10
100
AcDbLine
 10
5.5335
 20
0.3315
 30
0.0400
 11
5.5329
 21
0.3315
 31
0.0400
  0
LINE
  5
30
100
AcDbEntity
  8
1
 62
10
100
AcDbLine
 10
5.5329
 20
0.3315
 30
0.0400
 11
5.5309
 21
0.3315
 31
0.0400
  0
LINE
  5
30
100
AcDbEntity
  8
1
 62
10
100
AcDbLine
 10
5.5309
 20
0.3315
 30
0.0400
 11
5.5290
 21
0.3317
 31
0.0400
  0
LINE
  5
30
100
AcDbEntity
  8
1
 62
10
100
AcDbLine
 10
5.5290
 20
0.3317
 30
0.0400
 11
5.5082
 21
0.3344
 31
0.0400
  0
LINE
  5
30
100
AcDbEntity
  8
1
 62
10
100
AcDbLine
 10
5.5082
 20
0.3344
 30
0.0400
 11
5.5079
 21
0.3344
 31
0.0400
  0
LINE
  5
30
100
AcDbEntity
  8
1
 62
10
100
AcDbLine
 10
5.5079
 20
0.3344
 30
0.0400
 11
5.5060
 21
0.3348
 31
0.0400
  0
LINE
  5
30
100
AcDbEntity
  8
1
 62
10
100
AcDbLine
 10
5.5060
 20
0.3348
 30
0.0400
 11
5.5041
 21
0.3353
 31
0.0400
  0
LINE
  5
30
100
AcDbEntity
  8
1
 62
10
100
AcDbLine
 10
5.5041
 20
0.3353
 30
0.0400
 11
5.4934
 21
0.3389
 31
0.0400
  0
LINE
  5
30
100
AcDbEntity
  8
1
 62
10
100
AcDbLine
 10
5.4934
 20
0.3389
 30
0.0400
 11
5.4917
 21
0.3395
 31
0.0400
  0
LINE
  5
30
100
AcDbEntity
  8
1
 62
10
100
AcDbLine
 10
5.4917
 20
0.3395
 30
0.0400
 11
5.4652
 21
0.3508
 31
0.0400
  0
LINE
  5
30
100
AcDbEntity
  8
1
 62
10
100
AcDbLine
 10
5.4652
 20
0.3508
 30
0.0400
 11
5.4636
 21
0.3515
 31
0.0400
  0
LINE
  5
30
100
AcDbEntity
  8
1
 62
10
100
AcDbLine
 10
5.4636
 20
0.3515
 30
0.0400
 11
5.4619
 21
0.3525
 31
0.0400
  0
LINE
  5
30
100
AcDbEntity
  8
1
 62
10
100
AcDbLine
 10
5.4619
 20
0.3525
 30
0.0400
 11
5.4603
 21
0.3536
 31
0.0400
  0
LINE
  5
30
100
AcDbEntity
  8
1
 62
10
100
AcDbLine
 10
5.4603
 20
0.3536
 30
0.0400
 11
5.4487
 21
0.3624
 31
0.0400
  0
LINE
  5
30
100
AcDbEntity
  8
1
 62
10
100
AcDbLine
 10
5.4487
 20
0.3624
 30
0.0400
 11
5.4484
 21
0.3627
 31
0.0400
  0
LINE
  5
30
100
AcDbEntity
  8
1
 62
10
100
AcDbLine
 10
5.4484
 20
0.3627
 30
0.0400
 11
5.4469
 21
0.3639
 31
0.0400
  0
LINE
  5
30
100
AcDbEntity
  8
1
 62
10
100
AcDbLine
 10
5.4469
 20
0.3639
 30
0.0400
 11
5.4455
 21
0.3653
 31
0.0400
  0
LINE
  5
30
100
AcDbEntity
  8
1
 62
10
100
AcDbLine
 10
5.4455
 20
0.3653
 30
0.0400
 11
5.4443
 21
0.3669
 31
0.0400
  0
LINE
  5
30
100
AcDbEntity
  8
1
 62
10
100
AcDbLine
 10
5.4443
 20
0.3669
 30
0.0400
 11
5.4432
 21
0.3685
 31
0.0400
  0
LINE
  5
30
100
AcDbEntity
  8
1
 62
10
100
AcDbLine
 10
5.4432
 20
0.3685
 30
0.0400
 11
5.4371
 21
0.3783
 31
0.0400
  0
LINE
  5
30
100
AcDbEntity
  8
1
 62
10
100
AcDbLine
 10
5.4371
 20
0.3783
 30
0.0400
 11
5.4363
 21
0.3797
 31
0.0400
  0
LINE
  5
30
100
AcDbEntity
  8
1
 62
10
100
AcDbLine
 10
5.4363
 20
0.3797
 30
0.0400
 11
5.4355
 21
0.3815
 31
0.0400
  0
LINE
  5
30
100
AcDbEntity
  8
1
 62
10
100
AcDbLine
 10
5.4355
 20
0.3815
 30
0.0400
 11
5.4348
 21
0.3833
 31
0.0400
  0
LINE
  5
30
100
AcDbEntity
  8
1
 62
10
100
AcDbLine
 10
5.4348
 20
0.3833
 30
0.0400
 11
5.4343
 21
0.3852
 31
0.0400
  0
LINE
  5
30
100
AcDbEntity
  8
1
 62
10
100
AcDbLine
 10
5.4343
 20
0.3852
 30
0.0400
 11
5.4339
 21
0.3871
 31
0.0400
  0
LINE
  5
30
100
AcDbEntity
  8
1
 62
10
100
AcDbLine
 10
5.4339
 20
0.3871
 30
0.0400
 11
5.4338
 21
0.3891
 31
0.0400
  0
LINE
  5
30
100
AcDbEntity
  8
1
 62
10
100
AcDbLine
 10
5.4338
 20
0.3891
 30
0.0400
 11
5.4333
 21
0.4001
 31
0.0400
  0
LINE
  5
30
100
AcDbEntity
  8
1
 62
10
100
AcDbLine
 10
5.4333
 20
0.4001
 30
0.0400
 11
5.4333
 21
0.4003
 31
0.0400
  0
LINE
  5
30
100
AcDbEntity
  8
1
 62
10
100
AcDbLine
 10
5.4333
 20
0.4003
 30
0.0400
 11
5.4333
 21
0.4023
 31
0.0400
  0
LINE
  5
30
100
AcDbEntity
  8
1
 62
10
100
AcDbLine
 10
5.4333
 20
0.4023
 30
0.0400
 11
5.4335
 21
0.4042
 31
0.0400
  0
LINE
  5
30
100
AcDbEntity
  8
1
 62
10
100
AcDbLine
 10
5.4335
 20
0.4042
 30
0.0400
 11
5.4339
 21
0.4062
 31
0.0400
  0
LINE
  5
30
100
AcDbEntity
  8
1
 62
10
100
AcDbLine
 10
5.4339
 20
0.4062
 30
0.0400
 11
5.4344
 21
0.4081
 31
0.0400
  0
LINE
  5
30
100
AcDbEntity
  8
1
 62
10
100
AcDbLine
 10
5.4344
 20
0.4081
 30
0.0400
 11
5.4351
 21
0.4099
 31
0.0400
  0
LINE
  5
30
100
AcDbEntity
  8
1
 62
10
100
AcDbLine
 10
5.4351
 20
0.4099
 30
0.0400
 11
5.4402
 21
0.4220
 31
0.0400
  0
LINE
  5
30
100
AcDbEntity
  8
1
 62
10
100
AcDbLine
 10
5.4402
 20
0.4220
 30
0.0400
 11
5.4403
 21
0.4223
 31
0.0400
  0
LINE
  5
30
100
AcDbEntity
  8
1
 62
10
100
AcDbLine
 10
5.4403
 20
0.4223
 30
0.0400
 11
5.4412
 21
0.4241
 31
0.0400
  0
LINE
  5
30
100
AcDbEntity
  8
1
 62
10
100
AcDbLine
 10
5.4412
 20
0.4241
 30
0.0400
 11
5.4422
 21
0.4257
 31
0.0400
  0
LINE
  5
30
100
AcDbEntity
  8
1
 62
10
100
AcDbLine
 10
5.4422
 20
0.4257
 30
0.0400
 11
5.4434
 21
0.4273
 31
0.0400
  0
LINE
  5
30
100
AcDbEntity
  8
1
 62
10
100
AcDbLine
 10
5.4434
 20
0.4273
 30
0.0400
 11
5.4542
 21
0.4408
 31
0.0400
  0
LINE
  5
30
100
AcDbEntity
  8
1
 62
10
100
AcDbLine
 10
5.4542
 20
0.4408
 30
0.0400
 11
5.4551
 21
0.4418
 31
0.0400
  0
LINE
  5
30
100
AcDbEntity
  8
1
 62
10
100
AcDbLine
 10
5.4551
 20
0.4418
 30
0.0400
 11
5.4565
 21
0.4432
 31
0.0400
  0
LINE
  5
30
100
AcDbEntity
  8
1
 62
10
100
AcDbLine
 10
5.4565
 20
0.4432
 30
0.0400
 11
5.4690
 21
0.4548
 31
0.0400
  0
LINE
  5
30
100
AcDbEntity
  8
1
 62
10
100
AcDbLine
 10
5.4690
 20
0.4548
 30
0.0400
 11
5.4693
 21
0.4551
 31
0.0400
  0
LINE
  5
30
100
AcDbEntity
  8
1
 62
10
100
AcDbLine
 10
5.4693
 20
0.4551
 30
0.0400
 11
5.4992
 21
0.4815
 31
0.0400
  0
LINE
  5
30
100
AcDbEntity
  8
1
 62
10
100
AcDbLine
 10
5.4992
 20
0.4815
 30
0.0400
 11
5.5349
 21
0.5193
 31
0.0400
  0
LINE
  5
30
100
AcDbEntity
  8
1
 62
10
100
AcDbLine
 10
5.5349
 20
0.5193
 30
0.0400
 11
5.5672
 21
0.5600
 31
0.0400
  0
LINE
  5
30
100
AcDbEntity
  8
1
 62
10
100
AcDbLine
 10
5.5672
 20
0.5600
 30
0.0400
 11
5.5958
 21
0.6034
 31
0.0400
  0
LINE
  5
30
100
AcDbEntity
  8
1
 62
10
100
AcDbLine
 10
5.5958
 20
0.6034
 30
0.0400
 11
5.6206
 21
0.6491
 31
0.0400
  0
LINE
  5
30
100
AcDbEntity
  8
1
 62
10
100
AcDbLine
 10
5.6206
 20
0.6491
 30
0.0400
 11
5.6301
 21
0.6697
 31
0.0400
  0
LINE
  5
30
100
AcDbEntity
  8
1
 62
10
100
AcDbLine
 10
5.6300
 20
0.6697
 30
0.0400
 11
5.6507
 21
0.7197
 31
0.0400
  0
LINE
  5
30
100
AcDbEntity
  8
1
 62
10
100
AcDbLine
 10
5.6507
 20
0.7197
 30
0.0400
 11
5.6715
 21
0.7818
 31
0.0400
  0
LINE
  5
30
100
AcDbEntity
  8
1
 62
10
100
AcDbLine
 10
5.6715
 20
0.7818
 30
0.0400
 11
5.6887
 21
0.8446
 31
0.0400
  0
LINE
  5
30
100
AcDbEntity
  8
1
 62
10
100
AcDbLine
 10
5.6887
 20
0.8446
 30
0.0400
 11
5.7169
 21
0.9588
 31
0.0400
  0
LINE
  5
30
100
AcDbEntity
  8
1
 62
10
100
AcDbLine
 10
5.7169
 20
0.9588
 30
0.0400
 11
5.7430
 21
1.0734
 31
0.0400
  0
LINE
  5
30
100
AcDbEntity
  8
1
 62
10
100
AcDbLine
 10
5.7430
 20
1.0734
 30
0.0400
 11
5.7540
 21
1.1304
 31
0.0400
  0
LINE
  5
30
100
AcDbEntity
  8
1
 62
10
100
AcDbLine
 10
5.7540
 20
1.1304
 30
0.0400
 11
5.7627
 21
1.1891
 31
0.0400
  0
LINE
  5
30
100
AcDbEntity
  8
1
 62
10
100
AcDbLine
 10
5.7627
 20
1.1891
 30
0.0400
 11
5.7683
 21
1.2480
 31
0.0400
  0
LINE
  5
30
100
AcDbEntity
  8
1
 62
10
100
AcDbLine
 10
5.7683
 20
1.2480
 30
0.0400
 11
5.7709
 21
1.3073
 31
0.0400
  0
LINE
  5
30
100
AcDbEntity
  8
1
 62
10
100
AcDbLine
 10
5.7709
 20
1.3073
 30
0.0400
 11
5.7710
 21
1.3344
 31
0.0400
  0
LINE
  5
30
100
AcDbEntity
  8
1
 62
10
100
AcDbLine
 10
5.7710
 20
1.3344
 30
0.0400
 11
5.7692
 21
1.3576
 31
0.0400
  0
LINE
  5
30
100
AcDbEntity
  8
1
 62
10
100
AcDbLine
 10
5.7692
 20
1.3576
 30
0.0400
 11
5.7647
 21
1.3745
 31
0.0400
  0
LINE
  5
30
100
AcDbEntity
  8
1
 62
10
100
AcDbLine
 10
5.7647
 20
1.3745
 30
0.0400
 11
5.7580
 21
1.3864
 31
0.0400
  0
LINE
  5
30
100
AcDbEntity
  8
1
 62
10
100
AcDbLine
 10
5.7580
 20
1.3864
 30
0.0400
 11
5.7492
 21
1.3948
 31
0.0400
  0
LINE
  5
30
100
AcDbEntity
  8
1
 62
10
100
AcDbLine
 10
5.7492
 20
1.3948
 30
0.0400
 11
5.7372
 21
1.4009
 31
0.0400
  0
LINE
  5
30
100
AcDbEntity
  8
1
 62
10
100
AcDbLine
 10
5.7372
 20
1.4009
 30
0.0400
 11
5.7207
 21
1.4047
 31
0.0400
  0
LINE
  5
30
100
AcDbEntity
  8
1
 62
10
100
AcDbLine
 10
5.7207
 20
1.4047
 30
0.0400
 11
5.6904
 21
1.4054
 31
0.0400
  0
LINE
  5
30
100
AcDbEntity
  8
1
 62
10
100
AcDbLine
 10
5.6904
 20
1.4054
 30
0.0400
 11
5.6393
 21
1.4009
 31
0.0400
  0
LINE
  5
30
100
AcDbEntity
  8
1
 62
10
100
AcDbLine
 10
5.6393
 20
1.4009
 30
0.0400
 11
5.5879
 21
1.3927
 31
0.0400
  0
LINE
  5
30
100
AcDbEntity
  8
1
 62
10
100
AcDbLine
 10
5.5879
 20
1.3927
 30
0.0400
 11
5.4821
 21
1.3701
 31
0.0400
  0
LINE
  5
30
100
AcDbEntity
  8
1
 62
10
100
AcDbLine
 10
5.4821
 20
1.3701
 30
0.0400
 11
5.4809
 21
1.3699
 31
0.0400
  0
LINE
  5
30
100
AcDbEntity
  8
1
 62
10
100
AcDbLine
 10
5.4809
 20
1.3699
 30
0.0400
 11
5.4034
 21
1.3577
 31
0.0400
  0
LINE
  5
30
100
AcDbEntity
  8
1
 62
10
100
AcDbLine
 10
5.4034
 20
1.3577
 30
0.0400
 11
5.4024
 21
1.3576
 31
0.0400
  0
LINE
  5
30
100
AcDbEntity
  8
1
 62
10
100
AcDbLine
 10
5.4024
 20
1.3576
 30
0.0400
 11
5.3246
 21
1.3491
 31
0.0400
  0
LINE
  5
30
100
AcDbEntity
  8
1
 62
10
100
AcDbLine
 10
5.3246
 20
1.3491
 30
0.0400
 11
5.3237
 21
1.3490
 31
0.0400
  0
LINE
  5
30
100
AcDbEntity
  8
1
 62
10
100
AcDbLine
 10
5.3237
 20
1.3490
 30
0.0400
 11
5.2301
 21
1.3426
 31
0.0400
  0
LINE
  5
30
100
AcDbEntity
  8
1
 62
10
100
AcDbLine
 10
5.2301
 20
1.3426
 30
0.0400
 11
5.2293
 21
1.3425
 31
0.0400
  0
LINE
  5
30
100
AcDbEntity
  8
1
 62
10
100
AcDbLine
 10
5.2293
 20
1.3425
 30
0.0400
 11
5.0942
 21
1.3378
 31
0.0400
  0
LINE
  5
30
100
AcDbEntity
  8
1
 62
10
100
AcDbLine
 10
5.0942
 20
1.3378
 30
0.0400
 11
5.0219
 21
1.3364
 31
0.0400
  0
LINE
  5
30
100
AcDbEntity
  8
1
 62
10
100
AcDbLine
 10
5.0219
 20
1.3364
 30
0.0400
 11
5.0213
 21
1.3364
 31
0.0400
  0
LINE
  5
30
100
AcDbEntity
  8
1
 62
10
100
AcDbLine
 10
5.0213
 20
1.3364
 30
0.0400
 11
4.9646
 21
1.3369
 31
0.0400
  0
LINE
  5
30
100
AcDbEntity
  8
1
 62
10
100
AcDbLine
 10
4.9646
 20
1.3369
 30
0.0400
 11
4.9633
 21
1.3370
 31
0.0400
  0
LINE
  5
30
100
AcDbEntity
  8
1
 62
10
100
AcDbLine
 10
4.9633
 20
1.3370
 30
0.0400
 11
4.8962
 21
1.3415
 31
0.0400
  0
LINE
  5
30
100
AcDbEntity
  8
1
 62
10
100
AcDbLine
 10
4.8962
 20
1.3415
 30
0.0400
 11
4.8949
 21
1.3416
 31
0.0400
  0
LINE
  5
30
100
AcDbEntity
  8
1
 62
10
100
AcDbLine
 10
4.8949
 20
1.3416
 30
0.0400
 11
4.8284
 21
1.3499
 31
0.0400
  0
LINE
  5
30
100
AcDbEntity
  8
1
 62
10
100
AcDbLine
 10
4.8284
 20
1.3499
 30
0.0400
 11
4.8273
 21
1.3501
 31
0.0400
  0
LINE
  5
30
100
AcDbEntity
  8
1
 62
10
100
AcDbLine
 10
4.8273
 20
1.3501
 30
0.0400
 11
4.7483
 21
1.3642
 31
0.0400
  0
LINE
  5
30
100
AcDbEntity
  8
1
 62
10
100
AcDbLine
 10
4.7483
 20
1.3642
 30
0.0400
 11
4.7473
 21
1.3644
 31
0.0400
  0
LINE
  5
30
100
AcDbEntity
  8
1
 62
10
100
AcDbLine
 10
4.7473
 20
1.3644
 30
0.0400
 11
4.6691
 21
1.3821
 31
0.0400
  0
LINE
  5
30
100
AcDbEntity
  8
1
 62
10
100
AcDbLine
 10
4.6691
 20
1.3821
 30
0.0400
 11
4.6682
 21
1.3823
 31
0.0400
  0
LINE
  5
30
100
AcDbEntity
  8
1
 62
10
100
AcDbLine
 10
4.6682
 20
1.3823
 30
0.0400
 11
4.5564
 21
1.4122
 31
0.0400
  0
LINE
  5
30
100
AcDbEntity
  8
1
 62
10
100
AcDbLine
 10
4.5564
 20
1.4122
 30
0.0400
 11
4.5558
 21
1.4124
 31
0.0400
  0
LINE
  5
30
100
AcDbEntity
  8
1
 62
10
100
AcDbLine
 10
4.5558
 20
1.4124
 30
0.0400
 11
4.4343
 21
1.4481
 31
0.0400
  0
LINE
  5
30
100
AcDbEntity
  8
1
 62
10
100
AcDbLine
 10
4.4343
 20
1.4481
 30
0.0400
 11
4.2774
 21
1.4926
 31
0.0400
  0
LINE
  5
30
100
AcDbEntity
  8
1
 62
10
100
AcDbLine
 10
4.2774
 20
1.4926
 30
0.0400
 11
4.1098
 21
1.5387
 31
0.0400
  0
LINE
  5
30
100
AcDbEntity
  8
1
 62
10
100
AcDbLine
 10
4.1098
 20
1.5387
 30
0.0400
 11
3.9794
 21
1.5769
 31
0.0400
  0
LINE
  5
30
100
AcDbEntity
  8
1
 62
10
100
AcDbLine
 10
3.9794
 20
1.5769
 30
0.0400
 11
3.9786
 21
1.5771
 31
0.0400
  0
LINE
  5
30
100
AcDbEntity
  8
1
 62
10
100
AcDbLine
 10
3.9786
 20
1.5771
 30
0.0400
 11
3.9138
 21
1.5989
 31
0.0400
  0
LINE
  5
30
100
AcDbEntity
  8
1
 62
10
100
AcDbLine
 10
3.9138
 20
1.5989
 30
0.0400
 11
3.9130
 21
1.5992
 31
0.0400
  0
LINE
  5
30
100
AcDbEntity
  8
1
 62
10
100
AcDbLine
 10
3.9130
 20
1.5992
 30
0.0400
 11
3.8204
 21
1.6347
 31
0.0400
  0
LINE
  5
30
100
AcDbEntity
  8
1
 62
10
100
AcDbLine
 10
3.8204
 20
1.6347
 30
0.0400
 11
3.7102
 21
1.6784
 31
0.0400
  0
LINE
  5
30
100
AcDbEntity
  8
1
 62
10
100
AcDbLine
 10
3.7102
 20
1.6784
 30
0.0400
 11
3.6852
 21
1.6861
 31
0.0400
  0
LINE
  5
30
100
AcDbEntity
  8
1
 62
10
100
AcDbLine
 10
3.6852
 20
1.6861
 30
0.0400
 11
3.6627
 21
1.6891
 31
0.0400
  0
LINE
  5
30
100
AcDbEntity
  8
1
 62
10
100
AcDbLine
 10
3.6627
 20
1.6891
 30
0.0400
 11
3.6446
 21
1.6875
 31
0.0400
  0
LINE
  5
30
100
AcDbEntity
  8
1
 62
10
100
AcDbLine
 10
3.6446
 20
1.6875
 30
0.0400
 11
3.6298
 21
1.6824
 31
0.0400
  0
LINE
  5
30
100
AcDbEntity
  8
1
 62
10
100
AcDbLine
 10
3.6298
 20
1.6824
 30
0.0400
 11
3.6151
 21
1.6728
 31
0.0400
  0
LINE
  5
30
100
AcDbEntity
  8
1
 62
10
100
AcDbLine
 10
3.6151
 20
1.6728
 30
0.0400
 11
3.6073
 21
1.6653
 31
0.0400
  0
LINE
  5
30
100
AcDbEntity
  8
1
 62
10
100
AcDbLine
 10
3.6073
 20
1.6653
 30
0.0400
 11
3.5874
 21
1.6402
 31
0.0400
  0
LINE
  5
30
100
AcDbEntity
  8
1
 62
10
100
AcDbLine
 10
3.5874
 20
1.6402
 30
0.0400
 11
3.5823
 21
1.6324
 31
0.0400
  0
LINE
  5
30
100
AcDbEntity
  8
1
 62
10
100
AcDbLine
 10
3.5823
 20
1.6324
 30
0.0400
 11
3.5778
 21
1.6242
 31
0.0400
  0
LINE
  5
30
100
AcDbEntity
  8
1
 62
10
100
AcDbLine
 10
3.5778
 20
1.6242
 30
0.0400
 11
3.5742
 21
1.6156
 31
0.0400
  0
LINE
  5
30
100
AcDbEntity
  8
1
 62
10
100
AcDbLine
 10
3.5742
 20
1.6156
 30
0.0400
 11
3.5712
 21
1.6067
 31
0.0400
  0
LINE
  5
30
100
AcDbEntity
  8
1
 62
10
100
AcDbLine
 10
3.5712
 20
1.6067
 30
0.0400
 11
3.5691
 21
1.5977
 31
0.0400
  0
LINE
  5
30
100
AcDbEntity
  8
1
 62
10
100
AcDbLine
 10
3.5691
 20
1.5977
 30
0.0400
 11
3.5677
 21
1.5884
 31
0.0400
  0
LINE
  5
30
100
AcDbEntity
  8
1
 62
10
100
AcDbLine
 10
3.5677
 20
1.5884
 30
0.0400
 11
3.5672
 21
1.5791
 31
0.0400
  0
LINE
  5
30
100
AcDbEntity
  8
1
 62
10
100
AcDbLine
 10
3.5672
 20
1.5791
 30
0.0400
 11
3.5675
 21
1.5698
 31
0.0400
  0
LINE
  5
30
100
AcDbEntity
  8
1
 62
10
100
AcDbLine
 10
3.5675
 20
1.5698
 30
0.0400
 11
3.5686
 21
1.5605
 31
0.0400
  0
LINE
  5
30
100
AcDbEntity
  8
1
 62
10
100
AcDbLine
 10
3.5686
 20
1.5605
 30
0.0400
 11
3.5705
 21
1.5513
 31
0.0400
  0
LINE
  5
30
100
AcDbEntity
  8
1
 62
10
100
AcDbLine
 10
3.5705
 20
1.5513
 30
0.0400
 11
3.5731
 21
1.5424
 31
0.0400
  0
LINE
  5
30
100
AcDbEntity
  8
1
 62
10
100
AcDbLine
 10
3.5731
 20
1.5424
 30
0.0400
 11
3.5750
 21
1.5375
 31
0.0400
  0
LINE
  5
30
100
AcDbEntity
  8
1
 62
10
100
AcDbLine
 10
3.5750
 20
1.5375
 30
0.0400
 11
3.5928
 21
1.5009
 31
0.0400
  0
LINE
  5
30
100
AcDbEntity
  8
1
 62
10
100
AcDbLine
 10
3.5928
 20
1.5009
 30
0.0400
 11
3.6141
 21
1.4661
 31
0.0400
  0
LINE
  5
30
100
AcDbEntity
  8
1
 62
10
100
AcDbLine
 10
3.6141
 20
1.4661
 30
0.0400
 11
3.6222
 21
1.4545
 31
0.0400
  0
LINE
  5
30
100
AcDbEntity
  8
1
 62
10
100
AcDbLine
 10
3.6222
 20
1.4545
 30
0.0400
 11
3.6231
 21
1.4532
 31
0.0400
  0
LINE
  5
30
100
AcDbEntity
  8
1
 62
10
100
AcDbLine
 10
3.6231
 20
1.4532
 30
0.0400
 11
3.6380
 21
1.4282
 31
0.0400
  0
LINE
  5
30
100
AcDbEntity
  8
1
 62
10
100
AcDbLine
 10
3.6380
 20
1.4282
 30
0.0400
 11
3.6390
 21
1.4265
 31
0.0400
  0
LINE
  5
30
100
AcDbEntity
  8
1
 62
10
100
AcDbLine
 10
3.6390
 20
1.4265
 30
0.0400
 11
3.6442
 21
1.4146
 31
0.0400
  0
LINE
  5
30
100
AcDbEntity
  8
1
 62
10
100
AcDbLine
 10
3.6442
 20
1.4146
 30
0.0400
 11
3.6492
 21
1.4002
 31
0.0400
  0
LINE
  5
30
100
AcDbEntity
  8
1
 62
10
100
AcDbLine
 10
3.6492
 20
1.4002
 30
0.0400
 11
3.6530
 21
1.3855
 31
0.0400
  0
LINE
  5
30
100
AcDbEntity
  8
1
 62
10
100
AcDbLine
 10
3.6530
 20
1.3855
 30
0.0400
 11
3.6554
 21
1.3704
 31
0.0400
  0
LINE
  5
30
100
AcDbEntity
  8
1
 62
10
100
AcDbLine
 10
3.6554
 20
1.3704
 30
0.0400
 11
3.6565
 21
1.3552
 31
0.0400
  0
LINE
  5
30
100
AcDbEntity
  8
1
 62
10
100
AcDbLine
 10
3.6565
 20
1.3552
 30
0.0400
 11
3.6563
 21
1.3400
 31
0.0400
  0
LINE
  5
30
100
AcDbEntity
  8
1
 62
10
100
AcDbLine
 10
3.6563
 20
1.3400
 30
0.0400
 11
3.6548
 21
1.3249
 31
0.0400
  0
LINE
  5
30
100
AcDbEntity
  8
1
 62
10
100
AcDbLine
 10
3.6548
 20
1.3249
 30
0.0400
 11
3.6519
 21
1.3099
 31
0.0400
  0
LINE
  5
30
100
AcDbEntity
  8
1
 62
10
100
AcDbLine
 10
3.6519
 20
1.3099
 30
0.0400
 11
3.6516
 21
1.3090
 31
0.0400
  0
LINE
  5
30
100
AcDbEntity
  8
1
 62
10
100
AcDbLine
 10
3.6516
 20
1.3090
 30
0.0400
 11
3.6443
 21
1.2826
 31
0.0400
  0
LINE
  5
30
100
AcDbEntity
  8
1
 62
10
100
AcDbLine
 10
3.6443
 20
1.2826
 30
0.0400
 11
3.6443
 21
1.2825
 31
0.0400
  0
LINE
  5
30
100
AcDbEntity
  8
1
 62
10
100
AcDbLine
 10
3.6443
 20
1.2825
 30
0.0400
 11
3.6436
 21
1.2807
 31
0.0400
  0
LINE
  5
30
100
AcDbEntity
  8
1
 62
10
100
AcDbLine
 10
3.6436
 20
1.2807
 30
0.0400
 11
3.6363
 21
1.2616
 31
0.0400
  0
LINE
  5
30
100
AcDbEntity
  8
1
 62
10
100
AcDbLine
 10
3.6363
 20
1.2616
 30
0.0400
 11
3.6362
 21
1.2612
 31
0.0400
  0
LINE
  5
30
100
AcDbEntity
  8
1
 62
10
100
AcDbLine
 10
3.6362
 20
1.2612
 30
0.0400
 11
3.6064
 21
1.1871
 31
0.0400
  0
LINE
  5
30
100
AcDbEntity
  8
1
 62
10
100
AcDbLine
 10
3.6064
 20
1.1871
 30
0.0400
 11
3.5798
 21
1.1118
 31
0.0400
  0
LINE
  5
30
100
AcDbEntity
  8
1
 62
10
100
AcDbLine
 10
3.5798
 20
1.1118
 30
0.0400
 11
3.5794
 21
1.1105
 31
0.0400
  0
LINE
  5
30
100
AcDbEntity
  8
1
 62
10
100
AcDbLine
 10
3.5794
 20
1.1105
 30
0.0400
 11
3.5698
 21
1.0846
 31
0.0400
  0
LINE
  5
30
100
AcDbEntity
  8
1
 62
10
100
AcDbLine
 10
3.5698
 20
1.0846
 30
0.0400
 11
3.5624
 21
1.0580
 31
0.0400
  0
LINE
  5
30
100
AcDbEntity
  8
1
 62
10
100
AcDbLine
 10
3.5624
 20
1.0580
 30
0.0400
 11
3.5574
 21
1.0308
 31
0.0400
  0
LINE
  5
30
100
AcDbEntity
  8
1
 62
10
100
AcDbLine
 10
3.5574
 20
1.0308
 30
0.0400
 11
3.5548
 21
1.0033
 31
0.0400
  0
LINE
  5
30
100
AcDbEntity
  8
1
 62
10
100
AcDbLine
 10
3.5548
 20
1.0033
 30
0.0400
 11
3.5547
 21
0.9757
 31
0.0400
  0
LINE
  5
30
100
AcDbEntity
  8
1
 62
10
100
AcDbLine
 10
3.5547
 20
0.9757
 30
0.0400
 11
3.5569
 21
0.9482
 31
0.0400
  0
LINE
  5
30
100
AcDbEntity
  8
1
 62
10
100
AcDbLine
 10
3.5569
 20
0.9482
 30
0.0400
 11
3.5615
 21
0.9210
 31
0.0400
  0
LINE
  5
30
100
AcDbEntity
  8
1
 62
10
100
AcDbLine
 10
3.5615
 20
0.9210
 30
0.0400
 11
3.5684
 21
0.8942
 31
0.0400
  0
LINE
  5
30
100
AcDbEntity
  8
1
 62
10
100
AcDbLine
 10
3.5684
 20
0.8942
 30
0.0400
 11
3.5713
 21
0.8854
 31
0.0400
  0
LINE
  5
30
100
AcDbEntity
  8
1
 62
10
100
AcDbLine
 10
3.5713
 20
0.8854
 30
0.0400
 11
3.5718
 21
0.8838
 31
0.0400
  0
LINE
  5
30
100
AcDbEntity
  8
1
 62
10
100
AcDbLine
 10
3.5718
 20
0.8838
 30
0.0400
 11
3.5825
 21
0.8426
 31
0.0400
  0
LINE
  5
30
100
AcDbEntity
  8
1
 62
10
100
AcDbLine
 10
3.5825
 20
0.8426
 30
0.0400
 11
3.5829
 21
0.8408
 31
0.0400
  0
LINE
  5
30
100
AcDbEntity
  8
1
 62
10
100
AcDbLine
 10
3.5829
 20
0.8408
 30
0.0400
 11
3.5903
 21
0.7989
 31
0.0400
  0
LINE
  5
30
100
AcDbEntity
  8
1
 62
10
100
AcDbLine
 10
3.5903
 20
0.7989
 30
0.0400
 11
3.5905
 21
0.7973
 31
0.0400
  0
LINE
  5
30
100
AcDbEntity
  8
1
 62
10
100
AcDbLine
 10
3.5905
 20
0.7973
 30
0.0400
 11
3.5938
 21
0.7658
 31
0.0400
  0
LINE
  5
30
100
AcDbEntity
  8
1
 62
10
100
AcDbLine
 10
3.5938
 20
0.7658
 30
0.0400
 11
3.5939
 21
0.7645
 31
0.0400
  0
LINE
  5
30
100
AcDbEntity
  8
1
 62
10
100
AcDbLine
 10
3.5939
 20
0.7645
 30
0.0400
 11
3.5939
 21
0.7625
 31
0.0400
  0
LINE
  5
30
100
AcDbEntity
  8
1
 62
10
100
AcDbLine
 10
3.5939
 20
0.7625
 30
0.0400
 11
3.5930
 21
0.7435
 31
0.0400
  0
LINE
  5
30
100
AcDbEntity
  8
1
 62
10
100
AcDbLine
 10
3.5930
 20
0.7435
 30
0.0400
 11
3.5930
 21
0.7428
 31
0.0400
  0
LINE
  5
30
100
AcDbEntity
  8
1
 62
10
100
AcDbLine
 10
3.5930
 20
0.7428
 30
0.0400
 11
3.5928
 21
0.7408
 31
0.0400
  0
LINE
  5
30
100
AcDbEntity
  8
1
 62
10
100
AcDbLine
 10
3.5928
 20
0.7408
 30
0.0400
 11
3.5922
 21
0.7377
 31
0.0400
  0
LINE
  5
30
100
AcDbEntity
  8
1
 62
10
100
AcDbLine
 10
3.5922
 20
0.7377
 30
0.0400
 11
3.5905
 21
0.7305
 31
0.0400
  0
LINE
  5
30
100
AcDbEntity
  8
1
 62
10
100
AcDbLine
 10
3.5905
 20
0.7305
 30
0.0400
 11
3.5881
 21
0.7236
 31
0.0400
  0
LINE
  5
30
100
AcDbEntity
  8
1
 62
10
100
AcDbLine
 10
3.5881
 20
0.7236
 30
0.0400
 11
3.5851
 21
0.7169
 31
0.0400
  0
LINE
  5
30
100
AcDbEntity
  8
1
 62
10
100
AcDbLine
 10
3.5851
 20
0.7169
 30
0.0400
 11
3.5815
 21
0.7105
 31
0.0400
  0
LINE
  5
30
100
AcDbEntity
  8
1
 62
10
100
AcDbLine
 10
3.5815
 20
0.7105
 30
0.0400
 11
3.5774
 21
0.7044
 31
0.0400
  0
LINE
  5
30
100
AcDbEntity
  8
1
 62
10
100
AcDbLine
 10
3.5774
 20
0.7044
 30
0.0400
 11
3.5728
 21
0.6987
 31
0.0400
  0
LINE
  5
30
100
AcDbEntity
  8
1
 62
10
100
AcDbLine
 10
3.5728
 20
0.6987
 30
0.0400
 11
3.5677
 21
0.6934
 31
0.0400
  0
LINE
  5
30
100
AcDbEntity
  8
1
 62
10
100
AcDbLine
 10
3.5677
 20
0.6934
 30
0.0400
 11
3.5622
 21
0.6885
 31
0.0400
  0
LINE
  5
30
100
AcDbEntity
  8
1
 62
10
100
AcDbLine
 10
3.5622
 20
0.6885
 30
0.0400
 11
3.5562
 21
0.6842
 31
0.0400
  0
LINE
  5
30
100
AcDbEntity
  8
1
 62
10
100
AcDbLine
 10
3.5562
 20
0.6842
 30
0.0400
 11
3.5499
 21
0.6804
 31
0.0400
  0
LINE
  5
30
100
AcDbEntity
  8
1
 62
10
100
AcDbLine
 10
3.5499
 20
0.6804
 30
0.0400
 11
3.5433
 21
0.6772
 31
0.0400
  0
LINE
  5
30
100
AcDbEntity
  8
1
 62
10
100
AcDbLine
 10
3.5433
 20
0.6772
 30
0.0400
 11
3.5365
 21
0.6746
 31
0.0400
  0
LINE
  5
30
100
AcDbEntity
  8
1
 62
10
100
AcDbLine
 10
3.5365
 20
0.6746
 30
0.0400
 11
3.5294
 21
0.6725
 31
0.0400
  0
LINE
  5
30
100
AcDbEntity
  8
1
 62
10
100
AcDbLine
 10
3.5294
 20
0.6725
 30
0.0400
 11
3.5222
 21
0.6711
 31
0.0400
  0
LINE
  5
30
100
AcDbEntity
  8
1
 62
10
100
AcDbLine
 10
3.5222
 20
0.6711
 30
0.0400
 11
3.5149
 21
0.6704
 31
0.0400
  0
LINE
  5
30
100
AcDbEntity
  8
1
 62
10
100
AcDbLine
 10
3.5149
 20
0.6704
 30
0.0400
 11
3.5131
 21
0.6703
 31
0.0400
  0
LINE
  5
30
100
AcDbEntity
  8
1
 62
10
100
AcDbLine
 10
3.5131
 20
0.6703
 30
0.0400
 11
3.4941
 21
0.6706
 31
0.0400
  0
LINE
  5
30
100
AcDbEntity
  8
1
 62
10
100
AcDbLine
 10
3.4941
 20
0.6706
 30
0.0400
 11
3.4929
 21
0.6707
 31
0.0400
  0
LINE
  5
30
100
AcDbEntity
  8
1
 62
10
100
AcDbLine
 10
3.4929
 20
0.6707
 30
0.0400
 11
3.4569
 21
0.6732
 31
0.0400
  0
LINE
  5
30
100
AcDbEntity
  8
1
 62
10
100
AcDbLine
 10
3.4569
 20
0.6732
 30
0.0400
 11
3.4297
 21
0.6710
 31
0.0400
  0
LINE
  5
30
100
AcDbEntity
  8
1
 62
10
100
AcDbLine
 10
3.4297
 20
0.6710
 30
0.0400
 11
3.4123
 21
0.6657
 31
0.0400
  0
LINE
  5
30
100
AcDbEntity
  8
1
 62
10
100
AcDbLine
 10
3.4123
 20
0.6657
 30
0.0400
 11
3.3982
 21
0.6572
 31
0.0400
  0
LINE
  5
30
100
AcDbEntity
  8
1
 62
10
100
AcDbLine
 10
3.3982
 20
0.6572
 30
0.0400
 11
3.3856
 21
0.6444
 31
0.0400
  0
LINE
  5
30
100
AcDbEntity
  8
1
 62
10
100
AcDbLine
 10
3.3856
 20
0.6444
 30
0.0400
 11
3.3737
 21
0.6259
 31
0.0400
  0
LINE
  5
30
100
AcDbEntity
  8
1
 62
10
100
AcDbLine
 10
3.3737
 20
0.6259
 30
0.0400
 11
3.3622
 21
0.6004
 31
0.0400
  0
LINE
  5
30
100
AcDbEntity
  8
1
 62
10
100
AcDbLine
 10
3.3622
 20
0.6004
 30
0.0400
 11
3.3559
 21
0.5827
 31
0.0400
  0
LINE
  5
30
100
AcDbEntity
  8
1
 62
10
100
AcDbLine
 10
3.3559
 20
0.5827
 30
0.0400
 11
3.3418
 21
0.5348
 31
0.0400
  0
LINE
  5
30
100
AcDbEntity
  8
1
 62
10
100
AcDbLine
 10
3.3418
 20
0.5348
 30
0.0400
 11
3.3392
 21
0.5235
 31
0.0400
  0
LINE
  5
30
100
AcDbEntity
  8
1
 62
10
100
AcDbLine
 10
3.3392
 20
0.5235
 30
0.0400
 11
3.3387
 21
0.5202
 31
0.0400
  0
LINE
  5
30
100
AcDbEntity
  8
1
 62
10
100
AcDbLine
 10
3.3387
 20
0.5202
 30
0.0400
 11
3.3363
 21
0.5086
 31
0.0400
  0
LINE
  5
30
100
AcDbEntity
  8
1
 62
10
100
AcDbLine
 10
3.3363
 20
0.5086
 30
0.0400
 11
3.3329
 21
0.4973
 31
0.0400
  0
LINE
  5
30
100
AcDbEntity
  8
1
 62
10
100
AcDbLine
 10
3.3329
 20
0.4973
 30
0.0400
 11
3.3285
 21
0.4863
 31
0.0400
  0
LINE
  5
30
100
AcDbEntity
  8
1
 62
10
100
AcDbLine
 10
3.3285
 20
0.4863
 30
0.0400
 11
3.3231
 21
0.4758
 31
0.0400
  0
LINE
  5
30
100
AcDbEntity
  8
1
 62
10
100
AcDbLine
 10
3.3231
 20
0.4758
 30
0.0400
 11
3.3169
 21
0.4657
 31
0.0400
  0
LINE
  5
30
100
AcDbEntity
  8
1
 62
10
100
AcDbLine
 10
3.3169
 20
0.4657
 30
0.0400
 11
3.3098
 21
0.4563
 31
0.0400
  0
LINE
  5
30
100
AcDbEntity
  8
1
 62
10
100
AcDbLine
 10
3.3098
 20
0.4563
 30
0.0400
 11
3.3019
 21
0.4474
 31
0.0400
  0
LINE
  5
30
100
AcDbEntity
  8
1
 62
10
100
AcDbLine
 10
3.3019
 20
0.4474
 30
0.0400
 11
3.2933
 21
0.4394
 31
0.0400
  0
LINE
  5
30
100
AcDbEntity
  8
1
 62
10
100
AcDbLine
 10
3.2933
 20
0.4394
 30
0.0400
 11
3.2840
 21
0.4320
 31
0.0400
  0
LINE
  5
30
100
AcDbEntity
  8
1
 62
10
100
AcDbLine
 10
3.2840
 20
0.4320
 30
0.0400
 11
3.2741
 21
0.4256
 31
0.0400
  0
LINE
  5
30
100
AcDbEntity
  8
1
 62
10
100
AcDbLine
 10
3.2741
 20
0.4256
 30
0.0400
 11
3.2636
 21
0.4200
 31
0.0400
  0
LINE
  5
30
100
AcDbEntity
  8
1
 62
10
100
AcDbLine
 10
3.2636
 20
0.4200
 30
0.0400
 11
3.2528
 21
0.4153
 31
0.0400
  0
LINE
  5
30
100
AcDbEntity
  8
1
 62
10
100
AcDbLine
 10
3.2528
 20
0.4153
 30
0.0400
 11
3.2415
 21
0.4116
 31
0.0400
  0
LINE
  5
30
100
AcDbEntity
  8
1
 62
10
100
AcDbLine
 10
3.2415
 20
0.4116
 30
0.0400
 11
3.2300
 21
0.4089
 31
0.0400
  0
LINE
  5
30
100
AcDbEntity
  8
1
 62
10
100
AcDbLine
 10
3.2300
 20
0.4089
 30
0.0400
 11
3.2183
 21
0.4072
 31
0.0400
  0
LINE
  5
30
100
AcDbEntity
  8
1
 62
10
100
AcDbLine
 10
3.2183
 20
0.4072
 30
0.0400
 11
3.2179
 21
0.4072
 31
0.0400
  0
LINE
  5
30
100
AcDbEntity
  8
1
 62
10
100
AcDbLine
 10
3.2179
 20
0.4072
 30
0.0400
 11
3.1349
 21
0.4007
 31
0.0400
  0
LINE
  5
30
100
AcDbEntity
  8
1
 62
10
100
AcDbLine
 10
3.1349
 20
0.4007
 30
0.0400
 11
3.1339
 21
0.4007
 31
0.0400
  0
LINE
  5
30
100
AcDbEntity
  8
1
 62
10
100
AcDbLine
 10
3.1339
 20
0.4007
 30
0.0400
 11
3.0531
 21
0.3981
 31
0.0400
  0
LINE
  5
30
100
AcDbEntity
  8
1
 62
10
100
AcDbLine
 10
3.0531
 20
0.3981
 30
0.0400
 11
3.0518
 21
0.3981
 31
0.0400
  0
LINE
  5
30
100
AcDbEntity
  8
1
 62
10
100
AcDbLine
 10
3.0518
 20
0.3981
 30
0.0400
 11
3.0498
 21
0.3983
 31
0.0400
  0
LINE
  5
30
100
AcDbEntity
  8
1
 62
10
100
AcDbLine
 10
3.0498
 20
0.3983
 30
0.0400
 11
3.0303
 21
0.4005
 31
0.0400
  0
LINE
  5
30
100
AcDbEntity
  8
1
 62
10
100
AcDbLine
 10
3.0303
 20
0.4005
 30
0.0400
 11
3.0297
 21
0.4006
 31
0.0400
  0
LINE
  5
30
100
AcDbEntity
  8
1
 62
10
100
AcDbLine
 10
3.0297
 20
0.4006
 30
0.0400
 11
3.0278
 21
0.4009
 31
0.0400
  0
LINE
  5
30
100
AcDbEntity
  8
1
 62
10
100
AcDbLine
 10
3.0278
 20
0.4009
 30
0.0400
 11
3.0259
 21
0.4015
 31
0.0400
  0
LINE
  5
30
100
AcDbEntity
  8
1
 62
10
100
AcDbLine
 10
3.0259
 20
0.4015
 30
0.0400
 11
3.0241
 21
0.4022
 31
0.0400
  0
LINE
  5
30
100
AcDbEntity
  8
1
 62
10
100
AcDbLine
 10
3.0241
 20
0.4022
 30
0.0400
 11
3.0079
 21
0.4091
 31
0.0400
  0
LINE
  5
30
100
AcDbEntity
  8
1
 62
10
100
AcDbLine
 10
3.0079
 20
0.4091
 30
0.0400
 11
3.0063
 21
0.4099
 31
0.0400
  0
LINE
  5
30
100
AcDbEntity
  8
1
 62
10
100
AcDbLine
 10
3.0063
 20
0.4099
 30
0.0400
 11
3.0046
 21
0.4109
 31
0.0400
  0
LINE
  5
30
100
AcDbEntity
  8
1
 62
10
100
AcDbLine
 10
3.0046
 20
0.4109
 30
0.0400
 11
3.0030
 21
0.4120
 31
0.0400
  0
LINE
  5
30
100
AcDbEntity
  8
1
 62
10
100
AcDbLine
 10
3.0030
 20
0.4120
 30
0.0400
 11
3.0015
 21
0.4133
 31
0.0400
  0
LINE
  5
30
100
AcDbEntity
  8
1
 62
10
100
AcDbLine
 10
3.0015
 20
0.4133
 30
0.0400
 11
2.9896
 21
0.4243
 31
0.0400
  0
LINE
  5
30
100
AcDbEntity
  8
1
 62
10
100
AcDbLine
 10
2.9896
 20
0.4243
 30
0.0400
 11
2.9891
 21
0.4247
 31
0.0400
  0
LINE
  5
30
100
AcDbEntity
  8
1
 62
10
100
AcDbLine
 10
2.9891
 20
0.4247
 30
0.0400
 11
2.9878
 21
0.4262
 31
0.0400
  0
LINE
  5
30
100
AcDbEntity
  8
1
 62
10
100
AcDbLine
 10
2.9878
 20
0.4262
 30
0.0400
 11
2.9866
 21
0.4277
 31
0.0400
  0
LINE
  5
30
100
AcDbEntity
  8
1
 62
10
100
AcDbLine
 10
2.9866
 20
0.4277
 30
0.0400
 11
2.9855
 21
0.4294
 31
0.0400
  0
LINE
  5
30
100
AcDbEntity
  8
1
 62
10
100
AcDbLine
 10
2.9855
 20
0.4294
 30
0.0400
 11
2.9846
 21
0.4311
 31
0.0400
  0
LINE
  5
30
100
AcDbEntity
  8
1
 62
10
100
AcDbLine
 10
2.9846
 20
0.4311
 30
0.0400
 11
2.9777
 21
0.4456
 31
0.0400
  0
LINE
  5
30
100
AcDbEntity
  8
1
 62
10
100
AcDbLine
 10
2.9777
 20
0.4456
 30
0.0400
 11
2.9775
 21
0.4460
 31
0.0400
  0
LINE
  5
30
100
AcDbEntity
  8
1
 62
10
100
AcDbLine
 10
2.9775
 20
0.4460
 30
0.0400
 11
2.9768
 21
0.4478
 31
0.0400
  0
LINE
  5
30
100
AcDbEntity
  8
1
 62
10
100
AcDbLine
 10
2.9768
 20
0.4478
 30
0.0400
 11
2.9762
 21
0.4497
 31
0.0400
  0
LINE
  5
30
100
AcDbEntity
  8
1
 62
10
100
AcDbLine
 10
2.9762
 20
0.4497
 30
0.0400
 11
2.9758
 21
0.4516
 31
0.0400
  0
LINE
  5
30
100
AcDbEntity
  8
1
 62
10
100
AcDbLine
 10
2.9758
 20
0.4516
 30
0.0400
 11
2.9756
 21
0.4536
 31
0.0400
  0
LINE
  5
30
100
AcDbEntity
  8
1
 62
10
100
AcDbLine
 10
2.9756
 20
0.4536
 30
0.0400
 11
2.9744
 21
0.4691
 31
0.0400
  0
LINE
  5
30
100
AcDbEntity
  8
1
 62
10
100
AcDbLine
 10
2.9744
 20
0.4691
 30
0.0400
 11
2.9744
 21
0.4693
 31
0.0400
  0
LINE
  5
30
100
AcDbEntity
  8
1
 62
10
100
AcDbLine
 10
2.9744
 20
0.4693
 30
0.0400
 11
2.9743
 21
0.4713
 31
0.0400
  0
LINE
  5
30
100
AcDbEntity
  8
1
 62
10
100
AcDbLine
 10
2.9743
 20
0.4713
 30
0.0400
 11
2.9745
 21
0.4732
 31
0.0400
  0
LINE
  5
30
100
AcDbEntity
  8
1
 62
10
100
AcDbLine
 10
2.9745
 20
0.4732
 30
0.0400
 11
2.9747
 21
0.4752
 31
0.0400
  0
LINE
  5
30
100
AcDbEntity
  8
1
 62
10
100
AcDbLine
 10
2.9747
 20
0.4752
 30
0.0400
 11
2.9772
 21
0.4877
 31
0.0400
  0
LINE
  5
30
100
AcDbEntity
  8
1
 62
10
100
AcDbLine
 10
2.9772
 20
0.4877
 30
0.0400
 11
2.9774
 21
0.4884
 31
0.0400
  0
LINE
  5
30
100
AcDbEntity
  8
1
 62
10
100
AcDbLine
 10
2.9774
 20
0.4884
 30
0.0400
 11
2.9779
 21
0.4903
 31
0.0400
  0
LINE
  5
30
100
AcDbEntity
  8
1
 62
10
100
AcDbLine
 10
2.9779
 20
0.4903
 30
0.0400
 11
2.9974
 21
0.5502
 31
0.0400
  0
LINE
  5
30
100
AcDbEntity
  8
1
 62
10
100
AcDbLine
 10
2.9974
 20
0.5502
 30
0.0400
 11
2.9978
 21
0.5513
 31
0.0400
  0
LINE
  5
30
100
AcDbEntity
  8
1
 62
10
100
AcDbLine
 10
2.9978
 20
0.5513
 30
0.0400
 11
3.0204
 21
0.6100
 31
0.0400
  0
LINE
  5
30
100
AcDbEntity
  8
1
 62
10
100
AcDbLine
 10
3.0204
 20
0.6100
 30
0.0400
 11
3.0208
 21
0.6111
 31
0.0400
  0
LINE
  5
30
100
AcDbEntity
  8
1
 62
10
100
AcDbLine
 10
3.0208
 20
0.6111
 30
0.0400
 11
3.0428
 21
0.6608
 31
0.0400
  0
LINE
  5
30
100
AcDbEntity
  8
1
 62
10
100
AcDbLine
 10
3.0428
 20
0.6608
 30
0.0400
 11
3.0751
 21
0.7374
 31
0.0400
  0
LINE
  5
30
100
AcDbEntity
  8
1
 62
10
100
AcDbLine
 10
3.0751
 20
0.7374
 30
0.0400
 11
3.1009
 21
0.8120
 31
0.0400
  0
LINE
  5
30
100
AcDbEntity
  8
1
 62
10
100
AcDbLine
 10
3.1009
 20
0.8120
 30
0.0400
 11
3.1201
 21
0.8885
 31
0.0400
  0
LINE
  5
30
100
AcDbEntity
  8
1
 62
10
100
AcDbLine
 10
3.1201
 20
0.8885
 30
0.0400
 11
3.1325
 21
0.9664
 31
0.0400
  0
LINE
  5
30
100
AcDbEntity
  8
1
 62
10
100
AcDbLine
 10
3.1325
 20
0.9664
 30
0.0400
 11
3.1381
 21
1.0451
 31
0.0400
  0
LINE
  5
30
100
AcDbEntity
  8
1
 62
10
100
AcDbLine
 10
3.1381
 20
1.0451
 30
0.0400
 11
3.1384
 21
1.0851
 31
0.0400
  0
LINE
  5
30
100
AcDbEntity
  8
1
 62
10
100
AcDbLine
 10
3.1383
 20
1.0851
 30
0.0400
 11
3.1379
 21
1.0954
 31
0.0400
  0
LINE
  5
30
100
AcDbEntity
  8
1
 62
10
100
AcDbLine
 10
3.1379
 20
1.0954
 30
0.0400
 11
3.1325
 21
1.1404
 31
0.0400
  0
LINE
  5
30
100
AcDbEntity
  8
1
 62
10
100
AcDbLine
 10
3.1325
 20
1.1404
 30
0.0400
 11
3.1229
 21
1.1847
 31
0.0400
  0
LINE
  5
30
100
AcDbEntity
  8
1
 62
10
100
AcDbLine
 10
3.1229
 20
1.1847
 30
0.0400
 11
3.1160
 21
1.2081
 31
0.0400
  0
LINE
  5
30
100
AcDbEntity
  8
1
 62
10
100
AcDbLine
 10
3.1160
 20
1.2081
 30
0.0400
 11
3.1070
 21
1.2308
 31
0.0400
  0
LINE
  5
30
100
AcDbEntity
  8
1
 62
10
100
AcDbLine
 10
3.1070
 20
1.2308
 30
0.0400
 11
3.0978
 21
1.2442
 31
0.0400
  0
LINE
  5
30
100
AcDbEntity
  8
1
 62
10
100
AcDbLine
 10
3.0978
 20
1.2442
 30
0.0400
 11
3.0877
 21
1.2528
 31
0.0400
  0
LINE
  5
30
100
AcDbEntity
  8
1
 62
10
100
AcDbLine
 10
3.0877
 20
1.2528
 30
0.0400
 11
3.0776
 21
1.2569
 31
0.0400
  0
LINE
  5
30
100
AcDbEntity
  8
1
 62
10
100
AcDbLine
 10
3.0776
 20
1.2569
 30
0.0400
 11
3.0651
 21
1.2583
 31
0.0400
  0
LINE
  5
30
100
AcDbEntity
  8
1
 62
10
100
AcDbLine
 10
3.0651
 20
1.2583
 30
0.0400
 11
3.0486
 21
1.2560
 31
0.0400
  0
LINE
  5
30
100
AcDbEntity
  8
1
 62
10
100
AcDbLine
 10
3.0486
 20
1.2560
 30
0.0400
 11
3.0393
 21
1.2533
 31
0.0400
  0
LINE
  5
30
100
AcDbEntity
  8
1
 62
10
100
AcDbLine
 10
3.0393
 20
1.2533
 30
0.0400
 11
2.9934
 21
1.2371
 31
0.0400
  0
LINE
  5
30
100
AcDbEntity
  8
1
 62
10
100
AcDbLine
 10
2.9934
 20
1.2371
 30
0.0400
 11
2.9488
 21
1.2180
 31
0.0400
  0
LINE
  5
30
100
AcDbEntity
  8
1
 62
10
100
AcDbLine
 10
2.9488
 20
1.2180
 30
0.0400
 11
2.9056
 21
1.1961
 31
0.0400
  0
LINE
  5
30
100
AcDbEntity
  8
1
 62
10
100
AcDbLine
 10
2.9056
 20
1.1961
 30
0.0400
 11
2.8569
 21
1.1668
 31
0.0400
  0
LINE
  5
30
100
AcDbEntity
  8
1
 62
10
100
AcDbLine
 10
2.8569
 20
1.1668
 30
0.0400
 11
2.6414
 21
1.0015
 31
0.0400
  0
LINE
  5
30
100
AcDbEntity
  8
1
 62
10
100
AcDbLine
 10
2.6414
 20
1.0015
 30
0.0400
 11
2.4410
 21
0.8180
 31
0.0400
  0
LINE
  5
30
100
AcDbEntity
  8
1
 62
10
100
AcDbLine
 10
2.4410
 20
0.8180
 30
0.0400
 11
2.2575
 21
0.6178
 31
0.0400
  0
LINE
  5
30
100
AcDbEntity
  8
1
 62
10
100
AcDbLine
 10
2.2575
 20
0.6178
 30
0.0400
 11
2.1951
 21
0.5411
 31
0.0400
  0
LINE
  5
30
100
AcDbEntity
  8
1
 62
10
100
AcDbLine
 10
2.1951
 20
0.5411
 30
0.0400
 11
2.1701
 21
0.5089
 31
0.0400
  0
LINE
  5
30
100
AcDbEntity
  8
1
 62
10
100
AcDbLine
 10
2.1701
 20
0.5089
 30
0.0400
 11
2.1481
 21
0.4775
 31
0.0400
  0
LINE
  5
30
100
AcDbEntity
  8
1
 62
10
100
AcDbLine
 10
2.1481
 20
0.4775
 30
0.0400
 11
2.0967
 21
0.3958
 31
0.0400
  0
LINE
  5
30
100
AcDbEntity
  8
1
 62
10
100
AcDbLine
 10
2.0967
 20
0.3958
 30
0.0400
 11
2.0957
 21
0.3944
 31
0.0400
  0
LINE
  5
30
100
AcDbEntity
  8
1
 62
10
100
AcDbLine
 10
2.0957
 20
0.3944
 30
0.0400
 11
2.0518
 21
0.3351
 31
0.0400
  0
LINE
  5
30
100
AcDbEntity
  8
1
 62
10
100
AcDbLine
 10
2.0518
 20
0.3351
 30
0.0400
 11
2.0511
 21
0.3342
 31
0.0400
  0
LINE
  5
30
100
AcDbEntity
  8
1
 62
10
100
AcDbLine
 10
2.0511
 20
0.3342
 30
0.0400
 11
2.0340
 21
0.3135
 31
0.0400
  0
LINE
  5
30
100
AcDbEntity
  8
1
 62
10
100
AcDbLine
 10
2.0340
 20
0.3135
 30
0.0400
 11
2.0335
 21
0.3129
 31
0.0400
  0
LINE
  5
30
100
AcDbEntity
  8
1
 62
10
100
AcDbLine
 10
2.0335
 20
0.3129
 30
0.0400
 11
2.0321
 21
0.3115
 31
0.0400
  0
LINE
  5
30
100
AcDbEntity
  8
1
 62
10
100
AcDbLine
 10
2.0321
 20
0.3115
 30
0.0400
 11
2.0172
 21
0.2974
 31
0.0400
  0
LINE
  5
30
100
AcDbEntity
  8
1
 62
10
100
AcDbLine
 10
2.0172
 20
0.2974
 30
0.0400
 11
2.0164
 21
0.2967
 31
0.0400
  0
LINE
  5
30
100
AcDbEntity
  8
1
 62
10
100
AcDbLine
 10
2.0164
 20
0.2967
 30
0.0400
 11
2.0149
 21
0.2955
 31
0.0400
  0
LINE
  5
30
100
AcDbEntity
  8
1
 62
10
100
AcDbLine
 10
2.0149
 20
0.2955
 30
0.0400
 11
2.0103
 21
0.2924
 31
0.0400
  0
LINE
  5
30
100
AcDbEntity
  8
1
 62
10
100
AcDbLine
 10
2.0103
 20
0.2924
 30
0.0400
 11
2.0028
 21
0.2880
 31
0.0400
  0
LINE
  5
30
100
AcDbEntity
  8
1
 62
10
100
AcDbLine
 10
2.0028
 20
0.2880
 30
0.0400
 11
1.9949
 21
0.2843
 31
0.0400
  0
LINE
  5
30
100
AcDbEntity
  8
1
 62
10
100
AcDbLine
 10
1.9949
 20
0.2843
 30
0.0400
 11
1.9866
 21
0.2812
 31
0.0400
  0
LINE
  5
30
100
AcDbEntity
  8
1
 62
10
100
AcDbLine
 10
1.9866
 20
0.2812
 30
0.0400
 11
1.9782
 21
0.2789
 31
0.0400
  0
LINE
  5
30
100
AcDbEntity
  8
1
 62
10
100
AcDbLine
 10
1.9782
 20
0.2789
 30
0.0400
 11
1.9696
 21
0.2774
 31
0.0400
  0
LINE
  5
30
100
AcDbEntity
  8
1
 62
10
100
AcDbLine
 10
1.9696
 20
0.2774
 30
0.0400
 11
1.9608
 21
0.2766
 31
0.0400
  0
LINE
  5
30
100
AcDbEntity
  8
1
 62
10
100
AcDbLine
 10
1.9608
 20
0.2766
 30
0.0400
 11
1.9521
 21
0.2766
 31
0.0400
  0
LINE
  5
30
100
AcDbEntity
  8
1
 62
10
100
AcDbLine
 10
1.9521
 20
0.2766
 30
0.0400
 11
1.9433
 21
0.2773
 31
0.0400
  0
LINE
  5
30
100
AcDbEntity
  8
1
 62
10
100
AcDbLine
 10
1.9433
 20
0.2773
 30
0.0400
 11
1.9347
 21
0.2788
 31
0.0400
  0
LINE
  5
30
100
AcDbEntity
  8
1
 62
10
100
AcDbLine
 10
1.9347
 20
0.2788
 30
0.0400
 11
1.9262
 21
0.2810
 31
0.0400
  0
LINE
  5
30
100
AcDbEntity
  8
1
 62
10
100
AcDbLine
 10
1.9262
 20
0.2810
 30
0.0400
 11
1.9180
 21
0.2840
 31
0.0400
  0
LINE
  5
30
100
AcDbEntity
  8
1
 62
10
100
AcDbLine
 10
1.9180
 20
0.2840
 30
0.0400
 11
1.8919
 21
0.2907
 31
0.0400
  0
LINE
  5
30
100
AcDbEntity
  8
1
 62
10
100
AcDbLine
 10
1.8919
 20
0.2907
 30
0.0400
 11
1.8740
 21
0.2917
 31
0.0400
  0
LINE
  5
30
100
AcDbEntity
  8
1
 62
10
100
AcDbLine
 10
1.8740
 20
0.2917
 30
0.0400
 11
1.8598
 21
0.2887
 31
0.0400
  0
LINE
  5
30
100
AcDbEntity
  8
1
 62
10
100
AcDbLine
 10
1.8598
 20
0.2887
 30
0.0400
 11
1.8467
 21
0.2816
 31
0.0400
  0
LINE
  5
30
100
AcDbEntity
  8
1
 62
10
100
AcDbLine
 10
1.8467
 20
0.2816
 30
0.0400
 11
1.8329
 21
0.2689
 31
0.0400
  0
LINE
  5
30
100
AcDbEntity
  8
1
 62
10
100
AcDbLine
 10
1.8329
 20
0.2689
 30
0.0400
 11
1.8169
 21
0.2478
 31
0.0400
  0
LINE
  5
30
100
AcDbEntity
  8
1
 62
10
100
AcDbLine
 10
1.8169
 20
0.2478
 30
0.0400
 11
1.7870
 21
0.1973
 31
0.0400
  0
LINE
  5
30
100
AcDbEntity
  8
1
 62
10
100
AcDbLine
 10
1.7870
 20
0.1973
 30
0.0400
 11
1.7804
 21
0.1854
 31
0.0400
  0
LINE
  5
30
100
AcDbEntity
  8
1
 62
10
100
AcDbLine
 10
1.7804
 20
0.1854
 30
0.0400
 11
1.7684
 21
0.1673
 31
0.0400
  0
LINE
  5
30
100
AcDbEntity
  8
1
 62
10
100
AcDbLine
 10
1.7684
 20
0.1673
 30
0.0400
 11
1.7550
 21
0.1502
 31
0.0400
  0
LINE
  5
30
100
AcDbEntity
  8
1
 62
10
100
AcDbLine
 10
1.7550
 20
0.1502
 30
0.0400
 11
1.7401
 21
0.1344
 31
0.0400
  0
LINE
  5
30
100
AcDbEntity
  8
1
 62
10
100
AcDbLine
 10
1.7401
 20
0.1344
 30
0.0400
 11
1.7239
 21
0.1200
 31
0.0400
  0
LINE
  5
30
100
AcDbEntity
  8
1
 62
10
100
AcDbLine
 10
1.7239
 20
0.1200
 30
0.0400
 11
1.7064
 21
0.1070
 31
0.0400
  0
LINE
  5
30
100
AcDbEntity
  8
1
 62
10
100
AcDbLine
 10
1.7064
 20
0.1070
 30
0.0400
 11
1.6880
 21
0.0956
 31
0.0400
  0
LINE
  5
30
100
AcDbEntity
  8
1
 62
10
100
AcDbLine
 10
1.6880
 20
0.0956
 30
0.0400
 11
1.6686
 21
0.0858
 31
0.0400
  0
LINE
  5
30
100
AcDbEntity
  8
1
 62
10
100
AcDbLine
 10
1.6686
 20
0.0858
 30
0.0400
 11
1.6484
 21
0.0778
 31
0.0400
  0
LINE
  5
30
100
AcDbEntity
  8
1
 62
10
100
AcDbLine
 10
1.6484
 20
0.0778
 30
0.0400
 11
1.6276
 21
0.0715
 31
0.0400
  0
LINE
  5
30
100
AcDbEntity
  8
1
 62
10
100
AcDbLine
 10
1.6276
 20
0.0715
 30
0.0400
 11
1.6063
 21
0.0672
 31
0.0400
  0
LINE
  5
30
100
AcDbEntity
  8
1
 62
10
100
AcDbLine
 10
1.6063
 20
0.0672
 30
0.0400
 11
1.6052
 21
0.0670
 31
0.0400
  0
LINE
  5
30
100
AcDbEntity
  8
1
 62
10
100
AcDbLine
 10
1.6052
 20
0.0670
 30
0.0400
 11
1.5737
 21
0.0635
 31
0.0400
  0
LINE
  5
30
100
AcDbEntity
  8
1
 62
10
100
AcDbLine
 10
1.5737
 20
0.0635
 30
0.0400
 11
1.5734
 21
0.0635
 31
0.0400
  0
LINE
  5
30
100
AcDbEntity
  8
1
 62
10
100
AcDbLine
 10
1.5734
 20
0.0635
 30
0.0400
 11
1.5714
 21
0.0633
 31
0.0400
  0
LINE
  5
30
100
AcDbEntity
  8
1
 62
10
100
AcDbLine
 10
1.5714
 20
0.0633
 30
0.0400
 11
1.4946
 21
0.0625
 31
0.0400
  0
LINE
  5
30
100
AcDbEntity
  8
1
 62
10
100
AcDbLine
 10
1.4946
 20
0.0625
 30
0.0400
 11
1.4583
 21
0.0605
 31
0.0400
  0
LINE
  5
30
100
AcDbEntity
  8
1
 62
10
100
AcDbLine
 10
1.4583
 20
0.0605
 30
0.0400
 11
1.3915
 21
0.0578
 31
0.0400
  0
LINE
  5
30
100
AcDbEntity
  8
1
 62
10
100
AcDbLine
 10
1.3915
 20
0.0578
 30
0.0400
 11
1.3899
 21
0.0578
 31
0.0400
  0
LINE
  5
30
100
AcDbEntity
  8
1
 62
10
100
AcDbLine
 10
1.3899
 20
0.0578
 30
0.0400
 11
1.3879
 21
0.0579
 31
0.0400
  0
LINE
  5
30
100
AcDbEntity
  8
1
 62
10
100
AcDbLine
 10
1.3879
 20
0.0579
 30
0.0400
 11
1.3684
 21
0.0603
 31
0.0400
  0
LINE
  5
30
100
AcDbEntity
  8
1
 62
10
100
AcDbLine
 10
1.3684
 20
0.0603
 30
0.0400
 11
1.3677
 21
0.0604
 31
0.0400
  0
LINE
  5
30
100
AcDbEntity
  8
1
 62
10
100
AcDbLine
 10
1.3677
 20
0.0604
 30
0.0400
 11
1.3658
 21
0.0608
 31
0.0400
  0
LINE
  5
30
100
AcDbEntity
  8
1
 62
10
100
AcDbLine
 10
1.3658
 20
0.0608
 30
0.0400
 11
1.3639
 21
0.0613
 31
0.0400
  0
LINE
  5
30
100
AcDbEntity
  8
1
 62
10
100
AcDbLine
 10
1.3639
 20
0.0613
 30
0.0400
 11
1.3453
 21
0.0677
 31
0.0400
  0
LINE
  5
30
100
AcDbEntity
  8
1
 62
10
100
AcDbLine
 10
1.3453
 20
0.0677
 30
0.0400
 11
1.3447
 21
0.0679
 31
0.0400
  0
LINE
  5
30
100
AcDbEntity
  8
1
 62
10
100
AcDbLine
 10
1.3447
 20
0.0679
 30
0.0400
 11
1.3429
 21
0.0687
 31
0.0400
  0
LINE
  5
30
100
AcDbEntity
  8
1
 62
10
100
AcDbLine
 10
1.3429
 20
0.0687
 30
0.0400
 11
1.3411
 21
0.0696
 31
0.0400
  0
LINE
  5
30
100
AcDbEntity
  8
1
 62
10
100
AcDbLine
 10
1.3411
 20
0.0696
 30
0.0400
 11
1.3395
 21
0.0707
 31
0.0400
  0
LINE
  5
30
100
AcDbEntity
  8
1
 62
10
100
AcDbLine
 10
1.3395
 20
0.0707
 30
0.0400
 11
1.3316
 21
0.0763
 31
0.0400
  0
LINE
  5
30
100
AcDbEntity
  8
1
 62
10
100
AcDbLine
 10
1.3316
 20
0.0763
 30
0.0400
 11
1.3304
 21
0.0772
 31
0.0400
  0
LINE
  5
30
100
AcDbEntity
  8
1
 62
10
100
AcDbLine
 10
1.3304
 20
0.0772
 30
0.0400
 11
1.3290
 21
0.0785
 31
0.0400
  0
LINE
  5
30
100
AcDbEntity
  8
1
 62
10
100
AcDbLine
 10
1.3290
 20
0.0785
 30
0.0400
 11
1.3276
 21
0.0800
 31
0.0400
  0
LINE
  5
30
100
AcDbEntity
  8
1
 62
10
100
AcDbLine
 10
1.3276
 20
0.0800
 30
0.0400
 11
1.3264
 21
0.0815
 31
0.0400
  0
LINE
  5
30
100
AcDbEntity
  8
1
 62
10
100
AcDbLine
 10
1.3264
 20
0.0815
 30
0.0400
 11
1.3243
 21
0.0844
 31
0.0400
  0
LINE
  5
30
100
AcDbEntity
  8
1
 62
10
100
AcDbLine
 10
1.3243
 20
0.0844
 30
0.0400
 11
1.3240
 21
0.0849
 31
0.0400
  0
LINE
  5
30
100
AcDbEntity
  8
1
 62
10
100
AcDbLine
 10
1.3240
 20
0.0849
 30
0.0400
 11
1.3229
 21
0.0866
 31
0.0400
  0
LINE
  5
30
100
AcDbEntity
  8
1
 62
10
100
AcDbLine
 10
1.3229
 20
0.0866
 30
0.0400
 11
1.3221
 21
0.0883
 31
0.0400
  0
LINE
  5
30
100
AcDbEntity
  8
1
 62
10
100
AcDbLine
 10
1.3221
 20
0.0883
 30
0.0400
 11
1.3213
 21
0.0901
 31
0.0400
  0
LINE
  5
30
100
AcDbEntity
  8
1
 62
10
100
AcDbLine
 10
1.3213
 20
0.0901
 30
0.0400
 11
1.3208
 21
0.0920
 31
0.0400
  0
LINE
  5
30
100
AcDbEntity
  8
1
 62
10
100
AcDbLine
 10
1.3208
 20
0.0920
 30
0.0400
 11
1.3204
 21
0.0940
 31
0.0400
  0
LINE
  5
30
100
AcDbEntity
  8
1
 62
10
100
AcDbLine
 10
1.3204
 20
0.0940
 30
0.0400
 11
1.3201
 21
0.0959
 31
0.0400
  0
LINE
  5
30
100
AcDbEntity
  8
1
 62
10
100
AcDbLine
 10
1.3201
 20
0.0959
 30
0.0400
 11
1.3190
 21
0.1113
 31
0.0400
  0
LINE
  5
30
100
AcDbEntity
  8
1
 62
10
100
AcDbLine
 10
1.3190
 20
0.1113
 30
0.0400
 11
1.3190
 21
0.1116
 31
0.0400
  0
LINE
  5
30
100
AcDbEntity
  8
1
 62
10
100
AcDbLine
 10
1.3190
 20
0.1116
 30
0.0400
 11
1.3190
 21
0.1135
 31
0.0400
  0
LINE
  5
30
100
AcDbEntity
  8
1
 62
10
100
AcDbLine
 10
1.3190
 20
0.1135
 30
0.0400
 11
1.3191
 21
0.1155
 31
0.0400
  0
LINE
  5
30
100
AcDbEntity
  8
1
 62
10
100
AcDbLine
 10
1.3191
 20
0.1155
 30
0.0400
 11
1.3194
 21
0.1174
 31
0.0400
  0
LINE
  5
30
100
AcDbEntity
  8
1
 62
10
100
AcDbLine
 10
1.3194
 20
0.1174
 30
0.0400
 11
1.3224
 21
0.1324
 31
0.0400
  0
LINE
  5
30
100
AcDbEntity
  8
1
 62
10
100
AcDbLine
 10
1.3224
 20
0.1324
 30
0.0400
 11
1.3224
 21
0.1326
 31
0.0400
  0
LINE
  5
30
100
AcDbEntity
  8
1
 62
10
100
AcDbLine
 10
1.3224
 20
0.1326
 30
0.0400
 11
1.3229
 21
0.1345
 31
0.0400
  0
LINE
  5
30
100
AcDbEntity
  8
1
 62
10
100
AcDbLine
 10
1.3229
 20
0.1345
 30
0.0400
 11
1.3236
 21
0.1363
 31
0.0400
  0
LINE
  5
30
100
AcDbEntity
  8
1
 62
10
100
AcDbLine
 10
1.3236
 20
0.1363
 30
0.0400
 11
1.3244
 21
0.1381
 31
0.0400
  0
LINE
  5
30
100
AcDbEntity
  8
1
 62
10
100
AcDbLine
 10
1.3244
 20
0.1381
 30
0.0400
 11
1.3313
 21
0.1518
 31
0.0400
  0
LINE
  5
30
100
AcDbEntity
  8
1
 62
10
100
AcDbLine
 10
1.3313
 20
0.1518
 30
0.0400
 11
1.3316
 21
0.1524
 31
0.0400
  0
LINE
  5
30
100
AcDbEntity
  8
1
 62
10
100
AcDbLine
 10
1.3316
 20
0.1524
 30
0.0400
 11
1.3326
 21
0.1540
 31
0.0400
  0
LINE
  5
30
100
AcDbEntity
  8
1
 62
10
100
AcDbLine
 10
1.3326
 20
0.1540
 30
0.0400
 11
1.3338
 21
0.1556
 31
0.0400
  0
LINE
  5
30
100
AcDbEntity
  8
1
 62
10
100
AcDbLine
 10
1.3338
 20
0.1556
 30
0.0400
 11
1.3384
 21
0.1613
 31
0.0400
  0
LINE
  5
30
100
AcDbEntity
  8
1
 62
10
100
AcDbLine
 10
1.3384
 20
0.1613
 30
0.0400
 11
1.3390
 21
0.1621
 31
0.0400
  0
LINE
  5
30
100
AcDbEntity
  8
1
 62
10
100
AcDbLine
 10
1.3390
 20
0.1621
 30
0.0400
 11
1.3404
 21
0.1635
 31
0.0400
  0
LINE
  5
30
100
AcDbEntity
  8
1
 62
10
100
AcDbLine
 10
1.3404
 20
0.1635
 30
0.0400
 11
1.4079
 21
0.2286
 31
0.0400
  0
LINE
  5
30
100
AcDbEntity
  8
1
 62
10
100
AcDbLine
 10
1.4079
 20
0.2286
 30
0.0400
 11
1.4991
 21
0.3136
 31
0.0400
  0
LINE
  5
30
100
AcDbEntity
  8
1
 62
10
100
AcDbLine
 10
1.4991
 20
0.3136
 30
0.0400
 11
1.6444
 21
0.4652
 31
0.0400
  0
LINE
  5
30
100
AcDbEntity
  8
1
 62
10
100
AcDbLine
 10
1.6444
 20
0.4652
 30
0.0400
 11
1.7760
 21
0.6288
 31
0.0400
  0
LINE
  5
30
100
AcDbEntity
  8
1
 62
10
100
AcDbLine
 10
1.7760
 20
0.6288
 30
0.0400
 11
1.8928
 21
0.8034
 31
0.0400
  0
LINE
  5
30
100
AcDbEntity
  8
1
 62
10
100
AcDbLine
 10
1.8928
 20
0.8034
 30
0.0400
 11
1.9796
 21
0.9587
 31
0.0400
  0
LINE
  5
30
100
AcDbEntity
  8
1
 62
10
100
AcDbLine
 10
1.9796
 20
0.9587
 30
0.0400
 11
2.0311
 21
1.0604
 31
0.0400
  0
LINE
  5
30
100
AcDbEntity
  8
1
 62
10
100
AcDbLine
 10
2.0311
 20
1.0604
 30
0.0400
 11
2.0687
 21
1.1390
 31
0.0400
  0
LINE
  5
30
100
AcDbEntity
  8
1
 62
10
100
AcDbLine
 10
2.0687
 20
1.1390
 30
0.0400
 11
2.0943
 21
1.2018
 31
0.0400
  0
LINE
  5
30
100
AcDbEntity
  8
1
 62
10
100
AcDbLine
 10
2.0943
 20
1.2018
 30
0.0400
 11
2.1130
 21
1.2597
 31
0.0400
  0
LINE
  5
30
100
AcDbEntity
  8
1
 62
10
100
AcDbLine
 10
2.1130
 20
1.2597
 30
0.0400
 11
2.1216
 21
1.2957
 31
0.0400
  0
LINE
  5
30
100
AcDbEntity
  8
1
 62
10
100
AcDbLine
 10
2.1216
 20
1.2957
 30
0.0400
 11
2.1295
 21
1.3451
 31
0.0400
  0
LINE
  5
30
100
AcDbEntity
  8
1
 62
10
100
AcDbLine
 10
2.1295
 20
1.3451
 30
0.0400
 11
2.1297
 21
1.3661
 31
0.0400
  0
LINE
  5
30
100
AcDbEntity
  8
1
 62
10
100
AcDbLine
 10
2.1297
 20
1.3661
 30
0.0400
 11
2.1271
 21
1.3857
 31
0.0400
  0
LINE
  5
30
100
AcDbEntity
  8
1
 62
10
100
AcDbLine
 10
2.1271
 20
1.3857
 30
0.0400
 11
2.1253
 21
1.3926
 31
0.0400
  0
LINE
  5
30
100
AcDbEntity
  8
1
 62
10
100
AcDbLine
 10
2.1253
 20
1.3926
 30
0.0400
 11
2.1229
 21
1.3992
 31
0.0400
  0
LINE
  5
30
100
AcDbEntity
  8
1
 62
10
100
AcDbLine
 10
2.1229
 20
1.3992
 30
0.0400
 11
2.1200
 21
1.4057
 31
0.0400
  0
LINE
  5
30
100
AcDbEntity
  8
1
 62
10
100
AcDbLine
 10
2.1200
 20
1.4057
 30
0.0400
 11
2.1165
 21
1.4118
 31
0.0400
  0
LINE
  5
30
100
AcDbEntity
  8
1
 62
10
100
AcDbLine
 10
2.1165
 20
1.4118
 30
0.0400
 11
2.1125
 21
1.4177
 31
0.0400
  0
LINE
  5
30
100
AcDbEntity
  8
1
 62
10
100
AcDbLine
 10
2.1125
 20
1.4177
 30
0.0400
 11
2.1080
 21
1.4231
 31
0.0400
  0
LINE
  5
30
100
AcDbEntity
  8
1
 62
10
100
AcDbLine
 10
2.1080
 20
1.4231
 30
0.0400
 11
2.1030
 21
1.4282
 31
0.0400
  0
LINE
  5
30
100
AcDbEntity
  8
1
 62
10
100
AcDbLine
 10
2.1030
 20
1.4282
 30
0.0400
 11
2.0976
 21
1.4328
 31
0.0400
  0
LINE
  5
30
100
AcDbEntity
  8
1
 62
10
100
AcDbLine
 10
2.0976
 20
1.4328
 30
0.0400
 11
2.0918
 21
1.4369
 31
0.0400
  0
LINE
  5
30
100
AcDbEntity
  8
1
 62
10
100
AcDbLine
 10
2.0918
 20
1.4369
 30
0.0400
 11
2.0857
 21
1.4405
 31
0.0400
  0
LINE
  5
30
100
AcDbEntity
  8
1
 62
10
100
AcDbLine
 10
2.0857
 20
1.4405
 30
0.0400
 11
2.0793
 21
1.4435
 31
0.0400
  0
LINE
  5
30
100
AcDbEntity
  8
1
 62
10
100
AcDbLine
 10
2.0793
 20
1.4435
 30
0.0400
 11
2.0727
 21
1.4460
 31
0.0400
  0
LINE
  5
30
100
AcDbEntity
  8
1
 62
10
100
AcDbLine
 10
2.0727
 20
1.4460
 30
0.0400
 11
2.0660
 21
1.4478
 31
0.0400
  0
LINE
  5
30
100
AcDbEntity
  8
1
 62
10
100
AcDbLine
 10
2.0660
 20
1.4478
 30
0.0400
 11
2.0451
 21
1.4517
 31
0.0400
  0
LINE
  5
30
100
AcDbEntity
  8
1
 62
10
100
AcDbLine
 10
2.0451
 20
1.4517
 30
0.0400
 11
2.0297
 21
1.4528
 31
0.0400
  0
LINE
  5
30
100
AcDbEntity
  8
1
 62
10
100
AcDbLine
 10
2.0297
 20
1.4528
 30
0.0400
 11
1.9759
 21
1.4519
 31
0.0400
  0
LINE
  5
30
100
AcDbEntity
  8
1
 62
10
100
AcDbLine
 10
1.9759
 20
1.4519
 30
0.0400
 11
1.9224
 21
1.4463
 31
0.0400
  0
LINE
  5
30
100
AcDbEntity
  8
1
 62
10
100
AcDbLine
 10
1.9224
 20
1.4463
 30
0.0400
 11
1.8696
 21
1.4361
 31
0.0400
  0
LINE
  5
30
100
AcDbEntity
  8
1
 62
10
100
AcDbLine
 10
1.8696
 20
1.4361
 30
0.0400
 11
1.8179
 21
1.4214
 31
0.0400
  0
LINE
  5
30
100
AcDbEntity
  8
1
 62
10
100
AcDbLine
 10
1.8179
 20
1.4214
 30
0.0400
 11
1.7677
 21
1.4021
 31
0.0400
  0
LINE
  5
30
100
AcDbEntity
  8
1
 62
10
100
AcDbLine
 10
1.7677
 20
1.4021
 30
0.0400
 11
1.7194
 21
1.3786
 31
0.0400
  0
LINE
  5
30
100
AcDbEntity
  8
1
 62
10
100
AcDbLine
 10
1.7194
 20
1.3786
 30
0.0400
 11
1.6732
 21
1.3509
 31
0.0400
  0
LINE
  5
30
100
AcDbEntity
  8
1
 62
10
100
AcDbLine
 10
1.6732
 20
1.3509
 30
0.0400
 11
1.6716
 21
1.3499
 31
0.0400
  0
LINE
  5
30
100
AcDbEntity
  8
1
 62
10
100
AcDbLine
 10
1.6716
 20
1.3499
 30
0.0400
 11
1.6296
 21
1.3206
 31
0.0400
  0
LINE
  5
30
100
AcDbEntity
  8
1
 62
10
100
AcDbLine
 10
1.6296
 20
1.3206
 30
0.0400
 11
1.5892
 21
1.2885
 31
0.0400
  0
LINE
  5
30
100
AcDbEntity
  8
1
 62
10
100
AcDbLine
 10
1.5892
 20
1.2885
 30
0.0400
 11
1.5171
 21
1.2250
 31
0.0400
  0
LINE
  5
30
100
AcDbEntity
  8
1
 62
10
100
AcDbLine
 10
1.5171
 20
1.2250
 30
0.0400
 11
1.5165
 21
1.2246
 31
0.0400
  0
LINE
  5
30
100
AcDbEntity
  8
1
 62
10
100
AcDbLine
 10
1.5165
 20
1.2246
 30
0.0400
 11
1.5091
 21
1.2185
 31
0.0400
  0
LINE
  5
30
100
AcDbEntity
  8
1
 62
10
100
AcDbLine
 10
1.5091
 20
1.2185
 30
0.0400
 11
1.4440
 21
1.1705
 31
0.0400
  0
LINE
  5
30
100
AcDbEntity
  8
1
 62
10
100
AcDbLine
 10
1.4440
 20
1.1705
 30
0.0400
 11
1.3750
 21
1.1283
 31
0.0400
  0
LINE
  5
30
100
AcDbEntity
  8
1
 62
10
100
AcDbLine
 10
1.3750
 20
1.1283
 30
0.0400
 11
1.3026
 21
1.0922
 31
0.0400
  0
LINE
  5
30
100
AcDbEntity
  8
1
 62
10
100
AcDbLine
 10
1.3026
 20
1.0922
 30
0.0400
 11
1.2273
 21
1.0626
 31
0.0400
  0
LINE
  5
30
100
AcDbEntity
  8
1
 62
10
100
AcDbLine
 10
1.2273
 20
1.0626
 30
0.0400
 11
1.1497
 21
1.0397
 31
0.0400
  0
LINE
  5
30
100
AcDbEntity
  8
1
 62
10
100
AcDbLine
 10
1.1497
 20
1.0397
 30
0.0400
 11
1.0704
 21
1.0237
 31
0.0400
  0
LINE
  5
30
100
AcDbEntity
  8
1
 62
10
100
AcDbLine
 10
1.0704
 20
1.0237
 30
0.0400
 11
1.0620
 21
1.0222
 31
0.0400
  0
LINE
  5
30
100
AcDbEntity
  8
1
 62
10
100
AcDbLine
 10
1.0620
 20
1.0222
 30
0.0400
 11
0.9903
 21
1.0081
 31
0.0400
  0
LINE
  5
30
100
AcDbEntity
  8
1
 62
10
100
AcDbLine
 10
0.9903
 20
1.0081
 30
0.0400
 11
0.8773
 21
0.9828
 31
0.0400
  0
LINE
  5
30
100
AcDbEntity
  8
1
 62
10
100
AcDbLine
 10
0.8773
 20
0.9828
 30
0.0400
 11
0.8756
 21
0.9825
 31
0.0400
  0
LINE
  5
30
100
AcDbEntity
  8
1
 62
10
100
AcDbLine
 10
0.8756
 20
0.9825
 30
0.0400
 11
0.8400
 21
0.9774
 31
0.0400
  0
LINE
  5
30
100
AcDbEntity
  8
1
 62
10
100
AcDbLine
 10
0.8400
 20
0.9774
 30
0.0400
 11
0.8395
 21
0.9773
 31
0.0400
  0
LINE
  5
30
100
AcDbEntity
  8
1
 62
10
100
AcDbLine
 10
0.8395
 20
0.9773
 30
0.0400
 11
0.8376
 21
0.9772
 31
0.0400
  0
LINE
  5
30
100
AcDbEntity
  8
1
 62
10
100
AcDbLine
 10
0.8376
 20
0.9772
 30
0.0400
 11
0.8356
 21
0.9773
 31
0.0400
  0
LINE
  5
30
100
AcDbEntity
  8
1
 62
10
100
AcDbLine
 10
0.8356
 20
0.9773
 30
0.0400
 11
0.8195
 21
0.9782
 31
0.0400
  0
LINE
  5
30
100
AcDbEntity
  8
1
 62
10
100
AcDbLine
 10
0.8195
 20
0.9782
 30
0.0400
 11
0.8189
 21
0.9782
 31
0.0400
  0
LINE
  5
30
100
AcDbEntity
  8
1
 62
10
100
AcDbLine
 10
0.8189
 20
0.9782
 30
0.0400
 11
0.8169
 21
0.9785
 31
0.0400
  0
LINE
  5
30
100
AcDbEntity
  8
1
 62
10
100
AcDbLine
 10
0.8169
 20
0.9785
 30
0.0400
 11
0.8150
 21
0.9789
 31
0.0400
  0
LINE
  5
30
100
AcDbEntity
  8
1
 62
10
100
AcDbLine
 10
0.8150
 20
0.9789
 30
0.0400
 11
0.8131
 21
0.9795
 31
0.0400
  0
LINE
  5
30
100
AcDbEntity
  8
1
 62
10
100
AcDbLine
 10
0.8131
 20
0.9795
 30
0.0400
 11
0.8011
 21
0.9838
 31
0.0400
  0
LINE
  5
30
100
AcDbEntity
  8
1
 62
10
100
AcDbLine
 10
0.8011
 20
0.9838
 30
0.0400
 11
0.7994
 21
0.9845
 31
0.0400
  0
LINE
  5
30
100
AcDbEntity
  8
1
 62
10
100
AcDbLine
 10
0.7994
 20
0.9845
 30
0.0400
 11
0.7977
 21
0.9854
 31
0.0400
  0
LINE
  5
30
100
AcDbEntity
  8
1
 62
10
100
AcDbLine
 10
0.7977
 20
0.9854
 30
0.0400
 11
0.7960
 21
0.9864
 31
0.0400
  0
LINE
  5
30
100
AcDbEntity
  8
1
 62
10
100
AcDbLine
 10
0.7960
 20
0.9864
 30
0.0400
 11
0.7944
 21
0.9876
 31
0.0400
  0
LINE
  5
30
100
AcDbEntity
  8
1
 62
10
100
AcDbLine
 10
0.7944
 20
0.9876
 30
0.0400
 11
0.7930
 21
0.9889
 31
0.0400
  0
LINE
  5
30
100
AcDbEntity
  8
1
 62
10
100
AcDbLine
 10
0.7930
 20
0.9889
 30
0.0400
 11
0.7848
 21
0.9969
 31
0.0400
  0
LINE
  5
30
100
AcDbEntity
  8
1
 62
10
100
AcDbLine
 10
0.7848
 20
0.9969
 30
0.0400
 11
0.7837
 21
0.9981
 31
0.0400
  0
LINE
  5
30
100
AcDbEntity
  8
1
 62
10
100
AcDbLine
 10
0.7837
 20
0.9981
 30
0.0400
 11
0.7825
 21
0.9996
 31
0.0400
  0
LINE
  5
30
100
AcDbEntity
  8
1
 62
10
100
AcDbLine
 10
0.7825
 20
0.9996
 30
0.0400
 11
0.7814
 21
1.0012
 31
0.0400
  0
LINE
  5
30
100
AcDbEntity
  8
1
 62
10
100
AcDbLine
 10
0.7814
 20
1.0012
 30
0.0400
 11
0.7804
 21
1.0029
 31
0.0400
  0
LINE
  5
30
100
AcDbEntity
  8
1
 62
10
100
AcDbLine
 10
0.7804
 20
1.0029
 30
0.0400
 11
0.7796
 21
1.0047
 31
0.0400
  0
LINE
  5
30
100
AcDbEntity
  8
1
 62
10
100
AcDbLine
 10
0.7796
 20
1.0047
 30
0.0400
 11
0.7749
 21
1.0168
 31
0.0400
  0
LINE
  5
30
100
AcDbEntity
  8
1
 62
10
100
AcDbLine
 10
0.7749
 20
1.0168
 30
0.0400
 11
0.7748
 21
1.0171
 31
0.0400
  0
LINE
  5
30
100
AcDbEntity
  8
1
 62
10
100
AcDbLine
 10
0.7748
 20
1.0171
 30
0.0400
 11
0.7742
 21
1.0190
 31
0.0400
  0
LINE
  5
30
100
AcDbEntity
  8
1
 62
10
100
AcDbLine
 10
0.7742
 20
1.0190
 30
0.0400
 11
0.7737
 21
1.0209
 31
0.0400
  0
LINE
  5
30
100
AcDbEntity
  8
1
 62
10
100
AcDbLine
 10
0.7737
 20
1.0209
 30
0.0400
 11
0.7734
 21
1.0228
 31
0.0400
  0
LINE
  5
30
100
AcDbEntity
  8
1
 62
10
100
AcDbLine
 10
0.7734
 20
1.0228
 30
0.0400
 11
0.7718
 21
1.0391
 31
0.0400
  0
LINE
  5
30
100
AcDbEntity
  8
1
 62
10
100
AcDbLine
 10
0.7718
 20
1.0391
 30
0.0400
 11
0.7718
 21
1.0393
 31
0.0400
  0
LINE
  5
30
100
AcDbEntity
  8
1
 62
10
100
AcDbLine
 10
0.7718
 20
1.0393
 30
0.0400
 11
0.7717
 21
1.0412
 31
0.0400
  0
LINE
  5
30
100
AcDbEntity
  8
1
 62
10
100
AcDbLine
 10
0.7717
 20
1.0412
 30
0.0400
 11
0.7718
 21
1.0432
 31
0.0400
  0
LINE
  5
30
100
AcDbEntity
  8
1
 62
10
100
AcDbLine
 10
0.7718
 20
1.0432
 30
0.0400
 11
0.7745
 21
1.0754
 31
0.0400
  0
LINE
  5
30
100
AcDbEntity
  8
1
 62
10
100
AcDbLine
 10
0.7745
 20
1.0754
 30
0.0400
 11
0.7750
 21
1.0907
 31
0.0400
  0
LINE
  5
30
100
AcDbEntity
  8
1
 62
10
100
AcDbLine
 10
0.7750
 20
1.0907
 30
0.0400
 11
0.7733
 21
1.0964
 31
0.0400
  0
LINE
  5
30
100
AcDbEntity
  8
1
 62
10
100
AcDbLine
 10
0.7733
 20
1.0964
 30
0.0400
 11
0.7713
 21
1.0988
 31
0.0400
  0
LINE
  5
30
100
AcDbEntity
  8
1
 62
10
100
AcDbLine
 10
0.7713
 20
1.0988
 30
0.0400
 11
0.7672
 21
1.1007
 31
0.0400
  0
LINE
  5
30
100
AcDbEntity
  8
1
 62
10
100
AcDbLine
 10
0.7672
 20
1.1007
 30
0.0400
 11
0.7574
 21
1.1015
 31
0.0400
  0
LINE
  5
30
100
AcDbEntity
  8
1
 62
10
100
AcDbLine
 10
0.7574
 20
1.1015
 30
0.0400
 11
0.7530
 21
1.1010
 31
0.0400
  0
LINE
  5
30
100
AcDbEntity
  8
1
 62
10
100
AcDbLine
 10
0.7530
 20
1.1010
 30
0.0400
 11
0.7223
 21
1.0928
 31
0.0400
  0
LINE
  5
30
100
AcDbEntity
  8
1
 62
10
100
AcDbLine
 10
0.7223
 20
1.0928
 30
0.0400
 11
0.6803
 21
1.0769
 31
0.0400
  0
LINE
  5
30
100
AcDbEntity
  8
1
 62
10
100
AcDbLine
 10
0.6803
 20
1.0769
 30
0.0400
 11
0.6292
 21
1.0564
 31
0.0400
  0
LINE
  5
30
100
AcDbEntity
  8
1
 62
10
100
AcDbLine
 10
0.6292
 20
1.0564
 30
0.0400
 11
0.6146
 21
1.0496
 31
0.0400
  0
LINE
  5
30
100
AcDbEntity
  8
1
 62
10
100
AcDbLine
 10
0.6146
 20
1.0496
 30
0.0400
 11
0.6140
 21
1.0493
 31
0.0400
  0
LINE
  5
30
100
AcDbEntity
  8
1
 62
10
100
AcDbLine
 10
0.6140
 20
1.0493
 30
0.0400
 11
0.5835
 21
1.0362
 31
0.0400
  0
LINE
  5
30
100
AcDbEntity
  8
1
 62
10
100
AcDbLine
 10
0.5835
 20
1.0362
 30
0.0400
 11
0.5824
 21
1.0357
 31
0.0400
  0
LINE
  5
30
100
AcDbEntity
  8
1
 62
10
100
AcDbLine
 10
0.5824
 20
1.0357
 30
0.0400
 11
0.5700
 21
1.0315
 31
0.0400
  0
LINE
  5
30
100
AcDbEntity
  8
1
 62
10
100
AcDbLine
 10
0.5700
 20
1.0315
 30
0.0400
 11
0.5476
 21
1.0255
 31
0.0400
  0
LINE
  5
30
100
AcDbEntity
  8
1
 62
10
100
AcDbLine
 10
0.5476
 20
1.0255
 30
0.0400
 11
0.5248
 21
1.0215
 31
0.0400
  0
LINE
  5
30
100
AcDbEntity
  8
1
 62
10
100
AcDbLine
 10
0.5248
 20
1.0215
 30
0.0400
 11
0.5018
 21
1.0195
 31
0.0400
  0
LINE
  5
30
100
AcDbEntity
  8
1
 62
10
100
AcDbLine
 10
0.5018
 20
1.0195
 30
0.0400
 11
0.4786
 21
1.0195
 31
0.0400
  0
LINE
  5
30
100
AcDbEntity
  8
1
 62
10
100
AcDbLine
 10
0.4786
 20
1.0195
 30
0.0400
 11
0.4556
 21
1.0215
 31
0.0400
  0
LINE
  5
30
100
AcDbEntity
  8
1
 62
10
100
AcDbLine
 10
0.4556
 20
1.0215
 30
0.0400
 11
0.4328
 21
1.0256
 31
0.0400
  0
LINE
  5
30
100
AcDbEntity
  8
1
 62
10
100
AcDbLine
 10
0.4328
 20
1.0256
 30
0.0400
 11
0.4104
 21
1.0316
 31
0.0400
  0
LINE
  5
30
100
AcDbEntity
  8
1
 62
10
100
AcDbLine
 10
0.4104
 20
1.0316
 30
0.0400
 11
0.3887
 21
1.0396
 31
0.0400
  0
LINE
  5
30
100
AcDbEntity
  8
1
 62
10
100
AcDbLine
 10
0.3887
 20
1.0396
 30
0.0400
 11
0.3879
 21
1.0399
 31
0.0400
  0
LINE
  5
30
100
AcDbEntity
  8
1
 62
10
100
AcDbLine
 10
0.3879
 20
1.0399
 30
0.0400
 11
0.3577
 21
1.0538
 31
0.0400
  0
LINE
  5
30
100
AcDbEntity
  8
1
 62
10
100
AcDbLine
 10
0.3577
 20
1.0538
 30
0.0400
 11
0.3574
 21
1.0539
 31
0.0400
  0
LINE
  5
30
100
AcDbEntity
  8
1
 62
10
100
AcDbLine
 10
0.3574
 20
1.0539
 30
0.0400
 11
0.3557
 21
1.0549
 31
0.0400
  0
LINE
  5
30
100
AcDbEntity
  8
1
 62
10
100
AcDbLine
 10
0.3557
 20
1.0549
 30
0.0400
 11
0.3205
 21
1.0755
 31
0.0400
  0
LINE
  5
30
100
AcDbEntity
  8
1
 62
10
100
AcDbLine
 10
0.3205
 20
1.0755
 30
0.0400
 11
0.3203
 21
1.0756
 31
0.0400
  0
LINE
  5
30
100
AcDbEntity
  8
1
 62
10
100
AcDbLine
 10
0.3203
 20
1.0756
 30
0.0400
 11
0.3187
 21
1.0767
 31
0.0400
  0
LINE
  5
30
100
AcDbEntity
  8
1
 62
10
100
AcDbLine
 10
0.3187
 20
1.0767
 30
0.0400
 11
0.2778
 21
1.1061
 31
0.0400
  0
LINE
  5
30
100
AcDbEntity
  8
1
 62
10
100
AcDbLine
 10
0.2778
 20
1.1061
 30
0.0400
 11
0.2768
 21
1.1069
 31
0.0400
  0
LINE
  5
30
100
AcDbEntity
  8
1
 62
10
100
AcDbLine
 10
0.2768
 20
1.1069
 30
0.0400
 11
0.2579
 21
1.1221
 31
0.0400
  0
LINE
  5
30
100
AcDbEntity
  8
1
 62
10
100
AcDbLine
 10
0.2579
 20
1.1221
 30
0.0400
 11
0.2565
 21
1.1233
 31
0.0400
  0
LINE
  5
30
100
AcDbEntity
  8
1
 62
10
100
AcDbLine
 10
0.2565
 20
1.1233
 30
0.0400
 11
0.2413
 21
1.1379
 31
0.0400
  0
LINE
  5
30
100
AcDbEntity
  8
1
 62
10
100
AcDbLine
 10
0.2413
 20
1.1379
 30
0.0400
 11
0.2402
 21
1.1390
 31
0.0400
  0
LINE
  5
30
100
AcDbEntity
  8
1
 62
10
100
AcDbLine
 10
0.2402
 20
1.1390
 30
0.0400
 11
0.2390
 21
1.1405
 31
0.0400
  0
LINE
  5
30
100
AcDbEntity
  8
1
 62
10
100
AcDbLine
 10
0.2390
 20
1.1405
 30
0.0400
 11
0.2243
 21
1.1597
 31
0.0400
  0
LINE
  5
30
100
AcDbEntity
  8
1
 62
10
100
AcDbLine
 10
0.2243
 20
1.1597
 30
0.0400
 11
0.2234
 21
1.1609
 31
0.0400
  0
LINE
  5
30
100
AcDbEntity
  8
1
 62
10
100
AcDbLine
 10
0.2234
 20
1.1609
 30
0.0400
 11
0.2224
 21
1.1626
 31
0.0400
  0
LINE
  5
30
100
AcDbEntity
  8
1
 62
10
100
AcDbLine
 10
0.2224
 20
1.1626
 30
0.0400
 11
0.2110
 21
1.1835
 31
0.0400
  0
LINE
  5
30
100
AcDbEntity
  8
1
 62
10
100
AcDbLine
 10
0.2110
 20
1.1835
 30
0.0400
 11
0.2104
 21
1.1847
 31
0.0400
  0
LINE
  5
30
100
AcDbEntity
  8
1
 62
10
100
AcDbLine
 10
0.2104
 20
1.1847
 30
0.0400
 11
0.2097
 21
1.1865
 31
0.0400
  0
LINE
  5
30
100
AcDbEntity
  8
1
 62
10
100
AcDbLine
 10
0.2097
 20
1.1865
 30
0.0400
 11
0.1998
 21
1.2133
 31
0.0400
  0
LINE
  5
30
100
AcDbEntity
  8
1
 62
10
100
AcDbLine
 10
0.1998
 20
1.2133
 30
0.0400
 11
0.1995
 21
1.2142
 31
0.0400
  0
LINE
  5
30
100
AcDbEntity
  8
1
 62
10
100
AcDbLine
 10
0.1995
 20
1.2142
 30
0.0400
 11
0.1989
 21
1.2161
 31
0.0400
  0
LINE
  5
30
100
AcDbEntity
  8
1
 62
10
100
AcDbLine
 10
0.1989
 20
1.2161
 30
0.0400
 11
0.1912
 21
1.2502
 31
0.0400
  0
LINE
  5
30
100
AcDbEntity
  8
1
 62
10
100
AcDbLine
 10
0.1912
 20
1.2502
 30
0.0400
 11
0.1911
 21
1.2505
 31
0.0400
  0
LINE
  5
30
100
AcDbEntity
  8
1
 62
10
100
AcDbLine
 10
0.1911
 20
1.2505
 30
0.0400
 11
0.1908
 21
1.2524
 31
0.0400
  0
LINE
  5
30
100
AcDbEntity
  8
1
 62
10
100
AcDbLine
 10
0.1908
 20
1.2524
 30
0.0400
 11
0.1855
 21
1.2946
 31
0.0400
  0
LINE
  5
30
100
AcDbEntity
  8
1
 62
10
100
AcDbLine
 10
0.1855
 20
1.2946
 30
0.0400
 11
0.1854
 21
1.2956
 31
0.0400
  0
LINE
  5
30
100
AcDbEntity
  8
1
 62
10
100
AcDbLine
 10
0.1854
 20
1.2956
 30
0.0400
 11
0.1815
 21
1.3429
 31
0.0400
  0
LINE
  5
30
100
AcDbEntity
  8
1
 62
10
100
AcDbLine
 10
0.1815
 20
1.3429
 30
0.0400
 11
0.1814
 21
1.3445
 31
0.0400
  0
LINE
  5
30
100
AcDbEntity
  8
1
 62
10
100
AcDbLine
 10
0.1814
 20
1.3445
 30
0.0400
 11
0.1815
 21
1.3465
 31
0.0400
  0
LINE
  5
30
100
AcDbEntity
  8
1
 62
10
100
AcDbLine
 10
0.1815
 20
1.3465
 30
0.0400
 11
0.1817
 21
1.3484
 31
0.0400
  0
LINE
  5
30
100
AcDbEntity
  8
1
 62
10
100
AcDbLine
 10
0.1817
 20
1.3484
 30
0.0400
 11
0.1822
 21
1.3504
 31
0.0400
  0
LINE
  5
30
100
AcDbEntity
  8
1
 62
10
100
AcDbLine
 10
0.1822
 20
1.3504
 30
0.0400
 11
0.1828
 21
1.3522
 31
0.0400
  0
LINE
  5
30
100
AcDbEntity
  8
1
 62
10
100
AcDbLine
 10
0.1828
 20
1.3522
 30
0.0400
 11
0.1856
 21
1.3602
 31
0.0400
  0
LINE
  5
30
100
AcDbEntity
  8
1
 62
10
100
AcDbLine
 10
0.1856
 20
1.3602
 30
0.0400
 11
0.1859
 21
1.3610
 31
0.0400
  0
LINE
  5
30
100
AcDbEntity
  8
1
 62
10
100
AcDbLine
 10
0.1859
 20
1.3610
 30
0.0400
 11
0.1867
 21
1.3628
 31
0.0400
  0
LINE
  5
30
100
AcDbEntity
  8
1
 62
10
100
AcDbLine
 10
0.1867
 20
1.3628
 30
0.0400
 11
0.1876
 21
1.3645
 31
0.0400
  0
LINE
  5
30
100
AcDbEntity
  8
1
 62
10
100
AcDbLine
 10
0.1876
 20
1.3645
 30
0.0400
 11
0.1887
 21
1.3661
 31
0.0400
  0
LINE
  5
30
100
AcDbEntity
  8
1
 62
10
100
AcDbLine
 10
0.1887
 20
1.3661
 30
0.0400
 11
0.1900
 21
1.3676
 31
0.0400
  0
LINE
  5
30
100
AcDbEntity
  8
1
 62
10
100
AcDbLine
 10
0.1900
 20
1.3676
 30
0.0400
 11
0.2001
 21
1.3789
 31
0.0400
  0
LINE
  5
30
100
AcDbEntity
  8
1
 62
10
100
AcDbLine
 10
0.2001
 20
1.3789
 30
0.0400
 11
0.2007
 21
1.3795
 31
0.0400
  0
LINE
  5
30
100
AcDbEntity
  8
1
 62
10
100
AcDbLine
 10
0.2007
 20
1.3795
 30
0.0400
 11
0.2021
 21
1.3809
 31
0.0400
  0
LINE
  5
30
100
AcDbEntity
  8
1
 62
10
100
AcDbLine
 10
0.2021
 20
1.3809
 30
0.0400
 11
0.2036
 21
1.3821
 31
0.0400
  0
LINE
  5
30
100
AcDbEntity
  8
1
 62
10
100
AcDbLine
 10
0.2036
 20
1.3821
 30
0.0400
 11
0.2172
 21
1.3921
 31
0.0400
  0
LINE
  5
30
100
AcDbEntity
  8
1
 62
10
100
AcDbLine
 10
0.2172
 20
1.3921
 30
0.0400
 11
0.2186
 21
1.3931
 31
0.0400
  0
LINE
  5
30
100
AcDbEntity
  8
1
 62
10
100
AcDbLine
 10
0.2186
 20
1.3931
 30
0.0400
 11
0.2203
 21
1.3940
 31
0.0400
  0
LINE
  5
30
100
AcDbEntity
  8
1
 62
10
100
AcDbLine
 10
0.2203
 20
1.3940
 30
0.0400
 11
0.2221
 21
1.3949
 31
0.0400
  0
LINE
  5
30
100
AcDbEntity
  8
1
 62
10
100
AcDbLine
 10
0.2221
 20
1.3949
 30
0.0400
 11
0.2353
 21
1.4001
 31
0.0400
  0
LINE
  5
30
100
AcDbEntity
  8
1
 62
10
100
AcDbLine
 10
0.2353
 20
1.4001
 30
0.0400
 11
0.2353
 21
1.4001
 31
0.0400
  0
LINE
  5
30
100
AcDbEntity
  8
1
 62
10
100
AcDbLine
 10
0.2353
 20
1.4001
 30
0.0400
 11
0.2372
 21
1.4008
 31
0.0400
  0
LINE
  5
30
100
AcDbEntity
  8
1
 62
10
100
AcDbLine
 10
0.2372
 20
1.4008
 30
0.0400
 11
0.2391
 21
1.4013
 31
0.0400
  0
LINE
  5
30
100
AcDbEntity
  8
1
 62
10
100
AcDbLine
 10
0.2391
 20
1.4013
 30
0.0400
 11
0.2410
 21
1.4016
 31
0.0400
  0
LINE
  5
30
100
AcDbEntity
  8
1
 62
10
100
AcDbLine
 10
0.2410
 20
1.4016
 30
0.0400
 11
0.2430
 21
1.4017
 31
0.0400
  0
LINE
  5
30
100
AcDbEntity
  8
1
 62
10
100
AcDbLine
 10
0.2430
 20
1.4017
 30
0.0400
 11
0.2466
 21
1.4018
 31
0.0400
  0
LINE
  5
30
100
AcDbEntity
  8
1
 62
10
100
AcDbLine
 10
0.2466
 20
1.4018
 30
0.0400
 11
0.2485
 21
1.4018
 31
0.0400
  0
LINE
  5
30
100
AcDbEntity
  8
1
 62
10
100
AcDbLine
 10
0.2485
 20
1.4018
 30
0.0400
 11
0.2717
 21
1.4004
 31
0.0400
  0
LINE
  5
30
100
AcDbEntity
  8
1
 62
10
100
AcDbLine
 10
0.2717
 20
1.4004
 30
0.0400
 11
0.2836
 21
1.4009
 31
0.0400
  0
LINE
  5
30
100
AcDbEntity
  8
1
 62
10
100
AcDbLine
 10
0.2836
 20
1.4009
 30
0.0400
 11
0.2955
 21
1.4025
 31
0.0400
  0
LINE
  5
30
100
AcDbEntity
  8
1
 62
10
100
AcDbLine
 10
0.2955
 20
1.4025
 30
0.0400
 11
0.3072
 21
1.4051
 31
0.0400
  0
LINE
  5
30
100
AcDbEntity
  8
1
 62
10
100
AcDbLine
 10
0.3072
 20
1.4051
 30
0.0400
 11
0.3186
 21
1.4087
 31
0.0400
  0
LINE
  5
30
100
AcDbEntity
  8
1
 62
10
100
AcDbLine
 10
0.3186
 20
1.4087
 30
0.0400
 11
0.3296
 21
1.4133
 31
0.0400
  0
LINE
  5
30
100
AcDbEntity
  8
1
 62
10
100
AcDbLine
 10
0.3296
 20
1.4133
 30
0.0400
 11
0.3402
 21
1.4188
 31
0.0400
  0
LINE
  5
30
100
AcDbEntity
  8
1
 62
10
100
AcDbLine
 10
0.3402
 20
1.4188
 30
0.0400
 11
0.3503
 21
1.4253
 31
0.0400
  0
LINE
  5
30
100
AcDbEntity
  8
1
 62
10
100
AcDbLine
 10
0.3503
 20
1.4253
 30
0.0400
 11
0.3527
 21
1.4270
 31
0.0400
  0
LINE
  5
30
100
AcDbEntity
  8
1
 62
10
100
AcDbLine
 10
0.3527
 20
1.4270
 30
0.0400
 11
0.3728
 21
1.4436
 31
0.0400
  0
LINE
  5
30
100
AcDbEntity
  8
1
 62
10
100
AcDbLine
 10
0.3728
 20
1.4436
 30
0.0400
 11
0.3947
 21
1.4667
 31
0.0400
  0
LINE
  5
30
100
AcDbEntity
  8
1
 62
10
100
AcDbLine
 10
0.3947
 20
1.4667
 30
0.0400
 11
0.4344
 21
1.5182
 31
0.0400
  0
LINE
  5
30
100
AcDbEntity
  8
1
 62
10
100
AcDbLine
 10
0.4344
 20
1.5182
 30
0.0400
 11
0.4757
 21
1.5796
 31
0.0400
  0
LINE
  5
30
100
AcDbEntity
  8
1
 62
10
100
AcDbLine
 10
0.4757
 20
1.5796
 30
0.0400
 11
0.5116
 21
1.6444
 31
0.0400
  0
LINE
  5
30
100
AcDbEntity
  8
1
 62
10
100
AcDbLine
 10
0.5116
 20
1.6444
 30
0.0400
 11
0.5416
 21
1.7120
 31
0.0400
  0
LINE
  5
30
100
AcDbEntity
  8
1
 62
10
100
AcDbLine
 10
0.5416
 20
1.7120
 30
0.0400
 11
0.5657
 21
1.7820
 31
0.0400
  0
LINE
  5
30
100
AcDbEntity
  8
1
 62
10
100
AcDbLine
 10
0.5657
 20
1.7820
 30
0.0400
 11
0.5835
 21
1.8538
 31
0.0400
  0
LINE
  5
30
100
AcDbEntity
  8
1
 62
10
100
AcDbLine
 10
0.5835
 20
1.8538
 30
0.0400
 11
0.5910
 21
1.8960
 31
0.0400
  0
LINE
  5
30
100
AcDbEntity
  8
1
 62
10
100
AcDbLine
 10
0.5910
 20
1.8960
 30
0.0400
 11
0.5914
 21
1.8984
 31
0.0400
  0
LINE
  5
30
100
AcDbEntity
  8
1
 62
10
100
AcDbLine
 10
0.5914
 20
1.8984
 30
0.0400
 11
0.5968
 21
1.9241
 31
0.0400
  0
LINE
  5
30
100
AcDbEntity
  8
1
 62
10
100
AcDbLine
 10
0.5968
 20
1.9241
 30
0.0400
 11
0.6045
 21
1.9493
 31
0.0400
  0
LINE
  5
30
100
AcDbEntity
  8
1
 62
10
100
AcDbLine
 10
0.6045
 20
1.9493
 30
0.0400
 11
0.6143
 21
1.9737
 31
0.0400
  0
LINE
  5
30
100
AcDbEntity
  8
1
 62
10
100
AcDbLine
 10
0.6143
 20
1.9737
 30
0.0400
 11
0.6263
 21
1.9972
 31
0.0400
  0
LINE
  5
30
100
AcDbEntity
  8
1
 62
10
100
AcDbLine
 10
0.6263
 20
1.9972
 30
0.0400
 11
0.6402
 21
2.0195
 31
0.0400
  0
LINE
  5
30
100
AcDbEntity
  8
1
 62
10
100
AcDbLine
 10
0.6402
 20
2.0195
 30
0.0400
 11
0.6561
 21
2.0405
 31
0.0400
  0
LINE
  5
30
100
AcDbEntity
  8
1
 62
10
100
AcDbLine
 10
0.6561
 20
2.0405
 30
0.0400
 11
0.6785
 21
2.0717
 31
0.0400
  0
LINE
  5
30
100
AcDbEntity
  8
1
 62
10
100
AcDbLine
 10
0.6785
 20
2.0717
 30
0.0400
 11
0.6954
 21
2.1008
 31
0.0400
  0
LINE
  5
30
100
AcDbEntity
  8
1
 62
10
100
AcDbLine
 10
0.6954
 20
2.1008
 30
0.0400
 11
0.7030
 21
2.1194
 31
0.0400
  0
LINE
  5
30
100
AcDbEntity
  8
1
 62
10
100
AcDbLine
 10
0.7030
 20
2.1194
 30
0.0400
 11
0.7059
 21
2.1365
 31
0.0400
  0
LINE
  5
30
100
AcDbEntity
  8
1
 62
10
100
AcDbLine
 10
0.7059
 20
2.1365
 30
0.0400
 11
0.7058
 21
2.1403
 31
0.0400
  0
LINE
  5
30
100
AcDbEntity
  8
1
 62
10
100
AcDbLine
 10
0.7058
 20
2.1403
 30
0.0400
 11
0.7054
 21
2.1441
 31
0.0400
  0
LINE
  5
30
100
AcDbEntity
  8
1
 62
10
100
AcDbLine
 10
0.7054
 20
2.1441
 30
0.0400
 11
0.7047
 21
2.1478
 31
0.0400
  0
LINE
  5
30
100
AcDbEntity
  8
1
 62
10
100
AcDbLine
 10
0.7047
 20
2.1478
 30
0.0400
 11
0.7036
 21
2.1514
 31
0.0400
  0
LINE
  5
30
100
AcDbEntity
  8
1
 62
10
100
AcDbLine
 10
0.7036
 20
2.1514
 30
0.0400
 11
0.7022
 21
2.1550
 31
0.0400
  0
LINE
  5
30
100
AcDbEntity
  8
1
 62
10
100
AcDbLine
 10
0.7022
 20
2.1550
 30
0.0400
 11
0.7005
 21
2.1584
 31
0.0400
  0
LINE
  5
30
100
AcDbEntity
  8
1
 62
10
100
AcDbLine
 10
0.7005
 20
2.1584
 30
0.0400
 11
0.6985
 21
2.1616
 31
0.0400
  0
LINE
  5
30
100
AcDbEntity
  8
1
 62
10
100
AcDbLine
 10
0.6985
 20
2.1616
 30
0.0400
 11
0.6963
 21
2.1647
 31
0.0400
  0
LINE
  5
30
100
AcDbEntity
  8
1
 62
10
100
AcDbLine
 10
0.6963
 20
2.1647
 30
0.0400
 11
0.6938
 21
2.1675
 31
0.0400
  0
LINE
  5
30
100
AcDbEntity
  8
1
 62
10
100
AcDbLine
 10
0.6938
 20
2.1675
 30
0.0400
 11
0.6911
 21
2.1701
 31
0.0400
  0
LINE
  5
30
100
AcDbEntity
  8
1
 62
10
100
AcDbLine
 10
0.6911
 20
2.1701
 30
0.0400
 11
0.6881
 21
2.1725
 31
0.0400
  0
LINE
  5
30
100
AcDbEntity
  8
1
 62
10
100
AcDbLine
 10
0.6881
 20
2.1725
 30
0.0400
 11
0.6849
 21
2.1746
 31
0.0400
  0
LINE
  5
30
100
AcDbEntity
  8
1
 62
10
100
AcDbLine
 10
0.6849
 20
2.1746
 30
0.0400
 11
0.6816
 21
2.1764
 31
0.0400
  0
LINE
  5
30
100
AcDbEntity
  8
1
 62
10
100
AcDbLine
 10
0.6816
 20
2.1764
 30
0.0400
 11
0.6806
 21
2.1769
 31
0.0400
  0
LINE
  5
30
100
AcDbEntity
  8
1
 62
10
100
AcDbLine
 10
0.6806
 20
2.1769
 30
0.0400
 11
0.6662
 21
2.1829
 31
0.0400
  0
LINE
  5
30
100
AcDbEntity
  8
1
 62
10
100
AcDbLine
 10
0.6662
 20
2.1829
 30
0.0400
 11
0.6361
 21
2.1911
 31
0.0400
  0
LINE
  5
30
100
AcDbEntity
  8
1
 62
10
100
AcDbLine
 10
0.6361
 20
2.1911
 30
0.0400
 11
0.5643
 21
2.2047
 31
0.0400
  0
LINE
  5
30
100
AcDbEntity
  8
1
 62
10
100
AcDbLine
 10
0.5643
 20
2.2047
 30
0.0400
 11
0.5634
 21
2.2049
 31
0.0400
  0
LINE
  5
30
100
AcDbEntity
  8
1
 62
10
100
AcDbLine
 10
0.5634
 20
2.2049
 30
0.0400
 11
0.5311
 21
2.2123
 31
0.0400
  0
LINE
  5
30
100
AcDbEntity
  8
1
 62
10
100
AcDbLine
 10
0.5311
 20
2.2123
 30
0.0400
 11
0.5304
 21
2.2125
 31
0.0400
  0
LINE
  5
30
100
AcDbEntity
  8
1
 62
10
100
AcDbLine
 10
0.5304
 20
2.2125
 30
0.0400
 11
0.4692
 21
2.2287
 31
0.0400
  0
LINE
  5
30
100
AcDbEntity
  8
1
 62
10
100
AcDbLine
 10
0.4692
 20
2.2287
 30
0.0400
 11
0.4679
 21
2.2291
 31
0.0400
  0
LINE
  5
30
100
AcDbEntity
  8
1
 62
10
100
AcDbLine
 10
0.4679
 20
2.2291
 30
0.0400
 11
0.4413
 21
2.2379
 31
0.0400
  0
LINE
  5
30
100
AcDbEntity
  8
1
 62
10
100
AcDbLine
 10
0.4413
 20
2.2379
 30
0.0400
 11
0.4410
 21
2.2380
 31
0.0400
  0
LINE
  5
30
100
AcDbEntity
  8
1
 62
10
100
AcDbLine
 10
0.4410
 20
2.2380
 30
0.0400
 11
0.4392
 21
2.2387
 31
0.0400
  0
LINE
  5
30
100
AcDbEntity
  8
1
 62
10
100
AcDbLine
 10
0.4392
 20
2.2387
 30
0.0400
 11
0.4141
 21
2.2497
 31
0.0400
  0
LINE
  5
30
100
AcDbEntity
  8
1
 62
10
100
AcDbLine
 10
0.4141
 20
2.2497
 30
0.0400
 11
0.4133
 21
2.2501
 31
0.0400
  0
LINE
  5
30
100
AcDbEntity
  8
1
 62
10
100
AcDbLine
 10
0.4133
 20
2.2501
 30
0.0400
 11
0.4116
 21
2.2510
 31
0.0400
  0
LINE
  5
30
100
AcDbEntity
  8
1
 62
10
100
AcDbLine
 10
0.4116
 20
2.2510
 30
0.0400
 11
0.3936
 21
2.2618
 31
0.0400
  0
LINE
  5
30
100
AcDbEntity
  8
1
 62
10
100
AcDbLine
 10
0.3936
 20
2.2618
 30
0.0400
 11
0.3921
 21
2.2628
 31
0.0400
  0
LINE
  5
30
100
AcDbEntity
  8
1
 62
10
100
AcDbLine
 10
0.3921
 20
2.2628
 30
0.0400
 11
0.3112
 21
2.3209
 31
0.0400
  0
LINE
  5
30
100
AcDbEntity
  8
1
 62
10
100
AcDbLine
 10
0.3112
 20
2.3209
 30
0.0400
 11
0.3106
 21
2.3214
 31
0.0400
  0
LINE
  5
30
100
AcDbEntity
  8
1
 62
10
100
AcDbLine
 10
0.3106
 20
2.3214
 30
0.0400
 11
0.2157
 21
2.3943
 31
0.0400
  0
LINE
  5
30
100
AcDbEntity
  8
1
 62
10
100
AcDbLine
 10
0.2157
 20
2.3943
 30
0.0400
 11
0.2151
 21
2.3948
 31
0.0400
  0
LINE
  5
30
100
AcDbEntity
  8
1
 62
10
100
AcDbLine
 10
0.2151
 20
2.3948
 30
0.0400
 11
0.1169
 21
2.4751
 31
0.0400
  0
LINE
  5
30
100
AcDbEntity
  8
1
 62
10
100
AcDbLine
 10
0.1169
 20
2.4751
 30
0.0400
 11
0.1167
 21
2.4752
 31
0.0400
  0
LINE
  5
30
100
AcDbEntity
  8
1
 62
10
100
AcDbLine
 10
0.1167
 20
2.4752
 30
0.0400
 11
0.1153
 21
2.4766
 31
0.0400
  0
LINE
  5
30
100
AcDbEntity
  8
1
 62
10
100
AcDbLine
 10
0.1153
 20
2.4766
 30
0.0400
 11
0.0960
 21
2.4957
 31
0.0400
  0
LINE
  5
30
100
AcDbEntity
  8
1
 62
10
100
AcDbLine
 10
0.0960
 20
2.4957
 30
0.0400
 11
0.0950
 21
2.4968
 31
0.0400
  0
LINE
  5
30
100
AcDbEntity
  8
1
 62
10
100
AcDbLine
 10
0.0950
 20
2.4968
 30
0.0400
 11
0.0937
 21
2.4983
 31
0.0400
  0
LINE
  5
30
100
AcDbEntity
  8
1
 62
10
100
AcDbLine
 10
0.0937
 20
2.4983
 30
0.0400
 11
0.0927
 21
2.5000
 31
0.0400
  0
LINE
  5
30
100
AcDbEntity
  8
1
 62
10
100
AcDbLine
 10
0.0927
 20
2.5000
 30
0.0400
 11
0.0834
 21
2.5152
 31
0.0400
  0
LINE
  5
30
100
AcDbEntity
  8
1
 62
10
100
AcDbLine
 10
0.0834
 20
2.5152
 30
0.0400
 11
0.0830
 21
2.5159
 31
0.0400
  0
LINE
  5
30
100
AcDbEntity
  8
1
 62
10
100
AcDbLine
 10
0.0830
 20
2.5159
 30
0.0400
 11
0.0821
 21
2.5177
 31
0.0400
  0
LINE
  5
30
100
AcDbEntity
  8
1
 62
10
100
AcDbLine
 10
0.0821
 20
2.5177
 30
0.0400
 11
0.0814
 21
2.5195
 31
0.0400
  0
LINE
  5
30
100
AcDbEntity
  8
1
 62
10
100
AcDbLine
 10
0.0814
 20
2.5195
 30
0.0400
 11
0.0808
 21
2.5214
 31
0.0400
  0
LINE
  5
30
100
AcDbEntity
  8
1
 62
10
100
AcDbLine
 10
0.0808
 20
2.5214
 30
0.0400
 11
0.0804
 21
2.5233
 31
0.0400
  0
LINE
  5
30
100
AcDbEntity
  8
1
 62
10
100
AcDbLine
 10
0.0804
 20
2.5233
 30
0.0400
 11
0.0785
 21
2.5352
 31
0.0400
  0
LINE
  5
30
100
AcDbEntity
  8
1
 62
10
100
AcDbLine
 10
0.0785
 20
2.5352
 30
0.0400
 11
0.0783
 21
2.5369
 31
0.0400
  0
LINE
  5
30
100
AcDbEntity
  8
1
 62
10
100
AcDbLine
 10
0.0783
 20
2.5369
 30
0.0400
 11
0.0782
 21
2.5388
 31
0.0400
  0
LINE
  5
30
100
AcDbEntity
  8
1
 62
10
100
AcDbLine
 10
0.0782
 20
2.5388
 30
0.0400
 11
0.0783
 21
2.5408
 31
0.0400
  0
LINE
  5
30
100
AcDbEntity
  8
1
 62
10
100
AcDbLine
 10
0.0783
 20
2.5408
 30
0.0400
 11
0.0786
 21
2.5427
 31
0.0400
  0
LINE
  5
30
100
AcDbEntity
  8
1
 62
10
100
AcDbLine
 10
0.0786
 20
2.5427
 30
0.0400
 11
0.0790
 21
2.5446
 31
0.0400
  0
LINE
  5
30
100
AcDbEntity
  8
1
 62
10
100
AcDbLine
 10
0.0790
 20
2.5446
 30
0.0400
 11
0.0796
 21
2.5465
 31
0.0400
  0
LINE
  5
30
100
AcDbEntity
  8
1
 62
10
100
AcDbLine
 10
0.0796
 20
2.5465
 30
0.0400
 11
0.0834
 21
2.5570
 31
0.0400
  0
LINE
  5
30
100
AcDbEntity
  8
1
 62
10
100
AcDbLine
 10
0.0834
 20
2.5570
 30
0.0400
 11
0.0835
 21
2.5574
 31
0.0400
  0
LINE
  5
30
100
AcDbEntity
  8
1
 62
10
100
AcDbLine
 10
0.0835
 20
2.5574
 30
0.0400
 11
0.0843
 21
2.5592
 31
0.0400
  0
LINE
  5
30
100
AcDbEntity
  8
1
 62
10
100
AcDbLine
 10
0.0843
 20
2.5592
 30
0.0400
 11
0.0853
 21
2.5609
 31
0.0400
  0
LINE
  5
30
100
AcDbEntity
  8
1
 62
10
100
AcDbLine
 10
0.0853
 20
2.5609
 30
0.0400
 11
0.0863
 21
2.5625
 31
0.0400
  0
LINE
  5
30
100
AcDbEntity
  8
1
 62
10
100
AcDbLine
 10
0.0863
 20
2.5625
 30
0.0400
 11
0.0876
 21
2.5641
 31
0.0400
  0
LINE
  5
30
100
AcDbEntity
  8
1
 62
10
100
AcDbLine
 10
0.0876
 20
2.5641
 30
0.0400
 11
0.0889
 21
2.5655
 31
0.0400
  0
LINE
  5
30
100
AcDbEntity
  8
1
 62
10
100
AcDbLine
 10
0.0889
 20
2.5655
 30
0.0400
 11
0.0983
 21
2.5746
 31
0.0400
  0
LINE
  5
30
100
AcDbEntity
  8
1
 62
10
100
AcDbLine
 10
0.0983
 20
2.5746
 30
0.0400
 11
0.0987
 21
2.5750
 31
0.0400
  0
LINE
  5
30
100
AcDbEntity
  8
1
 62
10
100
AcDbLine
 10
0.0987
 20
2.5750
 30
0.0400
 11
0.1002
 21
2.5762
 31
0.0400
  0
LINE
  5
30
100
AcDbEntity
  8
1
 62
10
100
AcDbLine
 10
0.1002
 20
2.5762
 30
0.0400
 11
0.1018
 21
2.5774
 31
0.0400
  0
LINE
  5
30
100
AcDbEntity
  8
1
 62
10
100
AcDbLine
 10
0.1018
 20
2.5774
 30
0.0400
 11
0.1035
 21
2.5784
 31
0.0400
  0
LINE
  5
30
100
AcDbEntity
  8
1
 62
10
100
AcDbLine
 10
0.1035
 20
2.5784
 30
0.0400
 11
0.1186
 21
2.5863
 31
0.0400
  0
LINE
  5
30
100
AcDbEntity
  8
1
 62
10
100
AcDbLine
 10
0.1186
 20
2.5863
 30
0.0400
 11
0.1188
 21
2.5864
 31
0.0400
  0
LINE
  5
30
100
AcDbEntity
  8
1
 62
10
100
AcDbLine
 10
0.1188
 20
2.5864
 30
0.0400
 11
0.1206
 21
2.5872
 31
0.0400
  0
LINE
  5
30
100
AcDbEntity
  8
1
 62
10
100
AcDbLine
 10
0.1206
 20
2.5872
 30
0.0400
 11
0.1224
 21
2.5879
 31
0.0400
  0
LINE
  5
30
100
AcDbEntity
  8
1
 62
10
100
AcDbLine
 10
0.1224
 20
2.5879
 30
0.0400
 11
0.1433
 21
2.5943
 31
0.0400
  0
LINE
  5
30
100
AcDbEntity
  8
1
 62
10
100
AcDbLine
 10
0.1433
 20
2.5943
 30
0.0400
 11
0.1309
 21
2.5934
 31
0.0400
  0
LINE
  5
30
100
AcDbEntity
  8
1
 62
10
100
AcDbLine
 10
0.1309
 20
2.5934
 30
0.0400
 11
0.1300
 21
2.5934
 31
0.0400
  0
LINE
  5
30
100
AcDbEntity
  8
1
 62
10
100
AcDbLine
 10
0.1300
 20
2.5934
 30
0.0400
 11
0.1280
 21
2.5933
 31
0.0400
  0
LINE
  5
30
100
AcDbEntity
  8
1
 62
10
100
AcDbLine
 10
0.1280
 20
2.5933
 30
0.0400
 11
0.1005
 21
2.5950
 31
0.0400
  0
LINE
  5
30
100
AcDbEntity
  8
1
 62
10
100
AcDbLine
 10
0.1005
 20
2.5950
 30
0.0400
 11
0.0997
 21
2.5951
 31
0.0400
  0
LINE
  5
30
100
AcDbEntity
  8
1
 62
10
100
AcDbLine
 10
0.0997
 20
2.5951
 30
0.0400
 11
0.0977
 21
2.5953
 31
0.0400
  0
LINE
  5
30
100
AcDbEntity
  8
1
 62
10
100
AcDbLine
 10
0.0977
 20
2.5953
 30
0.0400
 11
0.0958
 21
2.5957
 31
0.0400
  0
LINE
  5
30
100
AcDbEntity
  8
1
 62
10
100
AcDbLine
 10
0.0958
 20
2.5957
 30
0.0400
 11
0.0704
 21
2.6027
 31
0.0400
  0
LINE
  5
30
100
AcDbEntity
  8
1
 62
10
100
AcDbLine
 10
0.0704
 20
2.6027
 30
0.0400
 11
0.0701
 21
2.6028
 31
0.0400
  0
LINE
  5
30
100
AcDbEntity
  8
1
 62
10
100
AcDbLine
 10
0.0701
 20
2.6028
 30
0.0400
 11
0.0682
 21
2.6034
 31
0.0400
  0
LINE
  5
30
100
AcDbEntity
  8
1
 62
10
100
AcDbLine
 10
0.0682
 20
2.6034
 30
0.0400
 11
0.0664
 21
2.6042
 31
0.0400
  0
LINE
  5
30
100
AcDbEntity
  8
1
 62
10
100
AcDbLine
 10
0.0664
 20
2.6042
 30
0.0400
 11
0.0430
 21
2.6158
 31
0.0400
  0
LINE
  5
30
100
AcDbEntity
  8
1
 62
10
100
AcDbLine
 10
0.0430
 20
2.6158
 30
0.0400
 11
0.0415
 21
2.6166
 31
0.0400
  0
LINE
  5
30
100
AcDbEntity
  8
1
 62
10
100
AcDbLine
 10
0.0415
 20
2.6166
 30
0.0400
 11
0.0399
 21
2.6177
 31
0.0400
  0
LINE
  5
30
100
AcDbEntity
  8
1
 62
10
100
AcDbLine
 10
0.0399
 20
2.6177
 30
0.0400
 11
0.0184
 21
2.6331
 31
0.0400
  0
LINE
  5
30
100
AcDbEntity
  8
1
 62
10
100
AcDbLine
 10
0.0184
 20
2.6331
 30
0.0400
 11
0.0176
 21
2.6337
 31
0.0400
  0
LINE
  5
30
100
AcDbEntity
  8
1
 62
10
100
AcDbLine
 10
0.0176
 20
2.6337
 30
0.0400
 11
0.0161
 21
2.6350
 31
0.0400
  0
LINE
  5
30
100
AcDbEntity
  8
1
 62
10
100
AcDbLine
 10
0.0161
 20
2.6350
 30
0.0400
 11
-0.0038
 21
2.6536
 31
0.0400
  0
LINE
  5
30
100
AcDbEntity
  8
1
 62
10
100
AcDbLine
 10
-0.0038
 20
2.6536
 30
0.0400
 11
-0.0045
 21
2.6543
 31
0.0400
  0
LINE
  5
30
100
AcDbEntity
  8
1
 62
10
100
AcDbLine
 10
-0.0045
 20
2.6543
 30
0.0400
 11
-0.0058
 21
2.6557
 31
0.0400
  0
LINE
  5
30
100
AcDbEntity
  8
1
 62
10
100
AcDbLine
 10
-0.0058
 20
2.6557
 30
0.0400
 11
-0.0070
 21
2.6573
 31
0.0400
  0
LINE
  5
30
100
AcDbEntity
  8
1
 62
10
100
AcDbLine
 10
-0.0070
 20
2.6573
 30
0.0400
 11
-0.0138
 21
2.6673
 31
0.0400
  0
LINE
  5
30
100
AcDbEntity
  8
1
 62
10
100
AcDbLine
 10
-0.0138
 20
2.6673
 30
0.0400
 11
-0.0138
 21
2.6674
 31
0.0400
  0
LINE
  5
30
100
AcDbEntity
  8
1
 62
10
100
AcDbLine
 10
-0.0138
 20
2.6674
 30
0.0400
 11
-0.0149
 21
2.6690
 31
0.0400
  0
LINE
  5
30
100
AcDbEntity
  8
1
 62
10
100
AcDbLine
 10
-0.0149
 20
2.6690
 30
0.0400
 11
-0.0157
 21
2.6708
 31
0.0400
  0
LINE
  5
30
100
AcDbEntity
  8
1
 62
10
100
AcDbLine
 10
-0.0157
 20
2.6708
 30
0.0400
 11
-0.0165
 21
2.6726
 31
0.0400
  0
LINE
  5
30
100
AcDbEntity
  8
1
 62
10
100
AcDbLine
 10
-0.0165
 20
2.6726
 30
0.0400
 11
-0.0204
 21
2.6839
 31
0.0400
  0
LINE
  5
30
100
AcDbEntity
  8
1
 62
10
100
AcDbLine
 10
-0.0204
 20
2.6839
 30
0.0400
 11
-0.0204
 21
2.6839
 31
0.0400
  0
LINE
  5
30
100
AcDbEntity
  8
1
 62
10
100
AcDbLine
 10
-0.0204
 20
2.6839
 30
0.0400
 11
-0.0210
 21
2.6858
 31
0.0400
  0
LINE
  5
30
100
AcDbEntity
  8
1
 62
10
100
AcDbLine
 10
-0.0210
 20
2.6858
 30
0.0400
 11
-0.0214
 21
2.6877
 31
0.0400
  0
LINE
  5
30
100
AcDbEntity
  8
1
 62
10
100
AcDbLine
 10
-0.0214
 20
2.6877
 30
0.0400
 11
-0.0216
 21
2.6897
 31
0.0400
  0
LINE
  5
30
100
AcDbEntity
  8
1
 62
10
100
AcDbLine
 10
-0.0216
 20
2.6897
 30
0.0400
 11
-0.0224
 21
2.7017
 31
0.0400
  0
LINE
  5
30
100
AcDbEntity
  8
1
 62
10
100
AcDbLine
 10
-0.0224
 20
2.7017
 30
0.0400
 11
-0.0224
 21
2.7022
 31
0.0400
  0
LINE
  5
30
100
AcDbEntity
  8
1
 62
10
100
AcDbLine
 10
-0.0224
 20
2.7022
 30
0.0400
 11
-0.0224
 21
2.7041
 31
0.0400
  0
LINE
  5
30
100
AcDbEntity
  8
1
 62
10
100
AcDbLine
 10
-0.0224
 20
2.7041
 30
0.0400
 11
-0.0223
 21
2.7061
 31
0.0400
  0
LINE
  5
30
100
AcDbEntity
  8
1
 62
10
100
AcDbLine
 10
-0.0223
 20
2.7061
 30
0.0400
 11
-0.0216
 21
2.7119
 31
0.0400
  0
LINE
  5
30
100
AcDbEntity
  8
1
 62
10
100
AcDbLine
 10
-0.0216
 20
2.7119
 30
0.0400
 11
-0.0214
 21
2.7129
 31
0.0400
  0
LINE
  5
30
100
AcDbEntity
  8
1
 62
10
100
AcDbLine
 10
-0.0214
 20
2.7129
 30
0.0400
 11
-0.0210
 21
2.7148
 31
0.0400
  0
LINE
  5
30
100
AcDbEntity
  8
1
 62
10
100
AcDbLine
 10
-0.0210
 20
2.7148
 30
0.0400
 11
-0.0204
 21
2.7167
 31
0.0400
  0
LINE
  5
30
100
AcDbEntity
  8
1
 62
10
100
AcDbLine
 10
-0.0204
 20
2.7167
 30
0.0400
 11
-0.0197
 21
2.7185
 31
0.0400
  0
LINE
  5
30
100
AcDbEntity
  8
1
 62
10
100
AcDbLine
 10
-0.0197
 20
2.7185
 30
0.0400
 11
-0.0188
 21
2.7203
 31
0.0400
  0
LINE
  5
30
100
AcDbEntity
  8
1
 62
10
100
AcDbLine
 10
-0.0188
 20
2.7203
 30
0.0400
 11
-0.0177
 21
2.7219
 31
0.0400
  0
LINE
  5
30
100
AcDbEntity
  8
1
 62
10
100
AcDbLine
 10
-0.0177
 20
2.7219
 30
0.0400
 11
-0.0134
 21
2.7275
 31
0.0400
  0
LINE
  5
30
100
AcDbEntity
  8
1
 62
10
100
AcDbLine
 10
-0.0134
 20
2.7275
 30
0.0400
 11
-0.0083
 21
2.7332
 31
0.0400
  0
LINE
  5
30
100
AcDbEntity
  8
1
 62
10
100
AcDbLine
 10
-0.0083
 20
2.7332
 30
0.0400
 11
-0.0026
 21
2.7384
 31
0.0400
  0
LINE
  5
30
100
AcDbEntity
  8
1
 62
10
100
AcDbLine
 10
-0.0026
 20
2.7384
 30
0.0400
 11
0.0035
 21
2.7431
 31
0.0400
  0
LINE
  5
30
100
AcDbEntity
  8
1
 62
10
100
AcDbLine
 10
0.0035
 20
2.7431
 30
0.0400
 11
0.0100
 21
2.7473
 31
0.0400
  0
LINE
  5
30
100
AcDbEntity
  8
1
 62
10
100
AcDbLine
 10
0.0100
 20
2.7473
 30
0.0400
 11
0.0168
 21
2.7509
 31
0.0400
  0
LINE
  5
30
100
AcDbEntity
  8
1
 62
10
100
AcDbLine
 10
0.0168
 20
2.7509
 30
0.0400
 11
0.0239
 21
2.7539
 31
0.0400
  0
LINE
  5
30
100
AcDbEntity
  8
1
 62
10
100
AcDbLine
 10
0.0239
 20
2.7539
 30
0.0400
 11
0.0312
 21
2.7563
 31
0.0400
  0
LINE
  5
30
100
AcDbEntity
  8
1
 62
10
100
AcDbLine
 10
0.0312
 20
2.7563
 30
0.0400
 11
0.0388
 21
2.7580
 31
0.0400
  0
LINE
  5
30
100
AcDbEntity
  8
1
 62
10
100
AcDbLine
 10
0.0388
 20
2.7580
 30
0.0400
 11
0.0464
 21
2.7590
 31
0.0400
  0
LINE
  5
30
100
AcDbEntity
  8
1
 62
10
100
AcDbLine
 10
0.0464
 20
2.7590
 30
0.0400
 11
0.0541
 21
2.7594
 31
0.0400
  0
LINE
  5
30
100
AcDbEntity
  8
1
 62
10
100
AcDbLine
 10
0.0541
 20
2.7594
 30
0.0400
 11
0.0618
 21
2.7591
 31
0.0400
  0
LINE
  5
30
100
AcDbEntity
  8
1
 62
10
100
AcDbLine
 10
0.0618
 20
2.7591
 30
0.0400
 11
0.0695
 21
2.7582
 31
0.0400
  0
LINE
  5
30
100
AcDbEntity
  8
1
 62
10
100
AcDbLine
 10
0.0695
 20
2.7582
 30
0.0400
 11
0.0770
 21
2.7565
 31
0.0400
  0
LINE
  5
30
100
AcDbEntity
  8
1
 62
10
100
AcDbLine
 10
0.0770
 20
2.7565
 30
0.0400
 11
0.0844
 21
2.7543
 31
0.0400
  0
LINE
  5
30
100
AcDbEntity
  8
1
 62
10
100
AcDbLine
 10
0.0844
 20
2.7543
 30
0.0400
 11
0.1041
 21
2.7489
 31
0.0400
  0
LINE
  5
30
100
AcDbEntity
  8
1
 62
10
100
AcDbLine
 10
0.1041
 20
2.7489
 30
0.0400
 11
0.1243
 21
2.7452
 31
0.0400
  0
LINE
  5
30
100
AcDbEntity
  8
1
 62
10
100
AcDbLine
 10
0.1243
 20
2.7452
 30
0.0400
 11
0.1447
 21
2.7433
 31
0.0400
  0
LINE
  5
30
100
AcDbEntity
  8
1
 62
10
100
AcDbLine
 10
0.1447
 20
2.7433
 30
0.0400
 11
0.1652
 21
2.7431
 31
0.0400
  0
LINE
  5
30
100
AcDbEntity
  8
1
 62
10
100
AcDbLine
 10
0.1652
 20
2.7431
 30
0.0400
 11
0.1856
 21
2.7448
 31
0.0400
  0
LINE
  5
30
100
AcDbEntity
  8
1
 62
10
100
AcDbLine
 10
0.1856
 20
2.7448
 30
0.0400
 11
0.2058
 21
2.7482
 31
0.0400
  0
LINE
  5
30
100
AcDbEntity
  8
1
 62
10
100
AcDbLine
 10
0.2058
 20
2.7482
 30
0.0400
 11
0.2256
 21
2.7533
 31
0.0400
  0
LINE
  5
30
100
AcDbEntity
  8
1
 62
10
100
AcDbLine
 10
0.2256
 20
2.7533
 30
0.0400
 11
0.2278
 21
2.7540
 31
0.0400
  0
LINE
  5
30
100
AcDbEntity
  8
1
 62
10
100
AcDbLine
 10
0.2278
 20
2.7540
 30
0.0400
 11
0.2598
 21
2.7651
 31
0.0400
  0
LINE
  5
30
100
AcDbEntity
  8
1
 62
10
100
AcDbLine
 10
0.2598
 20
2.7651
 30
0.0400
 11
0.2941
 21
2.7804
 31
0.0400
  0
LINE
  5
30
100
AcDbEntity
  8
1
 62
10
100
AcDbLine
 10
0.2941
 20
2.7804
 30
0.0400
 11
0.3529
 21
2.8106
 31
0.0400
  0
LINE
  5
30
100
AcDbEntity
  8
1
 62
10
100
AcDbLine
 10
0.3529
 20
2.8106
 30
0.0400
 11
0.4098
 21
2.8441
 31
0.0400
  0
LINE
  5
30
100
AcDbEntity
  8
1
 62
10
100
AcDbLine
 10
0.4098
 20
2.8441
 30
0.0400
 11
0.4649
 21
2.8807
 31
0.0400
  0
LINE
  5
30
100
AcDbEntity
  8
1
 62
10
100
AcDbLine
 10
0.4649
 20
2.8807
 30
0.0400
 11
0.4902
 21
2.8991
 31
0.0400
  0
LINE
  5
30
100
AcDbEntity
  8
1
 62
10
100
AcDbLine
 10
0.4902
 20
2.8991
 30
0.0400
 11
0.4908
 21
2.8995
 31
0.0400
  0
LINE
  5
30
100
AcDbEntity
  8
1
 62
10
100
AcDbLine
 10
0.4908
 20
2.8995
 30
0.0400
 11
0.5240
 21
2.9222
 31
0.0400
  0
LINE
  5
30
100
AcDbEntity
  8
1
 62
10
100
AcDbLine
 10
0.5240
 20
2.9222
 30
0.0400
 11
0.5246
 21
2.9226
 31
0.0400
  0
LINE
  5
30
100
AcDbEntity
  8
1
 62
10
100
AcDbLine
 10
0.5246
 20
2.9226
 30
0.0400
 11
0.5263
 21
2.9236
 31
0.0400
  0
LINE
  5
30
100
AcDbEntity
  8
1
 62
10
100
AcDbLine
 10
0.5263
 20
2.9236
 30
0.0400
 11
0.5599
 21
2.9410
 31
0.0400
  0
LINE
  5
30
100
AcDbEntity
  8
1
 62
10
100
AcDbLine
 10
0.5599
 20
2.9410
 30
0.0400
 11
0.5613
 21
2.9417
 31
0.0400
  0
LINE
  5
30
100
AcDbEntity
  8
1
 62
10
100
AcDbLine
 10
0.5613
 20
2.9417
 30
0.0400
 11
0.5624
 21
2.9422
 31
0.0400
  0
LINE
  5
30
100
AcDbEntity
  8
1
 62
10
100
AcDbLine
 10
0.5624
 20
2.9422
 30
0.0400
 11
0.5832
 21
2.9501
 31
0.0400
  0
LINE
  5
30
100
AcDbEntity
  8
1
 62
10
100
AcDbLine
 10
0.5832
 20
2.9501
 30
0.0400
 11
0.6046
 21
2.9561
 31
0.0400
  0
LINE
  5
30
100
AcDbEntity
  8
1
 62
10
100
AcDbLine
 10
0.6046
 20
2.9561
 30
0.0400
 11
0.6265
 21
2.9603
 31
0.0400
  0
LINE
  5
30
100
AcDbEntity
  8
1
 62
10
100
AcDbLine
 10
0.6265
 20
2.9603
 30
0.0400
 11
0.6486
 21
2.9625
 31
0.0400
  0
LINE
  5
30
100
AcDbEntity
  8
1
 62
10
100
AcDbLine
 10
0.6486
 20
2.9625
 30
0.0400
 11
0.6709
 21
2.9628
 31
0.0400
  0
LINE
  5
30
100
AcDbEntity
  8
1
 62
10
100
AcDbLine
 10
0.6709
 20
2.9628
 30
0.0400
 11
0.6931
 21
2.9612
 31
0.0400
  0
LINE
  5
30
100
AcDbEntity
  8
1
 62
10
100
AcDbLine
 10
0.6931
 20
2.9612
 30
0.0400
 11
0.7150
 21
2.9576
 31
0.0400
  0
LINE
  5
30
100
AcDbEntity
  8
1
 62
10
100
AcDbLine
 10
0.7150
 20
2.9576
 30
0.0400
 11
0.7366
 21
2.9522
 31
0.0400
  0
LINE
  5
30
100
AcDbEntity
  8
1
 62
10
100
AcDbLine
 10
0.7366
 20
2.9522
 30
0.0400
 11
0.7576
 21
2.9448
 31
0.0400
  0
LINE
  5
30
100
AcDbEntity
  8
1
 62
10
100
AcDbLine
 10
0.7576
 20
2.9448
 30
0.0400
 11
0.7753
 21
2.9384
 31
0.0400
  0
LINE
  5
30
100
AcDbEntity
  8
1
 62
10
100
AcDbLine
 10
0.7753
 20
2.9384
 30
0.0400
 11
0.7936
 21
2.9336
 31
0.0400
  0
LINE
  5
30
100
AcDbEntity
  8
1
 62
10
100
AcDbLine
 10
0.7936
 20
2.9336
 30
0.0400
 11
0.8121
 21
2.9304
 31
0.0400
  0
LINE
  5
30
100
AcDbEntity
  8
1
 62
10
100
AcDbLine
 10
0.8121
 20
2.9304
 30
0.0400
 11
0.8309
 21
2.9288
 31
0.0400
  0
LINE
  5
30
100
AcDbEntity
  8
1
 62
10
100
AcDbLine
 10
0.8309
 20
2.9288
 30
0.0400
 11
0.8498
 21
2.9289
 31
0.0400
  0
LINE
  5
30
100
AcDbEntity
  8
1
 62
10
100
AcDbLine
 10
0.8498
 20
2.9289
 30
0.0400
 11
0.8685
 21
2.9306
 31
0.0400
  0
LINE
  5
30
100
AcDbEntity
  8
1
 62
10
100
AcDbLine
 10
0.8685
 20
2.9306
 30
0.0400
 11
0.8871
 21
2.9339
 31
0.0400
  0
LINE
  5
30
100
AcDbEntity
  8
1
 62
10
100
AcDbLine
 10
0.8871
 20
2.9339
 30
0.0400
 11
0.9053
 21
2.9389
 31
0.0400
  0
LINE
  5
30
100
AcDbEntity
  8
1
 62
10
100
AcDbLine
 10
0.9053
 20
2.9389
 30
0.0400
 11
0.9230
 21
2.9454
 31
0.0400
  0
LINE
  5
30
100
AcDbEntity
  8
1
 62
10
100
AcDbLine
 10
0.9230
 20
2.9454
 30
0.0400
 11
0.9400
 21
2.9534
 31
0.0400
  0
LINE
  5
30
100
AcDbEntity
  8
1
 62
10
100
AcDbLine
 10
0.9400
 20
2.9534
 30
0.0400
 11
0.9563
 21
2.9629
 31
0.0400
  0
LINE
  5
30
100
AcDbEntity
  8
1
 62
10
100
AcDbLine
 10
0.9563
 20
2.9629
 30
0.0400
 11
0.9717
 21
2.9737
 31
0.0400
  0
LINE
  5
30
100
AcDbEntity
  8
1
 62
10
100
AcDbLine
 10
0.9717
 20
2.9737
 30
0.0400
 11
0.9856
 21
2.9854
 31
0.0400
  0
LINE
  5
30
100
AcDbEntity
  8
1
 62
10
100
AcDbLine
 10
0.9856
 20
2.9854
 30
0.0400
 11
0.9860
 21
2.9858
 31
0.0400
  0
LINE
  5
30
100
AcDbEntity
  8
1
 62
10
100
AcDbLine
 10
0.9860
 20
2.9858
 30
0.0400
 11
0.9896
 21
2.9889
 31
0.0400
  0
LINE
  5
30
100
AcDbEntity
  8
1
 62
10
100
AcDbLine
 10
0.9896
 20
2.9889
 30
0.0400
 11
1.0385
 21
3.0358
 31
0.0400
  0
LINE
  5
30
100
AcDbEntity
  8
1
 62
10
100
AcDbLine
 10
1.0385
 20
3.0358
 30
0.0400
 11
1.0850
 21
3.0850
 31
0.0400
  0
LINE
  5
30
100
AcDbEntity
  8
1
 62
10
100
AcDbLine
 10
1.0850
 20
3.0850
 30
0.0400
 11
1.1213
 21
3.1269
 31
0.0400
  0
LINE
  5
30
100
AcDbEntity
  8
1
 62
10
100
AcDbLine
 10
1.1213
 20
3.1269
 30
0.0400
 11
1.2140
 21
3.2325
 31
0.0400
  0
LINE
  5
30
100
AcDbEntity
  8
1
 62
10
100
AcDbLine
 10
1.2140
 20
3.2325
 30
0.0400
 11
1.5448
 21
3.5690
 31
0.0400
  0
LINE
  5
30
100
AcDbEntity
  8
1
 62
10
100
AcDbLine
 10
1.5448
 20
3.5690
 30
0.0400
 11
1.7348
 21
3.7333
 31
0.0400
  0
LINE
  5
30
100
AcDbEntity
  8
1
 62
10
100
AcDbLine
 10
1.7348
 20
3.7333
 30
0.0400
 11
1.9648
 21
3.9013
 31
0.0400
  0
LINE
  5
30
100
AcDbEntity
  8
1
 62
10
100
AcDbLine
 10
1.9648
 20
3.9013
 30
0.0400
 11
2.2086
 21
4.0485
 31
0.0400
  0
LINE
  5
30
100
AcDbEntity
  8
1
 62
10
100
AcDbLine
 10
2.2086
 20
4.0485
 30
0.0400
 11
2.3306
 21
4.1097
 31
0.0400
  0
LINE
  5
30
100
AcDbEntity
  8
1
 62
10
100
AcDbLine
 10
2.3306
 20
4.1097
 30
0.0400
 11
2.5737
 21
4.2121
 31
0.0400
  0
LINE
  5
30
100
AcDbEntity
  8
1
 62
10
100
AcDbLine
 10
2.5737
 20
4.2121
 30
0.0400
 11
2.8247
 21
4.2930
 31
0.0400
  0
LINE
  5
30
100
AcDbEntity
  8
1
 62
10
100
AcDbLine
 10
2.8247
 20
4.2930
 30
0.0400
 11
2.9497
 21
4.3260
 31
0.0400
  0
LINE
  5
30
100
AcDbEntity
  8
1
 62
10
100
AcDbLine
 10
2.9497
 20
4.3260
 30
0.0400
 11
2.9504
 21
4.3262
 31
0.0400
  0
LINE
  5
30
100
AcDbEntity
  8
1
 62
10
100
AcDbLine
 10
2.9504
 20
4.3262
 30
0.0400
 11
3.0764
 21
4.3552
 31
0.0400
  0
LINE
  5
30
100
AcDbEntity
  8
1
 62
10
100
AcDbLine
 10
3.0764
 20
4.3552
 30
0.0400
 11
3.0770
 21
4.3554
 31
0.0400
  0
LINE
  5
30
100
AcDbEntity
  8
1
 62
10
100
AcDbLine
 10
3.0770
 20
4.3554
 30
0.0400
 11
3.2041
 21
4.3809
 31
0.0400
  0
LINE
  5
30
100
AcDbEntity
  8
1
 62
10
100
AcDbLine
 10
3.2041
 20
4.3809
 30
0.0400
 11
3.2045
 21
4.3810
 31
0.0400
  0
LINE
  5
30
100
AcDbEntity
  8
1
 62
10
100
AcDbLine
 10
3.2045
 20
4.3810
 30
0.0400
 11
3.2651
 21
4.3919
 31
0.0400
  0
LINE
  5
30
100
AcDbEntity
  8
1
 62
10
100
AcDbLine
 10
3.2651
 20
4.3919
 30
0.0400
 11
3.3355
 21
4.4043
 31
0.0400
  0
LINE
  5
30
100
AcDbEntity
  8
1
 62
10
100
AcDbLine
 10
3.3355
 20
4.4043
 30
0.0400
 11
3.9524
 21
4.4827
 31
0.0400
  0
LINE
  5
30
100
AcDbEntity
  8
1
 62
10
100
AcDbLine
 10
3.9524
 20
4.4827
 30
0.0400
 11
4.5738
 21
4.5070
 31
0.0400
  0
LINE
  5
30
100
AcDbEntity
  8
1
 62
10
100
AcDbLine
 10
4.5738
 20
4.5070
 30
0.0400
 11
4.6683
 21
4.5053
 31
0.0400
  0
LINE
  5
30
100
AcDbEntity
  8
1
 62
10
100
AcDbLine
 10
4.6683
 20
4.5053
 30
0.0400
 11
4.9818
 21
4.4817
 31
0.0400
  0
LINE
  5
30
100
AcDbEntity
  8
1
 62
10
100
AcDbLine
 10
4.9818
 20
4.4817
 30
0.0400
 11
5.2921
 21
4.4308
 31
0.0400
  0
LINE
  5
30
100
AcDbEntity
  8
1
 62
10
100
AcDbLine
 10
5.2921
 20
4.4308
 30
0.0400
 11
5.5968
 21
4.3531
 31
0.0400
  0
LINE
  5
30
100
AcDbEntity
  8
1
 62
10
100
AcDbLine
 10
5.5968
 20
4.3531
 30
0.0400
 11
5.8935
 21
4.2492
 31
0.0400
  0
LINE
  5
30
100
AcDbEntity
  8
1
 62
10
100
AcDbLine
 10
5.8935
 20
4.2492
 30
0.0400
 11
6.1801
 21
4.1198
 31
0.0400
  0
LINE
  5
30
100
AcDbEntity
  8
1
 62
10
100
AcDbLine
 10
6.1801
 20
4.1198
 30
0.0400
 11
6.4723
 21
3.9737
 31
0.0400
  0
LINE
  5
30
100
AcDbEntity
  8
1
 62
10
100
AcDbLine
 10
6.4723
 20
3.9737
 30
0.0400
 11
6.7535
 21
3.8340
 31
0.0400
  0
LINE
  5
30
100
AcDbEntity
  8
1
 62
10
100
AcDbLine
 10
6.7535
 20
3.8340
 30
0.0400
 11
6.7552
 21
3.8331
 31
0.0400
  0
LINE
  5
30
100
AcDbEntity
  8
1
 62
10
100
AcDbLine
 10
6.7552
 20
3.8331
 30
0.0400
 11
6.7789
 21
3.8186
 31
0.0400
  0
LINE
  5
30
100
AcDbEntity
  8
1
 62
10
100
AcDbLine
 10
6.7789
 20
3.8186
 30
0.0400
 11
6.7797
 21
3.8180
 31
0.0400
  0
LINE
  5
30
100
AcDbEntity
  8
1
 62
10
100
AcDbLine
 10
6.7797
 20
3.8180
 30
0.0400
 11
6.8537
 21
3.7680
 31
0.0400
  0
LINE
  5
30
100
AcDbEntity
  8
1
 62
10
100
AcDbLine
 10
6.8537
 20
3.7680
 30
0.0400
 11
6.8823
 21
3.7530
 31
0.0400
  0
LINE
  5
30
100
AcDbEntity
  8
1
 62
10
100
AcDbLine
 10
6.8823
 20
3.7530
 30
0.0400
 11
6.9121
 21
3.7405
 31
0.0400
  0
LINE
  5
30
100
AcDbEntity
  8
1
 62
10
100
AcDbLine
 10
6.9121
 20
3.7405
 30
0.0400
 11
6.9428
 21
3.7307
 31
0.0400
  0
LINE
  5
30
100
AcDbEntity
  8
1
 62
10
100
AcDbLine
 10
6.9428
 20
3.7307
 30
0.0400
 11
6.9743
 21
3.7236
 31
0.0400
  0
LINE
  5
30
100
AcDbEntity
  8
1
 62
10
100
AcDbLine
 10
6.9743
 20
3.7236
 30
0.0400
 11
6.9849
 21
3.7218
 31
0.0400
  0
LINE
  5
30
100
AcDbEntity
  8
1
 62
10
100
AcDbLine
 10
6.9849
 20
3.7218
 30
0.0400
 11
7.0304
 21
3.7163
 31
0.0400
  0
LINE
  5
30
100
AcDbEntity
  8
1
 62
10
100
AcDbLine
 10
7.0304
 20
3.7163
 30
0.0400
 11
7.0878
 21
3.7134
 31
0.0400
  0
LINE
  5
30
100
AcDbEntity
  8
1
 62
10
100
AcDbLine
 10
7.0878
 20
3.7134
 30
0.0400
 11
7.1267
 21
3.7214
 31
0.0400
  0
LINE
  5
30
100
AcDbEntity
  8
1
 62
10
100
AcDbLine
 10
7.1267
 20
3.7214
 30
0.0400
 11
7.2130
 21
3.7417
 31
0.0400
  0
LINE
  5
30
100
AcDbEntity
  8
1
 62
10
100
AcDbLine
 10
7.2130
 20
3.7417
 30
0.0400
 11
7.2744
 21
3.7595
 31
0.0400
  0
LINE
  5
30
100
AcDbEntity
  8
1
 62
10
100
AcDbLine
 10
7.2744
 20
3.7595
 30
0.0400
 11
7.3376
 21
3.7819
 31
0.0400
  0
LINE
  5
30
100
AcDbEntity
  8
1
 62
10
100
AcDbLine
 10
7.3376
 20
3.7819
 30
0.0400
 11
7.3910
 21
3.8058
 31
0.0400
  0
LINE
  5
30
100
AcDbEntity
  8
1
 62
10
100
AcDbLine
 10
7.3910
 20
3.8058
 30
0.0400
 11
7.4295
 21
3.8279
 31
0.0400
  0
LINE
  5
30
100
AcDbEntity
  8
1
 62
10
100
AcDbLine
 10
7.4295
 20
3.8279
 30
0.0400
 11
7.4426
 21
3.8376
 31
0.0400
  0
LINE
  5
30
100
AcDbEntity
  8
1
 62
10
100
AcDbLine
 10
7.4426
 20
3.8376
 30
0.0400
 11
7.4406
 21
3.8378
 31
0.0400
  0
LINE
  5
30
100
AcDbEntity
  8
1
 62
10
100
AcDbLine
 10
7.4406
 20
3.8378
 30
0.0400
 11
7.4104
 21
3.8425
 31
0.0400
  0
LINE
  5
30
100
AcDbEntity
  8
1
 62
10
100
AcDbLine
 10
7.4104
 20
3.8425
 30
0.0400
 11
7.3808
 21
3.8498
 31
0.0400
  0
LINE
  5
30
100
AcDbEntity
  8
1
 62
10
100
AcDbLine
 10
7.3808
 20
3.8498
 30
0.0400
 11
7.3518
 21
3.8597
 31
0.0400
  0
LINE
  5
30
100
AcDbEntity
  8
1
 62
10
100
AcDbLine
 10
7.3518
 20
3.8597
 30
0.0400
 11
7.3239
 21
3.8720
 31
0.0400
  0
LINE
  5
30
100
AcDbEntity
  8
1
 62
10
100
AcDbLine
 10
7.3239
 20
3.8720
 30
0.0400
 11
7.2971
 21
3.8867
 31
0.0400
  0
LINE
  5
30
100
AcDbEntity
  8
1
 62
10
100
AcDbLine
 10
7.2971
 20
3.8867
 30
0.0400
 11
7.2717
 21
3.9037
 31
0.0400
  0
LINE
  5
30
100
AcDbEntity
  8
1
 62
10
100
AcDbLine
 10
7.2717
 20
3.9037
 30
0.0400
 11
7.2479
 21
3.9229
 31
0.0400
  0
LINE
  5
30
100
AcDbEntity
  8
1
 62
10
100
AcDbLine
 10
7.2479
 20
3.9229
 30
0.0400
 11
7.2258
 21
3.9440
 31
0.0400
  0
LINE
  5
30
100
AcDbEntity
  8
1
 62
10
100
AcDbLine
 10
7.2258
 20
3.9440
 30
0.0400
 11
7.2065
 21
3.9660
 31
0.0400
  0
LINE
  5
30
100
AcDbEntity
  8
1
 62
10
100
AcDbLine
 10
7.2065
 20
3.9660
 30
0.0400
 11
7.1884
 21
3.9906
 31
0.0400
  0
LINE
  5
30
100
AcDbEntity
  8
1
 62
10
100
AcDbLine
 10
7.1884
 20
3.9906
 30
0.0400
 11
7.1725
 21
4.0167
 31
0.0400
  0
LINE
  5
30
100
AcDbEntity
  8
1
 62
10
100
AcDbLine
 10
7.1725
 20
4.0167
 30
0.0400
 11
7.1589
 21
4.0440
 31
0.0400
  0
LINE
  5
30
100
AcDbEntity
  8
1
 62
10
100
AcDbLine
 10
7.1589
 20
4.0440
 30
0.0400
 11
7.1477
 21
4.0725
 31
0.0400
  0
LINE
  5
30
100
AcDbEntity
  8
1
 62
10
100
AcDbLine
 10
7.1477
 20
4.0725
 30
0.0400
 11
7.1391
 21
4.1018
 31
0.0400
  0
LINE
  5
30
100
AcDbEntity
  8
1
 62
10
100
AcDbLine
 10
7.1391
 20
4.1018
 30
0.0400
 11
7.1331
 21
4.1318
 31
0.0400
  0
LINE
  5
30
100
AcDbEntity
  8
1
 62
10
100
AcDbLine
 10
7.1331
 20
4.1318
 30
0.0400
 11
7.1297
 21
4.1621
 31
0.0400
  0
LINE
  5
30
100
AcDbEntity
  8
1
 62
10
100
AcDbLine
 10
7.1297
 20
4.1621
 30
0.0400
 11
7.1289
 21
4.1927
 31
0.0400
  0
LINE
  5
30
100
AcDbEntity
  8
1
 62
10
100
AcDbLine
 10
7.1289
 20
4.1927
 30
0.0400
 11
7.1308
 21
4.2232
 31
0.0400
  0
LINE
  5
30
100
AcDbEntity
  8
1
 62
10
100
AcDbLine
 10
7.1308
 20
4.2232
 30
0.0400
 11
7.1318
 21
4.2317
 31
0.0400
  0
LINE
  5
30
100
AcDbEntity
  8
1
 62
10
100
AcDbLine
 10
7.1318
 20
4.2317
 30
0.0400
 11
7.1319
 21
4.2323
 31
0.0400
  0
LINE
  5
30
100
AcDbEntity
  8
1
 62
10
100
AcDbLine
 10
7.1319
 20
4.2323
 30
0.0400
 11
7.1322
 21
4.2342
 31
0.0400
  0
LINE
  5
30
100
AcDbEntity
  8
1
 62
10
100
AcDbLine
 10
7.1322
 20
4.2342
 30
0.0400
 11
7.1428
 21
4.2807
 31
0.0400
  0
LINE
  5
30
100
AcDbEntity
  8
1
 62
10
100
AcDbLine
 10
7.1428
 20
4.2807
 30
0.0400
 11
7.1431
 21
4.2817
 31
0.0400
  0
LINE
  5
30
100
AcDbEntity
  8
1
 62
10
100
AcDbLine
 10
7.1431
 20
4.2817
 30
0.0400
 11
7.1485
 21
4.2989
 31
0.0400
  0
LINE
  5
30
100
AcDbEntity
  8
1
 62
10
100
AcDbLine
 10
7.1485
 20
4.2989
 30
0.0400
 11
7.1579
 21
4.3222
 31
0.0400
  0
LINE
  5
30
100
AcDbEntity
  8
1
 62
10
100
AcDbLine
 10
7.1579
 20
4.3222
 30
0.0400
 11
7.1692
 21
4.3447
 31
0.0400
  0
LINE
  5
30
100
AcDbEntity
  8
1
 62
10
100
AcDbLine
 10
7.1692
 20
4.3447
 30
0.0400
 11
7.1825
 21
4.3661
 31
0.0400
  0
LINE
  5
30
100
AcDbEntity
  8
1
 62
10
100
AcDbLine
 10
7.1825
 20
4.3661
 30
0.0400
 11
7.1975
 21
4.3862
 31
0.0400
  0
LINE
  5
30
100
AcDbEntity
  8
1
 62
10
100
AcDbLine
 10
7.1975
 20
4.3862
 30
0.0400
 11
7.2143
 21
4.4050
 31
0.0400
  0
LINE
  5
30
100
AcDbEntity
  8
1
 62
10
100
AcDbLine
 10
7.2143
 20
4.4050
 30
0.0400
 11
7.2326
 21
4.4222
 31
0.0400
  0
LINE
  5
30
100
AcDbEntity
  8
1
 62
10
100
AcDbLine
 10
7.2326
 20
4.4222
 30
0.0400
 11
7.2330
 21
4.4225
 31
0.0400
  0
LINE
  5
30
100
AcDbEntity
  8
1
 62
10
100
AcDbLine
 10
7.2330
 20
4.4225
 30
0.0400
 11
7.2653
 21
4.4489
 31
0.0400
  0
LINE
  5
30
100
AcDbEntity
  8
1
 62
10
100
AcDbLine
 10
7.2653
 20
4.4489
 30
0.0400
 11
7.2657
 21
4.4492
 31
0.0400
  0
LINE
  5
30
100
AcDbEntity
  8
1
 62
10
100
AcDbLine
 10
7.2657
 20
4.4492
 30
0.0400
 11
7.2673
 21
4.4503
 31
0.0400
  0
LINE
  5
30
100
AcDbEntity
  8
1
 62
10
100
AcDbLine
 10
7.2673
 20
4.4503
 30
0.0400
 11
7.2888
 21
4.4643
 31
0.0400
  0
LINE
  5
30
100
AcDbEntity
  8
1
 62
10
100
AcDbLine
 10
7.2888
 20
4.4643
 30
0.0400
 11
7.2904
 21
4.4653
 31
0.0400
  0
LINE
  5
30
100
AcDbEntity
  8
1
 62
10
100
AcDbLine
 10
7.2904
 20
4.4653
 30
0.0400
 11
7.3057
 21
4.4730
 31
0.0400
  0
LINE
  5
30
100
AcDbEntity
  8
1
 62
10
100
AcDbLine
 10
7.3057
 20
4.4730
 30
0.0400
 11
7.3320
 21
4.4840
 31
0.0400
  0
LINE
  5
30
100
AcDbEntity
  8
1
 62
10
100
AcDbLine
 10
7.3320
 20
4.4840
 30
0.0400
 11
7.3590
 21
4.4926
 31
0.0400
  0
LINE
  5
30
100
AcDbEntity
  8
1
 62
10
100
AcDbLine
 10
7.3590
 20
4.4926
 30
0.0400
 11
7.3868
 21
4.4988
 31
0.0400
  0
LINE
  5
30
100
AcDbEntity
  8
1
 62
10
100
AcDbLine
 10
7.3868
 20
4.4988
 30
0.0400
 11
7.4150
 21
4.5026
 31
0.0400
  0
LINE
  5
30
100
AcDbEntity
  8
1
 62
10
100
AcDbLine
 10
7.4150
 20
4.5026
 30
0.0400
 11
7.4434
 21
4.5040
 31
0.0400
  0
LINE
  5
30
100
AcDbEntity
  8
1
 62
10
100
AcDbLine
 10
7.4434
 20
4.5040
 30
0.0400
 11
7.4718
 21
4.5028
 31
0.0400
  0
LINE
  5
30
100
AcDbEntity
  8
1
 62
10
100
AcDbLine
 10
7.4718
 20
4.5028
 30
0.0400
 11
7.5000
 21
4.4992
 31
0.0400
  0
LINE
  5
30
100
AcDbEntity
  8
1
 62
10
100
AcDbLine
 10
7.5000
 20
4.4992
 30
0.0400
 11
7.5019
 21
4.4988
 31
0.0400
  0
LINE
  5
30
100
AcDbEntity
  8
1
 62
10
100
AcDbLine
 10
7.5019
 20
4.4988
 30
0.0400
 11
7.5238
 21
4.4930
 31
0.0400
  0
LINE
  5
30
100
AcDbEntity
  8
1
 62
10
100
AcDbLine
 10
7.5238
 20
4.4930
 30
0.0400
 11
7.5244
 21
4.4928
 31
0.0400
  0
LINE
  5
30
100
AcDbEntity
  8
1
 62
10
100
AcDbLine
 10
7.5244
 20
4.4928
 30
0.0400
 11
7.5701
 21
4.4793
 31
0.0400
  0
LINE
  5
30
100
AcDbEntity
  8
1
 62
10
100
AcDbLine
 10
7.5701
 20
4.4793
 30
0.0400
 11
7.5963
 21
4.4700
 31
0.0400
  0
LINE
  5
30
100
AcDbEntity
  8
1
 62
10
100
AcDbLine
 10
7.5963
 20
4.4700
 30
0.0400
 11
7.6250
 21
4.4571
 31
0.0400
  0
LINE
  5
30
100
AcDbEntity
  8
1
 62
10
100
AcDbLine
 10
7.6250
 20
4.4571
 30
0.0400
 11
7.6525
 21
4.4417
 31
0.0400
  0
LINE
  5
30
100
AcDbEntity
  8
1
 62
10
100
AcDbLine
 10
7.6525
 20
4.4417
 30
0.0400
 11
7.6785
 21
4.4240
 31
0.0400
  0
LINE
  5
30
100
AcDbEntity
  8
1
 62
10
100
AcDbLine
 10
7.6785
 20
4.4240
 30
0.0400
 11
7.7029
 21
4.4041
 31
0.0400
  0
LINE
  5
30
100
AcDbEntity
  8
1
 62
10
100
AcDbLine
 10
7.7029
 20
4.4041
 30
0.0400
 11
7.7255
 21
4.3822
 31
0.0400
  0
LINE
  5
30
100
AcDbEntity
  8
1
 62
10
100
AcDbLine
 10
7.7255
 20
4.3822
 30
0.0400
 11
7.7461
 21
4.3584
 31
0.0400
  0
LINE
  5
30
100
AcDbEntity
  8
1
 62
10
100
AcDbLine
 10
7.7461
 20
4.3584
 30
0.0400
 11
7.7596
 21
4.3402
 31
0.0400
  0
LINE
  5
30
100
AcDbEntity
  8
1
 62
10
100
AcDbLine
 10
7.7596
 20
4.3402
 30
0.0400
 11
7.7763
 21
4.3136
 31
0.0400
  0
LINE
  5
30
100
AcDbEntity
  8
1
 62
10
100
AcDbLine
 10
7.7763
 20
4.3136
 30
0.0400
 11
7.7907
 21
4.2856
 31
0.0400
  0
LINE
  5
30
100
AcDbEntity
  8
1
 62
10
100
AcDbLine
 10
7.7907
 20
4.2856
 30
0.0400
 11
7.8026
 21
4.2564
 31
0.0400
  0
LINE
  5
30
100
AcDbEntity
  8
1
 62
10
100
AcDbLine
 10
7.8026
 20
4.2564
 30
0.0400
 11
7.8119
 21
4.2264
 31
0.0400
  0
LINE
  5
30
100
AcDbEntity
  8
1
 62
10
100
AcDbLine
 10
7.8119
 20
4.2264
 30
0.0400
 11
7.8185
 21
4.1956
 31
0.0400
  0
LINE
  5
30
100
AcDbEntity
  8
1
 62
10
100
AcDbLine
 10
7.8185
 20
4.1956
 30
0.0400
 11
7.8206
 21
4.1858
 31
0.0400
  0
LINE
  5
30
100
AcDbEntity
  8
1
 62
10
100
AcDbLine
 10
7.8206
 20
4.1858
 30
0.0400
 11
7.8236
 21
4.1762
 31
0.0400
  0
LINE
  5
30
100
AcDbEntity
  8
1
 62
10
100
AcDbLine
 10
7.8236
 20
4.1762
 30
0.0400
 11
7.8274
 21
4.1669
 31
0.0400
  0
LINE
  5
30
100
AcDbEntity
  8
1
 62
10
100
AcDbLine
 10
7.8274
 20
4.1669
 30
0.0400
 11
7.8320
 21
4.1579
 31
0.0400
  0
LINE
  5
30
100
AcDbEntity
  8
1
 62
10
100
AcDbLine
 10
7.8320
 20
4.1579
 30
0.0400
 11
7.8373
 21
4.1494
 31
0.0400
  0
LINE
  5
30
100
AcDbEntity
  8
1
 62
10
100
AcDbLine
 10
7.8373
 20
4.1494
 30
0.0400
 11
7.8434
 21
4.1414
 31
0.0400
  0
LINE
  5
30
100
AcDbEntity
  8
1
 62
10
100
AcDbLine
 10
7.8434
 20
4.1414
 30
0.0400
 11
7.8502
 21
4.1340
 31
0.0400
  0
LINE
  5
30
100
AcDbEntity
  8
1
 62
10
100
AcDbLine
 10
7.8502
 20
4.1340
 30
0.0400
 11
7.8575
 21
4.1271
 31
0.0400
  0
LINE
  5
30
100
AcDbEntity
  8
1
 62
10
100
AcDbLine
 10
7.8575
 20
4.1271
 30
0.0400
 11
7.8655
 21
4.1210
 31
0.0400
  0
LINE
  5
30
100
AcDbEntity
  8
1
 62
10
100
AcDbLine
 10
7.8655
 20
4.1210
 30
0.0400
 11
7.8739
 21
4.1155
 31
0.0400
  0
LINE
  5
30
100
AcDbEntity
  8
1
 62
10
100
AcDbLine
 10
7.8739
 20
4.1155
 30
0.0400
 11
7.8828
 21
4.1108
 31
0.0400
  0
LINE
  5
30
100
AcDbEntity
  8
1
 62
10
100
AcDbLine
 10
7.8828
 20
4.1108
 30
0.0400
 11
7.8921
 21
4.1069
 31
0.0400
  0
LINE
  5
30
100
AcDbEntity
  8
1
 62
10
100
AcDbLine
 10
7.8921
 20
4.1069
 30
0.0400
 11
7.9017
 21
4.1038
 31
0.0400
  0
LINE
  5
30
100
AcDbEntity
  8
1
 62
10
100
AcDbLine
 10
7.9017
 20
4.1038
 30
0.0400
 11
7.9115
 21
4.1016
 31
0.0400
  0
LINE
  5
30
100
AcDbEntity
  8
1
 62
10
100
AcDbLine
 10
7.9115
 20
4.1016
 30
0.0400
 11
7.9214
 21
4.1002
 31
0.0400
  0
LINE
  5
30
100
AcDbEntity
  8
1
 62
10
100
AcDbLine
 10
7.9214
 20
4.1002
 30
0.0400
 11
7.9315
 21
4.0998
 31
0.0400
  0
LINE
  5
30
100
AcDbEntity
  8
1
 62
10
100
AcDbLine
 10
7.9315
 20
4.0998
 30
0.0400
 11
7.9415
 21
4.1001
 31
0.0400
  0
LINE
  5
30
100
AcDbEntity
  8
1
 62
10
100
AcDbLine
 10
7.9415
 20
4.1001
 30
0.0400
 11
7.9515
 21
4.1014
 31
0.0400
  0
LINE
  5
30
100
AcDbEntity
  8
1
 62
10
100
AcDbLine
 10
7.7445
 20
4.5788
 30
0.1180
 11
7.7445
 21
4.5788
 31
0.0400
  0
LINE
  5
30
100
AcDbEntity
  8
1
 62
10
100
AcDbLine
 10
7.7445
 20
4.5788
 30
0.0400
 11
7.7442
 21
4.5888
 31
0.0400
  0
LINE
  5
30
100
AcDbEntity
  8
1
 62
10
100
AcDbLine
 10
7.7442
 20
4.5888
 30
0.0400
 11
7.7429
 21
4.5988
 31
0.0400
  0
LINE
  5
30
100
AcDbEntity
  8
1
 62
10
100
AcDbLine
 10
7.7429
 20
4.5988
 30
0.0400
 11
7.7409
 21
4.6087
 31
0.0400
  0
LINE
  5
30
100
AcDbEntity
  8
1
 62
10
100
AcDbLine
 10
7.7409
 20
4.6087
 30
0.0400
 11
7.7379
 21
4.6183
 31
0.0400
  0
LINE
  5
30
100
AcDbEntity
  8
1
 62
10
100
AcDbLine
 10
7.7379
 20
4.6183
 30
0.0400
 11
7.7342
 21
4.6276
 31
0.0400
  0
LINE
  5
30
100
AcDbEntity
  8
1
 62
10
100
AcDbLine
 10
7.7342
 20
4.6276
 30
0.0400
 11
7.7296
 21
4.6365
 31
0.0400
  0
LINE
  5
30
100
AcDbEntity
  8
1
 62
10
100
AcDbLine
 10
7.7296
 20
4.6365
 30
0.0400
 11
7.7243
 21
4.6451
 31
0.0400
  0
LINE
  5
30
100
AcDbEntity
  8
1
 62
10
100
AcDbLine
 10
7.7243
 20
4.6451
 30
0.0400
 11
7.7183
 21
4.6531
 31
0.0400
  0
LINE
  5
30
100
AcDbEntity
  8
1
 62
10
100
AcDbLine
 10
7.7183
 20
4.6531
 30
0.0400
 11
7.7115
 21
4.6606
 31
0.0400
  0
LINE
  5
30
100
AcDbEntity
  8
1
 62
10
100
AcDbLine
 10
7.7115
 20
4.6606
 30
0.0400
 11
7.7042
 21
4.6674
 31
0.0400
  0
LINE
  5
30
100
AcDbEntity
  8
1
 62
10
100
AcDbLine
 10
7.7042
 20
4.6674
 30
0.0400
 11
7.6963
 21
4.6736
 31
0.0400
  0
LINE
  5
30
100
AcDbEntity
  8
1
 62
10
100
AcDbLine
 10
7.6963
 20
4.6736
 30
0.0400
 11
7.6879
 21
4.6791
 31
0.0400
  0
LINE
  5
30
100
AcDbEntity
  8
1
 62
10
100
AcDbLine
 10
7.6879
 20
4.6791
 30
0.0400
 11
7.6790
 21
4.6838
 31
0.0400
  0
LINE
  5
30
100
AcDbEntity
  8
1
 62
10
100
AcDbLine
 10
7.6790
 20
4.6838
 30
0.0400
 11
7.6697
 21
4.6878
 31
0.0400
  0
LINE
  5
30
100
AcDbEntity
  8
1
 62
10
100
AcDbLine
 10
7.6697
 20
4.6878
 30
0.0400
 11
7.6602
 21
4.6909
 31
0.0400
  0
LINE
  5
30
100
AcDbEntity
  8
1
 62
10
100
AcDbLine
 10
7.6602
 20
4.6909
 30
0.0400
 11
7.6504
 21
4.6932
 31
0.0400
  0
LINE
  5
30
100
AcDbEntity
  8
1
 62
10
100
AcDbLine
 10
7.6504
 20
4.6932
 30
0.0400
 11
7.6404
 21
4.6946
 31
0.0400
  0
LINE
  5
30
100
AcDbEntity
  8
1
 62
10
100
AcDbLine
 10
7.6404
 20
4.6946
 30
0.0400
 11
7.6304
 21
4.6951
 31
0.0400
  0
LINE
  5
30
100
AcDbEntity
  8
1
 62
10
100
AcDbLine
 10
7.6304
 20
4.6951
 30
0.0400
 11
7.6303
 21
4.6951
 31
0.0400
  0
LINE
  5
30
100
AcDbEntity
  8
1
 62
10
100
AcDbLine
 10
7.6303
 20
4.6951
 30
0.0400
 11
7.5867
 21
4.6955
 31
0.0400
  0
LINE
  5
30
100
AcDbEntity
  8
1
 62
10
100
AcDbLine
 10
7.5867
 20
4.6955
 30
0.0400
 11
7.5031
 21
4.6918
 31
0.0400
  0
LINE
  5
30
100
AcDbEntity
  8
1
 62
10
100
AcDbLine
 10
7.5031
 20
4.6918
 30
0.0400
 11
7.4358
 21
4.6834
 31
0.0400
  0
LINE
  5
30
100
AcDbEntity
  8
1
 62
10
100
AcDbLine
 10
7.4358
 20
4.6834
 30
0.0400
 11
7.3529
 21
4.6664
 31
0.0400
  0
LINE
  5
30
100
AcDbEntity
  8
1
 62
10
100
AcDbLine
 10
7.3529
 20
4.6664
 30
0.0400
 11
7.2527
 21
4.6396
 31
0.0400
  0
LINE
  5
30
100
AcDbEntity
  8
1
 62
10
100
AcDbLine
 10
7.2527
 20
4.6396
 30
0.0400
 11
7.0548
 21
4.5792
 31
0.0400
  0
LINE
  5
30
100
AcDbEntity
  8
1
 62
10
100
AcDbLine
 10
7.0548
 20
4.5792
 30
0.0400
 11
7.0543
 21
4.5791
 31
0.0400
  0
LINE
  5
30
100
AcDbEntity
  8
1
 62
10
100
AcDbLine
 10
7.0543
 20
4.5791
 30
0.0400
 11
6.9537
 21
4.5514
 31
0.0400
  0
LINE
  5
30
100
AcDbEntity
  8
1
 62
10
100
AcDbLine
 10
6.9537
 20
4.5514
 30
0.0400
 11
6.9529
 21
4.5512
 31
0.0400
  0
LINE
  5
30
100
AcDbEntity
  8
1
 62
10
100
AcDbLine
 10
6.9529
 20
4.5512
 30
0.0400
 11
6.8570
 21
4.5282
 31
0.0400
  0
LINE
  5
30
100
AcDbEntity
  8
1
 62
10
100
AcDbLine
 10
6.8570
 20
4.5282
 30
0.0400
 11
6.8562
 21
4.5280
 31
0.0400
  0
LINE
  5
30
100
AcDbEntity
  8
1
 62
10
100
AcDbLine
 10
6.8562
 20
4.5280
 30
0.0400
 11
6.7665
 21
4.5099
 31
0.0400
  0
LINE
  5
30
100
AcDbEntity
  8
1
 62
10
100
AcDbLine
 10
6.7665
 20
4.5099
 30
0.0400
 11
6.7655
 21
4.5098
 31
0.0400
  0
LINE
  5
30
100
AcDbEntity
  8
1
 62
10
100
AcDbLine
 10
6.7655
 20
4.5098
 30
0.0400
 11
6.6836
 21
4.4967
 31
0.0400
  0
LINE
  5
30
100
AcDbEntity
  8
1
 62
10
100
AcDbLine
 10
6.6836
 20
4.4967
 30
0.0400
 11
6.6824
 21
4.4966
 31
0.0400
  0
LINE
  5
30
100
AcDbEntity
  8
1
 62
10
100
AcDbLine
 10
6.6824
 20
4.4966
 30
0.0400
 11
6.6099
 21
4.4889
 31
0.0400
  0
LINE
  5
30
100
AcDbEntity
  8
1
 62
10
100
AcDbLine
 10
6.6099
 20
4.4889
 30
0.0400
 11
6.6085
 21
4.4888
 31
0.0400
  0
LINE
  5
30
100
AcDbEntity
  8
1
 62
10
100
AcDbLine
 10
6.6085
 20
4.4888
 30
0.0400
 11
6.5563
 21
4.4866
 31
0.0400
  0
LINE
  5
30
100
AcDbEntity
  8
1
 62
10
100
AcDbLine
 10
6.5563
 20
4.4866
 30
0.0400
 11
6.5544
 21
4.4866
 31
0.0400
  0
LINE
  5
30
100
AcDbEntity
  8
1
 62
10
100
AcDbLine
 10
6.5544
 20
4.4866
 30
0.0400
 11
6.5107
 21
4.4884
 31
0.0400
  0
LINE
  5
30
100
AcDbEntity
  8
1
 62
10
100
AcDbLine
 10
6.5107
 20
4.4884
 30
0.0400
 11
6.5101
 21
4.4884
 31
0.0400
  0
LINE
  5
30
100
AcDbEntity
  8
1
 62
10
100
AcDbLine
 10
6.5101
 20
4.4884
 30
0.0400
 11
6.5081
 21
4.4886
 31
0.0400
  0
LINE
  5
30
100
AcDbEntity
  8
1
 62
10
100
AcDbLine
 10
6.5081
 20
4.4886
 30
0.0400
 11
6.4789
 21
4.4932
 31
0.0400
  0
LINE
  5
30
100
AcDbEntity
  8
1
 62
10
100
AcDbLine
 10
6.4789
 20
4.4932
 30
0.0400
 11
6.4775
 21
4.4935
 31
0.0400
  0
LINE
  5
30
100
AcDbEntity
  8
1
 62
10
100
AcDbLine
 10
6.4775
 20
4.4935
 30
0.0400
 11
6.4756
 21
4.4940
 31
0.0400
  0
LINE
  5
30
100
AcDbEntity
  8
1
 62
10
100
AcDbLine
 10
6.4756
 20
4.4940
 30
0.0400
 11
6.4566
 21
4.5001
 31
0.0400
  0
LINE
  5
30
100
AcDbEntity
  8
1
 62
10
100
AcDbLine
 10
6.4566
 20
4.5001
 30
0.0400
 11
6.4555
 21
4.5005
 31
0.0400
  0
LINE
  5
30
100
AcDbEntity
  8
1
 62
10
100
AcDbLine
 10
6.4555
 20
4.5005
 30
0.0400
 11
6.4537
 21
4.5012
 31
0.0400
  0
LINE
  5
30
100
AcDbEntity
  8
1
 62
10
100
AcDbLine
 10
6.4537
 20
4.5012
 30
0.0400
 11
6.4520
 21
4.5022
 31
0.0400
  0
LINE
  5
30
100
AcDbEntity
  8
1
 62
10
100
AcDbLine
 10
6.4520
 20
4.5022
 30
0.0400
 11
6.4382
 21
4.5103
 31
0.0400
  0
LINE
  5
30
100
AcDbEntity
  8
1
 62
10
100
AcDbLine
 10
6.4382
 20
4.5103
 30
0.0400
 11
6.4373
 21
4.5109
 31
0.0400
  0
LINE
  5
30
100
AcDbEntity
  8
1
 62
10
100
AcDbLine
 10
6.4373
 20
4.5109
 30
0.0400
 11
6.4357
 21
4.5120
 31
0.0400
  0
LINE
  5
30
100
AcDbEntity
  8
1
 62
10
100
AcDbLine
 10
6.4357
 20
4.5120
 30
0.0400
 11
6.4342
 21
4.5133
 31
0.0400
  0
LINE
  5
30
100
AcDbEntity
  8
1
 62
10
100
AcDbLine
 10
6.4342
 20
4.5133
 30
0.0400
 11
6.4287
 21
4.5185
 31
0.0400
  0
LINE
  5
30
100
AcDbEntity
  8
1
 62
10
100
AcDbLine
 10
6.4287
 20
4.5185
 30
0.0400
 11
6.4281
 21
4.5191
 31
0.0400
  0
LINE
  5
30
100
AcDbEntity
  8
1
 62
10
100
AcDbLine
 10
6.4281
 20
4.5191
 30
0.0400
 11
6.4268
 21
4.5205
 31
0.0400
  0
LINE
  5
30
100
AcDbEntity
  8
1
 62
10
100
AcDbLine
 10
6.4268
 20
4.5205
 30
0.0400
 11
6.4256
 21
4.5221
 31
0.0400
  0
LINE
  5
30
100
AcDbEntity
  8
1
 62
10
100
AcDbLine
 10
6.4256
 20
4.5221
 30
0.0400
 11
6.4158
 21
4.5365
 31
0.0400
  0
LINE
  5
30
100
AcDbEntity
  8
1
 62
10
100
AcDbLine
 10
6.4158
 20
4.5365
 30
0.0400
 11
6.4152
 21
4.5375
 31
0.0400
  0
LINE
  5
30
100
AcDbEntity
  8
1
 62
10
100
AcDbLine
 10
6.4152
 20
4.5375
 30
0.0400
 11
6.4142
 21
4.5392
 31
0.0400
  0
LINE
  5
30
100
AcDbEntity
  8
1
 62
10
100
AcDbLine
 10
6.4142
 20
4.5392
 30
0.0400
 11
6.4134
 21
4.5410
 31
0.0400
  0
LINE
  5
30
100
AcDbEntity
  8
1
 62
10
100
AcDbLine
 10
6.4134
 20
4.5410
 30
0.0400
 11
6.4127
 21
4.5428
 31
0.0400
  0
LINE
  5
30
100
AcDbEntity
  8
1
 62
10
100
AcDbLine
 10
6.4127
 20
4.5428
 30
0.0400
 11
6.4073
 21
4.5614
 31
0.0400
  0
LINE
  5
30
100
AcDbEntity
  8
1
 62
10
100
AcDbLine
 10
6.4073
 20
4.5614
 30
0.0400
 11
6.4071
 21
4.5621
 31
0.0400
  0
LINE
  5
30
100
AcDbEntity
  8
1
 62
10
100
AcDbLine
 10
6.4071
 20
4.5621
 30
0.0400
 11
6.4067
 21
4.5640
 31
0.0400
  0
LINE
  5
30
100
AcDbEntity
  8
1
 62
10
100
AcDbLine
 10
6.4067
 20
4.5640
 30
0.0400
 11
6.4065
 21
4.5659
 31
0.0400
  0
LINE
  5
30
100
AcDbEntity
  8
1
 62
10
100
AcDbLine
 10
6.4065
 20
4.5659
 30
0.0400
 11
6.4064
 21
4.5679
 31
0.0400
  0
LINE
  5
30
100
AcDbEntity
  8
1
 62
10
100
AcDbLine
 10
6.4064
 20
4.5679
 30
0.0400
 11
6.4065
 21
4.5885
 31
0.0400
  0
LINE
  5
30
100
AcDbEntity
  8
1
 62
10
100
AcDbLine
 10
6.4065
 20
4.5885
 30
0.0400
 11
6.4066
 21
4.5900
 31
0.0400
  0
LINE
  5
30
100
AcDbEntity
  8
1
 62
10
100
AcDbLine
 10
6.4066
 20
4.5900
 30
0.0400
 11
6.4068
 21
4.5920
 31
0.0400
  0
LINE
  5
30
100
AcDbEntity
  8
1
 62
10
100
AcDbLine
 10
6.4068
 20
4.5920
 30
0.0400
 11
6.4072
 21
4.5939
 31
0.0400
  0
LINE
  5
30
100
AcDbEntity
  8
1
 62
10
100
AcDbLine
 10
6.4072
 20
4.5939
 30
0.0400
 11
6.4128
 21
4.6159
 31
0.0400
  0
LINE
  5
30
100
AcDbEntity
  8
1
 62
10
100
AcDbLine
 10
6.4128
 20
4.6159
 30
0.0400
 11
6.4129
 21
4.6164
 31
0.0400
  0
LINE
  5
30
100
AcDbEntity
  8
1
 62
10
100
AcDbLine
 10
6.4129
 20
4.6164
 30
0.0400
 11
6.4135
 21
4.6183
 31
0.0400
  0
LINE
  5
30
100
AcDbEntity
  8
1
 62
10
100
AcDbLine
 10
6.4135
 20
4.6183
 30
0.0400
 11
6.4143
 21
4.6201
 31
0.0400
  0
LINE
  5
30
100
AcDbEntity
  8
1
 62
10
100
AcDbLine
 10
6.4143
 20
4.6201
 30
0.0400
 11
6.4251
 21
4.6428
 31
0.0400
  0
LINE
  5
30
100
AcDbEntity
  8
1
 62
10
100
AcDbLine
 10
6.4251
 20
4.6428
 30
0.0400
 11
6.4259
 21
4.6444
 31
0.0400
  0
LINE
  5
30
100
AcDbEntity
  8
1
 62
10
100
AcDbLine
 10
6.4259
 20
4.6444
 30
0.0400
 11
6.4270
 21
4.6460
 31
0.0400
  0
LINE
  5
30
100
AcDbEntity
  8
1
 62
10
100
AcDbLine
 10
6.4270
 20
4.6460
 30
0.0400
 11
6.4429
 21
4.6686
 31
0.0400
  0
LINE
  5
30
100
AcDbEntity
  8
1
 62
10
100
AcDbLine
 10
6.4429
 20
4.6686
 30
0.0400
 11
6.4439
 21
4.6699
 31
0.0400
  0
LINE
  5
30
100
AcDbEntity
  8
1
 62
10
100
AcDbLine
 10
6.4439
 20
4.6699
 30
0.0400
 11
6.4452
 21
4.6713
 31
0.0400
  0
LINE
  5
30
100
AcDbEntity
  8
1
 62
10
100
AcDbLine
 10
6.4452
 20
4.6713
 30
0.0400
 11
6.4851
 21
4.7122
 31
0.0400
  0
LINE
  5
30
100
AcDbEntity
  8
1
 62
10
100
AcDbLine
 10
6.4851
 20
4.7122
 30
0.0400
 11
6.3725
 21
4.7176
 31
0.0400
  0
LINE
  5
30
100
AcDbEntity
  8
1
 62
10
100
AcDbLine
 10
6.3725
 20
4.7176
 30
0.0400
 11
6.1020
 21
4.7217
 31
0.0400
  0
LINE
  5
30
100
AcDbEntity
  8
1
 62
10
100
AcDbLine
 10
6.1020
 20
4.7217
 30
0.0400
 11
6.1015
 21
4.7217
 31
0.0400
  0
LINE
  5
30
100
AcDbEntity
  8
1
 62
10
100
AcDbLine
 10
6.1015
 20
4.7217
 30
0.0400
 11
5.9878
 21
4.7261
 31
0.0400
  0
LINE
  5
30
100
AcDbEntity
  8
1
 62
10
100
AcDbLine
 10
5.9878
 20
4.7261
 30
0.0400
 11
5.9871
 21
4.7261
 31
0.0400
  0
LINE
  5
30
100
AcDbEntity
  8
1
 62
10
100
AcDbLine
 10
5.9871
 20
4.7261
 30
0.0400
 11
5.8838
 21
4.7333
 31
0.0400
  0
LINE
  5
30
100
AcDbEntity
  8
1
 62
10
100
AcDbLine
 10
5.8838
 20
4.7333
 30
0.0400
 11
5.8830
 21
4.7333
 31
0.0400
  0
LINE
  5
30
100
AcDbEntity
  8
1
 62
10
100
AcDbLine
 10
5.8830
 20
4.7333
 30
0.0400
 11
5.7903
 21
4.7433
 31
0.0400
  0
LINE
  5
30
100
AcDbEntity
  8
1
 62
10
100
AcDbLine
 10
5.7903
 20
4.7433
 30
0.0400
 11
5.7893
 21
4.7434
 31
0.0400
  0
LINE
  5
30
100
AcDbEntity
  8
1
 62
10
100
AcDbLine
 10
5.7893
 20
4.7434
 30
0.0400
 11
5.7072
 21
4.7561
 31
0.0400
  0
LINE
  5
30
100
AcDbEntity
  8
1
 62
10
100
AcDbLine
 10
5.7072
 20
4.7561
 30
0.0400
 11
5.7060
 21
4.7563
 31
0.0400
  0
LINE
  5
30
100
AcDbEntity
  8
1
 62
10
100
AcDbLine
 10
5.7060
 20
4.7563
 30
0.0400
 11
5.6459
 21
4.7690
 31
0.0400
  0
LINE
  5
30
100
AcDbEntity
  8
1
 62
10
100
AcDbLine
 10
5.6459
 20
4.7690
 30
0.0400
 11
5.6445
 21
4.7693
 31
0.0400
  0
LINE
  5
30
100
AcDbEntity
  8
1
 62
10
100
AcDbLine
 10
5.6445
 20
4.7693
 30
0.0400
 11
5.5919
 21
4.7839
 31
0.0400
  0
LINE
  5
30
100
AcDbEntity
  8
1
 62
10
100
AcDbLine
 10
5.5919
 20
4.7839
 30
0.0400
 11
5.5902
 21
4.7844
 31
0.0400
  0
LINE
  5
30
100
AcDbEntity
  8
1
 62
10
100
AcDbLine
 10
5.5902
 20
4.7844
 30
0.0400
 11
5.5452
 21
4.8008
 31
0.0400
  0
LINE
  5
30
100
AcDbEntity
  8
1
 62
10
100
AcDbLine
 10
5.5452
 20
4.8008
 30
0.0400
 11
5.5450
 21
4.8009
 31
0.0400
  0
LINE
  5
30
100
AcDbEntity
  8
1
 62
10
100
AcDbLine
 10
5.5450
 20
4.8009
 30
0.0400
 11
5.5432
 21
4.8017
 31
0.0400
  0
LINE
  5
30
100
AcDbEntity
  8
1
 62
10
100
AcDbLine
 10
5.5432
 20
4.8017
 30
0.0400
 11
5.5115
 21
4.8167
 31
0.0400
  0
LINE
  5
30
100
AcDbEntity
  8
1
 62
10
100
AcDbLine
 10
5.5115
 20
4.8167
 30
0.0400
 11
5.5110
 21
4.8170
 31
0.0400
  0
LINE
  5
30
100
AcDbEntity
  8
1
 62
10
100
AcDbLine
 10
5.5110
 20
4.8170
 30
0.0400
 11
5.5093
 21
4.8180
 31
0.0400
  0
LINE
  5
30
100
AcDbEntity
  8
1
 62
10
100
AcDbLine
 10
5.5093
 20
4.8180
 30
0.0400
 11
5.4830
 21
4.8343
 31
0.0400
  0
LINE
  5
30
100
AcDbEntity
  8
1
 62
10
100
AcDbLine
 10
5.4830
 20
4.8343
 30
0.0400
 11
5.4820
 21
4.8350
 31
0.0400
  0
LINE
  5
30
100
AcDbEntity
  8
1
 62
10
100
AcDbLine
 10
5.4820
 20
4.8350
 30
0.0400
 11
5.4804
 21
4.8362
 31
0.0400
  0
LINE
  5
30
100
AcDbEntity
  8
1
 62
10
100
AcDbLine
 10
5.4804
 20
4.8362
 30
0.0400
 11
5.4594
 21
4.8538
 31
0.0400
  0
LINE
  5
30
100
AcDbEntity
  8
1
 62
10
100
AcDbLine
 10
5.4594
 20
4.8538
 30
0.0400
 11
5.4581
 21
4.8550
 31
0.0400
  0
LINE
  5
30
100
AcDbEntity
  8
1
 62
10
100
AcDbLine
 10
5.4581
 20
4.8550
 30
0.0400
 11
5.4568
 21
4.8565
 31
0.0400
  0
LINE
  5
30
100
AcDbEntity
  8
1
 62
10
100
AcDbLine
 10
5.4568
 20
4.8565
 30
0.0400
 11
5.4435
 21
4.8721
 31
0.0400
  0
LINE
  5
30
100
AcDbEntity
  8
1
 62
10
100
AcDbLine
 10
5.4435
 20
4.8721
 30
0.0400
 11
5.4434
 21
4.8722
 31
0.0400
  0
LINE
  5
30
100
AcDbEntity
  8
1
 62
10
100
AcDbLine
 10
5.4434
 20
4.8722
 30
0.0400
 11
5.4422
 21
4.8738
 31
0.0400
  0
LINE
  5
30
100
AcDbEntity
  8
1
 62
10
100
AcDbLine
 10
5.4422
 20
4.8738
 30
0.0400
 11
5.4411
 21
4.8754
 31
0.0400
  0
LINE
  5
30
100
AcDbEntity
  8
1
 62
10
100
AcDbLine
 10
5.4411
 20
4.8754
 30
0.0400
 11
5.4316
 21
4.8919
 31
0.0400
  0
LINE
  5
30
100
AcDbEntity
  8
1
 62
10
100
AcDbLine
 10
5.4316
 20
4.8919
 30
0.0400
 11
5.4313
 21
4.8925
 31
0.0400
  0
LINE
  5
30
100
AcDbEntity
  8
1
 62
10
100
AcDbLine
 10
5.4313
 20
4.8925
 30
0.0400
 11
5.4304
 21
4.8943
 31
0.0400
  0
LINE
  5
30
100
AcDbEntity
  8
1
 62
10
100
AcDbLine
 10
5.4304
 20
4.8943
 30
0.0400
 11
5.4297
 21
4.8961
 31
0.0400
  0
LINE
  5
30
100
AcDbEntity
  8
1
 62
10
100
AcDbLine
 10
5.4297
 20
4.8961
 30
0.0400
 11
5.4240
 21
4.9135
 31
0.0400
  0
LINE
  5
30
100
AcDbEntity
  8
1
 62
10
100
AcDbLine
 10
5.4240
 20
4.9135
 30
0.0400
 11
5.4235
 21
4.9153
 31
0.0400
  0
LINE
  5
30
100
AcDbEntity
  8
1
 62
10
100
AcDbLine
 10
5.4235
 20
4.9153
 30
0.0400
 11
5.4231
 21
4.9172
 31
0.0400
  0
LINE
  5
30
100
AcDbEntity
  8
1
 62
10
100
AcDbLine
 10
5.4231
 20
4.9172
 30
0.0400
 11
5.4220
 21
4.9261
 31
0.0400
  0
LINE
  5
30
100
AcDbEntity
  8
1
 62
10
100
AcDbLine
 10
5.4220
 20
4.9261
 30
0.0400
 11
5.4215
 21
4.9386
 31
0.0400
  0
LINE
  5
30
100
AcDbEntity
  8
1
 62
10
100
AcDbLine
 10
5.4215
 20
4.9386
 30
0.0400
 11
5.4220
 21
4.9511
 31
0.0400
  0
LINE
  5
30
100
AcDbEntity
  8
1
 62
10
100
AcDbLine
 10
5.4220
 20
4.9511
 30
0.0400
 11
5.4236
 21
4.9636
 31
0.0400
  0
LINE
  5
30
100
AcDbEntity
  8
1
 62
10
100
AcDbLine
 10
5.4236
 20
4.9636
 30
0.0400
 11
5.4264
 21
4.9758
 31
0.0400
  0
LINE
  5
30
100
AcDbEntity
  8
1
 62
10
100
AcDbLine
 10
5.4264
 20
4.9758
 30
0.0400
 11
5.4301
 21
4.9877
 31
0.0400
  0
LINE
  5
30
100
AcDbEntity
  8
1
 62
10
100
AcDbLine
 10
5.4301
 20
4.9877
 30
0.0400
 11
5.4349
 21
4.9993
 31
0.0400
  0
LINE
  5
30
100
AcDbEntity
  8
1
 62
10
100
AcDbLine
 10
5.4349
 20
4.9993
 30
0.0400
 11
5.4407
 21
5.0104
 31
0.0400
  0
LINE
  5
30
100
AcDbEntity
  8
1
 62
10
100
AcDbLine
 10
5.4407
 20
5.0104
 30
0.0400
 11
5.4474
 21
5.0209
 31
0.0400
  0
LINE
  5
30
100
AcDbEntity
  8
1
 62
10
100
AcDbLine
 10
5.4474
 20
5.0209
 30
0.0400
 11
5.4550
 21
5.0308
 31
0.0400
  0
LINE
  5
30
100
AcDbEntity
  8
1
 62
10
100
AcDbLine
 10
5.4550
 20
5.0308
 30
0.0400
 11
5.4635
 21
5.0401
 31
0.0400
  0
LINE
  5
30
100
AcDbEntity
  8
1
 62
10
100
AcDbLine
 10
5.4635
 20
5.0401
 30
0.0400
 11
5.4727
 21
5.0485
 31
0.0400
  0
LINE
  5
30
100
AcDbEntity
  8
1
 62
10
100
AcDbLine
 10
5.4727
 20
5.0485
 30
0.0400
 11
5.4733
 21
5.0490
 31
0.0400
  0
LINE
  5
30
100
AcDbEntity
  8
1
 62
10
100
AcDbLine
 10
5.4733
 20
5.0490
 30
0.0400
 11
5.4986
 21
5.0686
 31
0.0400
  0
LINE
  5
30
100
AcDbEntity
  8
1
 62
10
100
AcDbLine
 10
5.4986
 20
5.0686
 30
0.0400
 11
5.4996
 21
5.0693
 31
0.0400
  0
LINE
  5
30
100
AcDbEntity
  8
1
 62
10
100
AcDbLine
 10
5.4996
 20
5.0693
 30
0.0400
 11
5.5012
 21
5.0704
 31
0.0400
  0
LINE
  5
30
100
AcDbEntity
  8
1
 62
10
100
AcDbLine
 10
5.5012
 20
5.0704
 30
0.0400
 11
5.5319
 21
5.0879
 31
0.0400
  0
LINE
  5
30
100
AcDbEntity
  8
1
 62
10
100
AcDbLine
 10
5.5319
 20
5.0879
 30
0.0400
 11
5.5324
 21
5.0882
 31
0.0400
  0
LINE
  5
30
100
AcDbEntity
  8
1
 62
10
100
AcDbLine
 10
5.5324
 20
5.0882
 30
0.0400
 11
5.5342
 21
5.0890
 31
0.0400
  0
LINE
  5
30
100
AcDbEntity
  8
1
 62
10
100
AcDbLine
 10
5.5342
 20
5.0890
 30
0.0400
 11
5.5703
 21
5.1044
 31
0.0400
  0
LINE
  5
30
100
AcDbEntity
  8
1
 62
10
100
AcDbLine
 10
5.5703
 20
5.1044
 30
0.0400
 11
5.5705
 21
5.1045
 31
0.0400
  0
LINE
  5
30
100
AcDbEntity
  8
1
 62
10
100
AcDbLine
 10
5.5705
 20
5.1045
 30
0.0400
 11
5.5723
 21
5.1052
 31
0.0400
  0
LINE
  5
30
100
AcDbEntity
  8
1
 62
10
100
AcDbLine
 10
5.5723
 20
5.1052
 30
0.0400
 11
5.6135
 21
5.1183
 31
0.0400
  0
LINE
  5
30
100
AcDbEntity
  8
1
 62
10
100
AcDbLine
 10
5.6135
 20
5.1183
 30
0.0400
 11
5.6152
 21
5.1188
 31
0.0400
  0
LINE
  5
30
100
AcDbEntity
  8
1
 62
10
100
AcDbLine
 10
5.6152
 20
5.1188
 30
0.0400
 11
5.6616
 21
5.1296
 31
0.0400
  0
LINE
  5
30
100
AcDbEntity
  8
1
 62
10
100
AcDbLine
 10
5.6616
 20
5.1296
 30
0.0400
 11
5.6623
 21
5.1298
 31
0.0400
  0
LINE
  5
30
100
AcDbEntity
  8
1
 62
10
100
AcDbLine
 10
5.6623
 20
5.1298
 30
0.0400
 11
5.7081
 21
5.1388
 31
0.0400
  0
LINE
  5
30
100
AcDbEntity
  8
1
 62
10
100
AcDbLine
 10
5.7081
 20
5.1388
 30
0.0400
 11
5.5839
 21
5.1817
 31
0.0400
  0
LINE
  5
30
100
AcDbEntity
  8
1
 62
10
100
AcDbLine
 10
5.5839
 20
5.1817
 30
0.0400
 11
5.4932
 21
5.2149
 31
0.0400
  0
LINE
  5
30
100
AcDbEntity
  8
1
 62
10
100
AcDbLine
 10
5.4932
 20
5.2149
 30
0.0400
 11
5.4923
 21
5.2152
 31
0.0400
  0
LINE
  5
30
100
AcDbEntity
  8
1
 62
10
100
AcDbLine
 10
5.4923
 20
5.2152
 30
0.0400
 11
5.4103
 21
5.2495
 31
0.0400
  0
LINE
  5
30
100
AcDbEntity
  8
1
 62
10
100
AcDbLine
 10
5.4103
 20
5.2495
 30
0.0400
 11
5.4091
 21
5.2500
 31
0.0400
  0
LINE
  5
30
100
AcDbEntity
  8
1
 62
10
100
AcDbLine
 10
5.4091
 20
5.2500
 30
0.0400
 11
5.3356
 21
5.2861
 31
0.0400
  0
LINE
  5
30
100
AcDbEntity
  8
1
 62
10
100
AcDbLine
 10
5.3356
 20
5.2861
 30
0.0400
 11
5.3342
 21
5.2869
 31
0.0400
  0
LINE
  5
30
100
AcDbEntity
  8
1
 62
10
100
AcDbLine
 10
5.3342
 20
5.2869
 30
0.0400
 11
5.2666
 21
5.3263
 31
0.0400
  0
LINE
  5
30
100
AcDbEntity
  8
1
 62
10
100
AcDbLine
 10
5.2666
 20
5.3263
 30
0.0400
 11
5.2652
 21
5.3272
 31
0.0400
  0
LINE
  5
30
100
AcDbEntity
  8
1
 62
10
100
AcDbLine
 10
5.2652
 20
5.3272
 30
0.0400
 11
5.2009
 21
5.3714
 31
0.0400
  0
LINE
  5
30
100
AcDbEntity
  8
1
 62
10
100
AcDbLine
 10
5.2009
 20
5.3714
 30
0.0400
 11
5.1996
 21
5.3723
 31
0.0400
  0
LINE
  5
30
100
AcDbEntity
  8
1
 62
10
100
AcDbLine
 10
5.1996
 20
5.3723
 30
0.0400
 11
5.1361
 21
5.4229
 31
0.0400
  0
LINE
  5
30
100
AcDbEntity
  8
1
 62
10
100
AcDbLine
 10
5.1361
 20
5.4229
 30
0.0400
 11
5.1351
 21
5.4238
 31
0.0400
  0
LINE
  5
30
100
AcDbEntity
  8
1
 62
10
100
AcDbLine
 10
5.1351
 20
5.4238
 30
0.0400
 11
5.0697
 21
5.4822
 31
0.0400
  0
LINE
  5
30
100
AcDbEntity
  8
1
 62
10
100
AcDbLine
 10
5.0697
 20
5.4822
 30
0.0400
 11
5.0693
 21
5.4825
 31
0.0400
  0
LINE
  5
30
100
AcDbEntity
  8
1
 62
10
100
AcDbLine
 10
5.0693
 20
5.4825
 30
0.0400
 11
5.0412
 21
5.5097
 31
0.0400
  0
LINE
  5
30
100
AcDbEntity
  8
1
 62
10
100
AcDbLine
 10
5.0412
 20
5.5097
 30
0.0400
 11
4.9893
 21
5.5670
 31
0.0400
  0
LINE
  5
30
100
AcDbEntity
  8
1
 62
10
100
AcDbLine
 10
4.9893
 20
5.5670
 30
0.0400
 11
4.9427
 21
5.6287
 31
0.0400
  0
LINE
  5
30
100
AcDbEntity
  8
1
 62
10
100
AcDbLine
 10
4.9427
 20
5.6287
 30
0.0400
 11
4.9421
 21
5.6296
 31
0.0400
  0
LINE
  5
30
100
AcDbEntity
  8
1
 62
10
100
AcDbLine
 10
4.9421
 20
5.6296
 30
0.0400
 11
4.9178
 21
5.6688
 31
0.0400
  0
LINE
  5
30
100
AcDbEntity
  8
1
 62
10
100
AcDbLine
 10
4.9178
 20
5.6688
 30
0.0400
 11
4.9169
 21
5.6705
 31
0.0400
  0
LINE
  5
30
100
AcDbEntity
  8
1
 62
10
100
AcDbLine
 10
4.9169
 20
5.6705
 30
0.0400
 11
4.8977
 21
5.7082
 31
0.0400
  0
LINE
  5
30
100
AcDbEntity
  8
1
 62
10
100
AcDbLine
 10
4.8977
 20
5.7082
 30
0.0400
 11
4.8976
 21
5.7084
 31
0.0400
  0
LINE
  5
30
100
AcDbEntity
  8
1
 62
10
100
AcDbLine
 10
4.8976
 20
5.7084
 30
0.0400
 11
4.8968
 21
5.7102
 31
0.0400
  0
LINE
  5
30
100
AcDbEntity
  8
1
 62
10
100
AcDbLine
 10
4.8968
 20
5.7102
 30
0.0400
 11
4.8829
 21
5.7461
 31
0.0400
  0
LINE
  5
30
100
AcDbEntity
  8
1
 62
10
100
AcDbLine
 10
4.8829
 20
5.7461
 30
0.0400
 11
4.8827
 21
5.7465
 31
0.0400
  0
LINE
  5
30
100
AcDbEntity
  8
1
 62
10
100
AcDbLine
 10
4.8827
 20
5.7465
 30
0.0400
 11
4.8822
 21
5.7484
 31
0.0400
  0
LINE
  5
30
100
AcDbEntity
  8
1
 62
10
100
AcDbLine
 10
4.8822
 20
5.7484
 30
0.0400
 11
4.8748
 21
5.7765
 31
0.0400
  0
LINE
  5
30
100
AcDbEntity
  8
1
 62
10
100
AcDbLine
 10
4.8748
 20
5.7765
 30
0.0400
 11
4.8746
 21
5.7773
 31
0.0400
  0
LINE
  5
30
100
AcDbEntity
  8
1
 62
10
100
AcDbLine
 10
4.8746
 20
5.7773
 30
0.0400
 11
4.8742
 21
5.7792
 31
0.0400
  0
LINE
  5
30
100
AcDbEntity
  8
1
 62
10
100
AcDbLine
 10
4.8742
 20
5.7792
 30
0.0400
 11
4.8708
 21
5.8053
 31
0.0400
  0
LINE
  5
30
100
AcDbEntity
  8
1
 62
10
100
AcDbLine
 10
4.8708
 20
5.8053
 30
0.0400
 11
4.8706
 21
5.8068
 31
0.0400
  0
LINE
  5
30
100
AcDbEntity
  8
1
 62
10
100
AcDbLine
 10
4.8706
 20
5.8068
 30
0.0400
 11
4.8706
 21
5.8088
 31
0.0400
  0
LINE
  5
30
100
AcDbEntity
  8
1
 62
10
100
AcDbLine
 10
4.8706
 20
5.8088
 30
0.0400
 11
4.8711
 21
5.8326
 31
0.0400
  0
LINE
  5
30
100
AcDbEntity
  8
1
 62
10
100
AcDbLine
 10
4.8711
 20
5.8326
 30
0.0400
 11
4.8711
 21
5.8338
 31
0.0400
  0
LINE
  5
30
100
AcDbEntity
  8
1
 62
10
100
AcDbLine
 10
4.8711
 20
5.8338
 30
0.0400
 11
4.8719
 21
5.8413
 31
0.0400
  0
LINE
  5
30
100
AcDbEntity
  8
1
 62
10
100
AcDbLine
 10
4.8719
 20
5.8413
 30
0.0400
 11
4.8736
 21
5.8504
 31
0.0400
  0
LINE
  5
30
100
AcDbEntity
  8
1
 62
10
100
AcDbLine
 10
4.8736
 20
5.8504
 30
0.0400
 11
4.8762
 21
5.8594
 31
0.0400
  0
LINE
  5
30
100
AcDbEntity
  8
1
 62
10
100
AcDbLine
 10
4.8762
 20
5.8594
 30
0.0400
 11
4.8795
 21
5.8681
 31
0.0400
  0
LINE
  5
30
100
AcDbEntity
  8
1
 62
10
100
AcDbLine
 10
4.8795
 20
5.8681
 30
0.0400
 11
4.8835
 21
5.8764
 31
0.0400
  0
LINE
  5
30
100
AcDbEntity
  8
1
 62
10
100
AcDbLine
 10
4.8835
 20
5.8764
 30
0.0400
 11
4.8883
 21
5.8844
 31
0.0400
  0
LINE
  5
30
100
AcDbEntity
  8
1
 62
10
100
AcDbLine
 10
4.8883
 20
5.8844
 30
0.0400
 11
4.8937
 21
5.8920
 31
0.0400
  0
LINE
  5
30
100
AcDbEntity
  8
1
 62
10
100
AcDbLine
 10
4.8937
 20
5.8920
 30
0.0400
 11
4.8998
 21
5.8990
 31
0.0400
  0
LINE
  5
30
100
AcDbEntity
  8
1
 62
10
100
AcDbLine
 10
4.8998
 20
5.8990
 30
0.0400
 11
4.9064
 21
5.9055
 31
0.0400
  0
LINE
  5
30
100
AcDbEntity
  8
1
 62
10
100
AcDbLine
 10
4.9064
 20
5.9055
 30
0.0400
 11
4.9136
 21
5.9114
 31
0.0400
  0
LINE
  5
30
100
AcDbEntity
  8
1
 62
10
100
AcDbLine
 10
4.9136
 20
5.9114
 30
0.0400
 11
4.9213
 21
5.9166
 31
0.0400
  0
LINE
  5
30
100
AcDbEntity
  8
1
 62
10
100
AcDbLine
 10
4.9213
 20
5.9166
 30
0.0400
 11
4.9294
 21
5.9212
 31
0.0400
  0
LINE
  5
30
100
AcDbEntity
  8
1
 62
10
100
AcDbLine
 10
4.9294
 20
5.9212
 30
0.0400
 11
4.9308
 21
5.9218
 31
0.0400
  0
LINE
  5
30
100
AcDbEntity
  8
1
 62
10
100
AcDbLine
 10
4.9308
 20
5.9218
 30
0.0400
 11
4.9326
 21
5.9225
 31
0.0400
  0
LINE
  5
30
100
AcDbEntity
  8
1
 62
10
100
AcDbLine
 10
4.9326
 20
5.9225
 30
0.0400
 11
4.9525
 21
5.9289
 31
0.0400
  0
LINE
  5
30
100
AcDbEntity
  8
1
 62
10
100
AcDbLine
 10
4.9525
 20
5.9289
 30
0.0400
 11
4.9532
 21
5.9291
 31
0.0400
  0
LINE
  5
30
100
AcDbEntity
  8
1
 62
10
100
AcDbLine
 10
4.9532
 20
5.9291
 30
0.0400
 11
4.9551
 21
5.9296
 31
0.0400
  0
LINE
  5
30
100
AcDbEntity
  8
1
 62
10
100
AcDbLine
 10
4.9551
 20
5.9296
 30
0.0400
 11
4.9570
 21
5.9299
 31
0.0400
  0
LINE
  5
30
100
AcDbEntity
  8
1
 62
10
100
AcDbLine
 10
4.9570
 20
5.9299
 30
0.0400
 11
4.9885
 21
5.9333
 31
0.0400
  0
LINE
  5
30
100
AcDbEntity
  8
1
 62
10
100
AcDbLine
 10
4.9885
 20
5.9333
 30
0.0400
 11
4.9897
 21
5.9334
 31
0.0400
  0
LINE
  5
30
100
AcDbEntity
  8
1
 62
10
100
AcDbLine
 10
4.9897
 20
5.9334
 30
0.0400
 11
4.9917
 21
5.9334
 31
0.0400
  0
LINE
  5
30
100
AcDbEntity
  8
1
 62
10
100
AcDbLine
 10
4.9917
 20
5.9334
 30
0.0400
 11
5.0349
 21
5.9320
 31
0.0400
  0
LINE
  5
30
100
AcDbEntity
  8
1
 62
10
100
AcDbLine
 10
5.0349
 20
5.9320
 30
0.0400
 11
5.0353
 21
5.9320
 31
0.0400
  0
LINE
  5
30
100
AcDbEntity
  8
1
 62
10
100
AcDbLine
 10
5.0353
 20
5.9320
 30
0.0400
 11
5.0373
 21
5.9318
 31
0.0400
  0
LINE
  5
30
100
AcDbEntity
  8
1
 62
10
100
AcDbLine
 10
5.0373
 20
5.9318
 30
0.0400
 11
5.0932
 21
5.9240
 31
0.0400
  0
LINE
  5
30
100
AcDbEntity
  8
1
 62
10
100
AcDbLine
 10
5.0932
 20
5.9240
 30
0.0400
 11
5.0950
 21
5.9237
 31
0.0400
  0
LINE
  5
30
100
AcDbEntity
  8
1
 62
10
100
AcDbLine
 10
5.0950
 20
5.9237
 30
0.0400
 11
5.1566
 21
5.9099
 31
0.0400
  0
LINE
  5
30
100
AcDbEntity
  8
1
 62
10
100
AcDbLine
 10
5.1566
 20
5.9099
 30
0.0400
 11
5.1582
 21
5.9095
 31
0.0400
  0
LINE
  5
30
100
AcDbEntity
  8
1
 62
10
100
AcDbLine
 10
5.1582
 20
5.9095
 30
0.0400
 11
5.2229
 21
5.8902
 31
0.0400
  0
LINE
  5
30
100
AcDbEntity
  8
1
 62
10
100
AcDbLine
 10
5.2229
 20
5.8902
 30
0.0400
 11
5.2244
 21
5.8897
 31
0.0400
  0
LINE
  5
30
100
AcDbEntity
  8
1
 62
10
100
AcDbLine
 10
5.2244
 20
5.8897
 30
0.0400
 11
5.2764
 21
5.8701
 31
0.0400
  0
LINE
  5
30
100
AcDbEntity
  8
1
 62
10
100
AcDbLine
 10
5.2764
 20
5.8701
 30
0.0400
 11
5.2318
 21
5.9034
 31
0.0400
  0
LINE
  5
30
100
AcDbEntity
  8
1
 62
10
100
AcDbLine
 10
5.2318
 20
5.9034
 30
0.0400
 11
5.2305
 21
5.9044
 31
0.0400
  0
LINE
  5
30
100
AcDbEntity
  8
1
 62
10
100
AcDbLine
 10
5.2305
 20
5.9044
 30
0.0400
 11
5.1716
 21
5.9554
 31
0.0400
  0
LINE
  5
30
100
AcDbEntity
  8
1
 62
10
100
AcDbLine
 10
5.1716
 20
5.9554
 30
0.0400
 11
5.1708
 21
5.9562
 31
0.0400
  0
LINE
  5
30
100
AcDbEntity
  8
1
 62
10
100
AcDbLine
 10
5.1708
 20
5.9562
 30
0.0400
 11
5.1085
 21
6.0159
 31
0.0400
  0
LINE
  5
30
100
AcDbEntity
  8
1
 62
10
100
AcDbLine
 10
5.1085
 20
6.0159
 30
0.0400
 11
5.1079
 21
6.0165
 31
0.0400
  0
LINE
  5
30
100
AcDbEntity
  8
1
 62
10
100
AcDbLine
 10
5.1079
 20
6.0165
 30
0.0400
 11
5.0450
 21
6.0818
 31
0.0400
  0
LINE
  5
30
100
AcDbEntity
  8
1
 62
10
100
AcDbLine
 10
5.0450
 20
6.0818
 30
0.0400
 11
5.0444
 21
6.0824
 31
0.0400
  0
LINE
  5
30
100
AcDbEntity
  8
1
 62
10
100
AcDbLine
 10
5.0444
 20
6.0824
 30
0.0400
 11
4.9837
 21
6.1503
 31
0.0400
  0
LINE
  5
30
100
AcDbEntity
  8
1
 62
10
100
AcDbLine
 10
4.9837
 20
6.1503
 30
0.0400
 11
4.9831
 21
6.1510
 31
0.0400
  0
LINE
  5
30
100
AcDbEntity
  8
1
 62
10
100
AcDbLine
 10
4.9831
 20
6.1510
 30
0.0400
 11
4.9273
 21
6.2184
 31
0.0400
  0
LINE
  5
30
100
AcDbEntity
  8
1
 62
10
100
AcDbLine
 10
4.9273
 20
6.2184
 30
0.0400
 11
4.9267
 21
6.2192
 31
0.0400
  0
LINE
  5
30
100
AcDbEntity
  8
1
 62
10
100
AcDbLine
 10
4.9267
 20
6.2192
 30
0.0400
 11
4.8786
 21
6.2830
 31
0.0400
  0
LINE
  5
30
100
AcDbEntity
  8
1
 62
10
100
AcDbLine
 10
4.8786
 20
6.2830
 30
0.0400
 11
4.8778
 21
6.2841
 31
0.0400
  0
LINE
  5
30
100
AcDbEntity
  8
1
 62
10
100
AcDbLine
 10
4.8778
 20
6.2841
 30
0.0400
 11
4.8456
 21
6.3323
 31
0.0400
  0
LINE
  5
30
100
AcDbEntity
  8
1
 62
10
100
AcDbLine
 10
4.8456
 20
6.3323
 30
0.0400
 11
4.8446
 21
6.3338
 31
0.0400
  0
LINE
  5
30
100
AcDbEntity
  8
1
 62
10
100
AcDbLine
 10
4.8446
 20
6.3338
 30
0.0400
 11
4.8212
 21
6.3757
 31
0.0400
  0
LINE
  5
30
100
AcDbEntity
  8
1
 62
10
100
AcDbLine
 10
4.8212
 20
6.3757
 30
0.0400
 11
4.8204
 21
6.3773
 31
0.0400
  0
LINE
  5
30
100
AcDbEntity
  8
1
 62
10
100
AcDbLine
 10
4.8204
 20
6.3773
 30
0.0400
 11
4.8009
 21
6.4201
 31
0.0400
  0
LINE
  5
30
100
AcDbEntity
  8
1
 62
10
100
AcDbLine
 10
4.8009
 20
6.4201
 30
0.0400
 11
4.8004
 21
6.4212
 31
0.0400
  0
LINE
  5
30
100
AcDbEntity
  8
1
 62
10
100
AcDbLine
 10
4.8004
 20
6.4212
 30
0.0400
 11
4.7799
 21
6.4734
 31
0.0400
  0
LINE
  5
30
100
AcDbEntity
  8
1
 62
10
100
AcDbLine
 10
4.7799
 20
6.4734
 30
0.0400
 11
4.7794
 21
6.4748
 31
0.0400
  0
LINE
  5
30
100
AcDbEntity
  8
1
 62
10
100
AcDbLine
 10
4.7794
 20
6.4748
 30
0.0400
 11
4.7636
 21
6.5250
 31
0.0400
  0
LINE
  5
30
100
AcDbEntity
  8
1
 62
10
100
AcDbLine
 10
4.7636
 20
6.5250
 30
0.0400
 11
4.7631
 21
6.5266
 31
0.0400
  0
LINE
  5
30
100
AcDbEntity
  8
1
 62
10
100
AcDbLine
 10
4.7631
 20
6.5266
 30
0.0400
 11
4.7520
 21
6.5743
 31
0.0400
  0
LINE
  5
30
100
AcDbEntity
  8
1
 62
10
100
AcDbLine
 10
4.7520
 20
6.5743
 30
0.0400
 11
4.7516
 21
6.5762
 31
0.0400
  0
LINE
  5
30
100
AcDbEntity
  8
1
 62
10
100
AcDbLine
 10
4.7516
 20
6.5762
 30
0.0400
 11
4.7452
 21
6.6209
 31
0.0400
  0
LINE
  5
30
100
AcDbEntity
  8
1
 62
10
100
AcDbLine
 10
4.7452
 20
6.6209
 30
0.0400
 11
4.7452
 21
6.6210
 31
0.0400
  0
LINE
  5
30
100
AcDbEntity
  8
1
 62
10
100
AcDbLine
 10
4.7452
 20
6.6210
 30
0.0400
 11
4.7450
 21
6.6230
 31
0.0400
  0
LINE
  5
30
100
AcDbEntity
  8
1
 62
10
100
AcDbLine
 10
4.7450
 20
6.6230
 30
0.0400
 11
4.7433
 21
6.6578
 31
0.0400
  0
LINE
  5
30
100
AcDbEntity
  8
1
 62
10
100
AcDbLine
 10
4.7433
 20
6.6578
 30
0.0400
 11
4.7433
 21
6.6581
 31
0.0400
  0
LINE
  5
30
100
AcDbEntity
  8
1
 62
10
100
AcDbLine
 10
4.7433
 20
6.6581
 30
0.0400
 11
4.7433
 21
6.6601
 31
0.0400
  0
LINE
  5
30
100
AcDbEntity
  8
1
 62
10
100
AcDbLine
 10
4.7433
 20
6.6601
 30
0.0400
 11
4.7450
 21
6.6923
 31
0.0400
  0
LINE
  5
30
100
AcDbEntity
  8
1
 62
10
100
AcDbLine
 10
4.7450
 20
6.6923
 30
0.0400
 11
4.7451
 21
6.6930
 31
0.0400
  0
LINE
  5
30
100
AcDbEntity
  8
1
 62
10
100
AcDbLine
 10
4.7451
 20
6.6930
 30
0.0400
 11
4.7453
 21
6.6950
 31
0.0400
  0
LINE
  5
30
100
AcDbEntity
  8
1
 62
10
100
AcDbLine
 10
4.7453
 20
6.6950
 30
0.0400
 11
4.7504
 21
6.7245
 31
0.0400
  0
LINE
  5
30
100
AcDbEntity
  8
1
 62
10
100
AcDbLine
 10
4.7504
 20
6.7245
 30
0.0400
 11
4.7506
 21
6.7254
 31
0.0400
  0
LINE
  5
30
100
AcDbEntity
  8
1
 62
10
100
AcDbLine
 10
4.7506
 20
6.7254
 30
0.0400
 11
4.7511
 21
6.7273
 31
0.0400
  0
LINE
  5
30
100
AcDbEntity
  8
1
 62
10
100
AcDbLine
 10
4.7511
 20
6.7273
 30
0.0400
 11
4.7580
 21
6.7496
 31
0.0400
  0
LINE
  5
30
100
AcDbEntity
  8
1
 62
10
100
AcDbLine
 10
4.7580
 20
6.7496
 30
0.0400
 11
4.7583
 21
6.7504
 31
0.0400
  0
LINE
  5
30
100
AcDbEntity
  8
1
 62
10
100
AcDbLine
 10
4.7583
 20
6.7504
 30
0.0400
 11
4.7590
 21
6.7522
 31
0.0400
  0
LINE
  5
30
100
AcDbEntity
  8
1
 62
10
100
AcDbLine
 10
4.7590
 20
6.7522
 30
0.0400
 11
4.7667
 21
6.7693
 31
0.0400
  0
LINE
  5
30
100
AcDbEntity
  8
1
 62
10
100
AcDbLine
 10
4.7667
 20
6.7693
 30
0.0400
 11
4.7669
 21
6.7697
 31
0.0400
  0
LINE
  5
30
100
AcDbEntity
  8
1
 62
10
100
AcDbLine
 10
4.7669
 20
6.7697
 30
0.0400
 11
4.7708
 21
6.7770
 31
0.0400
  0
LINE
  5
30
100
AcDbEntity
  8
1
 62
10
100
AcDbLine
 10
4.7708
 20
6.7770
 30
0.0400
 11
4.7753
 21
6.7840
 31
0.0400
  0
LINE
  5
30
100
AcDbEntity
  8
1
 62
10
100
AcDbLine
 10
4.7753
 20
6.7840
 30
0.0400
 11
4.7805
 21
6.7907
 31
0.0400
  0
LINE
  5
30
100
AcDbEntity
  8
1
 62
10
100
AcDbLine
 10
4.7805
 20
6.7907
 30
0.0400
 11
4.7861
 21
6.7968
 31
0.0400
  0
LINE
  5
30
100
AcDbEntity
  8
1
 62
10
100
AcDbLine
 10
4.7861
 20
6.7968
 30
0.0400
 11
4.7924
 21
6.8024
 31
0.0400
  0
LINE
  5
30
100
AcDbEntity
  8
1
 62
10
100
AcDbLine
 10
4.7924
 20
6.8024
 30
0.0400
 11
4.7990
 21
6.8075
 31
0.0400
  0
LINE
  5
30
100
AcDbEntity
  8
1
 62
10
100
AcDbLine
 10
4.7990
 20
6.8075
 30
0.0400
 11
4.8061
 21
6.8119
 31
0.0400
  0
LINE
  5
30
100
AcDbEntity
  8
1
 62
10
100
AcDbLine
 10
4.8061
 20
6.8119
 30
0.0400
 11
4.8136
 21
6.8157
 31
0.0400
  0
LINE
  5
30
100
AcDbEntity
  8
1
 62
10
100
AcDbLine
 10
4.8136
 20
6.8157
 30
0.0400
 11
4.8213
 21
6.8189
 31
0.0400
  0
LINE
  5
30
100
AcDbEntity
  8
1
 62
10
100
AcDbLine
 10
4.8213
 20
6.8189
 30
0.0400
 11
4.8293
 21
6.8214
 31
0.0400
  0
LINE
  5
30
100
AcDbEntity
  8
1
 62
10
100
AcDbLine
 10
4.8293
 20
6.8214
 30
0.0400
 11
4.8375
 21
6.8231
 31
0.0400
  0
LINE
  5
30
100
AcDbEntity
  8
1
 62
10
100
AcDbLine
 10
4.8375
 20
6.8231
 30
0.0400
 11
4.8458
 21
6.8242
 31
0.0400
  0
LINE
  5
30
100
AcDbEntity
  8
1
 62
10
100
AcDbLine
 10
4.8458
 20
6.8242
 30
0.0400
 11
4.8542
 21
6.8244
 31
0.0400
  0
LINE
  5
30
100
AcDbEntity
  8
1
 62
10
100
AcDbLine
 10
4.8542
 20
6.8244
 30
0.0400
 11
4.8561
 21
6.8243
 31
0.0400
  0
LINE
  5
30
100
AcDbEntity
  8
1
 62
10
100
AcDbLine
 10
4.8561
 20
6.8243
 30
0.0400
 11
4.8855
 21
6.8216
 31
0.0400
  0
LINE
  5
30
100
AcDbEntity
  8
1
 62
10
100
AcDbLine
 10
4.8855
 20
6.8216
 30
0.0400
 11
4.8873
 21
6.8214
 31
0.0400
  0
LINE
  5
30
100
AcDbEntity
  8
1
 62
10
100
AcDbLine
 10
4.8873
 20
6.8214
 30
0.0400
 11
4.8892
 21
6.8209
 31
0.0400
  0
LINE
  5
30
100
AcDbEntity
  8
1
 62
10
100
AcDbLine
 10
4.8892
 20
6.8209
 30
0.0400
 11
4.9242
 21
6.8117
 31
0.0400
  0
LINE
  5
30
100
AcDbEntity
  8
1
 62
10
100
AcDbLine
 10
4.9242
 20
6.8117
 30
0.0400
 11
4.9249
 21
6.8115
 31
0.0400
  0
LINE
  5
30
100
AcDbEntity
  8
1
 62
10
100
AcDbLine
 10
4.9249
 20
6.8115
 30
0.0400
 11
4.9267
 21
6.8108
 31
0.0400
  0
LINE
  5
30
100
AcDbEntity
  8
1
 62
10
100
AcDbLine
 10
4.9267
 20
6.8108
 30
0.0400
 11
4.9801
 21
6.7896
 31
0.0400
  0
LINE
  5
30
100
AcDbEntity
  8
1
 62
10
100
AcDbLine
 10
4.9801
 20
6.7896
 30
0.0400
 11
4.9817
 21
6.7889
 31
0.0400
  0
LINE
  5
30
100
AcDbEntity
  8
1
 62
10
100
AcDbLine
 10
4.9817
 20
6.7889
 30
0.0400
 11
5.1204
 21
6.7206
 31
0.0400
  0
LINE
  5
30
100
AcDbEntity
  8
1
 62
10
100
AcDbLine
 10
5.1204
 20
6.7206
 30
0.0400
 11
5.1150
 21
6.7299
 31
0.0400
  0
LINE
  5
30
100
AcDbEntity
  8
1
 62
10
100
AcDbLine
 10
5.1150
 20
6.7299
 30
0.0400
 11
5.0280
 21
6.8604
 31
0.0400
  0
LINE
  5
30
100
AcDbEntity
  8
1
 62
10
100
AcDbLine
 10
5.0280
 20
6.8604
 30
0.0400
 11
5.0276
 21
6.8611
 31
0.0400
  0
LINE
  5
30
100
AcDbEntity
  8
1
 62
10
100
AcDbLine
 10
5.0276
 20
6.8611
 30
0.0400
 11
4.9683
 21
6.9640
 31
0.0400
  0
LINE
  5
30
100
AcDbEntity
  8
1
 62
10
100
AcDbLine
 10
4.9683
 20
6.9640
 30
0.0400
 11
4.8990
 21
7.1087
 31
0.0400
  0
LINE
  5
30
100
AcDbEntity
  8
1
 62
10
100
AcDbLine
 10
4.8990
 20
7.1087
 30
0.0400
 11
4.8426
 21
7.2589
 31
0.0400
  0
LINE
  5
30
100
AcDbEntity
  8
1
 62
10
100
AcDbLine
 10
4.8426
 20
7.2589
 30
0.0400
 11
4.7995
 21
7.4135
 31
0.0400
  0
LINE
  5
30
100
AcDbEntity
  8
1
 62
10
100
AcDbLine
 10
4.7995
 20
7.4135
 30
0.0400
 11
4.7700
 21
7.5712
 31
0.0400
  0
LINE
  5
30
100
AcDbEntity
  8
1
 62
10
100
AcDbLine
 10
4.7700
 20
7.5712
 30
0.0400
 11
4.7623
 21
7.6401
 31
0.0400
  0
LINE
  5
30
100
AcDbEntity
  8
1
 62
10
100
AcDbLine
 10
4.7623
 20
7.6401
 30
0.0400
 11
4.7593
 21
7.7286
 31
0.0400
  0
LINE
  5
30
100
AcDbEntity
  8
1
 62
10
100
AcDbLine
 10
4.7593
 20
7.7286
 30
0.0400
 11
4.7640
 21
7.8170
 31
0.0400
  0
LINE
  5
30
100
AcDbEntity
  8
1
 62
10
100
AcDbLine
 10
4.7640
 20
7.8170
 30
0.0400
 11
4.7642
 21
7.8182
 31
0.0400
  0
LINE
  5
30
100
AcDbEntity
  8
1
 62
10
100
AcDbLine
 10
4.7642
 20
7.8182
 30
0.0400
 11
4.7708
 21
7.8609
 31
0.0400
  0
LINE
  5
30
100
AcDbEntity
  8
1
 62
10
100
AcDbLine
 10
4.7708
 20
7.8609
 30
0.0400
 11
4.7708
 21
7.8612
 31
0.0400
  0
LINE
  5
30
100
AcDbEntity
  8
1
 62
10
100
AcDbLine
 10
4.7708
 20
7.8612
 30
0.0400
 11
4.7712
 21
7.8631
 31
0.0400
  0
LINE
  5
30
100
AcDbEntity
  8
1
 62
10
100
AcDbLine
 10
4.7712
 20
7.8631
 30
0.0400
 11
4.7790
 21
7.8933
 31
0.0400
  0
LINE
  5
30
100
AcDbEntity
  8
1
 62
10
100
AcDbLine
 10
4.7790
 20
7.8933
 30
0.0400
 11
4.7792
 21
7.8939
 31
0.0400
  0
LINE
  5
30
100
AcDbEntity
  8
1
 62
10
100
AcDbLine
 10
4.7792
 20
7.8939
 30
0.0400
 11
4.7798
 21
7.8958
 31
0.0400
  0
LINE
  5
30
100
AcDbEntity
  8
1
 62
10
100
AcDbLine
 10
4.7798
 20
7.8958
 30
0.0400
 11
4.7897
 21
7.9211
 31
0.0400
  0
LINE
  5
30
100
AcDbEntity
  8
1
 62
10
100
AcDbLine
 10
4.7897
 20
7.9211
 30
0.0400
 11
4.7903
 21
7.9225
 31
0.0400
  0
LINE
  5
30
100
AcDbEntity
  8
1
 62
10
100
AcDbLine
 10
4.7903
 20
7.9225
 30
0.0400
 11
4.7912
 21
7.9243
 31
0.0400
  0
LINE
  5
30
100
AcDbEntity
  8
1
 62
10
100
AcDbLine
 10
4.7912
 20
7.9243
 30
0.0400
 11
4.8032
 21
7.9447
 31
0.0400
  0
LINE
  5
30
100
AcDbEntity
  8
1
 62
10
100
AcDbLine
 10
4.8032
 20
7.9447
 30
0.0400
 11
4.8039
 21
7.9459
 31
0.0400
  0
LINE
  5
30
100
AcDbEntity
  8
1
 62
10
100
AcDbLine
 10
4.8039
 20
7.9459
 30
0.0400
 11
4.8070
 21
7.9502
 31
0.0400
  0
LINE
  5
30
100
AcDbEntity
  8
1
 62
10
100
AcDbLine
 10
4.8070
 20
7.9502
 30
0.0400
 11
4.8124
 21
7.9567
 31
0.0400
  0
LINE
  5
30
100
AcDbEntity
  8
1
 62
10
100
AcDbLine
 10
4.8124
 20
7.9567
 30
0.0400
 11
4.8184
 21
7.9628
 31
0.0400
  0
LINE
  5
30
100
AcDbEntity
  8
1
 62
10
100
AcDbLine
 10
4.8184
 20
7.9628
 30
0.0400
 11
4.8248
 21
7.9683
 31
0.0400
  0
LINE
  5
30
100
AcDbEntity
  8
1
 62
10
100
AcDbLine
 10
4.8248
 20
7.9683
 30
0.0400
 11
4.8318
 21
7.9732
 31
0.0400
  0
LINE
  5
30
100
AcDbEntity
  8
1
 62
10
100
AcDbLine
 10
4.8318
 20
7.9732
 30
0.0400
 11
4.8391
 21
7.9775
 31
0.0400
  0
LINE
  5
30
100
AcDbEntity
  8
1
 62
10
100
AcDbLine
 10
4.8391
 20
7.9775
 30
0.0400
 11
4.8468
 21
7.9811
 31
0.0400
  0
LINE
  5
30
100
AcDbEntity
  8
1
 62
10
100
AcDbLine
 10
4.8468
 20
7.9811
 30
0.0400
 11
4.8547
 21
7.9841
 31
0.0400
  0
LINE
  5
30
100
AcDbEntity
  8
1
 62
10
100
AcDbLine
 10
4.8547
 20
7.9841
 30
0.0400
 11
4.8629
 21
7.9863
 31
0.0400
  0
LINE
  5
30
100
AcDbEntity
  8
1
 62
10
100
AcDbLine
 10
4.8629
 20
7.9863
 30
0.0400
 11
4.8713
 21
7.9879
 31
0.0400
  0
LINE
  5
30
100
AcDbEntity
  8
1
 62
10
100
AcDbLine
 10
4.8713
 20
7.9879
 30
0.0400
 11
4.8797
 21
7.9887
 31
0.0400
  0
LINE
  5
30
100
AcDbEntity
  8
1
 62
10
100
AcDbLine
 10
4.8797
 20
7.9887
 30
0.0400
 11
4.8882
 21
7.9887
 31
0.0400
  0
LINE
  5
30
100
AcDbEntity
  8
1
 62
10
100
AcDbLine
 10
4.8882
 20
7.9887
 30
0.0400
 11
4.8967
 21
7.9880
 31
0.0400
  0
LINE
  5
30
100
AcDbEntity
  8
1
 62
10
100
AcDbLine
 10
4.8967
 20
7.9880
 30
0.0400
 11
4.8985
 21
7.9877
 31
0.0400
  0
LINE
  5
30
100
AcDbEntity
  8
1
 62
10
100
AcDbLine
 10
4.8985
 20
7.9877
 30
0.0400
 11
4.9240
 21
7.9823
 31
0.0400
  0
LINE
  5
30
100
AcDbEntity
  8
1
 62
10
100
AcDbLine
 10
4.9240
 20
7.9823
 30
0.0400
 11
4.9244
 21
7.9822
 31
0.0400
  0
LINE
  5
30
100
AcDbEntity
  8
1
 62
10
100
AcDbLine
 10
4.9244
 20
7.9822
 30
0.0400
 11
4.9263
 21
7.9817
 31
0.0400
  0
LINE
  5
30
100
AcDbEntity
  8
1
 62
10
100
AcDbLine
 10
4.9263
 20
7.9817
 30
0.0400
 11
4.9281
 21
7.9810
 31
0.0400
  0
LINE
  5
30
100
AcDbEntity
  8
1
 62
10
100
AcDbLine
 10
4.9281
 20
7.9810
 30
0.0400
 11
4.9613
 21
7.9671
 31
0.0400
  0
LINE
  5
30
100
AcDbEntity
  8
1
 62
10
100
AcDbLine
 10
4.9613
 20
7.9671
 30
0.0400
 11
4.9624
 21
7.9666
 31
0.0400
  0
LINE
  5
30
100
AcDbEntity
  8
1
 62
10
100
AcDbLine
 10
4.9624
 20
7.9666
 30
0.0400
 11
4.9641
 21
7.9656
 31
0.0400
  0
LINE
  5
30
100
AcDbEntity
  8
1
 62
10
100
AcDbLine
 10
4.9641
 20
7.9656
 30
0.0400
 11
5.0011
 21
7.9435
 31
0.0400
  0
LINE
  5
30
100
AcDbEntity
  8
1
 62
10
100
AcDbLine
 10
5.0011
 20
7.9435
 30
0.0400
 11
5.0013
 21
7.9434
 31
0.0400
  0
LINE
  5
30
100
AcDbEntity
  8
1
 62
10
100
AcDbLine
 10
5.0013
 20
7.9434
 30
0.0400
 11
5.0029
 21
7.9423
 31
0.0400
  0
LINE
  5
30
100
AcDbEntity
  8
1
 62
10
100
AcDbLine
 10
5.0029
 20
7.9423
 30
0.0400
 11
5.0436
 21
7.9120
 31
0.0400
  0
LINE
  5
30
100
AcDbEntity
  8
1
 62
10
100
AcDbLine
 10
5.0436
 20
7.9120
 30
0.0400
 11
5.0449
 21
7.9110
 31
0.0400
  0
LINE
  5
30
100
AcDbEntity
  8
1
 62
10
100
AcDbLine
 10
5.0449
 20
7.9110
 30
0.0400
 11
5.0893
 21
7.8725
 31
0.0400
  0
LINE
  5
30
100
AcDbEntity
  8
1
 62
10
100
AcDbLine
 10
5.0893
 20
7.8725
 30
0.0400
 11
5.0902
 21
7.8717
 31
0.0400
  0
LINE
  5
30
100
AcDbEntity
  8
1
 62
10
100
AcDbLine
 10
5.0902
 20
7.8717
 30
0.0400
 11
5.1385
 21
7.8251
 31
0.0400
  0
LINE
  5
30
100
AcDbEntity
  8
1
 62
10
100
AcDbLine
 10
5.1385
 20
7.8251
 30
0.0400
 11
5.1391
 21
7.8245
 31
0.0400
  0
LINE
  5
30
100
AcDbEntity
  8
1
 62
10
100
AcDbLine
 10
5.1391
 20
7.8245
 30
0.0400
 11
5.4366
 21
7.5166
 31
0.0400
  0
LINE
  5
30
100
AcDbEntity
  8
1
 62
10
100
AcDbLine
 10
5.4366
 20
7.5166
 30
0.0400
 11
5.4657
 21
7.4861
 31
0.0400
  0
LINE
  5
30
100
AcDbEntity
  8
1
 62
10
100
AcDbLine
 10
5.4657
 20
7.4861
 30
0.0400
 11
5.5586
 21
7.3924
 31
0.0400
  0
LINE
  5
30
100
AcDbEntity
  8
1
 62
10
100
AcDbLine
 10
5.5586
 20
7.3924
 30
0.0400
 11
5.7420
 21
7.2276
 31
0.0400
  0
LINE
  5
30
100
AcDbEntity
  8
1
 62
10
100
AcDbLine
 10
5.7420
 20
7.2276
 30
0.0400
 11
5.9391
 21
7.0794
 31
0.0400
  0
LINE
  5
30
100
AcDbEntity
  8
1
 62
10
100
AcDbLine
 10
5.9391
 20
7.0794
 30
0.0400
 11
5.9543
 21
7.0691
 31
0.0400
  0
LINE
  5
30
100
AcDbEntity
  8
1
 62
10
100
AcDbLine
 10
5.9543
 20
7.0691
 30
0.0400
 11
6.0767
 21
6.9892
 31
0.0400
  0
LINE
  5
30
100
AcDbEntity
  8
1
 62
10
100
AcDbLine
 10
6.0767
 20
6.9892
 30
0.0400
 11
6.2376
 21
6.8922
 31
0.0400
  0
LINE
  5
30
100
AcDbEntity
  8
1
 62
10
100
AcDbLine
 10
6.2376
 20
6.8922
 30
0.0400
 11
6.4248
 21
6.7865
 31
0.0400
  0
LINE
  5
30
100
AcDbEntity
  8
1
 62
10
100
AcDbLine
 10
6.4248
 20
6.7865
 30
0.0400
 11
6.6433
 21
6.6687
 31
0.0400
  0
LINE
  5
30
100
AcDbEntity
  8
1
 62
10
100
AcDbLine
 10
6.6433
 20
6.6687
 30
0.0400
 11
7.1171
 21
6.4212
 31
0.0400
  0
LINE
  5
30
100
AcDbEntity
  8
1
 62
10
100
AcDbLine
 10
7.1171
 20
6.4212
 30
0.0400
 11
7.2958
 21
6.3251
 31
0.0400
  0
LINE
  5
30
100
AcDbEntity
  8
1
 62
10
100
AcDbLine
 10
7.2958
 20
6.3251
 30
0.0400
 11
7.2962
 21
6.3248
 31
0.0400
  0
LINE
  5
30
100
AcDbEntity
  8
1
 62
10
100
AcDbLine
 10
7.2962
 20
6.3248
 30
0.0400
 11
7.4151
 21
6.2572
 31
0.0400
  0
LINE
  5
30
100
AcDbEntity
  8
1
 62
10
100
AcDbLine
 10
7.4151
 20
6.2572
 30
0.0400
 11
7.4158
 21
6.2569
 31
0.0400
  0
LINE
  5
30
100
AcDbEntity
  8
1
 62
10
100
AcDbLine
 10
7.4158
 20
6.2569
 30
0.0400
 11
7.5136
 21
6.1968
 31
0.0400
  0
LINE
  5
30
100
AcDbEntity
  8
1
 62
10
100
AcDbLine
 10
7.5136
 20
6.1968
 30
0.0400
 11
7.5145
 21
6.1962
 31
0.0400
  0
LINE
  5
30
100
AcDbEntity
  8
1
 62
10
100
AcDbLine
 10
7.5145
 20
6.1962
 30
0.0400
 11
7.5970
 21
6.1400
 31
0.0400
  0
LINE
  5
30
100
AcDbEntity
  8
1
 62
10
100
AcDbLine
 10
7.5970
 20
6.1400
 30
0.0400
 11
7.5981
 21
6.1393
 31
0.0400
  0
LINE
  5
30
100
AcDbEntity
  8
1
 62
10
100
AcDbLine
 10
7.5981
 20
6.1393
 30
0.0400
 11
7.6709
 21
6.0834
 31
0.0400
  0
LINE
  5
30
100
AcDbEntity
  8
1
 62
10
100
AcDbLine
 10
7.6709
 20
6.0834
 30
0.0400
 11
7.6719
 21
6.0826
 31
0.0400
  0
LINE
  5
30
100
AcDbEntity
  8
1
 62
10
100
AcDbLine
 10
7.6719
 20
6.0826
 30
0.0400
 11
7.7406
 21
6.0235
 31
0.0400
  0
LINE
  5
30
100
AcDbEntity
  8
1
 62
10
100
AcDbLine
 10
7.7406
 20
6.0235
 30
0.0400
 11
7.7414
 21
6.0229
 31
0.0400
  0
LINE
  5
30
100
AcDbEntity
  8
1
 62
10
100
AcDbLine
 10
7.7414
 20
6.0229
 30
0.0400
 11
7.8118
 21
5.9570
 31
0.0400
  0
LINE
  5
30
100
AcDbEntity
  8
1
 62
10
100
AcDbLine
 10
7.8118
 20
5.9570
 30
0.0400
 11
7.8122
 21
5.9566
 31
0.0400
  0
LINE
  5
30
100
AcDbEntity
  8
1
 62
10
100
AcDbLine
 10
7.8122
 20
5.9566
 30
0.0400
 11
7.8315
 21
5.9376
 31
0.0400
  0
LINE
  5
30
100
AcDbEntity
  8
1
 62
10
100
AcDbLine
 10
7.8315
 20
5.9376
 30
0.0400
 11
7.8469
 21
5.9219
 31
0.0400
  0
LINE
  5
30
100
AcDbEntity
  8
1
 62
10
100
AcDbLine
 10
7.8469
 20
5.9219
 30
0.0400
 11
7.9156
 21
5.8440
 31
0.0400
  0
LINE
  5
30
100
AcDbEntity
  8
1
 62
10
100
AcDbLine
 10
7.9156
 20
5.8440
 30
0.0400
 11
7.9773
 21
5.7603
 31
0.0400
  0
LINE
  5
30
100
AcDbEntity
  8
1
 62
10
100
AcDbLine
 10
7.9773
 20
5.7603
 30
0.0400
 11
8.0315
 21
5.6716
 31
0.0400
  0
LINE
  5
30
100
AcDbEntity
  8
1
 62
10
100
AcDbLine
 10
8.0315
 20
5.6716
 30
0.0400
 11
8.0777
 21
5.5785
 31
0.0400
  0
LINE
  5
30
100
AcDbEntity
  8
1
 62
10
100
AcDbLine
 10
8.0777
 20
5.5785
 30
0.0400
 11
8.1157
 21
5.4818
 31
0.0400
  0
LINE
  5
30
100
AcDbEntity
  8
1
 62
10
100
AcDbLine
 10
8.1157
 20
5.4818
 30
0.0400
 11
8.1450
 21
5.3821
 31
0.0400
  0
LINE
  5
30
100
AcDbEntity
  8
1
 62
10
100
AcDbLine
 10
8.1450
 20
5.3821
 30
0.0400
 11
8.1656
 21
5.2802
 31
0.0400
  0
LINE
  5
30
100
AcDbEntity
  8
1
 62
10
100
AcDbLine
 10
8.1656
 20
5.2802
 30
0.0400
 11
8.1765
 21
5.2111
 31
0.0400
  0
LINE
  5
30
100
AcDbEntity
  8
1
 62
10
100
AcDbLine
 10
8.1765
 20
5.2111
 30
0.0400
 11
8.1766
 21
5.2102
 31
0.0400
  0
LINE
  5
30
100
AcDbEntity
  8
1
 62
10
100
AcDbLine
 10
8.1766
 20
5.2102
 30
0.0400
 11
8.1820
 21
5.1630
 31
0.0400
  0
LINE
  5
30
100
AcDbEntity
  8
1
 62
10
100
AcDbLine
 10
8.1820
 20
5.1630
 30
0.0400
 11
8.1821
 21
5.1622
 31
0.0400
  0
LINE
  5
30
100
AcDbEntity
  8
1
 62
10
100
AcDbLine
 10
8.1821
 20
5.1622
 30
0.0400
 11
8.1862
 21
5.0952
 31
0.0400
  0
LINE
  5
30
100
AcDbEntity
  8
1
 62
10
100
AcDbLine
 10
8.1862
 20
5.0952
 30
0.0400
 11
8.1858
 21
4.9520
 31
0.0400
  0
LINE
  5
30
100
AcDbEntity
  8
1
 62
10
100
AcDbLine
 10
8.1858
 20
4.9520
 30
0.0400
 11
8.1729
 21
4.8094
 31
0.0400
  0
LINE
  5
30
100
AcDbEntity
  8
1
 62
10
100
AcDbLine
 10
8.1729
 20
4.8094
 30
0.0400
 11
8.1476
 21
4.6685
 31
0.0400
  0
LINE
  5
30
100
AcDbEntity
  8
1
 62
10
100
AcDbLine
 10
8.1476
 20
4.6685
 30
0.0400
 11
8.1474
 21
4.6677
 31
0.0400
  0
LINE
  5
30
100
AcDbEntity
  8
1
 62
10
100
AcDbLine
 10
8.1474
 20
4.6677
 30
0.0400
 11
8.1329
 21
4.6125
 31
0.0400
  0
LINE
  5
30
100
AcDbEntity
  8
1
 62
10
100
AcDbLine
 10
8.1329
 20
4.6125
 30
0.0400
 11
8.1325
 21
4.6110
 31
0.0400
  0
LINE
  5
30
100
AcDbEntity
  8
1
 62
10
100
AcDbLine
 10
8.1325
 20
4.6110
 30
0.0400
 11
8.1163
 21
4.5630
 31
0.0400
  0
LINE
  5
30
100
AcDbEntity
  8
1
 62
10
100
AcDbLine
 10
8.1163
 20
4.5630
 30
0.0400
 11
8.1156
 21
4.5611
 31
0.0400
  0
LINE
  5
30
100
AcDbEntity
  8
1
 62
10
100
AcDbLine
 10
8.1156
 20
4.5611
 30
0.0400
 11
8.1009
 21
4.5276
 31
0.0400
  0
LINE
  5
30
100
AcDbEntity
  8
1
 62
10
100
AcDbLine
 10
8.1009
 20
4.5276
 30
0.0400
 11
8.1007
 21
4.5271
 31
0.0400
  0
LINE
  5
30
100
AcDbEntity
  8
1
 62
10
100
AcDbLine
 10
8.1007
 20
4.5271
 30
0.0400
 11
8.0998
 21
4.5253
 31
0.0400
  0
LINE
  5
30
100
AcDbEntity
  8
1
 62
10
100
AcDbLine
 10
8.0998
 20
4.5253
 30
0.0400
 11
8.0842
 21
4.4984
 31
0.0400
  0
LINE
  5
30
100
AcDbEntity
  8
1
 62
10
100
AcDbLine
 10
8.0842
 20
4.4984
 30
0.0400
 11
8.0834
 21
4.4971
 31
0.0400
  0
LINE
  5
30
100
AcDbEntity
  8
1
 62
10
100
AcDbLine
 10
8.0834
 20
4.4971
 30
0.0400
 11
8.0822
 21
4.4955
 31
0.0400
  0
LINE
  5
30
100
AcDbEntity
  8
1
 62
10
100
AcDbLine
 10
8.0822
 20
4.4955
 30
0.0400
 11
8.0686
 21
4.4788
 31
0.0400
  0
LINE
  5
30
100
AcDbEntity
  8
1
 62
10
100
AcDbLine
 10
8.0686
 20
4.4788
 30
0.0400
 11
8.0682
 21
4.4783
 31
0.0400
  0
LINE
  5
30
100
AcDbEntity
  8
1
 62
10
100
AcDbLine
 10
8.0682
 20
4.4783
 30
0.0400
 11
8.0669
 21
4.4769
 31
0.0400
  0
LINE
  5
30
100
AcDbEntity
  8
1
 62
10
100
AcDbLine
 10
8.0669
 20
4.4769
 30
0.0400
 11
8.0654
 21
4.4756
 31
0.0400
  0
LINE
  5
30
100
AcDbEntity
  8
1
 62
10
100
AcDbLine
 10
8.0654
 20
4.4756
 30
0.0400
 11
8.0537
 21
4.4661
 31
0.0400
  0
LINE
  5
30
100
AcDbEntity
  8
1
 62
10
100
AcDbLine
 10
8.0537
 20
4.4661
 30
0.0400
 11
8.0536
 21
4.4660
 31
0.0400
  0
LINE
  5
30
100
AcDbEntity
  8
1
 62
10
100
AcDbLine
 10
8.0536
 20
4.4660
 30
0.0400
 11
8.0520
 21
4.4648
 31
0.0400
  0
LINE
  5
30
100
AcDbEntity
  8
1
 62
10
100
AcDbLine
 10
8.0520
 20
4.4648
 30
0.0400
 11
8.0503
 21
4.4638
 31
0.0400
  0
LINE
  5
30
100
AcDbEntity
  8
1
 62
10
100
AcDbLine
 10
8.0503
 20
4.4638
 30
0.0400
 11
8.0389
 21
4.4574
 31
0.0400
  0
LINE
  5
30
100
AcDbEntity
  8
1
 62
10
100
AcDbLine
 10
8.0389
 20
4.4574
 30
0.0400
 11
8.0379
 21
4.4569
 31
0.0400
  0
LINE
  5
30
100
AcDbEntity
  8
1
 62
10
100
AcDbLine
 10
8.0379
 20
4.4569
 30
0.0400
 11
8.0361
 21
4.4561
 31
0.0400
  0
LINE
  5
30
100
AcDbEntity
  8
1
 62
10
100
AcDbLine
 10
8.0361
 20
4.4561
 30
0.0400
 11
8.0149
 21
4.4479
 31
0.0400
  0
LINE
  5
30
100
AcDbEntity
  8
1
 62
10
100
AcDbLine
 10
8.0149
 20
4.4479
 30
0.0400
 11
8.0146
 21
4.4478
 31
0.0400
  0
LINE
  5
30
100
AcDbEntity
  8
1
 62
10
100
AcDbLine
 10
8.0146
 20
4.4478
 30
0.0400
 11
8.0127
 21
4.4472
 31
0.0400
  0
LINE
  5
30
100
AcDbEntity
  8
1
 62
10
100
AcDbLine
 10
8.0127
 20
4.4472
 30
0.0400
 11
8.0108
 21
4.4467
 31
0.0400
  0
LINE
  5
30
100
AcDbEntity
  8
1
 62
10
100
AcDbLine
 10
8.0108
 20
4.4467
 30
0.0400
 11
7.9961
 21
4.4440
 31
0.0400
  0
LINE
  5
30
100
AcDbEntity
  8
1
 62
10
100
AcDbLine
 10
7.9961
 20
4.4440
 30
0.0400
 11
7.9947
 21
4.4438
 31
0.0400
  0
LINE
  5
30
100
AcDbEntity
  8
1
 62
10
100
AcDbLine
 10
7.9947
 20
4.4438
 30
0.0400
 11
7.9927
 21
4.4437
 31
0.0400
  0
LINE
  5
30
100
AcDbEntity
  8
1
 62
10
100
AcDbLine
 10
7.9927
 20
4.4437
 30
0.0400
 11
7.9908
 21
4.4437
 31
0.0400
  0
LINE
  5
30
100
AcDbEntity
  8
1
 62
10
100
AcDbLine
 10
7.9908
 20
4.4437
 30
0.0400
 11
7.9888
 21
4.4439
 31
0.0400
  0
LINE
  5
30
100
AcDbEntity
  8
1
 62
10
100
AcDbLine
 10
7.9888
 20
4.4439
 30
0.0400
 11
7.9869
 21
4.4442
 31
0.0400
  0
LINE
  5
30
100
AcDbEntity
  8
1
 62
10
100
AcDbLine
 10
7.9869
 20
4.4442
 30
0.0400
 11
7.9759
 21
4.4468
 31
0.0400
  0
LINE
  5
30
100
AcDbEntity
  8
1
 62
10
100
AcDbLine
 10
7.9759
 20
4.4468
 30
0.0400
 11
7.9753
 21
4.4469
 31
0.0400
  0
LINE
  5
30
100
AcDbEntity
  8
1
 62
10
100
AcDbLine
 10
7.9753
 20
4.4469
 30
0.0400
 11
7.9734
 21
4.4475
 31
0.0400
  0
LINE
  5
30
100
AcDbEntity
  8
1
 62
10
100
AcDbLine
 10
7.9734
 20
4.4475
 30
0.0400
 11
7.9716
 21
4.4483
 31
0.0400
  0
LINE
  5
30
100
AcDbEntity
  8
1
 62
10
100
AcDbLine
 10
7.9716
 20
4.4483
 30
0.0400
 11
7.9699
 21
4.4492
 31
0.0400
  0
LINE
  5
30
100
AcDbEntity
  8
1
 62
10
100
AcDbLine
 10
7.9699
 20
4.4492
 30
0.0400
 11
7.9489
 21
4.4613
 31
0.0400
  0
LINE
  5
30
100
AcDbEntity
  8
1
 62
10
100
AcDbLine
 10
7.9489
 20
4.4613
 30
0.0400
 11
7.9476
 21
4.4621
 31
0.0400
  0
LINE
  5
30
100
AcDbEntity
  8
1
 62
10
100
AcDbLine
 10
7.9476
 20
4.4621
 30
0.0400
 11
7.9460
 21
4.4632
 31
0.0400
  0
LINE
  5
30
100
AcDbEntity
  8
1
 62
10
100
AcDbLine
 10
7.9460
 20
4.4632
 30
0.0400
 11
7.9191
 21
4.4848
 31
0.0400
  0
LINE
  5
30
100
AcDbEntity
  8
1
 62
10
100
AcDbLine
 10
7.9191
 20
4.4848
 30
0.0400
 11
7.9189
 21
4.4850
 31
0.0400
  0
LINE
  5
30
100
AcDbEntity
  8
1
 62
10
100
AcDbLine
 10
7.9189
 20
4.4850
 30
0.0400
 11
7.9174
 21
4.4863
 31
0.0400
  0
LINE
  5
30
100
AcDbEntity
  8
1
 62
10
100
AcDbLine
 10
7.9174
 20
4.4863
 30
0.0400
 11
7.8909
 21
4.5125
 31
0.0400
  0
LINE
  5
30
100
AcDbEntity
  8
1
 62
10
100
AcDbLine
 10
7.8909
 20
4.5125
 30
0.0400
 11
7.8906
 21
4.5128
 31
0.0400
  0
LINE
  5
30
100
AcDbEntity
  8
1
 62
10
100
AcDbLine
 10
7.8906
 20
4.5128
 30
0.0400
 11
7.8893
 21
4.5142
 31
0.0400
  0
LINE
  5
30
100
AcDbEntity
  8
1
 62
10
100
AcDbLine
 10
7.8893
 20
4.5142
 30
0.0400
 11
7.8673
 21
4.5408
 31
0.0400
  0
LINE
  5
30
100
AcDbEntity
  8
1
 62
10
100
AcDbLine
 10
7.8673
 20
4.5408
 30
0.0400
 11
7.8665
 21
4.5418
 31
0.0400
  0
LINE
  5
30
100
AcDbEntity
  8
1
 62
10
100
AcDbLine
 10
7.8665
 20
4.5418
 30
0.0400
 11
7.8654
 21
4.5434
 31
0.0400
  0
LINE
  5
30
100
AcDbEntity
  8
1
 62
10
100
AcDbLine
 10
7.8654
 20
4.5434
 30
0.0400
 11
7.8536
 21
4.5629
 31
0.0400
  0
LINE
  5
30
100
AcDbEntity
  8
1
 62
10
100
AcDbLine
 10
7.8536
 20
4.5629
 30
0.0400
 11
7.8534
 21
4.5632
 31
0.0400
  0
LINE
  5
30
100
AcDbEntity
  8
1
 62
10
100
AcDbLine
 10
7.8534
 20
4.5632
 30
0.0400
 11
7.8525
 21
4.5649
 31
0.0400
  0
LINE
  5
30
100
AcDbEntity
  8
1
 62
10
100
AcDbLine
 10
7.8525
 20
4.5649
 30
0.0400
 11
7.8517
 21
4.5667
 31
0.0400
  0
LINE
  5
30
100
AcDbEntity
  8
1
 62
10
100
AcDbLine
 10
7.8517
 20
4.5667
 30
0.0400
 11
7.8511
 21
4.5686
 31
0.0400
  0
LINE
  5
30
100
AcDbEntity
  8
1
 62
10
100
AcDbLine
 10
7.8511
 20
4.5686
 30
0.0400
 11
7.8477
 21
4.5811
 31
0.0400
  0
LINE
  5
30
100
AcDbEntity
  8
1
 62
10
100
AcDbLine
 10
7.8477
 20
4.5811
 30
0.0400
 11
7.8473
 21
4.5827
 31
0.0400
  0
LINE
  5
30
100
AcDbEntity
  8
1
 62
10
100
AcDbLine
 10
7.8473
 20
4.5827
 30
0.0400
 11
7.8466
 21
4.5862
 31
0.0400
  0
LINE
  5
30
100
AcDbEntity
  8
1
 62
10
100
AcDbLine
 10
7.8466
 20
4.5862
 30
0.0400
 11
7.8381
 21
4.6021
 31
0.0400
  0
LINE
  5
30
100
AcDbEntity
  8
1
 62
10
100
AcDbLine
 10
7.8381
 20
4.6021
 30
0.0400
 11
7.8205
 21
4.6250
 31
0.0400
  0
LINE
  5
30
100
AcDbEntity
  8
1
 62
10
100
AcDbLine
 10
7.8205
 20
4.6250
 30
0.0400
 11
7.7968
 21
4.6497
 31
0.0400
  0
LINE
  5
30
100
AcDbEntity
  8
1
 62
10
100
AcDbLine
 10
7.7968
 20
4.6497
 30
0.0400
 11
7.7828
 21
4.6622
 31
0.0400
  0
LINE
  5
30
100
AcDbEntity
  8
1
 62
10
100
AcDbLine
 10
7.7828
 20
4.6622
 30
0.0400
 11
7.7628
 21
4.6763
 31
0.0400
  0
LINE
  5
30
100
AcDbEntity
  8
1
 62
10
100
AcDbLine
 10
7.7628
 20
4.6763
 30
0.0400
 11
7.7416
 21
4.6855
 31
0.0400
  0
LINE
  5
30
100
AcDbEntity
  8
1
 62
10
100
AcDbLine
 10
7.7416
 20
4.6855
 30
0.0400
 11
7.7134
 21
4.6915
 31
0.0400
  0
LINE
  5
30
100
AcDbEntity
  8
1
 62
10
100
AcDbLine
 10
7.7134
 20
4.6915
 30
0.0400
 11
7.6737
 21
4.6947
 31
0.0400
  0
LINE
  5
30
100
AcDbEntity
  8
1
 62
10
100
AcDbLine
 10
7.6737
 20
4.6947
 30
0.0400
 11
7.6303
 21
4.6951
 31
0.0400
  0
LINE
  5
30
100
AcDbEntity
  8
1
 62
10
100
AcDbLine
 10
7.6303
 20
4.6951
 30
0.0400
 11
7.5867
 21
4.6955
 31
0.0400
  0
LINE
  5
30
100
AcDbEntity
  8
1
 62
10
100
AcDbLine
 10
7.5867
 20
4.6955
 30
0.0400
 11
7.5031
 21
4.6918
 31
0.0400
  0
LINE
  5
30
100
AcDbEntity
  8
1
 62
10
100
AcDbLine
 10
7.5031
 20
4.6918
 30
0.0400
 11
7.4508
 21
4.6852
 31
0.0400
  0
LINE
  5
30
100
AcDbEntity
  8
1
 62
10
100
AcDbLine
 10
7.4508
 20
4.6852
 30
0.0400
 11
7.4409
 21
4.6835
 31
0.0400
  0
LINE
  5
30
100
AcDbEntity
  8
1
 62
10
100
AcDbLine
 10
7.4409
 20
4.6835
 30
0.0400
 11
7.4312
 21
4.6810
 31
0.0400
  0
LINE
  5
30
100
AcDbEntity
  8
1
 62
10
100
AcDbLine
 10
7.4312
 20
4.6810
 30
0.0400
 11
7.4217
 21
4.6776
 31
0.0400
  0
LINE
  5
30
100
AcDbEntity
  8
1
 62
10
100
AcDbLine
 10
7.4217
 20
4.6776
 30
0.0400
 11
7.4126
 21
4.6734
 31
0.0400
  0
LINE
  5
30
100
AcDbEntity
  8
1
 62
10
100
AcDbLine
 10
7.4126
 20
4.6734
 30
0.0400
 11
7.4038
 21
4.6684
 31
0.0400
  0
LINE
  5
30
100
AcDbEntity
  8
1
 62
10
100
AcDbLine
 10
7.4038
 20
4.6684
 30
0.0400
 11
7.3956
 21
4.6627
 31
0.0400
  0
LINE
  5
30
100
AcDbEntity
  8
1
 62
10
100
AcDbLine
 10
7.3956
 20
4.6627
 30
0.0400
 11
7.3878
 21
4.6563
 31
0.0400
  0
LINE
  5
30
100
AcDbEntity
  8
1
 62
10
100
AcDbLine
 10
7.3878
 20
4.6563
 30
0.0400
 11
7.3807
 21
4.6492
 31
0.0400
  0
LINE
  5
30
100
AcDbEntity
  8
1
 62
10
100
AcDbLine
 10
7.3807
 20
4.6492
 30
0.0400
 11
7.3742
 21
4.6415
 31
0.0400
  0
LINE
  5
30
100
AcDbEntity
  8
1
 62
10
100
AcDbLine
 10
7.3742
 20
4.6415
 30
0.0400
 11
7.3684
 21
4.6333
 31
0.0400
  0
LINE
  5
30
100
AcDbEntity
  8
1
 62
10
100
AcDbLine
 10
7.3684
 20
4.6333
 30
0.0400
 11
7.3633
 21
4.6247
 31
0.0400
  0
LINE
  5
30
100
AcDbEntity
  8
1
 62
10
100
AcDbLine
 10
7.3633
 20
4.6247
 30
0.0400
 11
7.3590
 21
4.6156
 31
0.0400
  0
LINE
  5
30
100
AcDbEntity
  8
1
 62
10
100
AcDbLine
 10
7.3590
 20
4.6156
 30
0.0400
 11
7.3555
 21
4.6062
 31
0.0400
  0
LINE
  5
30
100
AcDbEntity
  8
1
 62
10
100
AcDbLine
 10
7.3555
 20
4.6062
 30
0.0400
 11
7.3529
 21
4.5965
 31
0.0400
  0
LINE
  5
30
100
AcDbEntity
  8
1
 62
10
100
AcDbLine
 10
7.3529
 20
4.5965
 30
0.0400
 11
7.3511
 21
4.5866
 31
0.0400
  0
LINE
  5
30
100
AcDbEntity
  8
1
 62
10
100
AcDbLine
 10
7.3511
 20
4.5866
 30
0.0400
 11
7.3501
 21
4.5766
 31
0.0400
  0
LINE
  5
30
100
AcDbEntity
  8
1
 62
10
100
AcDbLine
 10
7.3501
 20
4.5766
 30
0.0400
 11
7.3501
 21
4.5665
 31
0.0400
  0
LINE
  5
30
100
AcDbEntity
  8
1
 62
10
100
AcDbLine
 10
7.3501
 20
4.5665
 30
0.0400
 11
7.3509
 21
4.5566
 31
0.0400
  0
LINE
  5
30
100
AcDbEntity
  8
1
 62
10
100
AcDbLine
 10
3.7764
 20
5.1378
 30
0.1180
 11
3.7764
 21
5.1378
 31
0.0400
  0
LINE
  5
30
100
AcDbEntity
  8
1
 62
10
100
AcDbLine
 10
3.7764
 20
5.1378
 30
0.0400
 11
3.7672
 21
5.1338
 31
0.0400
  0
LINE
  5
30
100
AcDbEntity
  8
1
 62
10
100
AcDbLine
 10
3.7672
 20
5.1338
 30
0.0400
 11
3.7583
 21
5.1291
 31
0.0400
  0
LINE
  5
30
100
AcDbEntity
  8
1
 62
10
100
AcDbLine
 10
3.7583
 20
5.1291
 30
0.0400
 11
3.7499
 21
5.1236
 31
0.0400
  0
LINE
  5
30
100
AcDbEntity
  8
1
 62
10
100
AcDbLine
 10
3.7499
 20
5.1236
 30
0.0400
 11
3.7420
 21
5.1174
 31
0.0400
  0
LINE
  5
30
100
AcDbEntity
  8
1
 62
10
100
AcDbLine
 10
3.7420
 20
5.1174
 30
0.0400
 11
3.7347
 21
5.1105
 31
0.0400
  0
LINE
  5
30
100
AcDbEntity
  8
1
 62
10
100
AcDbLine
 10
3.7347
 20
5.1105
 30
0.0400
 11
3.7280
 21
5.1030
 31
0.0400
  0
LINE
  5
30
100
AcDbEntity
  8
1
 62
10
100
AcDbLine
 10
3.7280
 20
5.1030
 30
0.0400
 11
3.7219
 21
5.0950
 31
0.0400
  0
LINE
  5
30
100
AcDbEntity
  8
1
 62
10
100
AcDbLine
 10
3.7219
 20
5.0950
 30
0.0400
 11
3.7166
 21
5.0864
 31
0.0400
  0
LINE
  5
30
100
AcDbEntity
  8
1
 62
10
100
AcDbLine
 10
3.7166
 20
5.0864
 30
0.0400
 11
3.7121
 21
5.0774
 31
0.0400
  0
LINE
  5
30
100
AcDbEntity
  8
1
 62
10
100
AcDbLine
 10
3.7121
 20
5.0774
 30
0.0400
 11
3.7084
 21
5.0681
 31
0.0400
  0
LINE
  5
30
100
AcDbEntity
  8
1
 62
10
100
AcDbLine
 10
3.7084
 20
5.0681
 30
0.0400
 11
3.7055
 21
5.0585
 31
0.0400
  0
LINE
  5
30
100
AcDbEntity
  8
1
 62
10
100
AcDbLine
 10
3.7055
 20
5.0585
 30
0.0400
 11
3.7034
 21
5.0487
 31
0.0400
  0
LINE
  5
30
100
AcDbEntity
  8
1
 62
10
100
AcDbLine
 10
3.7034
 20
5.0487
 30
0.0400
 11
3.7022
 21
5.0387
 31
0.0400
  0
LINE
  5
30
100
AcDbEntity
  8
1
 62
10
100
AcDbLine
 10
3.7022
 20
5.0387
 30
0.0400
 11
3.7019
 21
5.0286
 31
0.0400
  0
LINE
  5
30
100
AcDbEntity
  8
1
 62
10
100
AcDbLine
 10
3.7019
 20
5.0286
 30
0.0400
 11
3.7024
 21
5.0186
 31
0.0400
  0
LINE
  5
30
100
AcDbEntity
  8
1
 62
10
100
AcDbLine
 10
3.7024
 20
5.0186
 30
0.0400
 11
3.7039
 21
5.0086
 31
0.0400
  0
LINE
  5
30
100
AcDbEntity
  8
1
 62
10
100
AcDbLine
 10
3.7039
 20
5.0086
 30
0.0400
 11
3.7062
 21
4.9989
 31
0.0400
  0
LINE
  5
30
100
AcDbEntity
  8
1
 62
10
100
AcDbLine
 10
3.7062
 20
4.9989
 30
0.0400
 11
3.7093
 21
4.9893
 31
0.0400
  0
LINE
  5
30
100
AcDbEntity
  8
1
 62
10
100
AcDbLine
 10
3.7093
 20
4.9893
 30
0.0400
 11
3.7127
 21
4.9791
 31
0.0400
  0
LINE
  5
30
100
AcDbEntity
  8
1
 62
10
100
AcDbLine
 10
3.7127
 20
4.9791
 30
0.0400
 11
3.7157
 21
4.9670
 31
0.0400
  0
LINE
  5
30
100
AcDbEntity
  8
1
 62
10
100
AcDbLine
 10
3.7157
 20
4.9670
 30
0.0400
 11
3.7177
 21
4.9546
 31
0.0400
  0
LINE
  5
30
100
AcDbEntity
  8
1
 62
10
100
AcDbLine
 10
3.7177
 20
4.9546
 30
0.0400
 11
3.7185
 21
4.9421
 31
0.0400
  0
LINE
  5
30
100
AcDbEntity
  8
1
 62
10
100
AcDbLine
 10
3.7185
 20
4.9421
 30
0.0400
 11
3.7183
 21
4.9296
 31
0.0400
  0
LINE
  5
30
100
AcDbEntity
  8
1
 62
10
100
AcDbLine
 10
3.7183
 20
4.9296
 30
0.0400
 11
3.7169
 21
4.9172
 31
0.0400
  0
LINE
  5
30
100
AcDbEntity
  8
1
 62
10
100
AcDbLine
 10
3.7169
 20
4.9172
 30
0.0400
 11
3.7165
 21
4.9154
 31
0.0400
  0
LINE
  5
30
100
AcDbEntity
  8
1
 62
10
100
AcDbLine
 10
3.7165
 20
4.9154
 30
0.0400
 11
3.7160
 21
4.9135
 31
0.0400
  0
LINE
  5
30
100
AcDbEntity
  8
1
 62
10
100
AcDbLine
 10
3.7160
 20
4.9135
 30
0.0400
 11
3.7103
 21
4.8961
 31
0.0400
  0
LINE
  5
30
100
AcDbEntity
  8
1
 62
10
100
AcDbLine
 10
3.7103
 20
4.8961
 30
0.0400
 11
3.7101
 21
4.8955
 31
0.0400
  0
LINE
  5
30
100
AcDbEntity
  8
1
 62
10
100
AcDbLine
 10
3.7101
 20
4.8955
 30
0.0400
 11
3.7093
 21
4.8936
 31
0.0400
  0
LINE
  5
30
100
AcDbEntity
  8
1
 62
10
100
AcDbLine
 10
3.7093
 20
4.8936
 30
0.0400
 11
3.7084
 21
4.8919
 31
0.0400
  0
LINE
  5
30
100
AcDbEntity
  8
1
 62
10
100
AcDbLine
 10
3.7084
 20
4.8919
 30
0.0400
 11
3.6988
 21
4.8753
 31
0.0400
  0
LINE
  5
30
100
AcDbEntity
  8
1
 62
10
100
AcDbLine
 10
3.6988
 20
4.8753
 30
0.0400
 11
3.6988
 21
4.8752
 31
0.0400
  0
LINE
  5
30
100
AcDbEntity
  8
1
 62
10
100
AcDbLine
 10
3.6988
 20
4.8752
 30
0.0400
 11
3.6977
 21
4.8736
 31
0.0400
  0
LINE
  5
30
100
AcDbEntity
  8
1
 62
10
100
AcDbLine
 10
3.6977
 20
4.8736
 30
0.0400
 11
3.6965
 21
4.8720
 31
0.0400
  0
LINE
  5
30
100
AcDbEntity
  8
1
 62
10
100
AcDbLine
 10
3.6965
 20
4.8720
 30
0.0400
 11
3.6831
 21
4.8563
 31
0.0400
  0
LINE
  5
30
100
AcDbEntity
  8
1
 62
10
100
AcDbLine
 10
3.6831
 20
4.8563
 30
0.0400
 11
3.6819
 21
4.8550
 31
0.0400
  0
LINE
  5
30
100
AcDbEntity
  8
1
 62
10
100
AcDbLine
 10
3.6819
 20
4.8550
 30
0.0400
 11
3.6805
 21
4.8537
 31
0.0400
  0
LINE
  5
30
100
AcDbEntity
  8
1
 62
10
100
AcDbLine
 10
3.6805
 20
4.8537
 30
0.0400
 11
3.6594
 21
4.8361
 31
0.0400
  0
LINE
  5
30
100
AcDbEntity
  8
1
 62
10
100
AcDbLine
 10
3.6594
 20
4.8361
 30
0.0400
 11
3.6584
 21
4.8353
 31
0.0400
  0
LINE
  5
30
100
AcDbEntity
  8
1
 62
10
100
AcDbLine
 10
3.6584
 20
4.8353
 30
0.0400
 11
3.6568
 21
4.8342
 31
0.0400
  0
LINE
  5
30
100
AcDbEntity
  8
1
 62
10
100
AcDbLine
 10
3.6568
 20
4.8342
 30
0.0400
 11
3.6304
 21
4.8178
 31
0.0400
  0
LINE
  5
30
100
AcDbEntity
  8
1
 62
10
100
AcDbLine
 10
3.6304
 20
4.8178
 30
0.0400
 11
3.6299
 21
4.8175
 31
0.0400
  0
LINE
  5
30
100
AcDbEntity
  8
1
 62
10
100
AcDbLine
 10
3.6299
 20
4.8175
 30
0.0400
 11
3.6282
 21
4.8166
 31
0.0400
  0
LINE
  5
30
100
AcDbEntity
  8
1
 62
10
100
AcDbLine
 10
3.6282
 20
4.8166
 30
0.0400
 11
3.5965
 21
4.8015
 31
0.0400
  0
LINE
  5
30
100
AcDbEntity
  8
1
 62
10
100
AcDbLine
 10
3.5965
 20
4.8015
 30
0.0400
 11
3.5963
 21
4.8014
 31
0.0400
  0
LINE
  5
30
100
AcDbEntity
  8
1
 62
10
100
AcDbLine
 10
3.5963
 20
4.8014
 30
0.0400
 11
3.5945
 21
4.8007
 31
0.0400
  0
LINE
  5
30
100
AcDbEntity
  8
1
 62
10
100
AcDbLine
 10
3.5945
 20
4.8007
 30
0.0400
 11
3.5493
 21
4.7843
 31
0.0400
  0
LINE
  5
30
100
AcDbEntity
  8
1
 62
10
100
AcDbLine
 10
3.5493
 20
4.7843
 30
0.0400
 11
3.5476
 21
4.7837
 31
0.0400
  0
LINE
  5
30
100
AcDbEntity
  8
1
 62
10
100
AcDbLine
 10
3.5476
 20
4.7837
 30
0.0400
 11
3.4948
 21
4.7692
 31
0.0400
  0
LINE
  5
30
100
AcDbEntity
  8
1
 62
10
100
AcDbLine
 10
3.4948
 20
4.7692
 30
0.0400
 11
3.4935
 21
4.7689
 31
0.0400
  0
LINE
  5
30
100
AcDbEntity
  8
1
 62
10
100
AcDbLine
 10
3.4935
 20
4.7689
 30
0.0400
 11
3.4332
 21
4.7562
 31
0.0400
  0
LINE
  5
30
100
AcDbEntity
  8
1
 62
10
100
AcDbLine
 10
3.4332
 20
4.7562
 30
0.0400
 11
3.4320
 21
4.7560
 31
0.0400
  0
LINE
  5
30
100
AcDbEntity
  8
1
 62
10
100
AcDbLine
 10
3.4320
 20
4.7560
 30
0.0400
 11
3.3497
 21
4.7433
 31
0.0400
  0
LINE
  5
30
100
AcDbEntity
  8
1
 62
10
100
AcDbLine
 10
3.3497
 20
4.7433
 30
0.0400
 11
3.3487
 21
4.7432
 31
0.0400
  0
LINE
  5
30
100
AcDbEntity
  8
1
 62
10
100
AcDbLine
 10
3.3487
 20
4.7432
 30
0.0400
 11
3.2557
 21
4.7332
 31
0.0400
  0
LINE
  5
30
100
AcDbEntity
  8
1
 62
10
100
AcDbLine
 10
3.2557
 20
4.7332
 30
0.0400
 11
3.2549
 21
4.7332
 31
0.0400
  0
LINE
  5
30
100
AcDbEntity
  8
1
 62
10
100
AcDbLine
 10
3.2549
 20
4.7332
 30
0.0400
 11
3.1513
 21
4.7260
 31
0.0400
  0
LINE
  5
30
100
AcDbEntity
  8
1
 62
10
100
AcDbLine
 10
3.1513
 20
4.7260
 30
0.0400
 11
3.1506
 21
4.7260
 31
0.0400
  0
LINE
  5
30
100
AcDbEntity
  8
1
 62
10
100
AcDbLine
 10
3.1506
 20
4.7260
 30
0.0400
 11
3.0366
 21
4.7216
 31
0.0400
  0
LINE
  5
30
100
AcDbEntity
  8
1
 62
10
100
AcDbLine
 10
3.0366
 20
4.7216
 30
0.0400
 11
3.0361
 21
4.7216
 31
0.0400
  0
LINE
  5
30
100
AcDbEntity
  8
1
 62
10
100
AcDbLine
 10
3.0361
 20
4.7216
 30
0.0400
 11
2.7675
 21
4.7176
 31
0.0400
  0
LINE
  5
30
100
AcDbEntity
  8
1
 62
10
100
AcDbLine
 10
2.7675
 20
4.7176
 30
0.0400
 11
2.6549
 21
4.7122
 31
0.0400
  0
LINE
  5
30
100
AcDbEntity
  8
1
 62
10
100
AcDbLine
 10
2.6549
 20
4.7122
 30
0.0400
 11
2.6948
 21
4.6713
 31
0.0400
  0
LINE
  5
30
100
AcDbEntity
  8
1
 62
10
100
AcDbLine
 10
2.6948
 20
4.6713
 30
0.0400
 11
2.6959
 21
4.6701
 31
0.0400
  0
LINE
  5
30
100
AcDbEntity
  8
1
 62
10
100
AcDbLine
 10
2.6959
 20
4.6701
 30
0.0400
 11
2.6971
 21
4.6686
 31
0.0400
  0
LINE
  5
30
100
AcDbEntity
  8
1
 62
10
100
AcDbLine
 10
2.6971
 20
4.6686
 30
0.0400
 11
2.7130
 21
4.6461
 31
0.0400
  0
LINE
  5
30
100
AcDbEntity
  8
1
 62
10
100
AcDbLine
 10
2.7130
 20
4.6461
 30
0.0400
 11
2.7140
 21
4.6445
 31
0.0400
  0
LINE
  5
30
100
AcDbEntity
  8
1
 62
10
100
AcDbLine
 10
2.7140
 20
4.6445
 30
0.0400
 11
2.7149
 21
4.6428
 31
0.0400
  0
LINE
  5
30
100
AcDbEntity
  8
1
 62
10
100
AcDbLine
 10
2.7149
 20
4.6428
 30
0.0400
 11
2.7257
 21
4.6201
 31
0.0400
  0
LINE
  5
30
100
AcDbEntity
  8
1
 62
10
100
AcDbLine
 10
2.7257
 20
4.6201
 30
0.0400
 11
2.7259
 21
4.6197
 31
0.0400
  0
LINE
  5
30
100
AcDbEntity
  8
1
 62
10
100
AcDbLine
 10
2.7259
 20
4.6197
 30
0.0400
 11
2.7266
 21
4.6179
 31
0.0400
  0
LINE
  5
30
100
AcDbEntity
  8
1
 62
10
100
AcDbLine
 10
2.7266
 20
4.6179
 30
0.0400
 11
2.7272
 21
4.6160
 31
0.0400
  0
LINE
  5
30
100
AcDbEntity
  8
1
 62
10
100
AcDbLine
 10
2.7272
 20
4.6160
 30
0.0400
 11
2.7328
 21
4.5939
 31
0.0400
  0
LINE
  5
30
100
AcDbEntity
  8
1
 62
10
100
AcDbLine
 10
2.7328
 20
4.5939
 30
0.0400
 11
2.7331
 21
4.5925
 31
0.0400
  0
LINE
  5
30
100
AcDbEntity
  8
1
 62
10
100
AcDbLine
 10
2.7331
 20
4.5925
 30
0.0400
 11
2.7334
 21
4.5906
 31
0.0400
  0
LINE
  5
30
100
AcDbEntity
  8
1
 62
10
100
AcDbLine
 10
2.7334
 20
4.5906
 30
0.0400
 11
2.7335
 21
4.5886
 31
0.0400
  0
LINE
  5
30
100
AcDbEntity
  8
1
 62
10
100
AcDbLine
 10
2.7335
 20
4.5886
 30
0.0400
 11
2.7336
 21
4.5679
 31
0.0400
  0
LINE
  5
30
100
AcDbEntity
  8
1
 62
10
100
AcDbLine
 10
2.7336
 20
4.5679
 30
0.0400
 11
2.7336
 21
4.5673
 31
0.0400
  0
LINE
  5
30
100
AcDbEntity
  8
1
 62
10
100
AcDbLine
 10
2.7336
 20
4.5673
 30
0.0400
 11
2.7335
 21
4.5653
 31
0.0400
  0
LINE
  5
30
100
AcDbEntity
  8
1
 62
10
100
AcDbLine
 10
2.7335
 20
4.5653
 30
0.0400
 11
2.7332
 21
4.5634
 31
0.0400
  0
LINE
  5
30
100
AcDbEntity
  8
1
 62
10
100
AcDbLine
 10
2.7332
 20
4.5634
 30
0.0400
 11
2.7327
 21
4.5615
 31
0.0400
  0
LINE
  5
30
100
AcDbEntity
  8
1
 62
10
100
AcDbLine
 10
2.7327
 20
4.5615
 30
0.0400
 11
2.7273
 21
4.5429
 31
0.0400
  0
LINE
  5
30
100
AcDbEntity
  8
1
 62
10
100
AcDbLine
 10
2.7273
 20
4.5429
 30
0.0400
 11
2.7269
 21
4.5418
 31
0.0400
  0
LINE
  5
30
100
AcDbEntity
  8
1
 62
10
100
AcDbLine
 10
2.7269
 20
4.5418
 30
0.0400
 11
2.7262
 21
4.5399
 31
0.0400
  0
LINE
  5
30
100
AcDbEntity
  8
1
 62
10
100
AcDbLine
 10
2.7262
 20
4.5399
 30
0.0400
 11
2.7253
 21
4.5382
 31
0.0400
  0
LINE
  5
30
100
AcDbEntity
  8
1
 62
10
100
AcDbLine
 10
2.7253
 20
4.5382
 30
0.0400
 11
2.7243
 21
4.5365
 31
0.0400
  0
LINE
  5
30
100
AcDbEntity
  8
1
 62
10
100
AcDbLine
 10
2.7243
 20
4.5365
 30
0.0400
 11
2.7145
 21
4.5222
 31
0.0400
  0
LINE
  5
30
100
AcDbEntity
  8
1
 62
10
100
AcDbLine
 10
2.7145
 20
4.5222
 30
0.0400
 11
2.7139
 21
4.5214
 31
0.0400
  0
LINE
  5
30
100
AcDbEntity
  8
1
 62
10
100
AcDbLine
 10
2.7139
 20
4.5214
 30
0.0400
 11
2.7127
 21
4.5199
 31
0.0400
  0
LINE
  5
30
100
AcDbEntity
  8
1
 62
10
100
AcDbLine
 10
2.7127
 20
4.5199
 30
0.0400
 11
2.7113
 21
4.5185
 31
0.0400
  0
LINE
  5
30
100
AcDbEntity
  8
1
 62
10
100
AcDbLine
 10
2.7113
 20
4.5185
 30
0.0400
 11
2.7058
 21
4.5133
 31
0.0400
  0
LINE
  5
30
100
AcDbEntity
  8
1
 62
10
100
AcDbLine
 10
2.7058
 20
4.5133
 30
0.0400
 11
2.7050
 21
4.5126
 31
0.0400
  0
LINE
  5
30
100
AcDbEntity
  8
1
 62
10
100
AcDbLine
 10
2.7050
 20
4.5126
 30
0.0400
 11
2.7034
 21
4.5114
 31
0.0400
  0
LINE
  5
30
100
AcDbEntity
  8
1
 62
10
100
AcDbLine
 10
2.7034
 20
4.5114
 30
0.0400
 11
2.7018
 21
4.5103
 31
0.0400
  0
LINE
  5
30
100
AcDbEntity
  8
1
 62
10
100
AcDbLine
 10
2.7018
 20
4.5103
 30
0.0400
 11
2.6880
 21
4.5022
 31
0.0400
  0
LINE
  5
30
100
AcDbEntity
  8
1
 62
10
100
AcDbLine
 10
2.6880
 20
4.5022
 30
0.0400
 11
2.6870
 21
4.5017
 31
0.0400
  0
LINE
  5
30
100
AcDbEntity
  8
1
 62
10
100
AcDbLine
 10
2.6870
 20
4.5017
 30
0.0400
 11
2.6852
 21
4.5008
 31
0.0400
  0
LINE
  5
30
100
AcDbEntity
  8
1
 62
10
100
AcDbLine
 10
2.6852
 20
4.5008
 30
0.0400
 11
2.6834
 21
4.5001
 31
0.0400
  0
LINE
  5
30
100
AcDbEntity
  8
1
 62
10
100
AcDbLine
 10
2.6834
 20
4.5001
 30
0.0400
 11
2.6644
 21
4.4940
 31
0.0400
  0
LINE
  5
30
100
AcDbEntity
  8
1
 62
10
100
AcDbLine
 10
2.6644
 20
4.4940
 30
0.0400
 11
2.6629
 21
4.4936
 31
0.0400
  0
LINE
  5
30
100
AcDbEntity
  8
1
 62
10
100
AcDbLine
 10
2.6629
 20
4.4936
 30
0.0400
 11
2.6610
 21
4.4932
 31
0.0400
  0
LINE
  5
30
100
AcDbEntity
  8
1
 62
10
100
AcDbLine
 10
2.6610
 20
4.4932
 30
0.0400
 11
2.6318
 21
4.4886
 31
0.0400
  0
LINE
  5
30
100
AcDbEntity
  8
1
 62
10
100
AcDbLine
 10
2.6318
 20
4.4886
 30
0.0400
 11
2.6312
 21
4.4885
 31
0.0400
  0
LINE
  5
30
100
AcDbEntity
  8
1
 62
10
100
AcDbLine
 10
2.6312
 20
4.4885
 30
0.0400
 11
2.6292
 21
4.4884
 31
0.0400
  0
LINE
  5
30
100
AcDbEntity
  8
1
 62
10
100
AcDbLine
 10
2.6292
 20
4.4884
 30
0.0400
 11
2.5854
 21
4.4866
 31
0.0400
  0
LINE
  5
30
100
AcDbEntity
  8
1
 62
10
100
AcDbLine
 10
2.5854
 20
4.4866
 30
0.0400
 11
2.5835
 21
4.4866
 31
0.0400
  0
LINE
  5
30
100
AcDbEntity
  8
1
 62
10
100
AcDbLine
 10
2.5835
 20
4.4866
 30
0.0400
 11
2.5313
 21
4.4888
 31
0.0400
  0
LINE
  5
30
100
AcDbEntity
  8
1
 62
10
100
AcDbLine
 10
2.5313
 20
4.4888
 30
0.0400
 11
2.5298
 21
4.4889
 31
0.0400
  0
LINE
  5
30
100
AcDbEntity
  8
1
 62
10
100
AcDbLine
 10
2.5298
 20
4.4889
 30
0.0400
 11
2.4571
 21
4.4967
 31
0.0400
  0
LINE
  5
30
100
AcDbEntity
  8
1
 62
10
100
AcDbLine
 10
2.4571
 20
4.4967
 30
0.0400
 11
2.4560
 21
4.4968
 31
0.0400
  0
LINE
  5
30
100
AcDbEntity
  8
1
 62
10
100
AcDbLine
 10
2.4560
 20
4.4968
 30
0.0400
 11
2.3739
 21
4.5099
 31
0.0400
  0
LINE
  5
30
100
AcDbEntity
  8
1
 62
10
100
AcDbLine
 10
2.3739
 20
4.5099
 30
0.0400
 11
2.3730
 21
4.5100
 31
0.0400
  0
LINE
  5
30
100
AcDbEntity
  8
1
 62
10
100
AcDbLine
 10
2.3730
 20
4.5100
 30
0.0400
 11
2.2831
 21
4.5282
 31
0.0400
  0
LINE
  5
30
100
AcDbEntity
  8
1
 62
10
100
AcDbLine
 10
2.2831
 20
4.5282
 30
0.0400
 11
2.2823
 21
4.5284
 31
0.0400
  0
LINE
  5
30
100
AcDbEntity
  8
1
 62
10
100
AcDbLine
 10
2.2823
 20
4.5284
 30
0.0400
 11
2.1862
 21
4.5514
 31
0.0400
  0
LINE
  5
30
100
AcDbEntity
  8
1
 62
10
100
AcDbLine
 10
2.1862
 20
4.5514
 30
0.0400
 11
2.1855
 21
4.5516
 31
0.0400
  0
LINE
  5
30
100
AcDbEntity
  8
1
 62
10
100
AcDbLine
 10
2.1855
 20
4.5516
 30
0.0400
 11
2.0847
 21
4.5794
 31
0.0400
  0
LINE
  5
30
100
AcDbEntity
  8
1
 62
10
100
AcDbLine
 10
2.0847
 20
4.5794
 30
0.0400
 11
2.0841
 21
4.5795
 31
0.0400
  0
LINE
  5
30
100
AcDbEntity
  8
1
 62
10
100
AcDbLine
 10
2.0841
 20
4.5795
 30
0.0400
 11
1.8873
 21
4.6396
 31
0.0400
  0
LINE
  5
30
100
AcDbEntity
  8
1
 62
10
100
AcDbLine
 10
1.8873
 20
4.6396
 30
0.0400
 11
1.7871
 21
4.6664
 31
0.0400
  0
LINE
  5
30
100
AcDbEntity
  8
1
 62
10
100
AcDbLine
 10
1.7871
 20
4.6664
 30
0.0400
 11
1.7042
 21
4.6834
 31
0.0400
  0
LINE
  5
30
100
AcDbEntity
  8
1
 62
10
100
AcDbLine
 10
1.7042
 20
4.6834
 30
0.0400
 11
1.6369
 21
4.6918
 31
0.0400
  0
LINE
  5
30
100
AcDbEntity
  8
1
 62
10
100
AcDbLine
 10
1.6369
 20
4.6918
 30
0.0400
 11
1.5533
 21
4.6955
 31
0.0400
  0
LINE
  5
30
100
AcDbEntity
  8
1
 62
10
100
AcDbLine
 10
1.5533
 20
4.6955
 30
0.0400
 11
1.4663
 21
4.6947
 31
0.0400
  0
LINE
  5
30
100
AcDbEntity
  8
1
 62
10
100
AcDbLine
 10
1.4663
 20
4.6947
 30
0.0400
 11
1.4266
 21
4.6915
 31
0.0400
  0
LINE
  5
30
100
AcDbEntity
  8
1
 62
10
100
AcDbLine
 10
1.4266
 20
4.6915
 30
0.0400
 11
1.3984
 21
4.6855
 31
0.0400
  0
LINE
  5
30
100
AcDbEntity
  8
1
 62
10
100
AcDbLine
 10
1.3984
 20
4.6855
 30
0.0400
 11
1.3772
 21
4.6763
 31
0.0400
  0
LINE
  5
30
100
AcDbEntity
  8
1
 62
10
100
AcDbLine
 10
1.3772
 20
4.6763
 30
0.0400
 11
1.3572
 21
4.6622
 31
0.0400
  0
LINE
  5
30
100
AcDbEntity
  8
1
 62
10
100
AcDbLine
 10
1.3572
 20
4.6622
 30
0.0400
 11
1.3432
 21
4.6497
 31
0.0400
  0
LINE
  5
30
100
AcDbEntity
  8
1
 62
10
100
AcDbLine
 10
1.3432
 20
4.6497
 30
0.0400
 11
1.3195
 21
4.6250
 31
0.0400
  0
LINE
  5
30
100
AcDbEntity
  8
1
 62
10
100
AcDbLine
 10
1.3195
 20
4.6250
 30
0.0400
 11
1.3019
 21
4.6021
 31
0.0400
  0
LINE
  5
30
100
AcDbEntity
  8
1
 62
10
100
AcDbLine
 10
1.3019
 20
4.6021
 30
0.0400
 11
1.2934
 21
4.5862
 31
0.0400
  0
LINE
  5
30
100
AcDbEntity
  8
1
 62
10
100
AcDbLine
 10
1.2934
 20
4.5862
 30
0.0400
 11
1.2927
 21
4.5827
 31
0.0400
  0
LINE
  5
30
100
AcDbEntity
  8
1
 62
10
100
AcDbLine
 10
1.2927
 20
4.5827
 30
0.0400
 11
1.2923
 21
4.5812
 31
0.0400
  0
LINE
  5
30
100
AcDbEntity
  8
1
 62
10
100
AcDbLine
 10
1.2923
 20
4.5812
 30
0.0400
 11
1.2889
 21
4.5687
 31
0.0400
  0
LINE
  5
30
100
AcDbEntity
  8
1
 62
10
100
AcDbLine
 10
1.2889
 20
4.5687
 30
0.0400
 11
1.2888
 21
4.5684
 31
0.0400
  0
LINE
  5
30
100
AcDbEntity
  8
1
 62
10
100
AcDbLine
 10
1.2888
 20
4.5684
 30
0.0400
 11
1.2882
 21
4.5665
 31
0.0400
  0
LINE
  5
30
100
AcDbEntity
  8
1
 62
10
100
AcDbLine
 10
1.2882
 20
4.5665
 30
0.0400
 11
1.2874
 21
4.5648
 31
0.0400
  0
LINE
  5
30
100
AcDbEntity
  8
1
 62
10
100
AcDbLine
 10
1.2874
 20
4.5648
 30
0.0400
 11
1.2865
 21
4.5630
 31
0.0400
  0
LINE
  5
30
100
AcDbEntity
  8
1
 62
10
100
AcDbLine
 10
1.2865
 20
4.5630
 30
0.0400
 11
1.2747
 21
4.5435
 31
0.0400
  0
LINE
  5
30
100
AcDbEntity
  8
1
 62
10
100
AcDbLine
 10
1.2747
 20
4.5435
 30
0.0400
 11
1.2740
 21
4.5424
 31
0.0400
  0
LINE
  5
30
100
AcDbEntity
  8
1
 62
10
100
AcDbLine
 10
1.2740
 20
4.5424
 30
0.0400
 11
1.2728
 21
4.5409
 31
0.0400
  0
LINE
  5
30
100
AcDbEntity
  8
1
 62
10
100
AcDbLine
 10
1.2728
 20
4.5409
 30
0.0400
 11
1.2508
 21
4.5143
 31
0.0400
  0
LINE
  5
30
100
AcDbEntity
  8
1
 62
10
100
AcDbLine
 10
1.2508
 20
4.5143
 30
0.0400
 11
1.2506
 21
4.5141
 31
0.0400
  0
LINE
  5
30
100
AcDbEntity
  8
1
 62
10
100
AcDbLine
 10
1.2506
 20
4.5141
 30
0.0400
 11
1.2493
 21
4.5127
 31
0.0400
  0
LINE
  5
30
100
AcDbEntity
  8
1
 62
10
100
AcDbLine
 10
1.2493
 20
4.5127
 30
0.0400
 11
1.2228
 21
4.4865
 31
0.0400
  0
LINE
  5
30
100
AcDbEntity
  8
1
 62
10
100
AcDbLine
 10
1.2228
 20
4.4865
 30
0.0400
 11
1.2226
 21
4.4863
 31
0.0400
  0
LINE
  5
30
100
AcDbEntity
  8
1
 62
10
100
AcDbLine
 10
1.2226
 20
4.4863
 30
0.0400
 11
1.2211
 21
4.4850
 31
0.0400
  0
LINE
  5
30
100
AcDbEntity
  8
1
 62
10
100
AcDbLine
 10
1.2211
 20
4.4850
 30
0.0400
 11
1.1943
 21
4.4634
 31
0.0400
  0
LINE
  5
30
100
AcDbEntity
  8
1
 62
10
100
AcDbLine
 10
1.1943
 20
4.4634
 30
0.0400
 11
1.1931
 21
4.4625
 31
0.0400
  0
LINE
  5
30
100
AcDbEntity
  8
1
 62
10
100
AcDbLine
 10
1.1931
 20
4.4625
 30
0.0400
 11
1.1914
 21
4.4615
 31
0.0400
  0
LINE
  5
30
100
AcDbEntity
  8
1
 62
10
100
AcDbLine
 10
1.1914
 20
4.4615
 30
0.0400
 11
1.1704
 21
4.4494
 31
0.0400
  0
LINE
  5
30
100
AcDbEntity
  8
1
 62
10
100
AcDbLine
 10
1.1704
 20
4.4494
 30
0.0400
 11
1.1699
 21
4.4491
 31
0.0400
  0
LINE
  5
30
100
AcDbEntity
  8
1
 62
10
100
AcDbLine
 10
1.1699
 20
4.4491
 30
0.0400
 11
1.1681
 21
4.4482
 31
0.0400
  0
LINE
  5
30
100
AcDbEntity
  8
1
 62
10
100
AcDbLine
 10
1.1681
 20
4.4482
 30
0.0400
 11
1.1663
 21
4.4475
 31
0.0400
  0
LINE
  5
30
100
AcDbEntity
  8
1
 62
10
100
AcDbLine
 10
1.1663
 20
4.4475
 30
0.0400
 11
1.1644
 21
4.4470
 31
0.0400
  0
LINE
  5
30
100
AcDbEntity
  8
1
 62
10
100
AcDbLine
 10
1.1644
 20
4.4470
 30
0.0400
 11
1.1532
 21
4.4443
 31
0.0400
  0
LINE
  5
30
100
AcDbEntity
  8
1
 62
10
100
AcDbLine
 10
1.1532
 20
4.4443
 30
0.0400
 11
1.1517
 21
4.4440
 31
0.0400
  0
LINE
  5
30
100
AcDbEntity
  8
1
 62
10
100
AcDbLine
 10
1.1517
 20
4.4440
 30
0.0400
 11
1.1498
 21
4.4438
 31
0.0400
  0
LINE
  5
30
100
AcDbEntity
  8
1
 62
10
100
AcDbLine
 10
1.1498
 20
4.4438
 30
0.0400
 11
1.1478
 21
4.4437
 31
0.0400
  0
LINE
  5
30
100
AcDbEntity
  8
1
 62
10
100
AcDbLine
 10
1.1478
 20
4.4437
 30
0.0400
 11
1.1459
 21
4.4438
 31
0.0400
  0
LINE
  5
30
100
AcDbEntity
  8
1
 62
10
100
AcDbLine
 10
1.1459
 20
4.4438
 30
0.0400
 11
1.1439
 21
4.4440
 31
0.0400
  0
LINE
  5
30
100
AcDbEntity
  8
1
 62
10
100
AcDbLine
 10
1.1439
 20
4.4440
 30
0.0400
 11
1.1293
 21
4.4467
 31
0.0400
  0
LINE
  5
30
100
AcDbEntity
  8
1
 62
10
100
AcDbLine
 10
1.1293
 20
4.4467
 30
0.0400
 11
1.1289
 21
4.4468
 31
0.0400
  0
LINE
  5
30
100
AcDbEntity
  8
1
 62
10
100
AcDbLine
 10
1.1289
 20
4.4468
 30
0.0400
 11
1.1270
 21
4.4473
 31
0.0400
  0
LINE
  5
30
100
AcDbEntity
  8
1
 62
10
100
AcDbLine
 10
1.1270
 20
4.4473
 30
0.0400
 11
1.1251
 21
4.4479
 31
0.0400
  0
LINE
  5
30
100
AcDbEntity
  8
1
 62
10
100
AcDbLine
 10
1.1251
 20
4.4479
 30
0.0400
 11
1.1039
 21
4.4561
 31
0.0400
  0
LINE
  5
30
100
AcDbEntity
  8
1
 62
10
100
AcDbLine
 10
1.1039
 20
4.4561
 30
0.0400
 11
1.1029
 21
4.4565
 31
0.0400
  0
LINE
  5
30
100
AcDbEntity
  8
1
 62
10
100
AcDbLine
 10
1.1029
 20
4.4565
 30
0.0400
 11
1.1011
 21
4.4574
 31
0.0400
  0
LINE
  5
30
100
AcDbEntity
  8
1
 62
10
100
AcDbLine
 10
1.1011
 20
4.4574
 30
0.0400
 11
1.0897
 21
4.4638
 31
0.0400
  0
LINE
  5
30
100
AcDbEntity
  8
1
 62
10
100
AcDbLine
 10
1.0897
 20
4.4638
 30
0.0400
 11
1.0895
 21
4.4639
 31
0.0400
  0
LINE
  5
30
100
AcDbEntity
  8
1
 62
10
100
AcDbLine
 10
1.0895
 20
4.4639
 30
0.0400
 11
1.0879
 21
4.4649
 31
0.0400
  0
LINE
  5
30
100
AcDbEntity
  8
1
 62
10
100
AcDbLine
 10
1.0879
 20
4.4649
 30
0.0400
 11
1.0863
 21
4.4661
 31
0.0400
  0
LINE
  5
30
100
AcDbEntity
  8
1
 62
10
100
AcDbLine
 10
1.0863
 20
4.4661
 30
0.0400
 11
1.0746
 21
4.4756
 31
0.0400
  0
LINE
  5
30
100
AcDbEntity
  8
1
 62
10
100
AcDbLine
 10
1.0746
 20
4.4756
 30
0.0400
 11
1.0742
 21
4.4759
 31
0.0400
  0
LINE
  5
30
100
AcDbEntity
  8
1
 62
10
100
AcDbLine
 10
1.0742
 20
4.4759
 30
0.0400
 11
1.0728
 21
4.4773
 31
0.0400
  0
LINE
  5
30
100
AcDbEntity
  8
1
 62
10
100
AcDbLine
 10
1.0728
 20
4.4773
 30
0.0400
 11
1.0715
 21
4.4788
 31
0.0400
  0
LINE
  5
30
100
AcDbEntity
  8
1
 62
10
100
AcDbLine
 10
1.0715
 20
4.4788
 30
0.0400
 11
1.0579
 21
4.4955
 31
0.0400
  0
LINE
  5
30
100
AcDbEntity
  8
1
 62
10
100
AcDbLine
 10
1.0579
 20
4.4955
 30
0.0400
 11
1.0569
 21
4.4968
 31
0.0400
  0
LINE
  5
30
100
AcDbEntity
  8
1
 62
10
100
AcDbLine
 10
1.0569
 20
4.4968
 30
0.0400
 11
1.0558
 21
4.4984
 31
0.0400
  0
LINE
  5
30
100
AcDbEntity
  8
1
 62
10
100
AcDbLine
 10
1.0558
 20
4.4984
 30
0.0400
 11
1.0403
 21
4.5252
 31
0.0400
  0
LINE
  5
30
100
AcDbEntity
  8
1
 62
10
100
AcDbLine
 10
1.0403
 20
4.5252
 30
0.0400
 11
1.0400
 21
4.5257
 31
0.0400
  0
LINE
  5
30
100
AcDbEntity
  8
1
 62
10
100
AcDbLine
 10
1.0400
 20
4.5257
 30
0.0400
 11
1.0391
 21
4.5275
 31
0.0400
  0
LINE
  5
30
100
AcDbEntity
  8
1
 62
10
100
AcDbLine
 10
1.0391
 20
4.5275
 30
0.0400
 11
1.0245
 21
4.5610
 31
0.0400
  0
LINE
  5
30
100
AcDbEntity
  8
1
 62
10
100
AcDbLine
 10
1.0245
 20
4.5610
 30
0.0400
 11
1.0238
 21
4.5628
 31
0.0400
  0
LINE
  5
30
100
AcDbEntity
  8
1
 62
10
100
AcDbLine
 10
1.0238
 20
4.5628
 30
0.0400
 11
1.0076
 21
4.6108
 31
0.0400
  0
LINE
  5
30
100
AcDbEntity
  8
1
 62
10
100
AcDbLine
 10
1.0076
 20
4.6108
 30
0.0400
 11
1.0071
 21
4.6123
 31
0.0400
  0
LINE
  5
30
100
AcDbEntity
  8
1
 62
10
100
AcDbLine
 10
1.0071
 20
4.6123
 30
0.0400
 11
0.9926
 21
4.6675
 31
0.0400
  0
LINE
  5
30
100
AcDbEntity
  8
1
 62
10
100
AcDbLine
 10
0.9926
 20
4.6675
 30
0.0400
 11
0.9925
 21
4.6682
 31
0.0400
  0
LINE
  5
30
100
AcDbEntity
  8
1
 62
10
100
AcDbLine
 10
0.9925
 20
4.6682
 30
0.0400
 11
0.9792
 21
4.7336
 31
0.0400
  0
LINE
  5
30
100
AcDbEntity
  8
1
 62
10
100
AcDbLine
 10
0.9792
 20
4.7336
 30
0.0400
 11
0.9596
 21
4.8755
 31
0.0400
  0
LINE
  5
30
100
AcDbEntity
  8
1
 62
10
100
AcDbLine
 10
0.9596
 20
4.8755
 30
0.0400
 11
0.9525
 21
5.0185
 31
0.0400
  0
LINE
  5
30
100
AcDbEntity
  8
1
 62
10
100
AcDbLine
 10
0.9525
 20
5.0185
 30
0.0400
 11
0.9579
 21
5.1616
 31
0.0400
  0
LINE
  5
30
100
AcDbEntity
  8
1
 62
10
100
AcDbLine
 10
0.9579
 20
5.1616
 30
0.0400
 11
0.9579
 21
5.1623
 31
0.0400
  0
LINE
  5
30
100
AcDbEntity
  8
1
 62
10
100
AcDbLine
 10
0.9579
 20
5.1623
 30
0.0400
 11
0.9634
 21
5.2101
 31
0.0400
  0
LINE
  5
30
100
AcDbEntity
  8
1
 62
10
100
AcDbLine
 10
0.9634
 20
5.2101
 30
0.0400
 11
0.9635
 21
5.2111
 31
0.0400
  0
LINE
  5
30
100
AcDbEntity
  8
1
 62
10
100
AcDbLine
 10
0.9635
 20
5.2111
 30
0.0400
 11
0.9745
 21
5.2806
 31
0.0400
  0
LINE
  5
30
100
AcDbEntity
  8
1
 62
10
100
AcDbLine
 10
0.9745
 20
5.2806
 30
0.0400
 11
0.9788
 21
5.3062
 31
0.0400
  0
LINE
  5
30
100
AcDbEntity
  8
1
 62
10
100
AcDbLine
 10
0.9788
 20
5.3062
 30
0.0400
 11
1.0016
 21
5.4076
 31
0.0400
  0
LINE
  5
30
100
AcDbEntity
  8
1
 62
10
100
AcDbLine
 10
1.0016
 20
5.4076
 30
0.0400
 11
1.0332
 21
5.5067
 31
0.0400
  0
LINE
  5
30
100
AcDbEntity
  8
1
 62
10
100
AcDbLine
 10
1.0332
 20
5.5067
 30
0.0400
 11
1.0733
 21
5.6026
 31
0.0400
  0
LINE
  5
30
100
AcDbEntity
  8
1
 62
10
100
AcDbLine
 10
1.0733
 20
5.6026
 30
0.0400
 11
1.1216
 21
5.6947
 31
0.0400
  0
LINE
  5
30
100
AcDbEntity
  8
1
 62
10
100
AcDbLine
 10
1.1216
 20
5.6947
 30
0.0400
 11
1.1778
 21
5.7822
 31
0.0400
  0
LINE
  5
30
100
AcDbEntity
  8
1
 62
10
100
AcDbLine
 10
1.1778
 20
5.7822
 30
0.0400
 11
1.2413
 21
5.8645
 31
0.0400
  0
LINE
  5
30
100
AcDbEntity
  8
1
 62
10
100
AcDbLine
 10
1.2413
 20
5.8645
 30
0.0400
 11
1.3118
 21
5.9409
 31
0.0400
  0
LINE
  5
30
100
AcDbEntity
  8
1
 62
10
100
AcDbLine
 10
1.3118
 20
5.9409
 30
0.0400
 11
1.3279
 21
5.9566
 31
0.0400
  0
LINE
  5
30
100
AcDbEntity
  8
1
 62
10
100
AcDbLine
 10
1.3279
 20
5.9566
 30
0.0400
 11
1.3282
 21
5.9570
 31
0.0400
  0
LINE
  5
30
100
AcDbEntity
  8
1
 62
10
100
AcDbLine
 10
1.3282
 20
5.9570
 30
0.0400
 11
1.3987
 21
6.0229
 31
0.0400
  0
LINE
  5
30
100
AcDbEntity
  8
1
 62
10
100
AcDbLine
 10
1.3987
 20
6.0229
 30
0.0400
 11
1.3994
 21
6.0236
 31
0.0400
  0
LINE
  5
30
100
AcDbEntity
  8
1
 62
10
100
AcDbLine
 10
1.3994
 20
6.0236
 30
0.0400
 11
1.4682
 21
6.0827
 31
0.0400
  0
LINE
  5
30
100
AcDbEntity
  8
1
 62
10
100
AcDbLine
 10
1.4682
 20
6.0827
 30
0.0400
 11
1.4692
 21
6.0835
 31
0.0400
  0
LINE
  5
30
100
AcDbEntity
  8
1
 62
10
100
AcDbLine
 10
1.4692
 20
6.0835
 30
0.0400
 11
1.5420
 21
6.1393
 31
0.0400
  0
LINE
  5
30
100
AcDbEntity
  8
1
 62
10
100
AcDbLine
 10
1.5420
 20
6.1393
 30
0.0400
 11
1.5431
 21
6.1401
 31
0.0400
  0
LINE
  5
30
100
AcDbEntity
  8
1
 62
10
100
AcDbLine
 10
1.5431
 20
6.1401
 30
0.0400
 11
1.6256
 21
6.1963
 31
0.0400
  0
LINE
  5
30
100
AcDbEntity
  8
1
 62
10
100
AcDbLine
 10
1.6256
 20
6.1963
 30
0.0400
 11
1.6265
 21
6.1969
 31
0.0400
  0
LINE
  5
30
100
AcDbEntity
  8
1
 62
10
100
AcDbLine
 10
1.6265
 20
6.1969
 30
0.0400
 11
1.7245
 21
6.2570
 31
0.0400
  0
LINE
  5
30
100
AcDbEntity
  8
1
 62
10
100
AcDbLine
 10
1.7245
 20
6.2570
 30
0.0400
 11
1.7251
 21
6.2574
 31
0.0400
  0
LINE
  5
30
100
AcDbEntity
  8
1
 62
10
100
AcDbLine
 10
1.7251
 20
6.2574
 30
0.0400
 11
1.8441
 21
6.3250
 31
0.0400
  0
LINE
  5
30
100
AcDbEntity
  8
1
 62
10
100
AcDbLine
 10
1.8441
 20
6.3250
 30
0.0400
 11
1.8446
 21
6.3253
 31
0.0400
  0
LINE
  5
30
100
AcDbEntity
  8
1
 62
10
100
AcDbLine
 10
1.8446
 20
6.3253
 30
0.0400
 11
2.0231
 21
6.4214
 31
0.0400
  0
LINE
  5
30
100
AcDbEntity
  8
1
 62
10
100
AcDbLine
 10
2.0231
 20
6.4214
 30
0.0400
 11
2.4966
 21
6.6687
 31
0.0400
  0
LINE
  5
30
100
AcDbEntity
  8
1
 62
10
100
AcDbLine
 10
2.4966
 20
6.6687
 30
0.0400
 11
2.7151
 21
6.7864
 31
0.0400
  0
LINE
  5
30
100
AcDbEntity
  8
1
 62
10
100
AcDbLine
 10
2.7151
 20
6.7864
 30
0.0400
 11
2.9023
 21
6.8921
 31
0.0400
  0
LINE
  5
30
100
AcDbEntity
  8
1
 62
10
100
AcDbLine
 10
2.9023
 20
6.8921
 30
0.0400
 11
3.0631
 21
6.9891
 31
0.0400
  0
LINE
  5
30
100
AcDbEntity
  8
1
 62
10
100
AcDbLine
 10
3.0631
 20
6.9891
 30
0.0400
 11
3.1856
 21
7.0690
 31
0.0400
  0
LINE
  5
30
100
AcDbEntity
  8
1
 62
10
100
AcDbLine
 10
3.1856
 20
7.0690
 30
0.0400
 11
3.3837
 21
7.2159
 31
0.0400
  0
LINE
  5
30
100
AcDbEntity
  8
1
 62
10
100
AcDbLine
 10
3.3837
 20
7.2159
 30
0.0400
 11
3.5682
 21
7.3795
 31
0.0400
  0
LINE
  5
30
100
AcDbEntity
  8
1
 62
10
100
AcDbLine
 10
3.5682
 20
7.3795
 30
0.0400
 11
3.5813
 21
7.3924
 31
0.0400
  0
LINE
  5
30
100
AcDbEntity
  8
1
 62
10
100
AcDbLine
 10
3.5814
 20
7.3923
 30
0.0400
 11
3.6743
 21
7.4861
 31
0.0400
  0
LINE
  5
30
100
AcDbEntity
  8
1
 62
10
100
AcDbLine
 10
3.6743
 20
7.4861
 30
0.0400
 11
3.7033
 21
7.5165
 31
0.0400
  0
LINE
  5
30
100
AcDbEntity
  8
1
 62
10
100
AcDbLine
 10
3.7033
 20
7.5165
 30
0.0400
 11
4.0009
 21
7.8245
 31
0.0400
  0
LINE
  5
30
100
AcDbEntity
  8
1
 62
10
100
AcDbLine
 10
4.0009
 20
7.8245
 30
0.0400
 11
4.0015
 21
7.8251
 31
0.0400
  0
LINE
  5
30
100
AcDbEntity
  8
1
 62
10
100
AcDbLine
 10
4.0015
 20
7.8251
 30
0.0400
 11
4.0499
 21
7.8718
 31
0.0400
  0
LINE
  5
30
100
AcDbEntity
  8
1
 62
10
100
AcDbLine
 10
4.0499
 20
7.8718
 30
0.0400
 11
4.0508
 21
7.8726
 31
0.0400
  0
LINE
  5
30
100
AcDbEntity
  8
1
 62
10
100
AcDbLine
 10
4.0508
 20
7.8726
 30
0.0400
 11
4.0954
 21
7.9112
 31
0.0400
  0
LINE
  5
30
100
AcDbEntity
  8
1
 62
10
100
AcDbLine
 10
4.0954
 20
7.9112
 30
0.0400
 11
4.0967
 21
7.9122
 31
0.0400
  0
LINE
  5
30
100
AcDbEntity
  8
1
 62
10
100
AcDbLine
 10
4.0967
 20
7.9122
 30
0.0400
 11
4.1375
 21
7.9425
 31
0.0400
  0
LINE
  5
30
100
AcDbEntity
  8
1
 62
10
100
AcDbLine
 10
4.1375
 20
7.9425
 30
0.0400
 11
4.1378
 21
7.9427
 31
0.0400
  0
LINE
  5
30
100
AcDbEntity
  8
1
 62
10
100
AcDbLine
 10
4.1378
 20
7.9427
 30
0.0400
 11
4.1394
 21
7.9438
 31
0.0400
  0
LINE
  5
30
100
AcDbEntity
  8
1
 62
10
100
AcDbLine
 10
4.1394
 20
7.9438
 30
0.0400
 11
4.1764
 21
7.9659
 31
0.0400
  0
LINE
  5
30
100
AcDbEntity
  8
1
 62
10
100
AcDbLine
 10
4.1764
 20
7.9659
 30
0.0400
 11
4.1774
 21
7.9665
 31
0.0400
  0
LINE
  5
30
100
AcDbEntity
  8
1
 62
10
100
AcDbLine
 10
4.1774
 20
7.9665
 30
0.0400
 11
4.1792
 21
7.9673
 31
0.0400
  0
LINE
  5
30
100
AcDbEntity
  8
1
 62
10
100
AcDbLine
 10
4.1792
 20
7.9673
 30
0.0400
 11
4.2125
 21
7.9812
 31
0.0400
  0
LINE
  5
30
100
AcDbEntity
  8
1
 62
10
100
AcDbLine
 10
4.2125
 20
7.9812
 30
0.0400
 11
4.2127
 21
7.9813
 31
0.0400
  0
LINE
  5
30
100
AcDbEntity
  8
1
 62
10
100
AcDbLine
 10
4.2127
 20
7.9813
 30
0.0400
 11
4.2146
 21
7.9820
 31
0.0400
  0
LINE
  5
30
100
AcDbEntity
  8
1
 62
10
100
AcDbLine
 10
4.2146
 20
7.9820
 30
0.0400
 11
4.2165
 21
7.9824
 31
0.0400
  0
LINE
  5
30
100
AcDbEntity
  8
1
 62
10
100
AcDbLine
 10
4.2165
 20
7.9824
 30
0.0400
 11
4.2418
 21
7.9877
 31
0.0400
  0
LINE
  5
30
100
AcDbEntity
  8
1
 62
10
100
AcDbLine
 10
4.2418
 20
7.9877
 30
0.0400
 11
4.2437
 21
7.9880
 31
0.0400
  0
LINE
  5
30
100
AcDbEntity
  8
1
 62
10
100
AcDbLine
 10
4.2437
 20
7.9880
 30
0.0400
 11
4.2482
 21
7.9884
 31
0.0400
  0
LINE
  5
30
100
AcDbEntity
  8
1
 62
10
100
AcDbLine
 10
4.2482
 20
7.9884
 30
0.0400
 11
4.2567
 21
7.9887
 31
0.0400
  0
LINE
  5
30
100
AcDbEntity
  8
1
 62
10
100
AcDbLine
 10
4.2567
 20
7.9887
 30
0.0400
 11
4.2651
 21
7.9882
 31
0.0400
  0
LINE
  5
30
100
AcDbEntity
  8
1
 62
10
100
AcDbLine
 10
4.2651
 20
7.9882
 30
0.0400
 11
4.2735
 21
7.9870
 31
0.0400
  0
LINE
  5
30
100
AcDbEntity
  8
1
 62
10
100
AcDbLine
 10
4.2735
 20
7.9870
 30
0.0400
 11
4.2818
 21
7.9851
 31
0.0400
  0
LINE
  5
30
100
AcDbEntity
  8
1
 62
10
100
AcDbLine
 10
4.2818
 20
7.9851
 30
0.0400
 11
4.2898
 21
7.9824
 31
0.0400
  0
LINE
  5
30
100
AcDbEntity
  8
1
 62
10
100
AcDbLine
 10
4.2898
 20
7.9824
 30
0.0400
 11
4.2976
 21
7.9791
 31
0.0400
  0
LINE
  5
30
100
AcDbEntity
  8
1
 62
10
100
AcDbLine
 10
4.2976
 20
7.9791
 30
0.0400
 11
4.3051
 21
7.9751
 31
0.0400
  0
LINE
  5
30
100
AcDbEntity
  8
1
 62
10
100
AcDbLine
 10
4.3051
 20
7.9751
 30
0.0400
 11
4.3122
 21
7.9705
 31
0.0400
  0
LINE
  5
30
100
AcDbEntity
  8
1
 62
10
100
AcDbLine
 10
4.3122
 20
7.9705
 30
0.0400
 11
4.3189
 21
7.9652
 31
0.0400
  0
LINE
  5
30
100
AcDbEntity
  8
1
 62
10
100
AcDbLine
 10
4.3189
 20
7.9652
 30
0.0400
 11
4.3251
 21
7.9594
 31
0.0400
  0
LINE
  5
30
100
AcDbEntity
  8
1
 62
10
100
AcDbLine
 10
4.3251
 20
7.9594
 30
0.0400
 11
4.3307
 21
7.9531
 31
0.0400
  0
LINE
  5
30
100
AcDbEntity
  8
1
 62
10
100
AcDbLine
 10
4.3307
 20
7.9531
 30
0.0400
 11
4.3358
 21
7.9463
 31
0.0400
  0
LINE
  5
30
100
AcDbEntity
  8
1
 62
10
100
AcDbLine
 10
4.3358
 20
7.9463
 30
0.0400
 11
4.3366
 21
7.9451
 31
0.0400
  0
LINE
  5
30
100
AcDbEntity
  8
1
 62
10
100
AcDbLine
 10
4.3366
 20
7.9451
 30
0.0400
 11
4.3485
 21
7.9249
 31
0.0400
  0
LINE
  5
30
100
AcDbEntity
  8
1
 62
10
100
AcDbLine
 10
4.3485
 20
7.9249
 30
0.0400
 11
4.3493
 21
7.9235
 31
0.0400
  0
LINE
  5
30
100
AcDbEntity
  8
1
 62
10
100
AcDbLine
 10
4.3493
 20
7.9235
 30
0.0400
 11
4.3500
 21
7.9217
 31
0.0400
  0
LINE
  5
30
100
AcDbEntity
  8
1
 62
10
100
AcDbLine
 10
4.3500
 20
7.9217
 30
0.0400
 11
4.3599
 21
7.8968
 31
0.0400
  0
LINE
  5
30
100
AcDbEntity
  8
1
 62
10
100
AcDbLine
 10
4.3599
 20
7.8968
 30
0.0400
 11
4.3602
 21
7.8961
 31
0.0400
  0
LINE
  5
30
100
AcDbEntity
  8
1
 62
10
100
AcDbLine
 10
4.3602
 20
7.8961
 30
0.0400
 11
4.3607
 21
7.8942
 31
0.0400
  0
LINE
  5
30
100
AcDbEntity
  8
1
 62
10
100
AcDbLine
 10
4.3607
 20
7.8942
 30
0.0400
 11
4.3685
 21
7.8645
 31
0.0400
  0
LINE
  5
30
100
AcDbEntity
  8
1
 62
10
100
AcDbLine
 10
4.3685
 20
7.8645
 30
0.0400
 11
4.3686
 21
7.8642
 31
0.0400
  0
LINE
  5
30
100
AcDbEntity
  8
1
 62
10
100
AcDbLine
 10
4.3686
 20
7.8642
 30
0.0400
 11
4.3689
 21
7.8623
 31
0.0400
  0
LINE
  5
30
100
AcDbEntity
  8
1
 62
10
100
AcDbLine
 10
4.3689
 20
7.8623
 30
0.0400
 11
4.3756
 21
7.8202
 31
0.0400
  0
LINE
  5
30
100
AcDbEntity
  8
1
 62
10
100
AcDbLine
 10
4.3756
 20
7.8202
 30
0.0400
 11
4.3758
 21
7.8189
 31
0.0400
  0
LINE
  5
30
100
AcDbEntity
  8
1
 62
10
100
AcDbLine
 10
4.3758
 20
7.8189
 30
0.0400
 11
4.3804
 21
7.7477
 31
0.0400
  0
LINE
  5
30
100
AcDbEntity
  8
1
 62
10
100
AcDbLine
 10
4.3804
 20
7.7477
 30
0.0400
 11
4.3791
 21
7.6595
 31
0.0400
  0
LINE
  5
30
100
AcDbEntity
  8
1
 62
10
100
AcDbLine
 10
4.3791
 20
7.6595
 30
0.0400
 11
4.3701
 21
7.5718
 31
0.0400
  0
LINE
  5
30
100
AcDbEntity
  8
1
 62
10
100
AcDbLine
 10
4.3701
 20
7.5718
 30
0.0400
 11
4.3502
 21
7.4575
 31
0.0400
  0
LINE
  5
30
100
AcDbEntity
  8
1
 62
10
100
AcDbLine
 10
4.3502
 20
7.4575
 30
0.0400
 11
4.3108
 21
7.3018
 31
0.0400
  0
LINE
  5
30
100
AcDbEntity
  8
1
 62
10
100
AcDbLine
 10
4.3108
 20
7.3018
 30
0.0400
 11
4.2581
 21
7.1502
 31
0.0400
  0
LINE
  5
30
100
AcDbEntity
  8
1
 62
10
100
AcDbLine
 10
4.2581
 20
7.1502
 30
0.0400
 11
4.1923
 21
7.0037
 31
0.0400
  0
LINE
  5
30
100
AcDbEntity
  8
1
 62
10
100
AcDbLine
 10
4.1923
 20
7.0037
 30
0.0400
 11
4.1140
 21
6.8636
 31
0.0400
  0
LINE
  5
30
100
AcDbEntity
  8
1
 62
10
100
AcDbLine
 10
4.1140
 20
6.8636
 30
0.0400
 11
4.1136
 21
6.8629
 31
0.0400
  0
LINE
  5
30
100
AcDbEntity
  8
1
 62
10
100
AcDbLine
 10
4.1136
 20
6.8629
 30
0.0400
 11
4.0248
 21
6.7296
 31
0.0400
  0
LINE
  5
30
100
AcDbEntity
  8
1
 62
10
100
AcDbLine
 10
4.0248
 20
6.7296
 30
0.0400
 11
4.0196
 21
6.7206
 31
0.0400
  0
LINE
  5
30
100
AcDbEntity
  8
1
 62
10
100
AcDbLine
 10
4.0196
 20
6.7206
 30
0.0400
 11
4.1583
 21
6.7889
 31
0.0400
  0
LINE
  5
30
100
AcDbEntity
  8
1
 62
10
100
AcDbLine
 10
4.1583
 20
6.7889
 30
0.0400
 11
4.1599
 21
6.7896
 31
0.0400
  0
LINE
  5
30
100
AcDbEntity
  8
1
 62
10
100
AcDbLine
 10
4.1599
 20
6.7896
 30
0.0400
 11
4.2133
 21
6.8108
 31
0.0400
  0
LINE
  5
30
100
AcDbEntity
  8
1
 62
10
100
AcDbLine
 10
4.2133
 20
6.8108
 30
0.0400
 11
4.2140
 21
6.8111
 31
0.0400
  0
LINE
  5
30
100
AcDbEntity
  8
1
 62
10
100
AcDbLine
 10
4.2140
 20
6.8111
 30
0.0400
 11
4.2159
 21
6.8117
 31
0.0400
  0
LINE
  5
30
100
AcDbEntity
  8
1
 62
10
100
AcDbLine
 10
4.2159
 20
6.8117
 30
0.0400
 11
4.2508
 21
6.8209
 31
0.0400
  0
LINE
  5
30
100
AcDbEntity
  8
1
 62
10
100
AcDbLine
 10
4.2508
 20
6.8209
 30
0.0400
 11
4.2526
 21
6.8213
 31
0.0400
  0
LINE
  5
30
100
AcDbEntity
  8
1
 62
10
100
AcDbLine
 10
4.2526
 20
6.8213
 30
0.0400
 11
4.2545
 21
6.8216
 31
0.0400
  0
LINE
  5
30
100
AcDbEntity
  8
1
 62
10
100
AcDbLine
 10
4.2545
 20
6.8216
 30
0.0400
 11
4.2839
 21
6.8243
 31
0.0400
  0
LINE
  5
30
100
AcDbEntity
  8
1
 62
10
100
AcDbLine
 10
4.2839
 20
6.8243
 30
0.0400
 11
4.2858
 21
6.8244
 31
0.0400
  0
LINE
  5
30
100
AcDbEntity
  8
1
 62
10
100
AcDbLine
 10
4.2858
 20
6.8244
 30
0.0400
 11
4.2940
 21
6.8241
 31
0.0400
  0
LINE
  5
30
100
AcDbEntity
  8
1
 62
10
100
AcDbLine
 10
4.2940
 20
6.8241
 30
0.0400
 11
4.3023
 21
6.8231
 31
0.0400
  0
LINE
  5
30
100
AcDbEntity
  8
1
 62
10
100
AcDbLine
 10
4.3023
 20
6.8231
 30
0.0400
 11
4.3105
 21
6.8213
 31
0.0400
  0
LINE
  5
30
100
AcDbEntity
  8
1
 62
10
100
AcDbLine
 10
4.3105
 20
6.8213
 30
0.0400
 11
4.3185
 21
6.8188
 31
0.0400
  0
LINE
  5
30
100
AcDbEntity
  8
1
 62
10
100
AcDbLine
 10
4.3185
 20
6.8188
 30
0.0400
 11
4.3263
 21
6.8157
 31
0.0400
  0
LINE
  5
30
100
AcDbEntity
  8
1
 62
10
100
AcDbLine
 10
4.3263
 20
6.8157
 30
0.0400
 11
4.3337
 21
6.8119
 31
0.0400
  0
LINE
  5
30
100
AcDbEntity
  8
1
 62
10
100
AcDbLine
 10
4.3337
 20
6.8119
 30
0.0400
 11
4.3408
 21
6.8074
 31
0.0400
  0
LINE
  5
30
100
AcDbEntity
  8
1
 62
10
100
AcDbLine
 10
4.3408
 20
6.8074
 30
0.0400
 11
4.3475
 21
6.8024
 31
0.0400
  0
LINE
  5
30
100
AcDbEntity
  8
1
 62
10
100
AcDbLine
 10
4.3475
 20
6.8024
 30
0.0400
 11
4.3537
 21
6.7967
 31
0.0400
  0
LINE
  5
30
100
AcDbEntity
  8
1
 62
10
100
AcDbLine
 10
4.3537
 20
6.7967
 30
0.0400
 11
4.3594
 21
6.7906
 31
0.0400
  0
LINE
  5
30
100
AcDbEntity
  8
1
 62
10
100
AcDbLine
 10
4.3594
 20
6.7906
 30
0.0400
 11
4.3646
 21
6.7840
 31
0.0400
  0
LINE
  5
30
100
AcDbEntity
  8
1
 62
10
100
AcDbLine
 10
4.3646
 20
6.7840
 30
0.0400
 11
4.3691
 21
6.7770
 31
0.0400
  0
LINE
  5
30
100
AcDbEntity
  8
1
 62
10
100
AcDbLine
 10
4.3691
 20
6.7770
 30
0.0400
 11
4.3731
 21
6.7696
 31
0.0400
  0
LINE
  5
30
100
AcDbEntity
  8
1
 62
10
100
AcDbLine
 10
4.3731
 20
6.7696
 30
0.0400
 11
4.3733
 21
6.7692
 31
0.0400
  0
LINE
  5
30
100
AcDbEntity
  8
1
 62
10
100
AcDbLine
 10
4.3733
 20
6.7692
 30
0.0400
 11
4.3810
 21
6.7522
 31
0.0400
  0
LINE
  5
30
100
AcDbEntity
  8
1
 62
10
100
AcDbLine
 10
4.3810
 20
6.7522
 30
0.0400
 11
4.3813
 21
6.7514
 31
0.0400
  0
LINE
  5
30
100
AcDbEntity
  8
1
 62
10
100
AcDbLine
 10
4.3813
 20
6.7514
 30
0.0400
 11
4.3820
 21
6.7496
 31
0.0400
  0
LINE
  5
30
100
AcDbEntity
  8
1
 62
10
100
AcDbLine
 10
4.3820
 20
6.7496
 30
0.0400
 11
4.3889
 21
6.7274
 31
0.0400
  0
LINE
  5
30
100
AcDbEntity
  8
1
 62
10
100
AcDbLine
 10
4.3889
 20
6.7274
 30
0.0400
 11
4.3892
 21
6.7265
 31
0.0400
  0
LINE
  5
30
100
AcDbEntity
  8
1
 62
10
100
AcDbLine
 10
4.3892
 20
6.7265
 30
0.0400
 11
4.3896
 21
6.7246
 31
0.0400
  0
LINE
  5
30
100
AcDbEntity
  8
1
 62
10
100
AcDbLine
 10
4.3896
 20
6.7246
 30
0.0400
 11
4.3947
 21
6.6953
 31
0.0400
  0
LINE
  5
30
100
AcDbEntity
  8
1
 62
10
100
AcDbLine
 10
4.3947
 20
6.6953
 30
0.0400
 11
4.3948
 21
6.6947
 31
0.0400
  0
LINE
  5
30
100
AcDbEntity
  8
1
 62
10
100
AcDbLine
 10
4.3948
 20
6.6947
 30
0.0400
 11
4.3950
 21
6.6927
 31
0.0400
  0
LINE
  5
30
100
AcDbEntity
  8
1
 62
10
100
AcDbLine
 10
4.3950
 20
6.6927
 30
0.0400
 11
4.3967
 21
6.6606
 31
0.0400
  0
LINE
  5
30
100
AcDbEntity
  8
1
 62
10
100
AcDbLine
 10
4.3967
 20
6.6606
 30
0.0400
 11
4.3967
 21
6.6604
 31
0.0400
  0
LINE
  5
30
100
AcDbEntity
  8
1
 62
10
100
AcDbLine
 10
4.3967
 20
6.6604
 30
0.0400
 11
4.3967
 21
6.6584
 31
0.0400
  0
LINE
  5
30
100
AcDbEntity
  8
1
 62
10
100
AcDbLine
 10
4.3967
 20
6.6584
 30
0.0400
 11
4.3951
 21
6.6238
 31
0.0400
  0
LINE
  5
30
100
AcDbEntity
  8
1
 62
10
100
AcDbLine
 10
4.3951
 20
6.6238
 30
0.0400
 11
4.3951
 21
6.6237
 31
0.0400
  0
LINE
  5
30
100
AcDbEntity
  8
1
 62
10
100
AcDbLine
 10
4.3951
 20
6.6237
 30
0.0400
 11
4.3949
 21
6.6217
 31
0.0400
  0
LINE
  5
30
100
AcDbEntity
  8
1
 62
10
100
AcDbLine
 10
4.3949
 20
6.6217
 30
0.0400
 11
4.3886
 21
6.5773
 31
0.0400
  0
LINE
  5
30
100
AcDbEntity
  8
1
 62
10
100
AcDbLine
 10
4.3886
 20
6.5773
 30
0.0400
 11
4.3886
 21
6.5772
 31
0.0400
  0
LINE
  5
30
100
AcDbEntity
  8
1
 62
10
100
AcDbLine
 10
4.3886
 20
6.5772
 30
0.0400
 11
4.3883
 21
6.5753
 31
0.0400
  0
LINE
  5
30
100
AcDbEntity
  8
1
 62
10
100
AcDbLine
 10
4.3883
 20
6.5753
 30
0.0400
 11
4.3773
 21
6.5280
 31
0.0400
  0
LINE
  5
30
100
AcDbEntity
  8
1
 62
10
100
AcDbLine
 10
4.3773
 20
6.5280
 30
0.0400
 11
4.3768
 21
6.5264
 31
0.0400
  0
LINE
  5
30
100
AcDbEntity
  8
1
 62
10
100
AcDbLine
 10
4.3768
 20
6.5264
 30
0.0400
 11
4.3612
 21
6.4766
 31
0.0400
  0
LINE
  5
30
100
AcDbEntity
  8
1
 62
10
100
AcDbLine
 10
4.3612
 20
6.4766
 30
0.0400
 11
4.3607
 21
6.4752
 31
0.0400
  0
LINE
  5
30
100
AcDbEntity
  8
1
 62
10
100
AcDbLine
 10
4.3607
 20
6.4752
 30
0.0400
 11
4.3405
 21
6.4233
 31
0.0400
  0
LINE
  5
30
100
AcDbEntity
  8
1
 62
10
100
AcDbLine
 10
4.3405
 20
6.4233
 30
0.0400
 11
4.3400
 21
6.4222
 31
0.0400
  0
LINE
  5
30
100
AcDbEntity
  8
1
 62
10
100
AcDbLine
 10
4.3400
 20
6.4222
 30
0.0400
 11
4.3196
 21
6.3773
 31
0.0400
  0
LINE
  5
30
100
AcDbEntity
  8
1
 62
10
100
AcDbLine
 10
4.3196
 20
6.3773
 30
0.0400
 11
4.3188
 21
6.3757
 31
0.0400
  0
LINE
  5
30
100
AcDbEntity
  8
1
 62
10
100
AcDbLine
 10
4.3188
 20
6.3757
 30
0.0400
 11
4.2955
 21
6.3340
 31
0.0400
  0
LINE
  5
30
100
AcDbEntity
  8
1
 62
10
100
AcDbLine
 10
4.2955
 20
6.3340
 30
0.0400
 11
4.2945
 21
6.3324
 31
0.0400
  0
LINE
  5
30
100
AcDbEntity
  8
1
 62
10
100
AcDbLine
 10
4.2945
 20
6.3324
 30
0.0400
 11
4.2624
 21
6.2844
 31
0.0400
  0
LINE
  5
30
100
AcDbEntity
  8
1
 62
10
100
AcDbLine
 10
4.2624
 20
6.2844
 30
0.0400
 11
4.2617
 21
6.2833
 31
0.0400
  0
LINE
  5
30
100
AcDbEntity
  8
1
 62
10
100
AcDbLine
 10
4.2617
 20
6.2833
 30
0.0400
 11
4.2138
 21
6.2197
 31
0.0400
  0
LINE
  5
30
100
AcDbEntity
  8
1
 62
10
100
AcDbLine
 10
4.2138
 20
6.2197
 30
0.0400
 11
4.2131
 21
6.2189
 31
0.0400
  0
LINE
  5
30
100
AcDbEntity
  8
1
 62
10
100
AcDbLine
 10
4.2131
 20
6.2189
 30
0.0400
 11
4.1575
 21
6.1518
 31
0.0400
  0
LINE
  5
30
100
AcDbEntity
  8
1
 62
10
100
AcDbLine
 10
4.1575
 20
6.1518
 30
0.0400
 11
4.1570
 21
6.1511
 31
0.0400
  0
LINE
  5
30
100
AcDbEntity
  8
1
 62
10
100
AcDbLine
 10
4.1570
 20
6.1511
 30
0.0400
 11
4.0965
 21
6.0834
 31
0.0400
  0
LINE
  5
30
100
AcDbEntity
  8
1
 62
10
100
AcDbLine
 10
4.0965
 20
6.0834
 30
0.0400
 11
4.0959
 21
6.0828
 31
0.0400
  0
LINE
  5
30
100
AcDbEntity
  8
1
 62
10
100
AcDbLine
 10
4.0959
 20
6.0828
 30
0.0400
 11
4.0333
 21
6.0176
 31
0.0400
  0
LINE
  5
30
100
AcDbEntity
  8
1
 62
10
100
AcDbLine
 10
4.0333
 20
6.0176
 30
0.0400
 11
4.0326
 21
6.0170
 31
0.0400
  0
LINE
  5
30
100
AcDbEntity
  8
1
 62
10
100
AcDbLine
 10
4.0326
 20
6.0170
 30
0.0400
 11
3.9705
 21
5.9573
 31
0.0400
  0
LINE
  5
30
100
AcDbEntity
  8
1
 62
10
100
AcDbLine
 10
3.9705
 20
5.9573
 30
0.0400
 11
3.9697
 21
5.9565
 31
0.0400
  0
LINE
  5
30
100
AcDbEntity
  8
1
 62
10
100
AcDbLine
 10
3.9697
 20
5.9565
 30
0.0400
 11
3.9108
 21
5.9055
 31
0.0400
  0
LINE
  5
30
100
AcDbEntity
  8
1
 62
10
100
AcDbLine
 10
3.9108
 20
5.9055
 30
0.0400
 11
3.9097
 21
5.9045
 31
0.0400
  0
LINE
  5
30
100
AcDbEntity
  8
1
 62
10
100
AcDbLine
 10
3.9097
 20
5.9045
 30
0.0400
 11
3.8648
 21
5.8705
 31
0.0400
  0
LINE
  5
30
100
AcDbEntity
  8
1
 62
10
100
AcDbLine
 10
3.8648
 20
5.8705
 30
0.0400
 11
3.9156
 21
5.8897
 31
0.0400
  0
LINE
  5
30
100
AcDbEntity
  8
1
 62
10
100
AcDbLine
 10
3.9156
 20
5.8897
 30
0.0400
 11
3.9171
 21
5.8902
 31
0.0400
  0
LINE
  5
30
100
AcDbEntity
  8
1
 62
10
100
AcDbLine
 10
3.9171
 20
5.8902
 30
0.0400
 11
3.9819
 21
5.9096
 31
0.0400
  0
LINE
  5
30
100
AcDbEntity
  8
1
 62
10
100
AcDbLine
 10
3.9819
 20
5.9096
 30
0.0400
 11
3.9834
 21
5.9100
 31
0.0400
  0
LINE
  5
30
100
AcDbEntity
  8
1
 62
10
100
AcDbLine
 10
3.9834
 20
5.9100
 30
0.0400
 11
4.0451
 21
5.9237
 31
0.0400
  0
LINE
  5
30
100
AcDbEntity
  8
1
 62
10
100
AcDbLine
 10
4.0451
 20
5.9237
 30
0.0400
 11
4.0469
 21
5.9241
 31
0.0400
  0
LINE
  5
30
100
AcDbEntity
  8
1
 62
10
100
AcDbLine
 10
4.0469
 20
5.9241
 30
0.0400
 11
4.1028
 21
5.9318
 31
0.0400
  0
LINE
  5
30
100
AcDbEntity
  8
1
 62
10
100
AcDbLine
 10
4.1028
 20
5.9318
 30
0.0400
 11
4.1031
 21
5.9318
 31
0.0400
  0
LINE
  5
30
100
AcDbEntity
  8
1
 62
10
100
AcDbLine
 10
4.1031
 20
5.9318
 30
0.0400
 11
4.1051
 21
5.9320
 31
0.0400
  0
LINE
  5
30
100
AcDbEntity
  8
1
 62
10
100
AcDbLine
 10
4.1051
 20
5.9320
 30
0.0400
 11
4.1484
 21
5.9334
 31
0.0400
  0
LINE
  5
30
100
AcDbEntity
  8
1
 62
10
100
AcDbLine
 10
4.1484
 20
5.9334
 30
0.0400
 11
4.1496
 21
5.9334
 31
0.0400
  0
LINE
  5
30
100
AcDbEntity
  8
1
 62
10
100
AcDbLine
 10
4.1496
 20
5.9334
 30
0.0400
 11
4.1516
 21
5.9333
 31
0.0400
  0
LINE
  5
30
100
AcDbEntity
  8
1
 62
10
100
AcDbLine
 10
4.1516
 20
5.9333
 30
0.0400
 11
4.1831
 21
5.9299
 31
0.0400
  0
LINE
  5
30
100
AcDbEntity
  8
1
 62
10
100
AcDbLine
 10
4.1831
 20
5.9299
 30
0.0400
 11
4.1838
 21
5.9298
 31
0.0400
  0
LINE
  5
30
100
AcDbEntity
  8
1
 62
10
100
AcDbLine
 10
4.1838
 20
5.9298
 30
0.0400
 11
4.1857
 21
5.9295
 31
0.0400
  0
LINE
  5
30
100
AcDbEntity
  8
1
 62
10
100
AcDbLine
 10
4.1857
 20
5.9295
 30
0.0400
 11
4.1876
 21
5.9289
 31
0.0400
  0
LINE
  5
30
100
AcDbEntity
  8
1
 62
10
100
AcDbLine
 10
4.1876
 20
5.9289
 30
0.0400
 11
4.2074
 21
5.9225
 31
0.0400
  0
LINE
  5
30
100
AcDbEntity
  8
1
 62
10
100
AcDbLine
 10
4.2074
 20
5.9225
 30
0.0400
 11
4.2088
 21
5.9220
 31
0.0400
  0
LINE
  5
30
100
AcDbEntity
  8
1
 62
10
100
AcDbLine
 10
4.2088
 20
5.9220
 30
0.0400
 11
4.2106
 21
5.9212
 31
0.0400
  0
LINE
  5
30
100
AcDbEntity
  8
1
 62
10
100
AcDbLine
 10
4.2106
 20
5.9212
 30
0.0400
 11
4.2173
 21
5.9175
 31
0.0400
  0
LINE
  5
30
100
AcDbEntity
  8
1
 62
10
100
AcDbLine
 10
4.2173
 20
5.9175
 30
0.0400
 11
4.2251
 21
5.9124
 31
0.0400
  0
LINE
  5
30
100
AcDbEntity
  8
1
 62
10
100
AcDbLine
 10
4.2251
 20
5.9124
 30
0.0400
 11
4.2324
 21
5.9066
 31
0.0400
  0
LINE
  5
30
100
AcDbEntity
  8
1
 62
10
100
AcDbLine
 10
4.2324
 20
5.9066
 30
0.0400
 11
4.2391
 21
5.9002
 31
0.0400
  0
LINE
  5
30
100
AcDbEntity
  8
1
 62
10
100
AcDbLine
 10
4.2391
 20
5.9002
 30
0.0400
 11
4.2453
 21
5.8933
 31
0.0400
  0
LINE
  5
30
100
AcDbEntity
  8
1
 62
10
100
AcDbLine
 10
4.2453
 20
5.8933
 30
0.0400
 11
4.2508
 21
5.8858
 31
0.0400
  0
LINE
  5
30
100
AcDbEntity
  8
1
 62
10
100
AcDbLine
 10
4.2508
 20
5.8858
 30
0.0400
 11
4.2557
 21
5.8779
 31
0.0400
  0
LINE
  5
30
100
AcDbEntity
  8
1
 62
10
100
AcDbLine
 10
4.2557
 20
5.8779
 30
0.0400
 11
4.2598
 21
5.8696
 31
0.0400
  0
LINE
  5
30
100
AcDbEntity
  8
1
 62
10
100
AcDbLine
 10
4.2598
 20
5.8696
 30
0.0400
 11
4.2633
 21
5.8609
 31
0.0400
  0
LINE
  5
30
100
AcDbEntity
  8
1
 62
10
100
AcDbLine
 10
4.2633
 20
5.8609
 30
0.0400
 11
4.2659
 21
5.8520
 31
0.0400
  0
LINE
  5
30
100
AcDbEntity
  8
1
 62
10
100
AcDbLine
 10
4.2659
 20
5.8520
 30
0.0400
 11
4.2678
 21
5.8429
 31
0.0400
  0
LINE
  5
30
100
AcDbEntity
  8
1
 62
10
100
AcDbLine
 10
4.2678
 20
5.8429
 30
0.0400
 11
4.2689
 21
5.8337
 31
0.0400
  0
LINE
  5
30
100
AcDbEntity
  8
1
 62
10
100
AcDbLine
 10
4.2689
 20
5.8337
 30
0.0400
 11
4.2690
 21
5.8325
 31
0.0400
  0
LINE
  5
30
100
AcDbEntity
  8
1
 62
10
100
AcDbLine
 10
4.2690
 20
5.8325
 30
0.0400
 11
4.2694
 21
5.8086
 31
0.0400
  0
LINE
  5
30
100
AcDbEntity
  8
1
 62
10
100
AcDbLine
 10
4.2694
 20
5.8086
 30
0.0400
 11
4.2694
 21
5.8072
 31
0.0400
  0
LINE
  5
30
100
AcDbEntity
  8
1
 62
10
100
AcDbLine
 10
4.2694
 20
5.8072
 30
0.0400
 11
4.2692
 21
5.8052
 31
0.0400
  0
LINE
  5
30
100
AcDbEntity
  8
1
 62
10
100
AcDbLine
 10
4.2692
 20
5.8052
 30
0.0400
 11
4.2657
 21
5.7790
 31
0.0400
  0
LINE
  5
30
100
AcDbEntity
  8
1
 62
10
100
AcDbLine
 10
4.2657
 20
5.7790
 30
0.0400
 11
4.2656
 21
5.7782
 31
0.0400
  0
LINE
  5
30
100
AcDbEntity
  8
1
 62
10
100
AcDbLine
 10
4.2656
 20
5.7782
 30
0.0400
 11
4.2652
 21
5.7763
 31
0.0400
  0
LINE
  5
30
100
AcDbEntity
  8
1
 62
10
100
AcDbLine
 10
4.2652
 20
5.7763
 30
0.0400
 11
4.2578
 21
5.7482
 31
0.0400
  0
LINE
  5
30
100
AcDbEntity
  8
1
 62
10
100
AcDbLine
 10
4.2578
 20
5.7482
 30
0.0400
 11
4.2576
 21
5.7477
 31
0.0400
  0
LINE
  5
30
100
AcDbEntity
  8
1
 62
10
100
AcDbLine
 10
4.2576
 20
5.7477
 30
0.0400
 11
4.2570
 21
5.7458
 31
0.0400
  0
LINE
  5
30
100
AcDbEntity
  8
1
 62
10
100
AcDbLine
 10
4.2570
 20
5.7458
 30
0.0400
 11
4.2431
 21
5.7100
 31
0.0400
  0
LINE
  5
30
100
AcDbEntity
  8
1
 62
10
100
AcDbLine
 10
4.2431
 20
5.7100
 30
0.0400
 11
4.2430
 21
5.7097
 31
0.0400
  0
LINE
  5
30
100
AcDbEntity
  8
1
 62
10
100
AcDbLine
 10
4.2430
 20
5.7097
 30
0.0400
 11
4.2422
 21
5.7079
 31
0.0400
  0
LINE
  5
30
100
AcDbEntity
  8
1
 62
10
100
AcDbLine
 10
4.2422
 20
5.7079
 30
0.0400
 11
4.2230
 21
5.6701
 31
0.0400
  0
LINE
  5
30
100
AcDbEntity
  8
1
 62
10
100
AcDbLine
 10
4.2230
 20
5.6701
 30
0.0400
 11
4.2220
 21
5.6685
 31
0.0400
  0
LINE
  5
30
100
AcDbEntity
  8
1
 62
10
100
AcDbLine
 10
4.2220
 20
5.6685
 30
0.0400
 11
4.1977
 21
5.6292
 31
0.0400
  0
LINE
  5
30
100
AcDbEntity
  8
1
 62
10
100
AcDbLine
 10
4.1977
 20
5.6292
 30
0.0400
 11
4.1971
 21
5.6283
 31
0.0400
  0
LINE
  5
30
100
AcDbEntity
  8
1
 62
10
100
AcDbLine
 10
4.1971
 20
5.6283
 30
0.0400
 11
4.1745
 21
5.5971
 31
0.0400
  0
LINE
  5
30
100
AcDbEntity
  8
1
 62
10
100
AcDbLine
 10
4.1745
 20
5.5971
 30
0.0400
 11
4.1251
 21
5.5375
 31
0.0400
  0
LINE
  5
30
100
AcDbEntity
  8
1
 62
10
100
AcDbLine
 10
4.1251
 20
5.5375
 30
0.0400
 11
4.0707
 21
5.4825
 31
0.0400
  0
LINE
  5
30
100
AcDbEntity
  8
1
 62
10
100
AcDbLine
 10
4.0707
 20
5.4825
 30
0.0400
 11
4.0704
 21
5.4822
 31
0.0400
  0
LINE
  5
30
100
AcDbEntity
  8
1
 62
10
100
AcDbLine
 10
4.0704
 20
5.4822
 30
0.0400
 11
4.0050
 21
5.4238
 31
0.0400
  0
LINE
  5
30
100
AcDbEntity
  8
1
 62
10
100
AcDbLine
 10
4.0050
 20
5.4238
 30
0.0400
 11
4.0040
 21
5.4230
 31
0.0400
  0
LINE
  5
30
100
AcDbEntity
  8
1
 62
10
100
AcDbLine
 10
4.0040
 20
5.4230
 30
0.0400
 11
3.9404
 21
5.3724
 31
0.0400
  0
LINE
  5
30
100
AcDbEntity
  8
1
 62
10
100
AcDbLine
 10
3.9404
 20
5.3724
 30
0.0400
 11
3.9392
 21
5.3715
 31
0.0400
  0
LINE
  5
30
100
AcDbEntity
  8
1
 62
10
100
AcDbLine
 10
3.9392
 20
5.3715
 30
0.0400
 11
3.8749
 21
5.3272
 31
0.0400
  0
LINE
  5
30
100
AcDbEntity
  8
1
 62
10
100
AcDbLine
 10
3.8749
 20
5.3272
 30
0.0400
 11
3.8735
 21
5.3263
 31
0.0400
  0
LINE
  5
30
100
AcDbEntity
  8
1
 62
10
100
AcDbLine
 10
3.8735
 20
5.3263
 30
0.0400
 11
3.8059
 21
5.2869
 31
0.0400
  0
LINE
  5
30
100
AcDbEntity
  8
1
 62
10
100
AcDbLine
 10
3.8059
 20
5.2869
 30
0.0400
 11
3.8045
 21
5.2862
 31
0.0400
  0
LINE
  5
30
100
AcDbEntity
  8
1
 62
10
100
AcDbLine
 10
3.8045
 20
5.2862
 30
0.0400
 11
3.7311
 21
5.2501
 31
0.0400
  0
LINE
  5
30
100
AcDbEntity
  8
1
 62
10
100
AcDbLine
 10
3.7311
 20
5.2501
 30
0.0400
 11
3.7299
 21
5.2496
 31
0.0400
  0
LINE
  5
30
100
AcDbEntity
  8
1
 62
10
100
AcDbLine
 10
3.7299
 20
5.2496
 30
0.0400
 11
3.6480
 21
5.2153
 31
0.0400
  0
LINE
  5
30
100
AcDbEntity
  8
1
 62
10
100
AcDbLine
 10
3.6480
 20
5.2153
 30
0.0400
 11
3.6470
 21
5.2149
 31
0.0400
  0
LINE
  5
30
100
AcDbEntity
  8
1
 62
10
100
AcDbLine
 10
3.6470
 20
5.2149
 30
0.0400
 11
3.5565
 21
5.1818
 31
0.0400
  0
LINE
  5
30
100
AcDbEntity
  8
1
 62
10
100
AcDbLine
 10
3.5565
 20
5.1818
 30
0.0400
 11
3.4319
 21
5.1388
 31
0.0400
  0
LINE
  5
30
100
AcDbEntity
  8
1
 62
10
100
AcDbLine
 10
3.4319
 20
5.1388
 30
0.0400
 11
3.4777
 21
5.1298
 31
0.0400
  0
LINE
  5
30
100
AcDbEntity
  8
1
 62
10
100
AcDbLine
 10
3.4777
 20
5.1298
 30
0.0400
 11
3.4784
 21
5.1296
 31
0.0400
  0
LINE
  5
30
100
AcDbEntity
  8
1
 62
10
100
AcDbLine
 10
3.4784
 20
5.1296
 30
0.0400
 11
3.5248
 21
5.1188
 31
0.0400
  0
LINE
  5
30
100
AcDbEntity
  8
1
 62
10
100
AcDbLine
 10
3.5248
 20
5.1188
 30
0.0400
 11
3.5265
 21
5.1183
 31
0.0400
  0
LINE
  5
30
100
AcDbEntity
  8
1
 62
10
100
AcDbLine
 10
3.5265
 20
5.1183
 30
0.0400
 11
3.5677
 21
5.1052
 31
0.0400
  0
LINE
  5
30
100
AcDbEntity
  8
1
 62
10
100
AcDbLine
 10
3.5677
 20
5.1052
 30
0.0400
 11
3.5679
 21
5.1051
 31
0.0400
  0
LINE
  5
30
100
AcDbEntity
  8
1
 62
10
100
AcDbLine
 10
3.5679
 20
5.1051
 30
0.0400
 11
3.5697
 21
5.1044
 31
0.0400
  0
LINE
  5
30
100
AcDbEntity
  8
1
 62
10
100
AcDbLine
 10
3.5697
 20
5.1044
 30
0.0400
 11
3.6058
 21
5.0890
 31
0.0400
  0
LINE
  5
30
100
AcDbEntity
  8
1
 62
10
100
AcDbLine
 10
3.6058
 20
5.0890
 30
0.0400
 11
3.6063
 21
5.0888
 31
0.0400
  0
LINE
  5
30
100
AcDbEntity
  8
1
 62
10
100
AcDbLine
 10
3.6063
 20
5.0888
 30
0.0400
 11
3.6081
 21
5.0879
 31
0.0400
  0
LINE
  5
30
100
AcDbEntity
  8
1
 62
10
100
AcDbLine
 10
3.6081
 20
5.0879
 30
0.0400
 11
3.6388
 21
5.0704
 31
0.0400
  0
LINE
  5
30
100
AcDbEntity
  8
1
 62
10
100
AcDbLine
 10
3.6388
 20
5.0704
 30
0.0400
 11
3.6398
 21
5.0698
 31
0.0400
  0
LINE
  5
30
100
AcDbEntity
  8
1
 62
10
100
AcDbLine
 10
3.6398
 20
5.0698
 30
0.0400
 11
3.6414
 21
5.0686
 31
0.0400
  0
LINE
  5
30
100
AcDbEntity
  8
1
 62
10
100
AcDbLine
 10
3.6414
 20
5.0686
 30
0.0400
 11
3.6667
 21
5.0490
 31
0.0400
  0
LINE
  5
30
100
AcDbEntity
  8
1
 62
10
100
AcDbLine
 10
3.6667
 20
5.0490
 30
0.0400
 11
3.6673
 21
5.0485
 31
0.0400
  0
LINE
  5
30
100
AcDbEntity
  8
1
 62
10
100
AcDbLine
 10
3.6673
 20
5.0485
 30
0.0400
 11
3.6753
 21
5.0412
 31
0.0400
  0
LINE
  5
30
100
AcDbEntity
  8
1
 62
10
100
AcDbLine
 10
3.6753
 20
5.0412
 30
0.0400
 11
3.6839
 21
5.0321
 31
0.0400
  0
LINE
  5
30
100
AcDbEntity
  8
1
 62
10
100
AcDbLine
 10
3.6839
 20
5.0321
 30
0.0400
 11
3.6916
 21
5.0223
 31
0.0400
  0
LINE
  5
30
100
AcDbEntity
  8
1
 62
10
100
AcDbLine
 10
3.6916
 20
5.0223
 30
0.0400
 11
3.6984
 21
5.0118
 31
0.0400
  0
LINE
  5
30
100
AcDbEntity
  8
1
 62
10
100
AcDbLine
 10
3.6984
 20
5.0118
 30
0.0400
 11
3.7043
 21
5.0008
 31
0.0400
  0
LINE
  5
30
100
AcDbEntity
  8
1
 62
10
100
AcDbLine
 10
3.7043
 20
5.0008
 30
0.0400
 11
3.7093
 21
4.9893
 31
0.0400
  0
LINE
  5
30
100
AcDbEntity
  8
1
 62
10
100
AcDbLine
 10
3.7093
 20
4.9893
 30
0.0400
 11
3.7127
 21
4.9791
 31
0.0400
  0
LINE
  5
30
100
AcDbEntity
  8
1
 62
10
100
AcDbLine
 10
3.7127
 20
4.9791
 30
0.0400
 11
3.7157
 21
4.9670
 31
0.0400
  0
LINE
  5
30
100
AcDbEntity
  8
1
 62
10
100
AcDbLine
 10
3.7157
 20
4.9670
 30
0.0400
 11
3.7177
 21
4.9546
 31
0.0400
  0
LINE
  5
30
100
AcDbEntity
  8
1
 62
10
100
AcDbLine
 10
3.7177
 20
4.9546
 30
0.0400
 11
3.7185
 21
4.9421
 31
0.0400
  0
LINE
  5
30
100
AcDbEntity
  8
1
 62
10
100
AcDbLine
 10
3.7185
 20
4.9421
 30
0.0400
 11
3.7183
 21
4.9296
 31
0.0400
  0
LINE
  5
30
100
AcDbEntity
  8
1
 62
10
100
AcDbLine
 10
3.7183
 20
4.9296
 30
0.0400
 11
3.7169
 21
4.9172
 31
0.0400
  0
LINE
  5
30
100
AcDbEntity
  8
1
 62
10
100
AcDbLine
 10
3.7169
 20
4.9172
 30
0.0400
 11
3.7165
 21
4.9154
 31
0.0400
  0
LINE
  5
30
100
AcDbEntity
  8
1
 62
10
100
AcDbLine
 10
3.7165
 20
4.9154
 30
0.0400
 11
3.7160
 21
4.9135
 31
0.0400
  0
LINE
  5
30
100
AcDbEntity
  8
1
 62
10
100
AcDbLine
 10
3.7160
 20
4.9135
 30
0.0400
 11
3.7103
 21
4.8961
 31
0.0400
  0
LINE
  5
30
100
AcDbEntity
  8
1
 62
10
100
AcDbLine
 10
3.7103
 20
4.8961
 30
0.0400
 11
3.7101
 21
4.8955
 31
0.0400
  0
LINE
  5
30
100
AcDbEntity
  8
1
 62
10
100
AcDbLine
 10
3.7101
 20
4.8955
 30
0.0400
 11
3.7093
 21
4.8936
 31
0.0400
  0
LINE
  5
30
100
AcDbEntity
  8
1
 62
10
100
AcDbLine
 10
3.7093
 20
4.8936
 30
0.0400
 11
3.7084
 21
4.8919
 31
0.0400
  0
LINE
  5
30
100
AcDbEntity
  8
1
 62
10
100
AcDbLine
 10
3.7084
 20
4.8919
 30
0.0400
 11
3.6988
 21
4.8753
 31
0.0400
  0
LINE
  5
30
100
AcDbEntity
  8
1
 62
10
100
AcDbLine
 10
3.6988
 20
4.8753
 30
0.0400
 11
3.6988
 21
4.8752
 31
0.0400
  0
LINE
  5
30
100
AcDbEntity
  8
1
 62
10
100
AcDbLine
 10
3.6988
 20
4.8752
 30
0.0400
 11
3.6977
 21
4.8736
 31
0.0400
  0
LINE
  5
30
100
AcDbEntity
  8
1
 62
10
100
AcDbLine
 10
3.6977
 20
4.8736
 30
0.0400
 11
3.6965
 21
4.8720
 31
0.0400
  0
LINE
  5
30
100
AcDbEntity
  8
1
 62
10
100
AcDbLine
 10
3.6965
 20
4.8720
 30
0.0400
 11
3.6831
 21
4.8563
 31
0.0400
  0
LINE
  5
30
100
AcDbEntity
  8
1
 62
10
100
AcDbLine
 10
3.6831
 20
4.8563
 30
0.0400
 11
3.6819
 21
4.8550
 31
0.0400
  0
LINE
  5
30
100
AcDbEntity
  8
1
 62
10
100
AcDbLine
 10
3.6819
 20
4.8550
 30
0.0400
 11
3.6805
 21
4.8537
 31
0.0400
  0
LINE
  5
30
100
AcDbEntity
  8
1
 62
10
100
AcDbLine
 10
3.6805
 20
4.8537
 30
0.0400
 11
3.6594
 21
4.8361
 31
0.0400
  0
LINE
  5
30
100
AcDbEntity
  8
1
 62
10
100
AcDbLine
 10
3.6594
 20
4.8361
 30
0.0400
 11
3.6584
 21
4.8353
 31
0.0400
  0
LINE
  5
30
100
AcDbEntity
  8
1
 62
10
100
AcDbLine
 10
3.6584
 20
4.8353
 30
0.0400
 11
3.6568
 21
4.8342
 31
0.0400
  0
LINE
  5
30
100
AcDbEntity
  8
1
 62
10
100
AcDbLine
 10
3.6568
 20
4.8342
 30
0.0400
 11
3.6554
 21
4.8333
 31
0.0400
  0
LINE
  5
30
100
AcDbEntity
  8
1
 62
10
100
AcDbLine
 10
3.6554
 20
4.8333
 30
0.0400
 11
3.6471
 21
4.8276
 31
0.0400
  0
LINE
  5
30
100
AcDbEntity
  8
1
 62
10
100
AcDbLine
 10
3.6471
 20
4.8276
 30
0.0400
 11
3.6393
 21
4.8213
 31
0.0400
  0
LINE
  5
30
100
AcDbEntity
  8
1
 62
10
100
AcDbLine
 10
3.6393
 20
4.8213
 30
0.0400
 11
3.6321
 21
4.8143
 31
0.0400
  0
LINE
  5
30
100
AcDbEntity
  8
1
 62
10
100
AcDbLine
 10
3.6321
 20
4.8143
 30
0.0400
 11
3.6256
 21
4.8066
 31
0.0400
  0
LINE
  5
30
100
AcDbEntity
  8
1
 62
10
100
AcDbLine
 10
3.6256
 20
4.8066
 30
0.0400
 11
3.6197
 21
4.7985
 31
0.0400
  0
LINE
  5
30
100
AcDbEntity
  8
1
 62
10
100
AcDbLine
 10
3.6197
 20
4.7985
 30
0.0400
 11
3.6146
 21
4.7898
 31
0.0400
  0
LINE
  5
30
100
AcDbEntity
  8
1
 62
10
100
AcDbLine
 10
3.6146
 20
4.7898
 30
0.0400
 11
3.6102
 21
4.7808
 31
0.0400
  0
LINE
  5
30
100
AcDbEntity
  8
1
 62
10
100
AcDbLine
 10
3.6102
 20
4.7808
 30
0.0400
 11
3.6067
 21
4.7714
 31
0.0400
  0
LINE
  5
30
100
AcDbEntity
  8
1
 62
10
100
AcDbLine
 10
3.6067
 20
4.7714
 30
0.0400
 11
3.6040
 21
4.7617
 31
0.0400
  0
LINE
  5
30
100
AcDbEntity
  8
1
 62
10
100
AcDbLine
 10
3.6040
 20
4.7617
 30
0.0400
 11
3.6021
 21
4.7518
 31
0.0400
  0
LINE
  5
30
100
AcDbEntity
  8
1
 62
10
100
AcDbLine
 10
3.6021
 20
4.7518
 30
0.0400
 11
3.6011
 21
4.7418
 31
0.0400
  0
LINE
  5
30
100
AcDbEntity
  8
1
 62
10
100
AcDbLine
 10
3.6011
 20
4.7418
 30
0.0400
 11
3.6010
 21
4.7318
 31
0.0400
  0
LINE
  5
30
100
AcDbEntity
  8
1
 62
10
100
AcDbLine
 10
3.6010
 20
4.7318
 30
0.0400
 11
3.6017
 21
4.7218
 31
0.0400
  0
LINE
  5
30
100
AcDbEntity
  8
1
 62
10
100
AcDbLine
 10
3.6017
 20
4.7218
 30
0.0400
 11
3.6033
 21
4.7118
 31
0.0400
  0
LINE
  5
30
100
AcDbEntity
  8
1
 62
10
100
AcDbLine
 10
3.6033
 20
4.7118
 30
0.0400
 11
3.6058
 21
4.7021
 31
0.0400
  0
LINE
  5
30
100
AcDbEntity
  8
1
 62
10
100
AcDbLine
 10
3.6058
 20
4.7021
 30
0.0400
 11
3.6091
 21
4.6926
 31
0.0400
  0
LINE
  5
30
100
AcDbEntity
  8
1
 62
10
100
AcDbLine
 10
3.6091
 20
4.6926
 30
0.0400
 11
3.6133
 21
4.6835
 31
0.0400
  0
LINE
  5
30
100
AcDbEntity
  8
1
 62
10
100
AcDbLine
 10
3.6133
 20
4.6835
 30
0.0400
 11
3.6182
 21
4.6747
 31
0.0400
  0
ENDSEC
0
EOF
