  0
SECTION
  2
HEADER
  9
$ACADVER
  1
AC1027
  9
$ACADMAINTVER
 70
   125
  9
$DWGCODEPAGE
  3
ANSI_1252
  9
$REQUIREDVERSIONS
160
                 0
  9
$INSBASE
 10
0.0
 20
0.0
 30
0.0
  9
$EXTMIN
 10
1.000000000000000E+20
 20
1.000000000000000E+20
 30
1.000000000000000E+20
  9
$EXTMAX
 10
-1.000000000000000E+20
 20
-1.000000000000000E+20
 30
-1.000000000000000E+20
  9
$LIMMIN
 10
0.0
 20
0.0
  9
$LIMMAX
 10
12.0
 20
9.0
  9
$ORTHOMODE
 70
     0
  9
$REGENMODE
 70
     1
  9
$FILLMODE
 70
     1
  9
$QTEXTMODE
 70
     0
  9
$MIRRTEXT
 70
     0
  9
$LTSCALE
 40
1.0
  9
$ATTMODE
 70
     1
  9
$TEXTSIZE
 40
0.2
  9
$TRACEWID
 40
0.05
  9
$TEXTSTYLE
  7
Standard
  9
$CLAYER
  8
0
  9
$CELTYPE
  6
ByLayer
  9
$CECOLOR
 62
   256
  9
$CELTSCALE
 40
1.0
  9
$DISPSILH
 70
     0
  9
$DIMSCALE
 40
1.0
  9
$DIMASZ
 40
0.18
  9
$DIMEXO
 40
0.0625
  9
$DIMDLI
 40
0.38
  9
$DIMRND
 40
0.0
  9
$DIMDLE
 40
0.0
  9
$DIMEXE
 40
0.18
  9
$DIMTP
 40
0.0
  9
$DIMTM
 40
0.0
  9
$DIMTXT
 40
0.18
  9
$DIMCEN
 40
0.09
  9
$DIMTSZ
 40
0.0
  9
$DIMTOL
 70
     0
  9
$DIMLIM
 70
     0
  9
$DIMTIH
 70
     1
  9
$DIMTOH
 70
     1
  9
$DIMSE1
 70
     0
  9
$DIMSE2
 70
     0
  9
$DIMTAD
 70
     0
  9
$DIMZIN
 70
     0
  9
$DIMBLK
  1

  9
$DIMASO
 70
     1
  9
$DIMSHO
 70
     1
  9
$DIMPOST
  1

  9
$DIMAPOST
  1

  9
$DIMALT
 70
     0
  9
$DIMALTD
 70
     2
  9
$DIMALTF
 40
25.4
  9
$DIMLFAC
 40
1.0
  9
$DIMTOFL
 70
     0
  9
$DIMTVP
 40
0.0
  9
$DIMTIX
 70
     0
  9
$DIMSOXD
 70
     0
  9
$DIMSAH
 70
     0
  9
$DIMBLK1
  1

  9
$DIMBLK2
  1

  9
$DIMSTYLE
  2
Standard
  9
$DIMCLRD
 70
     0
  9
$DIMCLRE
 70
     0
  9
$DIMCLRT
 70
     0
  9
$DIMTFAC
 40
1.0
  9
$DIMGAP
 40
0.09
  9
$DIMJUST
 70
     0
  9
$DIMSD1
 70
     0
  9
$DIMSD2
 70
     0
  9
$DIMTOLJ
 70
     1
  9
$DIMTZIN
 70
     0
  9
$DIMALTZ
 70
     0
  9
$DIMALTTZ
 70
     0
  9
$DIMUPT
 70
     0
  9
$DIMDEC
 70
     4
  9
$DIMTDEC
 70
     4
  9
$DIMALTU
 70
     2
  9
$DIMALTTD
 70
     2
  9
$DIMTXSTY
  7
Standard
  9
$DIMAUNIT
 70
     0
  9
$DIMADEC
 70
     0
  9
$DIMALTRND
 40
0.0
  9
$DIMAZIN
 70
     0
  9
$DIMDSEP
 70
    46
  9
$DIMATFIT
 70
     3
  9
$DIMFRAC
 70
     0
  9
$DIMLDRBLK
  1

  9
$DIMLUNIT
 70
     2
  9
$DIMLWD
 70
    -2
  9
$DIMLWE
 70
    -2
  9
$DIMTMOVE
 70
     0
  9
$DIMFXL
 40
1.0
  9
$DIMFXLON
 70
     0
  9
$DIMJOGANG
 40
0.7853981633974483
  9
$DIMTFILL
 70
     0
  9
$DIMTFILLCLR
 70
     0
  9
$DIMARCSYM
 70
     0
  9
$DIMLTYPE
  6

  9
$DIMLTEX1
  6

  9
$DIMLTEX2
  6

  9
$DIMTXTDIRECTION
 70
     0
  9
$LUNITS
 70
     2
  9
$LUPREC
 70
     4
  9
$SKETCHINC
 40
0.1
  9
$FILLETRAD
 40
0.0
  9
$AUNITS
 70
     0
  9
$AUPREC
 70
     0
  9
$MENU
  1
.
  9
$ELEVATION
 40
0.0
  9
$PELEVATION
 40
0.0
  9
$THICKNESS
 40
0.0
  9
$LIMCHECK
 70
     0
  9
$CHAMFERA
 40
0.0
  9
$CHAMFERB
 40
0.0
  9
$CHAMFERC
 40
0.0
  9
$CHAMFERD
 40
0.0
  9
$SKPOLY
 70
     0
  9
$TDCREATE
 40
2459555.581493055
  9
$TDUCREATE
 40
2459555.581493055
  9
$TDUPDATE
 40
2459555.581493055
  9
$TDUUPDATE
 40
2459555.581493055
  9
$TDINDWG
 40
0.0000000000
  9
$TDUSRTIMER
 40
0.0000000000
  9
$USRTIMER
 70
     1
  9
$ANGBASE
 50
0.0
  9
$ANGDIR
 70
     0
  9
$PDMODE
 70
     0
  9
$PDSIZE
 40
0.0
  9
$PLINEWID
 40
0.0
  9
$SPLFRAME
 70
     0
  9
$SPLINETYPE
 70
     6
  9
$SPLINESEGS
 70
     8
  9
$HANDSEED
  5
25D
  9
$SURFTAB1
 70
     6
  9
$SURFTAB2
 70
     6
  9
$SURFTYPE
 70
     6
  9
$SURFU
 70
     6
  9
$SURFV
 70
     6
  9
$UCSBASE
  2

  9
$UCSNAME
  2

  9
$UCSORG
 10
0.0
 20
0.0
 30
0.0
  9
$UCSXDIR
 10
1.0
 20
0.0
 30
0.0
  9
$UCSYDIR
 10
0.0
 20
1.0
 30
0.0
  9
$UCSORTHOREF
  2

  9
$UCSORTHOVIEW
 70
     0
  9
$UCSORGTOP
 10
0.0
 20
0.0
 30
0.0
  9
$UCSORGBOTTOM
 10
0.0
 20
0.0
 30
0.0
  9
$UCSORGLEFT
 10
0.0
 20
0.0
 30
0.0
  9
$UCSORGRIGHT
 10
0.0
 20
0.0
 30
0.0
  9
$UCSORGFRONT
 10
0.0
 20
0.0
 30
0.0
  9
$UCSORGBACK
 10
0.0
 20
0.0
 30
0.0
  9
$PUCSBASE
  2

  9
$PUCSNAME
  2

  9
$PUCSORG
 10
0.0
 20
0.0
 30
0.0
  9
$PUCSXDIR
 10
1.0
 20
0.0
 30
0.0
  9
$PUCSYDIR
 10
0.0
 20
1.0
 30
0.0
  9
$PUCSORTHOREF
  2

  9
$PUCSORTHOVIEW
 70
     0
  9
$PUCSORGTOP
 10
0.0
 20
0.0
 30
0.0
  9
$PUCSORGBOTTOM
 10
0.0
 20
0.0
 30
0.0
  9
$PUCSORGLEFT
 10
0.0
 20
0.0
 30
0.0
  9
$PUCSORGRIGHT
 10
0.0
 20
0.0
 30
0.0
  9
$PUCSORGFRONT
 10
0.0
 20
0.0
 30
0.0
  9
$PUCSORGBACK
 10
0.0
 20
0.0
 30
0.0
  9
$USERI1
 70
     0
  9
$USERI2
 70
     0
  9
$USERI3
 70
     0
  9
$USERI4
 70
     0
  9
$USERI5
 70
     0
  9
$USERR1
 40
0.0
  9
$USERR2
 40
0.0
  9
$USERR3
 40
0.0
  9
$USERR4
 40
0.0
  9
$USERR5
 40
0.0
  9
$WORLDVIEW
 70
     1
  9
$SHADEDGE
 70
     3
  9
$SHADEDIF
 70
    70
  9
$TILEMODE
 70
     1
  9
$MAXACTVP
 70
    64
  9
$PINSBASE
 10
0.0
 20
0.0
 30
0.0
  9
$PLIMCHECK
 70
     0
  9
$PEXTMIN
 10
1.000000000000000E+20
 20
1.000000000000000E+20
 30
1.000000000000000E+20
  9
$PEXTMAX
 10
-1.000000000000000E+20
 20
-1.000000000000000E+20
 30
-1.000000000000000E+20
  9
$PLIMMIN
 10
0.0
 20
0.0
  9
$PLIMMAX
 10
12.0
 20
9.0
  9
$UNITMODE
 70
     0
  9
$VISRETAIN
 70
     1
  9
$PLINEGEN
 70
     0
  9
$PSLTSCALE
 70
     1
  9
$TREEDEPTH
 70
  3020
  9
$CMLSTYLE
  2
Standard
  9
$CMLJUST
 70
     0
  9
$CMLSCALE
 40
1.0
  9
$PROXYGRAPHICS
 70
     1
  9
$MEASUREMENT
 70
     0
  9
$CELWEIGHT
370
    -1
  9
$ENDCAPS
280
     0
  9
$JOINSTYLE
280
     0
  9
$LWDISPLAY
290
     0
  9
$INSUNITS
 70
     5
  9
$HYPERLINKBASE
  1

  9
$STYLESHEET
  1

  9
$XEDIT
290
     1
  9
$CEPSNTYPE
380
     0
  9
$PSTYLEMODE
290
     1
  9
$FINGERPRINTGUID
  2
{A695C5DC-0666-4C4D-801F-7F8962C0910B}
  9
$VERSIONGUID
  2
{F882F945-F1C3-6D4F-8CFE-083456E427B9}
  9
$EXTNAMES
290
     1
  9
$PSVPSCALE
 40
0.0
  9
$OLESTARTUP
290
     0
  9
$SORTENTS
280
   127
  9
$INDEXCTL
280
     0
  9
$HIDETEXT
280
     1
  9
$XCLIPFRAME
280
     2
  9
$HALOGAP
280
     0
  9
$OBSCOLOR
 70
   257
  9
$OBSLTYPE
280
     0
  9
$INTERSECTIONDISPLAY
280
     0
  9
$INTERSECTIONCOLOR
 70
   257
  9
$DIMASSOC
280
     2
  9
$PROJECTNAME
  1

  9
$CAMERADISPLAY
290
     0
  9
$LENSLENGTH
 40
50.0
  9
$CAMERAHEIGHT
 40
0.0
  9
$STEPSPERSEC
 40
2.0
  9
$STEPSIZE
 40
6.0
  9
$3DDWFPREC
 40
2.0
  9
$PSOLWIDTH
 40
0.25
  9
$PSOLHEIGHT
 40
4.0
  9
$LOFTANG1
 40
1.570796326794896
  9
$LOFTANG2
 40
1.570796326794896
  9
$LOFTMAG1
 40
0.0
  9
$LOFTMAG2
 40
0.0
  9
$LOFTPARAM
 70
     7
  9
$LOFTNORMALS
280
     1
  9
$LATITUDE
 40
37.795
  9
$LONGITUDE
 40
-122.394
  9
$NORTHDIRECTION
 40
0.0
  9
$TIMEZONE
 70
 -8000
  9
$LIGHTGLYPHDISPLAY
280
     1
  9
$TILEMODELIGHTSYNCH
280
     1
  9
$CMATERIAL
347
11
  9
$SOLIDHIST
280
     0
  9
$SHOWHIST
280
     1
  9
$DWFFRAME
280
     2
  9
$DGNFRAME
280
     0
  9
$REALWORLDSCALE
290
     1
  9
$INTERFERECOLOR
 62
     1
  9
$INTERFEREOBJVS
345
33
  9
$INTERFEREVPVS
346
30
  9
$CSHADOW
280
     0
  9
$SHADOWPLANELOCATION
 40
0.0
  0
ENDSEC
  0
SECTION
  2
CLASSES
  0
CLASS
  1
ACDBDICTIONARYWDFLT
  2
AcDbDictionaryWithDefault
  3
ObjectDBX Classes
 90
        0
 91
        1
280
     0
281
     0
  0
CLASS
  1
MATERIAL
  2
AcDbMaterial
  3
ObjectDBX Classes
 90
     1153
 91
        3
280
     0
281
     0
  0
CLASS
  1
VISUALSTYLE
  2
AcDbVisualStyle
  3
ObjectDBX Classes
 90
     4095
 91
       24
280
     0
281
     0
  0
CLASS
  1
SCALE
  2
AcDbScale
  3
ObjectDBX Classes
 90
     1153
 91
       17
280
     0
281
     0
  0
CLASS
  1
TABLESTYLE
  2
AcDbTableStyle
  3
ObjectDBX Classes
 90
     4095
 91
        1
280
     0
281
     0
  0
CLASS
  1
MLEADERSTYLE
  2
AcDbMLeaderStyle
  3
ACDB_MLEADERSTYLE_CLASS
 90
     4095
 91
        1
280
     0
281
     0
  0
CLASS
  1
ACDBSECTIONVIEWSTYLE
  2
AcDbSectionViewStyle
  3
ObjectDBX Classes
 90
     1025
 91
        1
280
     0
281
     0
  0
CLASS
  1
ACDBDETAILVIEWSTYLE
  2
AcDbDetailViewStyle
  3
ObjectDBX Classes
 90
     1025
 91
        1
280
     0
281
     0
  0
CLASS
  1
DICTIONARYVAR
  2
AcDbDictionaryVar
  3
ObjectDBX Classes
 90
        0
 91
        5
280
     0
281
     0
  0
CLASS
  1
CELLSTYLEMAP
  2
AcDbCellStyleMap
  3
ObjectDBX Classes
 90
     1152
 91
        1
280
     0
281
     0
  0
ENDSEC
  0
SECTION
  2
TABLES
  0
TABLE
  2
VPORT
  5
8
330
0
100
AcDbSymbolTable
 70
     1
1001
ACAD
1000
DbSaveVer
1071
      247
  0
VPORT
  5
57
330
8
100
AcDbSymbolTableRecord
100
AcDbViewportTableRecord
  2
*Active
 70
     0
 10
0.0
 20
0.0
 11
1.0
 21
1.0
 12
500.0
 22
500.0
 13
0.0
 23
0.0
 14
1.0
 24
1.0
 15
0.0
 25
0.0
 16
0.0
 26
0.0
 36
1.0
 17
0.0
 27
0.0
 37
0.0
 40
12.0
 41
1.0
 42
50.0
 43
0.0
 44
0.0
 50
0.0
 51
0.0
 71
     0
 72
   100
 73
     1
 74
     1
 75
     0
 76
     0
 77
     0
 78
     0
281
     0
 65
     1
110
0.0
120
0.0
130
0.0
111
1.0
121
0.0
131
0.0
112
0.0
122
1.0
132
0.0
 79
     0
146
0.0
 60
     3
 61
     5
292
     1
282
     1
141
0.0
142
0.0
 63
   250
421
  3355443
  0
ENDTAB
  0
TABLE
  2
LTYPE
  5
5
330
0
100
AcDbSymbolTable
 70
     1
  0
LTYPE
  5
5B
330
5
100
AcDbSymbolTableRecord
100
AcDbLinetypeTableRecord
  2
ByBlock
 70
     0
  3

 72
    65
 73
     0
 40
0.0
  0
LTYPE
  5
5C
330
5
100
AcDbSymbolTableRecord
100
AcDbLinetypeTableRecord
  2
ByLayer
 70
     0
  3

 72
    65
 73
     0
 40
0.0
  0
LTYPE
  5
5D
330
5
100
AcDbSymbolTableRecord
100
AcDbLinetypeTableRecord
  2
Continuous
 70
     0
  3
Solid line
 72
    65
 73
     0
 40
0.0
  0
ENDTAB
  0
TABLE
  2
LAYER
  5
2
330
0
100
AcDbSymbolTable
 70
     2
  0
LAYER
  5
54
330
2
100
AcDbSymbolTableRecord
100
AcDbLayerTableRecord
  2
0
 70
     0
 62
     7
  6
Continuous
370
    -3
390
F
347
21
348
0
  0
LAYER
  5
7A
330
2
100
AcDbSymbolTableRecord
100
AcDbLayerTableRecord
  2
lageman v1_Sketch1
 70
     0
 62
     7
  6
Continuous
370
    -3
390
F
347
21
348
0
1001
NFusion_SketchTransform
1000
1.000000;0.000000;0.000000;0.000000;0.000000;1.000000;0.000000;0.000000;0.000000;0.000000;1.000000;0.000000;0.000000;0.000000;0.000000;1.000000
  0
ENDTAB
  0
TABLE
  2
STYLE
  5
3
330
0
100
AcDbSymbolTable
 70
     2
  0
STYLE
  5
55
330
3
100
AcDbSymbolTableRecord
100
AcDbTextStyleTableRecord
  2
Standard
 70
     0
 40
0.0
 41
1.0
 50
0.0
 71
     0
 42
0.2
  3
txt
  4

  0
STYLE
  5
5A
330
3
100
AcDbSymbolTableRecord
100
AcDbTextStyleTableRecord
  2
Annotative
 70
     0
 40
0.0
 41
1.0
 50
0.0
 71
     0
 42
0.2
  3
txt
  4

1001
AcadAnnotative
1000
AnnotativeData
1002
{
1070
     1
1070
     1
1002
}
  0
ENDTAB
  0
TABLE
  2
VIEW
  5
6
330
0
100
AcDbSymbolTable
 70
     0
  0
ENDTAB
  0
TABLE
  2
UCS
  5
7
330
0
100
AcDbSymbolTable
 70
     0
  0
ENDTAB
  0
TABLE
  2
APPID
  5
9
330
0
100
AcDbSymbolTable
 70
     4
  0
APPID
  5
56
330
9
100
AcDbSymbolTableRecord
100
AcDbRegAppTableRecord
  2
ACAD
 70
     0
  0
APPID
  5
5E
330
9
100
AcDbSymbolTableRecord
100
AcDbRegAppTableRecord
  2
AcadAnnotative
 70
     0
  0
APPID
  5
78
330
9
100
AcDbSymbolTableRecord
100
AcDbRegAppTableRecord
  2
EDIT_IN_FUSION_ACAD_ADDIN
 70
     0
  0
APPID
  5
79
330
9
100
AcDbSymbolTableRecord
100
AcDbRegAppTableRecord
  2
NFusion_SketchTransform
 70
     0
  0
ENDTAB
  0
TABLE
  2
DIMSTYLE
  5
A
330
0
100
AcDbSymbolTable
 70
     2
100
AcDbDimStyleTable
 71
     0
  0
DIMSTYLE
105
58
330
A
100
AcDbSymbolTableRecord
100
AcDbDimStyleTableRecord
  2
Standard
 70
     0
340
55
  0
DIMSTYLE
105
59
330
A
100
AcDbSymbolTableRecord
100
AcDbDimStyleTableRecord
  2
Annotative
 70
     0
340
55
1001
AcadAnnotative
1000
AnnotativeData
1002
{
1070
     1
1070
     1
1002
}
  0
ENDTAB
  0
TABLE
  2
BLOCK_RECORD
  5
1
330
0
100
AcDbSymbolTable
 70
     1
  0
BLOCK_RECORD
  5
70
330
1
100
AcDbSymbolTableRecord
100
AcDbBlockTableRecord
  2
*Model_Space
340
73
 70
     0
280
     1
281
     0
  0
BLOCK_RECORD
  5
6C
330
1
100
AcDbSymbolTableRecord
100
AcDbBlockTableRecord
  2
*Paper_Space
340
6F
 70
     0
280
     1
281
     0
  0
BLOCK_RECORD
  5
74
330
1
100
AcDbSymbolTableRecord
100
AcDbBlockTableRecord
  2
*Paper_Space0
340
77
 70
     0
280
     1
281
     0
  0
ENDTAB
  0
ENDSEC
  0
SECTION
  2
BLOCKS
  0
BLOCK
  5
71
330
70
100
AcDbEntity
  8
0
100
AcDbBlockBegin
  2
*Model_Space
 70
     0
 10
0.0
 20
0.0
 30
0.0
  3
*Model_Space
  1

  0
ENDBLK
  5
72
330
70
100
AcDbEntity
  8
0
100
AcDbBlockEnd
  0
BLOCK
  5
6D
330
6C
100
AcDbEntity
 67
     1
  8
0
100
AcDbBlockBegin
  2
*Paper_Space
 70
     0
 10
0.0
 20
0.0
 30
0.0
  3
*Paper_Space
  1

  0
ENDBLK
  5
6E
330
6C
100
AcDbEntity
 67
     1
  8
0
100
AcDbBlockEnd
  0
BLOCK
  5
75
330
74
100
AcDbEntity
 67
     1
  8
0
100
AcDbBlockBegin
  2
*Paper_Space0
 70
     0
 10
0.0
 20
0.0
 30
0.0
  3
*Paper_Space0
  1

  0
ENDBLK
  5
76
330
74
100
AcDbEntity
 67
     1
  8
0
100
AcDbBlockEnd
  0
ENDSEC
  0
SECTION
  2
ENTITIES
  0
POINT
  5
7B
330
70
100
AcDbEntity
  8
lageman v1_Sketch1
100
AcDbPoint
 10
0.0
 20
0.0
 30
0.0
  0
SPLINE
  5
7C
330
70
100
AcDbEntity
  8
lageman v1_Sketch1
100
AcDbSpline
210
0.0
220
0.0
230
1.0
 70
    12
 71
     3
 72
     8
 73
     4
 74
     0
 42
0.000000001
 43
0.0000000001
 40
0.0
 40
0.0
 40
0.0
 40
0.0
 40
1.0
 40
1.0
 40
1.0
 40
1.0
 10
33.18933333333334
 20
-29.95506563313803
 30
0.0
 41
1.0
 10
35.09433333333334
 20
-29.59946459960938
 30
0.0
 41
1.0
 10
38.37093436686199
 20
-31.75846459960938
 30
0.0
 41
1.0
 10
37.28719948323568
 20
-33.29093178304037
 30
0.0
 41
1.0
  0
SPLINE
  5
7D
330
70
100
AcDbEntity
  8
lageman v1_Sketch1
100
AcDbSpline
210
0.0
220
0.0
230
1.0
 70
    12
 71
     3
 72
     8
 73
     4
 74
     0
 42
0.000000001
 43
0.0000000001
 40
0.0
 40
0.0
 40
0.0
 40
0.0
 40
1.0
 40
1.0
 40
1.0
 40
1.0
 10
25.62860103352865
 20
-27.38966408284506
 30
0.0
 41
1.0
 10
25.67093436686199
 20
-26.62766408284506
 30
0.0
 41
1.0
 10
25.64553540039063
 20
-26.16199741617839
 30
0.0
 41
1.0
 10
25.2222020670573
 20
-25.68786356608073
 30
0.0
 41
1.0
  0
SPLINE
  5
7E
330
70
100
AcDbEntity
  8
lageman v1_Sketch1
100
AcDbSpline
210
0.0
220
0.0
230
1.0
 70
    12
 71
     3
 72
     8
 73
     4
 74
     0
 42
0.000000001
 43
0.0000000001
 40
0.0
 40
0.0
 40
0.0
 40
0.0
 40
1.0
 40
1.0
 40
1.0
 40
1.0
 10
35.00119689941407
 20
-34.68793436686199
 30
0.0
 41
1.0
 10
33.12159586588542
 20
-34.1122020670573
 30
0.0
 41
1.0
 10
31.31819689941407
 20
-32.56280051676433
 30
0.0
 41
1.0
 10
30.39533074951173
 20
-30.39533333333334
 30
0.0
 41
1.0
  0
SPLINE
  5
7F
330
70
100
AcDbEntity
  8
lageman v1_Sketch1
100
AcDbSpline
210
0.0
220
0.0
230
1.0
 70
    12
 71
     3
 72
     8
 73
     4
 74
     0
 42
0.000000001
 43
0.0000000001
 40
0.0
 40
0.0
 40
0.0
 40
0.0
 40
1.0
 40
1.0
 40
1.0
 40
1.0
 10
29.21846459960938
 20
-30.16673229980469
 30
0.0
 41
1.0
 10
29.44706563313803
 20
-30.64933333333334
 30
0.0
 41
1.0
 10
29.68413126627605
 20
-31.10653281656901
 30
0.0
 41
1.0
 10
29.93813126627605
 20
-31.52986614990235
 30
0.0
 41
1.0
  0
SPLINE
  5
80
330
70
100
AcDbEntity
  8
lageman v1_Sketch1
100
AcDbSpline
210
0.0
220
0.0
230
1.0
 70
    12
 71
     3
 72
     8
 73
     4
 74
     0
 42
0.000000001
 43
0.0000000001
 40
0.0
 40
0.0
 40
0.0
 40
0.0
 40
1.0
 40
1.0
 40
1.0
 40
1.0
 10
27.83839896647136
 20
-49.11513126627605
 30
0.0
 41
1.0
 10
26.94093178304037
 20
-48.48013126627606
 30
0.0
 41
1.0
 10
25.97573229980469
 20
-47.60806563313803
 30
0.0
 41
1.0
 10
24.14693178304037
 20
-46.91379793294271
 30
0.0
 41
1.0
  0
SPLINE
  5
81
330
70
100
AcDbEntity
  8
lageman v1_Sketch1
100
AcDbSpline
210
0.0
220
0.0
230
1.0
 70
    12
 71
     3
 72
     8
 73
     4
 74
     0
 42
0.000000001
 43
0.0000000001
 40
0.0
 40
0.0
 40
0.0
 40
0.0
 40
1.0
 40
1.0
 40
1.0
 40
1.0
 10
24.38400000000001
 20
-23.68973229980469
 30
0.0
 41
1.0
 10
25.95880051676433
 20
-24.54486614990235
 30
0.0
 41
1.0
 10
27.43200000000001
 20
-26.4752651163737
 30
0.0
 41
1.0
 10
27.89766666666667
 20
-27.7452651163737
 30
0.0
 41
1.0
  0
SPLINE
  5
82
330
70
100
AcDbEntity
  8
lageman v1_Sketch1
100
AcDbSpline
210
0.0
220
0.0
230
1.0
 70
    12
 71
     3
 72
     8
 73
     4
 74
     0
 42
0.000000001
 43
0.0000000001
 40
0.0
 40
0.0
 40
0.0
 40
0.0
 40
1.0
 40
1.0
 40
1.0
 40
1.0
 10
25.2222020670573
 20
-25.68786356608073
 30
0.0
 41
1.0
 10
24.76500258382162
 20
-25.17139638264974
 30
0.0
 41
1.0
 10
24.22313643391928
 20
-24.96819689941407
 30
0.0
 41
1.0
 10
23.81673488362631
 20
-25.02746459960938
 30
0.0
 41
1.0
  0
SPLINE
  5
83
330
70
100
AcDbEntity
  8
lageman v1_Sketch1
100
AcDbSpline
210
0.0
220
0.0
230
1.0
 70
    12
 71
     3
 72
     8
 73
     4
 74
     0
 42
0.000000001
 43
0.0000000001
 40
0.0
 40
0.0
 40
0.0
 40
0.0
 40
1.0
 40
1.0
 40
1.0
 40
1.0
 10
23.81673488362631
 20
-25.02746459960938
 30
0.0
 41
1.0
 10
23.86753281656901
 20
-24.72266666666667
 30
0.0
 41
1.0
 10
23.95219948323568
 20
-24.44326770019532
 30
0.0
 41
1.0
 10
24.07073229980469
 20
-24.17233333333334
 30
0.0
 41
1.0
  0
SPLINE
  5
84
330
70
100
AcDbEntity
  8
lageman v1_Sketch1
100
AcDbSpline
210
0.0
220
0.0
230
1.0
 70
    12
 71
     3
 72
     8
 73
     4
 74
     0
 42
0.000000001
 43
0.0000000001
 40
0.0
 40
0.0
 40
0.0
 40
0.0
 40
1.0
 40
1.0
 40
1.0
 40
1.0
 10
26.39906563313803
 20
-49.30986873372397
 30
0.0
 41
1.0
 10
26.84779793294271
 20
-49.61466666666668
 30
0.0
 41
1.0
 10
27.2457322998047
 20
-49.96180310058594
 30
0.0
 41
1.0
 10
27.70293178304037
 20
-50.24966666666667
 30
0.0
 41
1.0
  0
SPLINE
  5
85
330
70
100
AcDbEntity
  8
lageman v1_Sketch1
100
AcDbSpline
210
0.0
220
0.0
230
1.0
 70
    12
 71
     3
 72
     8
 73
     4
 74
     0
 42
0.000000001
 43
0.0000000001
 40
0.0
 40
0.0
 40
0.0
 40
0.0
 40
1.0
 40
1.0
 40
1.0
 40
1.0
 10
24.83273229980469
 20
-26.94939896647136
 30
0.0
 41
1.0
 10
24.62953281656901
 20
-26.89013126627605
 30
0.0
 41
1.0
 10
24.29933333333334
 20
-26.66153281656902
 30
0.0
 41
1.0
 10
24.17233333333334
 20
-26.54300000000001
 30
0.0
 41
1.0
  0
SPLINE
  5
86
330
70
100
AcDbEntity
  8
lageman v1_Sketch1
100
AcDbSpline
210
0.0
220
0.0
230
1.0
 70
    12
 71
     3
 72
     8
 73
     4
 74
     0
 42
0.000000001
 43
0.0000000001
 40
0.0
 40
0.0
 40
0.0
 40
0.0
 40
1.0
 40
1.0
 40
1.0
 40
1.0
 10
37.10093178304037
 20
-30.50539896647136
 30
0.0
 41
1.0
 10
36.00873229980469
 20
-29.54866666666667
 30
0.0
 41
1.0
 10
35.47533074951173
 20
-29.32006563313803
 30
0.0
 41
1.0
 10
33.74813126627605
 20
-29.13379793294271
 30
0.0
 41
1.0
  0
SPLINE
  5
87
330
70
100
AcDbEntity
  8
lageman v1_Sketch1
100
AcDbSpline
210
0.0
220
0.0
230
1.0
 70
    12
 71
     3
 72
     8
 73
     4
 74
     0
 42
0.000000001
 43
0.0000000001
 40
0.0
 40
0.0
 40
0.0
 40
0.0
 40
1.0
 40
1.0
 40
1.0
 40
1.0
 10
30.01433333333334
 20
-49.53000000000001
 30
0.0
 41
1.0
 10
29.853467183431
 20
-49.67393436686198
 30
0.0
 41
1.0
 10
29.68413385009766
 20
-49.81786873372397
 30
0.0
 41
1.0
 10
29.52326770019532
 20
-49.97026770019532
 30
0.0
 41
1.0
  0
LINE
  5
88
330
70
100
AcDbEntity
  8
lageman v1_Sketch1
100
AcDbLine
 10
26.2382020670573
 20
-36.03413126627605
 30
0.0
 11
27.35580051676433
 21
-36.03413385009766
 31
0.0
  0
SPLINE
  5
89
330
70
100
AcDbEntity
  8
lageman v1_Sketch1
100
AcDbSpline
210
0.0
220
0.0
230
1.0
 70
    12
 71
     3
 72
     8
 73
     4
 74
     0
 42
0.000000001
 43
0.0000000001
 40
0.0
 40
0.0
 40
0.0
 40
0.0
 40
1.0
 40
1.0
 40
1.0
 40
1.0
 10
25.24760103352865
 20
-27.94
 30
0.0
 41
1.0
 10
26.22973488362631
 20
-28.321
 30
0.0
 41
1.0
 10
27.41506821695964
 20
-28.47339896647136
 30
0.0
 41
1.0
 10
28.3972020670573
 20
-28.47339896647136
 30
0.0
 41
1.0
  0
SPLINE
  5
8A
330
70
100
AcDbEntity
  8
lageman v1_Sketch1
100
AcDbSpline
210
0.0
220
0.0
230
1.0
 70
    12
 71
     3
 72
     8
 73
     4
 74
     0
 42
0.000000001
 43
0.0000000001
 40
0.0
 40
0.0
 40
0.0
 40
0.0
 40
1.0
 40
1.0
 40
1.0
 40
1.0
 10
24.79039896647136
 20
-30.87793178304037
 30
0.0
 41
1.0
 10
26.95786614990235
 20
-30.9202651163737
 30
0.0
 41
1.0
 10
28.08393178304037
 20
-30.25986614990235
 30
0.0
 41
1.0
 10
29.21846459960938
 20
-30.16673229980469
 30
0.0
 41
1.0
  0
SPLINE
  5
8B
330
70
100
AcDbEntity
  8
lageman v1_Sketch1
100
AcDbSpline
210
0.0
220
0.0
230
1.0
 70
    12
 71
     3
 72
     8
 73
     4
 74
     0
 42
0.000000001
 43
0.0000000001
 40
0.0
 40
0.0
 40
0.0
 40
0.0
 40
1.0
 40
1.0
 40
1.0
 40
1.0
 10
28.75280310058594
 20
-29.37933333333334
 30
0.0
 41
1.0
 10
27.17800258382162
 20
-29.6587322998047
 30
0.0
 41
1.0
 10
25.50160361735027
 20
-30.25139896647136
 30
0.0
 41
1.0
 10
23.74900258382162
 20
-30.07360103352865
 30
0.0
 41
1.0
  0
SPLINE
  5
8C
330
70
100
AcDbEntity
  8
lageman v1_Sketch1
100
AcDbSpline
210
0.0
220
0.0
230
1.0
 70
    12
 71
     3
 72
     8
 73
     4
 74
     0
 42
0.000000001
 43
0.0000000001
 40
0.0
 40
0.0
 40
0.0
 40
0.0
 40
1.0
 40
1.0
 40
1.0
 40
1.0
 10
30.58160103352865
 20
-45.82160103352864
 30
0.0
 41
1.0
 10
30.53080051676433
 20
-45.96553540039063
 30
0.0
 41
1.0
 10
30.44613385009766
 20
-46.14333333333334
 30
0.0
 41
1.0
 10
30.32760103352865
 20
-46.27033333333334
 30
0.0
 41
1.0
  0
LINE
  5
8D
330
70
100
AcDbEntity
  8
lageman v1_Sketch1
100
AcDbLine
 10
38.0915302327474
 20
-34.68793436686198
 30
0.0
 11
35.00119689941407
 21
-34.68793436686199
 31
0.0
  0
SPLINE
  5
8E
330
70
100
AcDbEntity
  8
lageman v1_Sketch1
100
AcDbSpline
210
0.0
220
0.0
230
1.0
 70
    12
 71
     3
 72
     8
 73
     4
 74
     0
 42
0.000000001
 43
0.0000000001
 40
0.0
 40
0.0
 40
0.0
 40
0.0
 40
1.0
 40
1.0
 40
1.0
 40
1.0
 10
28.15166666666667
 20
-48.51400000000001
 30
0.0
 41
1.0
 10
28.68506563313803
 20
-48.8442020670573
 30
0.0
 41
1.0
 10
29.36239896647136
 20
-49.19979793294271
 30
0.0
 41
1.0
 10
30.01433333333334
 20
-49.53000000000001
 30
0.0
 41
1.0
  0
LINE
  5
8F
330
70
100
AcDbEntity
  8
lageman v1_Sketch1
100
AcDbLine
 10
26.25513643391928
 20
-37.86293178304037
 30
0.0
 11
26.2382020670573
 21
-36.03413126627605
 31
0.0
  0
SPLINE
  5
90
330
70
100
AcDbEntity
  8
lageman v1_Sketch1
100
AcDbSpline
210
0.0
220
0.0
230
1.0
 70
    12
 71
     3
 72
     8
 73
     4
 74
     0
 42
0.000000001
 43
0.0000000001
 40
0.0
 40
0.0
 40
0.0
 40
0.0
 40
1.0
 40
1.0
 40
1.0
 40
1.0
 10
30.32760103352865
 20
-46.27033333333334
 30
0.0
 41
1.0
 10
30.16673488362631
 20
-46.43966666666667
 30
0.0
 41
1.0
 10
29.94660103352865
 20
-46.54126770019532
 30
0.0
 41
1.0
 10
29.82806821695964
 20
-46.38886873372396
 30
0.0
 41
1.0
  0
SPLINE
  5
91
330
70
100
AcDbEntity
  8
lageman v1_Sketch1
100
AcDbSpline
210
0.0
220
0.0
230
1.0
 70
    12
 71
     3
 72
     8
 73
     4
 74
     0
 42
0.000000001
 43
0.0000000001
 40
0.0
 40
0.0
 40
0.0
 40
0.0
 40
1.0
 40
1.0
 40
1.0
 40
1.0
 10
28.21093178304037
 20
-51.16406563313803
 30
0.0
 41
1.0
 10
27.33886614990235
 20
-50.82539896647136
 30
0.0
 41
1.0
 10
26.24666408284506
 20
-50.52906563313803
 30
0.0
 41
1.0
 10
25.23913126627605
 20
-50.52906563313803
 30
0.0
 41
1.0
  0
SPLINE
  5
92
330
70
100
AcDbEntity
  8
lageman v1_Sketch1
100
AcDbSpline
210
0.0
220
0.0
230
1.0
 70
    12
 71
     3
 72
     8
 73
     4
 74
     0
 42
0.000000001
 43
0.0000000001
 40
0.0
 40
0.0
 40
0.0
 40
0.0
 40
1.0
 40
1.0
 40
1.0
 40
1.0
 10
29.91273488362631
 20
-46.06713643391928
 30
0.0
 41
1.0
 10
30.099
 20
-45.88933333333334
 30
0.0
 41
1.0
 10
30.35300000000001
 20
-45.78773229980469
 30
0.0
 41
1.0
 10
30.58160103352865
 20
-45.82160103352864
 30
0.0
 41
1.0
  0
SPLINE
  5
93
330
70
100
AcDbEntity
  8
lageman v1_Sketch1
100
AcDbSpline
210
0.0
220
0.0
230
1.0
 70
    12
 71
     3
 72
     8
 73
     4
 74
     0
 42
0.000000001
 43
0.0000000001
 40
0.0
 40
0.0
 40
0.0
 40
0.0
 40
1.0
 40
1.0
 40
1.0
 40
1.0
 10
34.03600000000001
 20
-41.59673229980469
 30
0.0
 41
1.0
 10
34.03600000000001
 20
-41.50359844970703
 30
0.0
 41
1.0
 10
34.044467183431
 20
-41.41046459960938
 30
0.0
 41
1.0
 10
34.05293436686199
 20
-41.31733333333333
 30
0.0
 41
1.0
  0
SPLINE
  5
94
330
70
100
AcDbEntity
  8
lageman v1_Sketch1
100
AcDbSpline
210
0.0
220
0.0
230
1.0
 70
    12
 71
     3
 72
     8
 73
     4
 74
     0
 42
0.000000001
 43
0.0000000001
 40
0.0
 40
0.0
 40
0.0
 40
0.0
 40
1.0
 40
1.0
 40
1.0
 40
1.0
 10
37.28719948323568
 20
-33.29093178304037
 30
0.0
 41
1.0
 10
36.38973229980469
 20
-34.13760103352866
 30
0.0
 41
1.0
 10
32.71519948323569
 20
-33.13853281656902
 30
0.0
 41
1.0
 10
33.18933333333334
 20
-29.95506563313803
 30
0.0
 41
1.0
  0
SPLINE
  5
95
330
70
100
AcDbEntity
  8
lageman v1_Sketch1
100
AcDbSpline
210
0.0
220
0.0
230
1.0
 70
    12
 71
     3
 72
     8
 73
     4
 74
     0
 42
0.000000001
 43
0.0000000001
 40
0.0
 40
0.0
 40
0.0
 40
0.0
 40
1.0
 40
1.0
 40
1.0
 40
1.0
 10
38.77733074951173
 20
-34.37466666666667
 30
0.0
 41
1.0
 10
38.55719689941407
 20
-34.50166666666667
 30
0.0
 41
1.0
 10
38.32859844970704
 20
-34.60326770019532
 30
0.0
 41
1.0
 10
38.0915302327474
 20
-34.68793436686199
 30
0.0
 41
1.0
  0
SPLINE
  5
96
330
70
100
AcDbEntity
  8
lageman v1_Sketch1
100
AcDbSpline
210
0.0
220
0.0
230
1.0
 70
    12
 71
     3
 72
     8
 73
     4
 74
     0
 42
0.000000001
 43
0.0000000001
 40
0.0
 40
0.0
 40
0.0
 40
0.0
 40
1.0
 40
1.0
 40
1.0
 40
1.0
 10
32.00400000000001
 20
-29.90426770019532
 30
0.0
 41
1.0
 10
31.74153281656902
 20
-31.49600000000001
 30
0.0
 41
1.0
 10
32.60513385009767
 20
-32.86760103352865
 30
0.0
 41
1.0
 10
33.98519948323568
 20
-33.65500000000001
 30
0.0
 41
1.0
  0
SPLINE
  5
97
330
70
100
AcDbEntity
  8
lageman v1_Sketch1
100
AcDbSpline
210
0.0
220
0.0
230
1.0
 70
    12
 71
     3
 72
     8
 73
     4
 74
     0
 42
0.000000001
 43
0.0000000001
 40
0.0
 40
0.0
 40
0.0
 40
0.0
 40
1.0
 40
1.0
 40
1.0
 40
1.0
 10
26.84780051676433
 20
-47.5742020670573
 30
0.0
 41
1.0
 10
27.29653281656902
 20
-47.87900000000001
 30
0.0
 41
1.0
 10
27.69446718343099
 20
-48.22613643391928
 30
0.0
 41
1.0
 10
28.15166666666667
 20
-48.51400000000001
 30
0.0
 41
1.0
  0
SPLINE
  5
98
330
70
100
AcDbEntity
  8
lageman v1_Sketch1
100
AcDbSpline
210
0.0
220
0.0
230
1.0
 70
    12
 71
     3
 72
     8
 73
     4
 74
     0
 42
0.000000001
 43
0.0000000001
 40
0.0
 40
0.0
 40
0.0
 40
0.0
 40
1.0
 40
1.0
 40
1.0
 40
1.0
 10
29.82806821695964
 20
-46.38886873372396
 30
0.0
 41
1.0
 10
29.77726770019532
 20
-46.32113643391927
 30
0.0
 41
1.0
 10
29.76880051676433
 20
-46.21953540039063
 30
0.0
 41
1.0
 10
29.91273488362631
 20
-46.06713643391928
 30
0.0
 41
1.0
  0
SPLINE
  5
99
330
70
100
AcDbEntity
  8
lageman v1_Sketch1
100
AcDbSpline
210
0.0
220
0.0
230
1.0
 70
    12
 71
     3
 72
     8
 73
     4
 74
     0
 42
0.000000001
 43
0.0000000001
 40
0.0
 40
0.0
 40
0.0
 40
0.0
 40
1.0
 40
1.0
 40
1.0
 40
1.0
 10
30.39533074951173
 20
-30.39533333333334
 30
0.0
 41
1.0
 10
30.35299741617839
 20
-30.24293436686198
 30
0.0
 41
1.0
 10
30.29372971598308
 20
-30.099
 30
0.0
 41
1.0
 10
30.23446459960938
 20
-29.95506563313803
 30
0.0
 41
1.0
  0
LINE
  5
9A
330
70
100
AcDbEntity
  8
lageman v1_Sketch1
100
AcDbLine
 10
23.74899741617839
 20
-49.25906563313803
 30
0.0
 11
23.74900000000001
 21
-47.72660103352865
 31
0.0
  0
LINE
  5
9B
330
70
100
AcDbEntity
  8
lageman v1_Sketch1
100
AcDbLine
 10
30.23446459960938
 20
-29.95506563313803
 30
0.0
 11
32.00400000000001
 21
-29.90426770019532
 31
0.0
  0
SPLINE
  5
9C
330
70
100
AcDbEntity
  8
lageman v1_Sketch1
100
AcDbSpline
210
0.0
220
0.0
230
1.0
 70
    12
 71
     3
 72
     8
 73
     4
 74
     0
 42
0.000000001
 43
0.0000000001
 40
0.0
 40
0.0
 40
0.0
 40
0.0
 40
1.0
 40
1.0
 40
1.0
 40
1.0
 10
27.89766666666667
 20
-27.7452651163737
 30
0.0
 41
1.0
 10
26.98326770019532
 20
-27.75373229980469
 30
0.0
 41
1.0
 10
26.44139896647136
 20
-27.6267322998047
 30
0.0
 41
1.0
 10
25.62860103352865
 20
-27.38966408284506
 30
0.0
 41
1.0
  0
SPLINE
  5
9D
330
70
100
AcDbEntity
  8
lageman v1_Sketch1
100
AcDbSpline
210
0.0
220
0.0
230
1.0
 70
    12
 71
     3
 72
     8
 73
     4
 74
     0
 42
0.000000001
 43
0.0000000001
 40
0.0
 40
0.0
 40
0.0
 40
0.0
 40
1.0
 40
1.0
 40
1.0
 40
1.0
 10
25.23913126627605
 20
-50.52906563313803
 30
0.0
 41
1.0
 10
25.04439896647136
 20
-49.75013126627604
 30
0.0
 41
1.0
 10
24.4432651163737
 20
-49.38606563313803
 30
0.0
 41
1.0
 10
23.74899741617839
 20
-49.25906563313803
 30
0.0
 41
1.0
  0
LINE
  5
9E
330
70
100
AcDbEntity
  8
lageman v1_Sketch1
100
AcDbLine
 10
23.74053281656901
 20
-46.77833333333334
 30
0.0
 11
23.74053281656902
 21
-45.7962020670573
 31
0.0
  0
SPLINE
  5
9F
330
70
100
AcDbEntity
  8
lageman v1_Sketch1
100
AcDbSpline
210
0.0
220
0.0
230
1.0
 70
    12
 71
     3
 72
     8
 73
     4
 74
     0
 42
0.000000001
 43
0.0000000001
 40
0.0
 40
0.0
 40
0.0
 40
0.0
 40
1.0
 40
1.0
 40
1.0
 40
1.0
 10
24.17233333333334
 20
-26.54300000000001
 30
0.0
 41
1.0
 10
23.95219948323568
 20
-26.34826770019532
 30
0.0
 41
1.0
 10
23.84213385009766
 20
-26.12813385009766
 30
0.0
 41
1.0
 10
23.79980051676433
 20
-25.73019948323568
 30
0.0
 41
1.0
  0
SPLINE
  5
A0
330
70
100
AcDbEntity
  8
lageman v1_Sketch1
100
AcDbSpline
210
0.0
220
0.0
230
1.0
 70
    12
 71
     3
 72
     8
 73
     4
 74
     0
 42
0.000000001
 43
0.0000000001
 40
0.0
 40
0.0
 40
0.0
 40
0.0
 40
1.0
 40
1.0
 40
1.0
 40
1.0
 10
23.74053281656902
 20
-45.7962020670573
 30
0.0
 41
1.0
 10
24.87506563313802
 20
-46.228
 30
0.0
 41
1.0
 10
25.88259844970704
 20
-46.90533333333333
 30
0.0
 41
1.0
 10
26.84780051676433
 20
-47.5742020670573
 30
0.0
 41
1.0
  0
SPLINE
  5
A1
330
70
100
AcDbEntity
  8
lageman v1_Sketch1
100
AcDbSpline
210
0.0
220
0.0
230
1.0
 70
    12
 71
     3
 72
     8
 73
     4
 74
     0
 42
0.000000001
 43
0.0000000001
 40
0.0
 40
0.0
 40
0.0
 40
0.0
 40
1.0
 40
1.0
 40
1.0
 40
1.0
 10
23.79980051676433
 20
-25.73019948323568
 30
0.0
 41
1.0
 10
24.49406563313802
 20
-25.83180051676433
 30
0.0
 41
1.0
 10
24.73113385009766
 20
-26.22126770019532
 30
0.0
 41
1.0
 10
24.83273229980469
 20
-26.94939896647136
 30
0.0
 41
1.0
  0
LINE
  5
A2
330
70
100
AcDbEntity
  8
lageman v1_Sketch1
100
AcDbLine
 10
36.12726770019532
 20
-40.18280051676433
 30
0.0
 11
36.35586873372397
 21
-41.16493436686198
 31
0.0
  0
SPLINE
  5
A3
330
70
100
AcDbEntity
  8
lageman v1_Sketch1
100
AcDbSpline
210
0.0
220
0.0
230
1.0
 70
    12
 71
     3
 72
     8
 73
     4
 74
     0
 42
0.000000001
 43
0.0000000001
 40
0.0
 40
0.0
 40
0.0
 40
0.0
 40
1.0
 40
1.0
 40
1.0
 40
1.0
 10
36.44900258382163
 20
-41.57980051676433
 30
0.0
 41
1.0
 10
36.4659369506836
 20
-41.664467183431
 30
0.0
 41
1.0
 10
36.47440155029297
 20
-41.7237348836263
 30
0.0
 41
1.0
 10
36.47440155029297
 20
-41.76606821695965
 30
0.0
 41
1.0
  0
SPLINE
  5
A4
330
70
100
AcDbEntity
  8
lageman v1_Sketch1
100
AcDbSpline
210
0.0
220
0.0
230
1.0
 70
    12
 71
     3
 72
     8
 73
     4
 74
     0
 42
0.000000001
 43
0.0000000001
 40
0.0
 40
0.0
 40
0.0
 40
0.0
 40
1.0
 40
1.0
 40
1.0
 40
1.0
 10
33.74813126627605
 20
-29.13379793294271
 30
0.0
 41
1.0
 10
34.18839896647136
 20
-28.52419689941407
 30
0.0
 41
1.0
 10
35.34833074951173
 20
-28.22786356608073
 30
0.0
 41
1.0
 10
36.35586356608074
 20
-28.30406563313803
 30
0.0
 41
1.0
  0
SPLINE
  5
A5
330
70
100
AcDbEntity
  8
lageman v1_Sketch1
100
AcDbSpline
210
0.0
220
0.0
230
1.0
 70
    12
 71
     3
 72
     8
 73
     4
 74
     0
 42
0.000000001
 43
0.0000000001
 40
0.0
 40
0.0
 40
0.0
 40
0.0
 40
1.0
 40
1.0
 40
1.0
 40
1.0
 10
34.05293436686199
 20
-41.31733333333333
 30
0.0
 41
1.0
 10
34.06986873372396
 20
-41.22419948323568
 30
0.0
 41
1.0
 10
34.08680051676433
 20
-41.12260103352865
 30
0.0
 41
1.0
 10
34.1122020670573
 20
-41.02946718343099
 30
0.0
 41
1.0
  0
SPLINE
  5
A6
330
70
100
AcDbEntity
  8
lageman v1_Sketch1
100
AcDbSpline
210
0.0
220
0.0
230
1.0
 70
    12
 71
     3
 72
     8
 73
     4
 74
     0
 42
0.000000001
 43
0.0000000001
 40
0.0
 40
0.0
 40
0.0
 40
0.0
 40
1.0
 40
1.0
 40
1.0
 40
1.0
 10
36.35586356608074
 20
-28.30406563313803
 30
0.0
 41
1.0
 10
38.94666408284506
 20
-28.49879793294272
 30
0.0
 41
1.0
 10
41.17339638264975
 20
-32.99459844970704
 30
0.0
 41
1.0
 10
38.77733074951173
 20
-34.37466666666667
 30
0.0
 41
1.0
  0
SPLINE
  5
A7
330
70
100
AcDbEntity
  8
lageman v1_Sketch1
100
AcDbSpline
210
0.0
220
0.0
230
1.0
 70
    12
 71
     3
 72
     8
 73
     4
 74
     0
 42
0.000000001
 43
0.0000000001
 40
0.0
 40
0.0
 40
0.0
 40
0.0
 40
1.0
 40
1.0
 40
1.0
 40
1.0
 10
24.07073229980469
 20
-24.17233333333334
 30
0.0
 41
1.0
 10
24.14693178304037
 20
-23.99453281656902
 30
0.0
 41
1.0
 10
24.24853281656901
 20
-23.83366666666667
 30
0.0
 41
1.0
 10
24.38400000000001
 20
-23.68973229980469
 30
0.0
 41
1.0
  0
SPLINE
  5
A8
330
70
100
AcDbEntity
  8
lageman v1_Sketch1
100
AcDbSpline
210
0.0
220
0.0
230
1.0
 70
    12
 71
     3
 72
     8
 73
     4
 74
     0
 42
0.000000001
 43
0.0000000001
 40
0.0
 40
0.0
 40
0.0
 40
0.0
 40
1.0
 40
1.0
 40
1.0
 40
1.0
 10
23.74900000000001
 20
-27.16106563313803
 30
0.0
 41
1.0
 10
23.98606563313803
 20
-27.42353281656902
 30
0.0
 41
1.0
 10
24.26546718343099
 20
-27.6267322998047
 30
0.0
 41
1.0
 10
24.519467183431
 20
-27.69446459960938
 30
0.0
 41
1.0
  0
LINE
  5
A9
330
70
100
AcDbEntity
  8
lageman v1_Sketch1
100
AcDbLine
 10
23.749
 20
-27.81299741617839
 30
0.0
 11
23.74900000000001
 21
-27.16106563313803
 31
0.0
  0
SPLINE
  5
AA
330
70
100
AcDbEntity
  8
lageman v1_Sketch1
100
AcDbSpline
210
0.0
220
0.0
230
1.0
 70
    12
 71
     3
 72
     8
 73
     4
 74
     0
 42
0.000000001
 43
0.0000000001
 40
0.0
 40
0.0
 40
0.0
 40
0.0
 40
1.0
 40
1.0
 40
1.0
 40
1.0
 10
33.98519948323568
 20
-33.65500000000001
 30
0.0
 41
1.0
 10
34.91653281656902
 20
-34.17993436686199
 30
0.0
 41
1.0
 10
36.72839896647136
 20
-34.58633333333335
 30
0.0
 41
1.0
 10
37.61739896647136
 20
-33.72273229980469
 30
0.0
 41
1.0
  0
SPLINE
  5
AB
330
70
100
AcDbEntity
  8
lageman v1_Sketch1
100
AcDbSpline
210
0.0
220
0.0
230
1.0
 70
    12
 71
     3
 72
     8
 73
     4
 74
     0
 42
0.000000001
 43
0.0000000001
 40
0.0
 40
0.0
 40
0.0
 40
0.0
 40
1.0
 40
1.0
 40
1.0
 40
1.0
 10
23.74900000000001
 20
-28.65119948323568
 30
0.0
 41
1.0
 10
24.31626770019532
 20
-28.66813385009766
 30
0.0
 41
1.0
 10
24.85813385009767
 20
-28.48186614990235
 30
0.0
 41
1.0
 10
25.24760103352865
 20
-27.94
 30
0.0
 41
1.0
  0
SPLINE
  5
AC
330
70
100
AcDbEntity
  8
lageman v1_Sketch1
100
AcDbSpline
210
0.0
220
0.0
230
1.0
 70
    12
 71
     3
 72
     8
 73
     4
 74
     0
 42
0.000000001
 43
0.0000000001
 40
0.0
 40
0.0
 40
0.0
 40
0.0
 40
1.0
 40
1.0
 40
1.0
 40
1.0
 10
27.70293178304037
 20
-50.24966666666667
 30
0.0
 41
1.0
 10
27.96539896647136
 20
-50.41900000000001
 30
0.0
 41
1.0
 10
28.27019948323568
 20
-50.58833333333335
 30
0.0
 41
1.0
 10
28.59193178304037
 20
-50.75766666666667
 30
0.0
 41
1.0
  0
SPLINE
  5
AD
330
70
100
AcDbEntity
  8
lageman v1_Sketch1
100
AcDbSpline
210
0.0
220
0.0
230
1.0
 70
    12
 71
     3
 72
     8
 73
     4
 74
     0
 42
0.000000001
 43
0.0000000001
 40
0.0
 40
0.0
 40
0.0
 40
0.0
 40
1.0
 40
1.0
 40
1.0
 40
1.0
 10
24.14693178304037
 20
-46.91379793294271
 30
0.0
 41
1.0
 10
24.02839896647136
 20
-46.87146459960938
 30
0.0
 41
1.0
 10
23.89293178304037
 20
-46.82913126627605
 30
0.0
 41
1.0
 10
23.74053281656902
 20
-46.77833333333334
 30
0.0
 41
1.0
  0
SPLINE
  5
AE
330
70
100
AcDbEntity
  8
lageman v1_Sketch1
100
AcDbSpline
210
0.0
220
0.0
230
1.0
 70
    12
 71
     3
 72
     8
 73
     4
 74
     0
 42
0.000000001
 43
0.0000000001
 40
0.0
 40
0.0
 40
0.0
 40
0.0
 40
1.0
 40
1.0
 40
1.0
 40
1.0
 10
28.3972020670573
 20
-28.47339896647136
 30
0.0
 41
1.0
 10
28.54960103352865
 20
-28.80359844970703
 30
0.0
 41
1.0
 10
28.55806821695964
 20
-28.8882651163737
 30
0.0
 41
1.0
 10
28.75280310058594
 20
-29.37933333333334
 30
0.0
 41
1.0
  0
SPLINE
  5
AF
330
70
100
AcDbEntity
  8
lageman v1_Sketch1
100
AcDbSpline
210
0.0
220
0.0
230
1.0
 70
    12
 71
     3
 72
     8
 73
     4
 74
     0
 42
0.000000001
 43
0.0000000001
 40
0.0
 40
0.0
 40
0.0
 40
0.0
 40
1.0
 40
1.0
 40
1.0
 40
1.0
 10
28.59193178304037
 20
-50.75766666666667
 30
0.0
 41
1.0
 10
28.44799741617839
 20
-50.91006563313803
 30
0.0
 41
1.0
 10
28.3802651163737
 20
-50.99473229980469
 30
0.0
 41
1.0
 10
28.21093178304037
 20
-51.16406563313803
 30
0.0
 41
1.0
  0
SPLINE
  5
B0
330
70
100
AcDbEntity
  8
lageman v1_Sketch1
100
AcDbSpline
210
0.0
220
0.0
230
1.0
 70
    12
 71
     3
 72
     8
 73
     4
 74
     0
 42
0.000000001
 43
0.0000000001
 40
0.0
 40
0.0
 40
0.0
 40
0.0
 40
1.0
 40
1.0
 40
1.0
 40
1.0
 10
29.52326770019532
 20
-49.97026770019532
 30
0.0
 41
1.0
 10
29.48093436686198
 20
-50.00413643391928
 30
0.0
 41
1.0
 10
29.40473488362631
 20
-50.02106563313803
 30
0.0
 41
1.0
 10
29.31160103352865
 20
-50.01260103352866
 30
0.0
 41
1.0
  0
SPLINE
  5
B1
330
70
100
AcDbEntity
  8
lageman v1_Sketch1
100
AcDbSpline
210
0.0
220
0.0
230
1.0
 70
    12
 71
     3
 72
     8
 73
     4
 74
     0
 42
0.000000001
 43
0.0000000001
 40
0.0
 40
0.0
 40
0.0
 40
0.0
 40
1.0
 40
1.0
 40
1.0
 40
1.0
 10
29.31160103352865
 20
-50.01260103352866
 30
0.0
 41
1.0
 10
28.710467183431
 20
-49.68239896647136
 30
0.0
 41
1.0
 10
28.19400000000001
 20
-49.36066666666667
 30
0.0
 41
1.0
 10
27.83839896647136
 20
-49.11513126627605
 30
0.0
 41
1.0
  0
SPLINE
  5
B2
330
70
100
AcDbEntity
  8
lageman v1_Sketch1
100
AcDbSpline
210
0.0
220
0.0
230
1.0
 70
    12
 71
     3
 72
     8
 73
     4
 74
     0
 42
0.000000001
 43
0.0000000001
 40
0.0
 40
0.0
 40
0.0
 40
0.0
 40
1.0
 40
1.0
 40
1.0
 40
1.0
 10
23.74900000000001
 20
-47.72660103352865
 30
0.0
 41
1.0
 10
24.70573229980469
 20
-48.14993436686198
 30
0.0
 41
1.0
 10
25.56933333333334
 20
-48.73413643391928
 30
0.0
 41
1.0
 10
26.39906563313803
 20
-49.30986873372397
 30
0.0
 41
1.0
  0
LINE
  5
B3
330
70
100
AcDbEntity
  8
lageman v1_Sketch1
100
AcDbLine
 10
34.32386873372396
 20
-40.18280051676433
 30
0.0
 11
36.12726770019532
 21
-40.18280051676433
 31
0.0
  0
LINE
  5
B4
330
70
100
AcDbEntity
  8
lageman v1_Sketch1
100
AcDbLine
 10
34.1122020670573
 20
-41.02946718343099
 30
0.0
 11
34.32386873372396
 21
-40.18280051676433
 31
0.0
  0
LINE
  5
B5
330
70
100
AcDbEntity
  8
lageman v1_Sketch1
100
AcDbLine
 10
36.47440155029297
 20
-41.76606821695965
 30
0.0
 11
34.044467183431
 21
-41.76606563313803
 31
0.0
  0
SPLINE
  5
B6
330
70
100
AcDbEntity
  8
lageman v1_Sketch1
100
AcDbSpline
210
0.0
220
0.0
230
1.0
 70
    12
 71
     3
 72
     8
 73
     4
 74
     0
 42
0.000000001
 43
0.0000000001
 40
0.0
 40
0.0
 40
0.0
 40
0.0
 40
1.0
 40
1.0
 40
1.0
 40
1.0
 10
37.61739896647136
 20
-33.72273229980469
 30
0.0
 41
1.0
 10
38.55719948323569
 20
-32.79986614990235
 30
0.0
 41
1.0
 10
37.93066666666668
 20
-31.23353281656902
 30
0.0
 41
1.0
 10
37.10093178304037
 20
-30.50539896647136
 30
0.0
 41
1.0
  0
SPLINE
  5
B7
330
70
100
AcDbEntity
  8
lageman v1_Sketch1
100
AcDbSpline
210
0.0
220
0.0
230
1.0
 70
    12
 71
     3
 72
     8
 73
     4
 74
     0
 42
0.000000001
 43
0.0000000001
 40
0.0
 40
0.0
 40
0.0
 40
0.0
 40
1.0
 40
1.0
 40
1.0
 40
1.0
 10
24.519467183431
 20
-27.69446459960938
 30
0.0
 41
1.0
 10
24.25700000000001
 20
-27.77066408284506
 30
0.0
 41
1.0
 10
23.99453281656902
 20
-27.81299741617839
 30
0.0
 41
1.0
 10
23.74900000000001
 20
-27.81299741617839
 30
0.0
 41
1.0
  0
LINE
  5
B8
330
70
100
AcDbEntity
  8
lageman v1_Sketch1
100
AcDbLine
 10
23.74900258382162
 20
-30.07360103352865
 30
0.0
 11
23.74900000000001
 21
-28.65119948323568
 31
0.0
  0
SPLINE
  5
B9
330
70
100
AcDbEntity
  8
lageman v1_Sketch1
100
AcDbSpline
210
0.0
220
0.0
230
1.0
 70
    12
 71
     3
 72
     8
 73
     4
 74
     0
 42
0.000000001
 43
0.0000000001
 40
0.0
 40
0.0
 40
0.0
 40
0.0
 40
1.0
 40
1.0
 40
1.0
 40
1.0
 10
23.74900000000001
 20
-30.75939896647136
 30
0.0
 41
1.0
 10
24.14693436686198
 20
-30.83559844970704
 30
0.0
 41
1.0
 10
24.511
 20
-30.87793178304037
 30
0.0
 41
1.0
 10
24.79039896647136
 20
-30.87793178304037
 30
0.0
 41
1.0
  0
SPLINE
  5
BA
330
70
100
AcDbEntity
  8
lageman v1_Sketch1
100
AcDbSpline
210
0.0
220
0.0
230
1.0
 70
    12
 71
     3
 72
     8
 73
     4
 74
     0
 42
0.000000001
 43
0.0000000001
 40
0.0
 40
0.0
 40
0.0
 40
0.0
 40
1.0
 40
1.0
 40
1.0
 40
1.0
 10
34.044467183431
 20
-41.76606563313803
 30
0.0
 41
1.0
 10
34.03600000000001
 20
-41.7152651163737
 30
0.0
 41
1.0
 10
34.03600000000001
 20
-41.656
 30
0.0
 41
1.0
 10
34.03600000000001
 20
-41.59673229980469
 30
0.0
 41
1.0
  0
SPLINE
  5
BB
330
70
100
AcDbEntity
  8
lageman v1_Sketch1
100
AcDbSpline
210
0.0
220
0.0
230
1.0
 70
    12
 71
     3
 72
     8
 73
     4
 74
     0
 42
0.000000001
 43
0.0000000001
 40
0.0
 40
0.0
 40
0.0
 40
0.0
 40
1.0
 40
1.0
 40
1.0
 40
1.0
 10
36.35586873372397
 20
-41.16493436686198
 30
0.0
 41
1.0
 10
36.3982020670573
 20
-41.3512020670573
 30
0.0
 41
1.0
 10
36.43206821695964
 20
-41.48666666666667
 30
0.0
 41
1.0
 10
36.44900258382163
 20
-41.57980051676433
 30
0.0
 41
1.0
  0
LINE
  5
BC
330
70
100
AcDbEntity
  8
lageman v1_Sketch1
100
AcDbLine
 10
14.19859974161784
 20
-26.42446459960938
 30
0.0
 11
14.18166666666667
 21
-26.4075302327474
 31
0.0
  0
LINE
  5
BD
330
70
100
AcDbEntity
  8
lageman v1_Sketch1
100
AcDbLine
 10
13.43660103352865
 20
-21.02273229980469
 30
0.0
 11
13.43660103352865
 21
-22.0302651163737
 31
0.0
  0
SPLINE
  5
BE
330
70
100
AcDbEntity
  8
lageman v1_Sketch1
100
AcDbSpline
210
0.0
220
0.0
230
1.0
 70
    12
 71
     3
 72
     8
 73
     4
 74
     0
 42
0.000000001
 43
0.0000000001
 40
0.0
 40
0.0
 40
0.0
 40
0.0
 40
1.0
 40
1.0
 40
1.0
 40
1.0
 10
12.92013514200846
 20
-22.71606304931641
 30
0.0
 41
1.0
 10
12.5052664082845
 20
-23.17326770019532
 30
0.0
 41
1.0
 10
12.22586614990234
 20
-23.74900000000001
 30
0.0
 41
1.0
 10
12.065
 20
-24.39246718343099
 30
0.0
 41
1.0
  0
LINE
  5
BF
330
70
100
AcDbEntity
  8
lageman v1_Sketch1
100
AcDbLine
 10
14.1562651163737
 20
-34.67946459960938
 30
0.0
 11
11.87873229980469
 21
-34.67946459960938
 31
0.0
  0
LINE
  5
C0
330
70
100
AcDbEntity
  8
lageman v1_Sketch1
100
AcDbLine
 10
8.525933074951172
 20
-41.17339896647136
 30
0.0
 11
8.525933074951172
 21
-36.97393178304037
 31
0.0
  0
SPLINE
  5
C1
330
70
100
AcDbEntity
  8
lageman v1_Sketch1
100
AcDbSpline
210
0.0
220
0.0
230
1.0
 70
    12
 71
     3
 72
     8
 73
     4
 74
     0
 42
0.000000001
 43
0.0000000001
 40
0.0
 40
0.0
 40
0.0
 40
0.0
 40
1.0
 40
1.0
 40
1.0
 40
1.0
 10
24.81579793294271
 20
-34.68793178304037
 30
0.0
 41
1.0
 10
24.13846459960938
 20
-34.46779793294272
 30
0.0
 41
1.0
 10
23.64739896647136
 20
-33.84126511637371
 30
0.0
 41
1.0
 10
24.00299741617839
 20
-33.34173229980469
 30
0.0
 41
1.0
  0
LINE
  5
C2
330
70
100
AcDbEntity
  8
lageman v1_Sketch1
100
AcDbLine
 10
13.10639896647135
 20
-36.03413126627605
 30
0.0
 11
11.7432651163737
 21
-41.02099741617839
 31
0.0
  0
LINE
  5
C3
330
70
100
AcDbEntity
  8
lageman v1_Sketch1
100
AcDbLine
 10
11.48079793294271
 20
-41.7745302327474
 30
0.0
 11
10.92199741617839
 21
-41.7745302327474
 31
0.0
  0
LINE
  5
C4
330
70
100
AcDbEntity
  8
lageman v1_Sketch1
100
AcDbLine
 10
18.27106692504883
 20
-27.31346718343099
 30
0.0
 11
18.27106692504883
 21
-30.23446718343099
 31
0.0
  0
SPLINE
  5
C5
330
70
100
AcDbEntity
  8
lageman v1_Sketch1
100
AcDbSpline
210
0.0
220
0.0
230
1.0
 70
    12
 71
     3
 72
     8
 73
     4
 74
     0
 42
0.000000001
 43
0.0000000001
 40
0.0
 40
0.0
 40
0.0
 40
0.0
 40
1.0
 40
1.0
 40
1.0
 40
1.0
 10
24.36706304931641
 20
-32.62206821695964
 30
0.0
 41
1.0
 10
24.11306304931641
 20
-32.647467183431
 30
0.0
 41
1.0
 10
23.90986356608074
 20
-32.75753540039063
 30
0.0
 41
1.0
 10
23.76592919921876
 20
-32.91840155029298
 30
0.0
 41
1.0
  0
SPLINE
  5
C6
330
70
100
AcDbEntity
  8
lageman v1_Sketch1
100
AcDbSpline
210
0.0
220
0.0
230
1.0
 70
    12
 71
     3
 72
     8
 73
     4
 74
     0
 42
0.000000001
 43
0.0000000001
 40
0.0
 40
0.0
 40
0.0
 40
0.0
 40
1.0
 40
1.0
 40
1.0
 40
1.0
 10
15.24846718343099
 20
-25.86566666666668
 30
0.0
 41
1.0
 10
15.60406692504883
 20
-26.16200000000001
 30
0.0
 41
1.0
 10
15.73953410847982
 20
-26.39906563313803
 30
0.0
 41
1.0
 10
15.78186744181315
 20
-26.73773229980469
 30
0.0
 41
1.0
  0
SPLINE
  5
C7
330
70
100
AcDbEntity
  8
lageman v1_Sketch1
100
AcDbSpline
210
0.0
220
0.0
230
1.0
 70
    12
 71
     3
 72
     8
 73
     4
 74
     0
 42
0.000000001
 43
0.0000000001
 40
0.0
 40
0.0
 40
0.0
 40
0.0
 40
1.0
 40
1.0
 40
1.0
 40
1.0
 10
17.41593307495118
 20
-23.92680051676433
 30
0.0
 41
1.0
 10
18.00859974161784
 20
-25.09519948323568
 30
0.0
 41
1.0
 10
17.98319948323568
 20
-26.72926770019532
 30
0.0
 41
1.0
 10
16.66240025838216
 20
-27.81300000000001
 30
0.0
 41
1.0
  0
SPLINE
  5
C8
330
70
100
AcDbEntity
  8
lageman v1_Sketch1
100
AcDbSpline
210
0.0
220
0.0
230
1.0
 70
    12
 71
     3
 72
     8
 73
     4
 74
     0
 42
0.000000001
 43
0.0000000001
 40
0.0
 40
0.0
 40
0.0
 40
0.0
 40
1.0
 40
1.0
 40
1.0
 40
1.0
 10
11.87873229980469
 20
-34.67946459960938
 30
0.0
 41
1.0
 10
12.72540025838216
 20
-34.32386614990235
 30
0.0
 41
1.0
 10
13.48740025838216
 20
-33.75660103352866
 30
0.0
 41
1.0
 10
14.13086614990234
 20
-33.09619948323569
 30
0.0
 41
1.0
  0
SPLINE
  5
C9
330
70
100
AcDbEntity
  8
lageman v1_Sketch1
100
AcDbSpline
210
0.0
220
0.0
230
1.0
 70
    12
 71
     3
 72
     8
 73
     4
 74
     0
 42
0.000000001
 43
0.0000000001
 40
0.0
 40
0.0
 40
0.0
 40
0.0
 40
1.0
 40
1.0
 40
1.0
 40
1.0
 10
11.35380051676432
 20
-23.622
 30
0.0
 41
1.0
 10
10.922
 20
-23.01239896647136
 30
0.0
 41
1.0
 10
10.58333397928874
 20
-22.30119948323568
 30
0.0
 41
1.0
 10
10.74420077514648
 20
-21.53919948323568
 30
0.0
 41
1.0
  0
SPLINE
  5
CA
330
70
100
AcDbEntity
  8
lageman v1_Sketch1
100
AcDbSpline
210
0.0
220
0.0
230
1.0
 70
    12
 71
     3
 72
     8
 73
     4
 74
     0
 42
0.000000001
 43
0.0000000001
 40
0.0
 40
0.0
 40
0.0
 40
0.0
 40
1.0
 40
1.0
 40
1.0
 40
1.0
 10
13.65673359171549
 20
-23.15633333333334
 30
0.0
 41
1.0
 10
13.87686744181315
 20
-22.90233333333334
 30
0.0
 41
1.0
 10
14.1647335917155
 20
-22.71606563313802
 30
0.0
 41
1.0
 10
14.46953410847982
 20
-22.61446718343099
 30
0.0
 41
1.0
  0
SPLINE
  5
CB
330
70
100
AcDbEntity
  8
lageman v1_Sketch1
100
AcDbSpline
210
0.0
220
0.0
230
1.0
 70
    12
 71
     3
 72
     8
 73
     4
 74
     0
 42
0.000000001
 43
0.0000000001
 40
0.0
 40
0.0
 40
0.0
 40
0.0
 40
1.0
 40
1.0
 40
1.0
 40
1.0
 10
27.26266408284506
 20
-31.70766408284506
 30
0.0
 41
1.0
 10
26.94939638264975
 20
-31.15733074951173
 30
0.0
 41
1.0
 10
26.25513126627605
 20
-31.16579793294271
 30
0.0
 41
1.0
 10
25.94186356608073
 20
-31.53833074951173
 30
0.0
 41
1.0
  0
SPLINE
  5
CC
330
70
100
AcDbEntity
  8
lageman v1_Sketch1
100
AcDbSpline
210
0.0
220
0.0
230
1.0
 70
    12
 71
     3
 72
     8
 73
     4
 74
     0
 42
0.000000001
 43
0.0000000001
 40
0.0
 40
0.0
 40
0.0
 40
0.0
 40
1.0
 40
1.0
 40
1.0
 40
1.0
 10
14.46953410847982
 20
-22.61446718343099
 30
0.0
 41
1.0
 10
14.68966795857747
 20
-22.66526770019531
 30
0.0
 41
1.0
 10
14.9267335917155
 20
-22.72453281656901
 30
0.0
 41
1.0
 10
15.17226770019531
 20
-22.80073488362631
 30
0.0
 41
1.0
  0
SPLINE
  5
CD
330
70
100
AcDbEntity
  8
lageman v1_Sketch1
100
AcDbSpline
210
0.0
220
0.0
230
1.0
 70
    12
 71
     3
 72
     8
 73
     4
 74
     0
 42
0.000000001
 43
0.0000000001
 40
0.0
 40
0.0
 40
0.0
 40
0.0
 40
1.0
 40
1.0
 40
1.0
 40
1.0
 10
12.065
 20
-24.39246718343099
 30
0.0
 41
1.0
 10
11.78559974161784
 20
-24.13
 30
0.0
 41
1.0
 10
11.53159974161784
 20
-23.86753281656901
 30
0.0
 41
1.0
 10
11.35380051676432
 20
-23.622
 30
0.0
 41
1.0
  0
LINE
  5
CE
330
70
100
AcDbEntity
  8
lageman v1_Sketch1
100
AcDbLine
 10
14.13086614990234
 20
-33.09619948323569
 30
0.0
 11
14.58806563313802
 21
-33.80739896647136
 31
0.0
  0
LINE
  5
CF
330
70
100
AcDbEntity
  8
lageman v1_Sketch1
100
AcDbLine
 10
10.92199741617839
 20
-41.7745302327474
 30
0.0
 11
10.93893049112956
 21
-39.70866408284506
 31
0.0
  0
SPLINE
  5
D0
330
70
100
AcDbEntity
  8
lageman v1_Sketch1
100
AcDbSpline
210
0.0
220
0.0
230
1.0
 70
    12
 71
     3
 72
     8
 73
     4
 74
     0
 42
0.000000001
 43
0.0000000001
 40
0.0
 40
0.0
 40
0.0
 40
0.0
 40
1.0
 40
1.0
 40
1.0
 40
1.0
 10
24.57872971598308
 20
-33.43486614990235
 30
0.0
 41
1.0
 10
24.66339638264975
 20
-33.68039896647136
 30
0.0
 41
1.0
 10
24.61259586588542
 20
-34.06139896647136
 30
0.0
 41
1.0
 10
24.9427953491211
 20
-33.95980051676434
 30
0.0
 41
1.0
  0
SPLINE
  5
D1
330
70
100
AcDbEntity
  8
lageman v1_Sketch1
100
AcDbSpline
210
0.0
220
0.0
230
1.0
 70
    12
 71
     3
 72
     8
 73
     4
 74
     0
 42
0.000000001
 43
0.0000000001
 40
0.0
 40
0.0
 40
0.0
 40
0.0
 40
1.0
 40
1.0
 40
1.0
 40
1.0
 10
27.43199741617839
 20
-33.24859844970704
 30
0.0
 41
1.0
 10
27.44046459960938
 20
-32.75753281656902
 30
0.0
 41
1.0
 10
27.51666408284506
 20
-32.17333074951173
 30
0.0
 41
1.0
 10
27.26266408284506
 20
-31.70766408284506
 30
0.0
 41
1.0
  0
LINE
  5
D2
330
70
100
AcDbEntity
  8
lageman v1_Sketch1
100
AcDbLine
 10
23.76592919921876
 20
-30.75939896647136
 30
0.0
 11
23.74900000000001
 21
-30.75939896647136
 31
0.0
  0
SPLINE
  5
D3
330
70
100
AcDbEntity
  8
lageman v1_Sketch1
100
AcDbSpline
210
0.0
220
0.0
230
1.0
 70
    12
 71
     3
 72
     8
 73
     4
 74
     0
 42
0.000000001
 43
0.0000000001
 40
0.0
 40
0.0
 40
0.0
 40
0.0
 40
1.0
 40
1.0
 40
1.0
 40
1.0
 10
14.9267335917155
 20
-25.17139896647136
 30
0.0
 41
1.0
 10
14.52880051676432
 20
-25.30686614990235
 30
0.0
 41
1.0
 10
14.224
 20
-25.77253281656902
 30
0.0
 41
1.0
 10
14.19859974161784
 20
-26.42446459960938
 30
0.0
 41
1.0
  0
SPLINE
  5
D4
330
70
100
AcDbEntity
  8
lageman v1_Sketch1
100
AcDbSpline
210
0.0
220
0.0
230
1.0
 70
    12
 71
     3
 72
     8
 73
     4
 74
     0
 42
0.000000001
 43
0.0000000001
 40
0.0
 40
0.0
 40
0.0
 40
0.0
 40
1.0
 40
1.0
 40
1.0
 40
1.0
 10
12.90319948323568
 20
-25.93339896647136
 30
0.0
 41
1.0
 10
13.60593307495117
 20
-26.52606563313803
 30
0.0
 41
1.0
 10
14.224
 20
-27.16106563313803
 30
0.0
 41
1.0
 10
14.45259974161784
 20
-28.08393178304037
 30
0.0
 41
1.0
  0
SPLINE
  5
D5
330
70
100
AcDbEntity
  8
lageman v1_Sketch1
100
AcDbSpline
210
0.0
220
0.0
230
1.0
 70
    12
 71
     3
 72
     8
 73
     4
 74
     0
 42
0.000000001
 43
0.0000000001
 40
0.0
 40
0.0
 40
0.0
 40
0.0
 40
1.0
 40
1.0
 40
1.0
 40
1.0
 10
8.610599741617839
 20
-36.13573229980469
 30
0.0
 41
1.0
 10
8.636000000000001
 20
-36.09339896647136
 30
0.0
 41
1.0
 10
8.661399612426759
 20
-36.05953281656902
 30
0.0
 41
1.0
 10
8.695266408284506
 20
-36.03413126627605
 30
0.0
 41
1.0
  0
SPLINE
  5
D6
330
70
100
AcDbEntity
  8
lageman v1_Sketch1
100
AcDbSpline
210
0.0
220
0.0
230
1.0
 70
    12
 71
     3
 72
     8
 73
     4
 74
     0
 42
0.000000001
 43
0.0000000001
 40
0.0
 40
0.0
 40
0.0
 40
0.0
 40
1.0
 40
1.0
 40
1.0
 40
1.0
 10
13.96153281656901
 20
-30.09899741617839
 30
0.0
 41
1.0
 10
13.4027335917155
 20
-28.93906563313803
 30
0.0
 41
1.0
 10
12.94553281656901
 20
-27.36426770019532
 30
0.0
 41
1.0
 10
12.90319948323568
 20
-25.93339896647136
 30
0.0
 41
1.0
  0
SPLINE
  5
D7
330
70
100
AcDbEntity
  8
lageman v1_Sketch1
100
AcDbSpline
210
0.0
220
0.0
230
1.0
 70
    12
 71
     3
 72
     8
 73
     4
 74
     0
 42
0.000000001
 43
0.0000000001
 40
0.0
 40
0.0
 40
0.0
 40
0.0
 40
1.0
 40
1.0
 40
1.0
 40
1.0
 10
15.53633333333334
 20
-32.93533333333334
 30
0.0
 41
1.0
 10
15.19766666666667
 20
-32.43580051676433
 30
0.0
 41
1.0
 10
15.12146718343099
 20
-32.37653281656902
 30
0.0
 41
1.0
 10
14.90980051676432
 20
-32.01246718343099
 30
0.0
 41
1.0
  0
SPLINE
  5
D8
330
70
100
AcDbEntity
  8
lageman v1_Sketch1
100
AcDbSpline
210
0.0
220
0.0
230
1.0
 70
    12
 71
     3
 72
     8
 73
     4
 74
     0
 42
0.000000001
 43
0.0000000001
 40
0.0
 40
0.0
 40
0.0
 40
0.0
 40
1.0
 40
1.0
 40
1.0
 40
1.0
 10
14.88440025838216
 20
-28.14319948323568
 30
0.0
 41
1.0
 10
15.08759974161784
 20
-28.321
 30
0.0
 41
1.0
 10
15.34159974161784
 20
-28.48186614990235
 30
0.0
 41
1.0
 10
15.64640025838216
 20
-28.66813385009766
 30
0.0
 41
1.0
  0
SPLINE
  5
D9
330
70
100
AcDbEntity
  8
lageman v1_Sketch1
100
AcDbSpline
210
0.0
220
0.0
230
1.0
 70
    12
 71
     3
 72
     8
 73
     4
 74
     0
 42
0.000000001
 43
0.0000000001
 40
0.0
 40
0.0
 40
0.0
 40
0.0
 40
1.0
 40
1.0
 40
1.0
 40
1.0
 10
16.42533333333334
 20
-28.65966666666667
 30
0.0
 41
1.0
 10
17.36513385009766
 20
-28.64273229980469
 30
0.0
 41
1.0
 10
17.94086614990234
 20
-28.06700000000001
 30
0.0
 41
1.0
 10
18.27106692504883
 20
-27.31346718343099
 30
0.0
 41
1.0
  0
SPLINE
  5
DA
330
70
100
AcDbEntity
  8
lageman v1_Sketch1
100
AcDbSpline
210
0.0
220
0.0
230
1.0
 70
    12
 71
     3
 72
     8
 73
     4
 74
     0
 42
0.000000001
 43
0.0000000001
 40
0.0
 40
0.0
 40
0.0
 40
0.0
 40
1.0
 40
1.0
 40
1.0
 40
1.0
 10
26.80546459960938
 20
-33.40946459960938
 30
0.0
 41
1.0
 10
26.58533074951173
 20
-34.14606563313803
 30
0.0
 41
1.0
 10
26.19586356608074
 20
-34.53553023274741
 30
0.0
 41
1.0
 10
25.76406563313803
 20
-34.68793178304037
 30
0.0
 41
1.0
  0
SPLINE
  5
DB
330
70
100
AcDbEntity
  8
lageman v1_Sketch1
100
AcDbSpline
210
0.0
220
0.0
230
1.0
 70
    12
 71
     3
 72
     8
 73
     4
 74
     0
 42
0.000000001
 43
0.0000000001
 40
0.0
 40
0.0
 40
0.0
 40
0.0
 40
1.0
 40
1.0
 40
1.0
 40
1.0
 10
14.90980051676432
 20
-32.01246718343099
 30
0.0
 41
1.0
 10
15.53633333333334
 20
-31.07266666666668
 30
0.0
 41
1.0
 10
16.16286744181315
 20
-29.845
 30
0.0
 41
1.0
 10
16.42533333333334
 20
-28.65966666666667
 30
0.0
 41
1.0
  0
SPLINE
  5
DC
330
70
100
AcDbEntity
  8
lageman v1_Sketch1
100
AcDbSpline
210
0.0
220
0.0
230
1.0
 70
    12
 71
     3
 72
     8
 73
     4
 74
     0
 42
0.000000001
 43
0.0000000001
 40
0.0
 40
0.0
 40
0.0
 40
0.0
 40
1.0
 40
1.0
 40
1.0
 40
1.0
 10
8.525933074951172
 20
-36.97393178304037
 30
0.0
 41
1.0
 10
8.525933074951172
 20
-36.53366408284506
 30
0.0
 41
1.0
 10
8.551333333333335
 20
-36.2542651163737
 30
0.0
 41
1.0
 10
8.610599741617839
 20
-36.13573229980469
 30
0.0
 41
1.0
  0
LINE
  5
DD
330
70
100
AcDbEntity
  8
lageman v1_Sketch1
100
AcDbLine
 10
8.695266408284506
 20
-36.03413126627605
 30
0.0
 11
13.10639896647135
 21
-36.03413126627605
 31
0.0
  0
LINE
  5
DE
330
70
100
AcDbEntity
  8
lageman v1_Sketch1
100
AcDbLine
 10
10.93893049112956
 20
-39.70866408284506
 30
0.0
 11
10.61719689941406
 21
-39.70866408284506
 31
0.0
  0
LINE
  5
DF
330
70
100
AcDbEntity
  8
lageman v1_Sketch1
100
AcDbLine
 10
23.76592919921875
 20
-32.91840155029298
 30
0.0
 11
23.76592919921876
 21
-30.75939896647136
 31
0.0
  0
SPLINE
  5
E0
330
70
100
AcDbEntity
  8
lageman v1_Sketch1
100
AcDbSpline
210
0.0
220
0.0
230
1.0
 70
    12
 71
     3
 72
     8
 73
     4
 74
     0
 42
0.000000001
 43
0.0000000001
 40
0.0
 40
0.0
 40
0.0
 40
0.0
 40
1.0
 40
1.0
 40
1.0
 40
1.0
 10
14.45259974161784
 20
-28.08393178304037
 30
0.0
 41
1.0
 10
14.65579922485352
 20
-28.8882651163737
 30
0.0
 41
1.0
 10
14.46106692504883
 20
-29.50633074951173
 30
0.0
 41
1.0
 10
13.96153281656901
 20
-30.09899741617839
 30
0.0
 41
1.0
  0
LINE
  5
E1
330
70
100
AcDbEntity
  8
lageman v1_Sketch1
100
AcDbLine
 10
13.18259974161784
 20
-25.34919689941407
 30
0.0
 11
12.92013255818685
 21
-25.1375302327474
 31
0.0
  0
SPLINE
  5
E2
330
70
100
AcDbEntity
  8
lageman v1_Sketch1
100
AcDbSpline
210
0.0
220
0.0
230
1.0
 70
    12
 71
     3
 72
     8
 73
     4
 74
     0
 42
0.000000001
 43
0.0000000001
 40
0.0
 40
0.0
 40
0.0
 40
0.0
 40
1.0
 40
1.0
 40
1.0
 40
1.0
 10
14.52033333333333
 20
-31.06419948323568
 30
0.0
 41
1.0
 10
14.35946718343099
 20
-30.83559844970704
 30
0.0
 41
1.0
 10
14.19859974161784
 20
-30.56466666666667
 30
0.0
 41
1.0
 10
14.03773359171549
 20
-30.26833333333334
 30
0.0
 41
1.0
  0
SPLINE
  5
E3
330
70
100
AcDbEntity
  8
lageman v1_Sketch1
100
AcDbSpline
210
0.0
220
0.0
230
1.0
 70
    12
 71
     3
 72
     8
 73
     4
 74
     0
 42
0.000000001
 43
0.0000000001
 40
0.0
 40
0.0
 40
0.0
 40
0.0
 40
1.0
 40
1.0
 40
1.0
 40
1.0
 10
14.03773359171549
 20
-30.26833333333334
 30
0.0
 41
1.0
 10
14.24940025838216
 20
-30.13286614990235
 30
0.0
 41
1.0
 10
14.4187335917155
 20
-29.95506563313803
 30
0.0
 41
1.0
 10
14.56266666666667
 20
-29.74339896647136
 30
0.0
 41
1.0
  0
SPLINE
  5
E4
330
70
100
AcDbEntity
  8
lageman v1_Sketch1
100
AcDbSpline
210
0.0
220
0.0
230
1.0
 70
    12
 71
     3
 72
     8
 73
     4
 74
     0
 42
0.000000001
 43
0.0000000001
 40
0.0
 40
0.0
 40
0.0
 40
0.0
 40
1.0
 40
1.0
 40
1.0
 40
1.0
 10
16.81480051676432
 20
-23.39340155029297
 30
0.0
 41
1.0
 10
16.97566666666667
 20
-23.46960103352865
 30
0.0
 41
1.0
 10
17.11960103352865
 20
-23.55426770019532
 30
0.0
 41
1.0
 10
17.25506692504883
 20
-23.64740155029297
 30
0.0
 41
1.0
  0
SPLINE
  5
E5
330
70
100
AcDbEntity
  8
lageman v1_Sketch1
100
AcDbSpline
210
0.0
220
0.0
230
1.0
 70
    12
 71
     3
 72
     8
 73
     4
 74
     0
 42
0.000000001
 43
0.0000000001
 40
0.0
 40
0.0
 40
0.0
 40
0.0
 40
1.0
 40
1.0
 40
1.0
 40
1.0
 10
16.66240025838216
 20
-27.81300000000001
 30
0.0
 41
1.0
 10
16.97566666666667
 20
-26.89860103352865
 30
0.0
 41
1.0
 10
16.129
 20
-24.77346718343099
 30
0.0
 41
1.0
 10
14.9267335917155
 20
-25.17139896647136
 30
0.0
 41
1.0
  0
SPLINE
  5
E6
330
70
100
AcDbEntity
  8
lageman v1_Sketch1
100
AcDbSpline
210
0.0
220
0.0
230
1.0
 70
    12
 71
     3
 72
     8
 73
     4
 74
     0
 42
0.000000001
 43
0.0000000001
 40
0.0
 40
0.0
 40
0.0
 40
0.0
 40
1.0
 40
1.0
 40
1.0
 40
1.0
 10
29.93813126627605
 20
-31.52986614990235
 30
0.0
 41
1.0
 10
29.88733074951172
 20
-32.5797322998047
 30
0.0
 41
1.0
 10
28.99833074951173
 20
-33.47719948323568
 30
0.0
 41
1.0
 10
27.43199741617839
 20
-33.24859844970704
 30
0.0
 41
1.0
  0
SPLINE
  5
E7
330
70
100
AcDbEntity
  8
lageman v1_Sketch1
100
AcDbSpline
210
0.0
220
0.0
230
1.0
 70
    12
 71
     3
 72
     8
 73
     4
 74
     0
 42
0.000000001
 43
0.0000000001
 40
0.0
 40
0.0
 40
0.0
 40
0.0
 40
1.0
 40
1.0
 40
1.0
 40
1.0
 10
15.78186744181315
 20
-26.73773229980469
 30
0.0
 41
1.0
 10
15.80726770019531
 20
-26.93246459960938
 30
0.0
 41
1.0
 10
15.8157335917155
 20
-27.40659844970704
 30
0.0
 41
1.0
 10
15.73953410847982
 20
-27.63519948323568
 30
0.0
 41
1.0
  0
LINE
  5
E8
330
70
100
AcDbEntity
  8
lageman v1_Sketch1
100
AcDbLine
 10
14.18166666666667
 20
-26.4075302327474
 30
0.0
 11
13.18259974161784
 21
-25.34919689941407
 31
0.0
  0
SPLINE
  5
E9
330
70
100
AcDbEntity
  8
lageman v1_Sketch1
100
AcDbSpline
210
0.0
220
0.0
230
1.0
 70
    12
 71
     3
 72
     8
 73
     4
 74
     0
 42
0.000000001
 43
0.0000000001
 40
0.0
 40
0.0
 40
0.0
 40
0.0
 40
1.0
 40
1.0
 40
1.0
 40
1.0
 10
17.25506692504883
 20
-23.64740155029297
 30
0.0
 41
1.0
 10
17.31433333333334
 20
-23.73206821695964
 30
0.0
 41
1.0
 10
17.36513385009766
 20
-23.8252020670573
 30
0.0
 41
1.0
 10
17.41593307495118
 20
-23.92680051676433
 30
0.0
 41
1.0
  0
SPLINE
  5
EA
330
70
100
AcDbEntity
  8
lageman v1_Sketch1
100
AcDbSpline
210
0.0
220
0.0
230
1.0
 70
    12
 71
     3
 72
     8
 73
     4
 74
     0
 42
0.000000001
 43
0.0000000001
 40
0.0
 40
0.0
 40
0.0
 40
0.0
 40
1.0
 40
1.0
 40
1.0
 40
1.0
 10
10.74420077514648
 20
-21.53919948323568
 30
0.0
 41
1.0
 10
10.90506692504883
 20
-20.78566666666667
 30
0.0
 41
1.0
 10
11.50620077514648
 20
-20.36233333333334
 30
0.0
 41
1.0
 10
12.26820077514648
 20
-20.37079922485352
 30
0.0
 41
1.0
  0
SPLINE
  5
EB
330
70
100
AcDbEntity
  8
lageman v1_Sketch1
100
AcDbSpline
210
0.0
220
0.0
230
1.0
 70
    12
 71
     3
 72
     8
 73
     4
 74
     0
 42
0.000000001
 43
0.0000000001
 40
0.0
 40
0.0
 40
0.0
 40
0.0
 40
1.0
 40
1.0
 40
1.0
 40
1.0
 10
12.26820077514648
 20
-20.37079922485352
 30
0.0
 41
1.0
 10
12.73386744181315
 20
-20.37079922485352
 30
0.0
 41
1.0
 10
13.20800129191081
 20
-20.62479922485352
 30
0.0
 41
1.0
 10
13.43660103352865
 20
-21.02273229980469
 30
0.0
 41
1.0
  0
SPLINE
  5
EC
330
70
100
AcDbEntity
  8
lageman v1_Sketch1
100
AcDbSpline
210
0.0
220
0.0
230
1.0
 70
    12
 71
     3
 72
     8
 73
     4
 74
     0
 42
0.000000001
 43
0.0000000001
 40
0.0
 40
0.0
 40
0.0
 40
0.0
 40
1.0
 40
1.0
 40
1.0
 40
1.0
 10
15.17226770019531
 20
-22.80073488362631
 30
0.0
 41
1.0
 10
15.87500129191081
 20
-22.99546718343099
 30
0.0
 41
1.0
 10
16.42533462524414
 20
-23.19866925048829
 30
0.0
 41
1.0
 10
16.81480051676432
 20
-23.39340155029297
 30
0.0
 41
1.0
  0
LINE
  5
ED
330
70
100
AcDbEntity
  8
lageman v1_Sketch1
100
AcDbLine
 10
12.10733462524414
 20
-22.12339896647136
 30
0.0
 11
12.03113514200846
 21
-22.0302651163737
 31
0.0
  0
SPLINE
  5
EE
330
70
100
AcDbEntity
  8
lageman v1_Sketch1
100
AcDbSpline
210
0.0
220
0.0
230
1.0
 70
    12
 71
     3
 72
     8
 73
     4
 74
     0
 42
0.000000001
 43
0.0000000001
 40
0.0
 40
0.0
 40
0.0
 40
0.0
 40
1.0
 40
1.0
 40
1.0
 40
1.0
 10
24.00299741617839
 20
-33.34173229980469
 30
0.0
 41
1.0
 10
24.1892651163737
 20
-33.07926511637371
 30
0.0
 41
1.0
 10
24.49406304931641
 20
-33.16393178304037
 30
0.0
 41
1.0
 10
24.57872971598308
 20
-33.43486614990235
 30
0.0
 41
1.0
  0
SPLINE
  5
EF
330
70
100
AcDbEntity
  8
lageman v1_Sketch1
100
AcDbSpline
210
0.0
220
0.0
230
1.0
 70
    12
 71
     3
 72
     8
 73
     4
 74
     0
 42
0.000000001
 43
0.0000000001
 40
0.0
 40
0.0
 40
0.0
 40
0.0
 40
1.0
 40
1.0
 40
1.0
 40
1.0
 10
14.56266666666667
 20
-29.74339896647136
 30
0.0
 41
1.0
 10
14.87593307495117
 20
-29.26080051676433
 30
0.0
 41
1.0
 10
14.95213385009766
 20
-28.702
 30
0.0
 41
1.0
 10
14.88440025838216
 20
-28.14319948323568
 30
0.0
 41
1.0
  0
SPLINE
  5
F0
330
70
100
AcDbEntity
  8
lageman v1_Sketch1
100
AcDbSpline
210
0.0
220
0.0
230
1.0
 70
    12
 71
     3
 72
     8
 73
     4
 74
     0
 42
0.000000001
 43
0.0000000001
 40
0.0
 40
0.0
 40
0.0
 40
0.0
 40
1.0
 40
1.0
 40
1.0
 40
1.0
 10
11.98880180867513
 20
-22.14033074951172
 30
0.0
 41
1.0
 10
11.89566795857747
 20
-22.38586356608073
 30
0.0
 41
1.0
 10
12.3867348836263
 20
-22.73299741617839
 30
0.0
 41
1.0
 10
12.92013514200846
 20
-22.71606304931641
 30
0.0
 41
1.0
  0
SPLINE
  5
F1
330
70
100
AcDbEntity
  8
lageman v1_Sketch1
100
AcDbSpline
210
0.0
220
0.0
230
1.0
 70
    12
 71
     3
 72
     8
 73
     4
 74
     0
 42
0.000000001
 43
0.0000000001
 40
0.0
 40
0.0
 40
0.0
 40
0.0
 40
1.0
 40
1.0
 40
1.0
 40
1.0
 10
11.7432651163737
 20
-41.02099741617839
 30
0.0
 41
1.0
 10
11.65859844970703
 20
-41.34272971598308
 30
0.0
 41
1.0
 10
11.56546459960938
 20
-41.59672971598308
 30
0.0
 41
1.0
 10
11.48079793294271
 20
-41.7745302327474
 30
0.0
 41
1.0
  0
LINE
  5
F2
330
70
100
AcDbEntity
  8
lageman v1_Sketch1
100
AcDbLine
 10
12.03113514200846
 20
-22.0302651163737
 30
0.0
 11
11.98880180867513
 21
-22.14033074951172
 31
0.0
  0
SPLINE
  5
F3
330
70
100
AcDbEntity
  8
lageman v1_Sketch1
100
AcDbSpline
210
0.0
220
0.0
230
1.0
 70
    12
 71
     3
 72
     8
 73
     4
 74
     0
 42
0.000000001
 43
0.0000000001
 40
0.0
 40
0.0
 40
0.0
 40
0.0
 40
1.0
 40
1.0
 40
1.0
 40
1.0
 10
25.94186356608073
 20
-31.53833074951173
 30
0.0
 41
1.0
 10
25.38306304931641
 20
-32.19872971598308
 30
0.0
 41
1.0
 10
26.23819689941407
 20
-33.11313126627605
 30
0.0
 41
1.0
 10
26.80546459960938
 20
-33.40946459960938
 30
0.0
 41
1.0
  0
LINE
  5
F4
330
70
100
AcDbEntity
  8
lageman v1_Sketch1
100
AcDbLine
 10
25.76406563313803
 20
-34.68793178304036
 30
0.0
 11
24.81579793294271
 21
-34.68793178304037
 31
0.0
  0
SPLINE
  5
F5
330
70
100
AcDbEntity
  8
lageman v1_Sketch1
100
AcDbSpline
210
0.0
220
0.0
230
1.0
 70
    12
 71
     3
 72
     8
 73
     4
 74
     0
 42
0.000000001
 43
0.0000000001
 40
0.0
 40
0.0
 40
0.0
 40
0.0
 40
1.0
 40
1.0
 40
1.0
 40
1.0
 10
15.73953410847982
 20
-27.63519948323568
 30
0.0
 41
1.0
 10
15.12146718343099
 20
-27.06793436686198
 30
0.0
 41
1.0
 10
14.90133333333333
 20
-26.59380051676433
 30
0.0
 41
1.0
 10
15.24846718343099
 20
-25.86566666666668
 30
0.0
 41
1.0
  0
SPLINE
  5
F6
330
70
100
AcDbEntity
  8
lageman v1_Sketch1
100
AcDbSpline
210
0.0
220
0.0
230
1.0
 70
    12
 71
     3
 72
     8
 73
     4
 74
     0
 42
0.000000001
 43
0.0000000001
 40
0.0
 40
0.0
 40
0.0
 40
0.0
 40
1.0
 40
1.0
 40
1.0
 40
1.0
 10
18.27106692504883
 20
-30.23446718343099
 30
0.0
 41
1.0
 10
17.40746718343099
 20
-31.22506821695964
 30
0.0
 41
1.0
 10
16.39146718343099
 20
-32.05480051676433
 30
0.0
 41
1.0
 10
15.53633333333334
 20
-32.93533333333334
 30
0.0
 41
1.0
  0
SPLINE
  5
F7
330
70
100
AcDbEntity
  8
lageman v1_Sketch1
100
AcDbSpline
210
0.0
220
0.0
230
1.0
 70
    12
 71
     3
 72
     8
 73
     4
 74
     0
 42
0.000000001
 43
0.0000000001
 40
0.0
 40
0.0
 40
0.0
 40
0.0
 40
1.0
 40
1.0
 40
1.0
 40
1.0
 10
13.43660103352865
 20
-22.0302651163737
 30
0.0
 41
1.0
 10
13.1487348836263
 20
-22.49593178304037
 30
0.0
 41
1.0
 10
12.48833462524414
 20
-22.62293178304037
 30
0.0
 41
1.0
 10
12.10733462524414
 20
-22.12339896647136
 30
0.0
 41
1.0
  0
LINE
  5
F8
330
70
100
AcDbEntity
  8
lageman v1_Sketch1
100
AcDbLine
 10
14.58806563313802
 20
-33.80739896647136
 30
0.0
 11
14.1562651163737
 21
-34.67946459960938
 31
0.0
  0
SPLINE
  5
F9
330
70
100
AcDbEntity
  8
lageman v1_Sketch1
100
AcDbSpline
210
0.0
220
0.0
230
1.0
 70
    12
 71
     3
 72
     8
 73
     4
 74
     0
 42
0.000000001
 43
0.0000000001
 40
0.0
 40
0.0
 40
0.0
 40
0.0
 40
1.0
 40
1.0
 40
1.0
 40
1.0
 10
24.9427953491211
 20
-33.95980051676434
 30
0.0
 41
1.0
 10
25.51006304931641
 20
-33.782
 30
0.0
 41
1.0
 10
25.23066149902344
 20
-32.54586614990235
 30
0.0
 41
1.0
 10
24.36706304931641
 20
-32.62206821695964
 30
0.0
 41
1.0
  0
SPLINE
  5
FA
330
70
100
AcDbEntity
  8
lageman v1_Sketch1
100
AcDbSpline
210
0.0
220
0.0
230
1.0
 70
    12
 71
     3
 72
     8
 73
     4
 74
     0
 42
0.000000001
 43
0.0000000001
 40
0.0
 40
0.0
 40
0.0
 40
0.0
 40
1.0
 40
1.0
 40
1.0
 40
1.0
 10
15.64640025838216
 20
-28.66813385009766
 30
0.0
 41
1.0
 10
15.35006692504883
 20
-29.599467183431
 30
0.0
 41
1.0
 10
15.12146718343099
 20
-30.20060103352865
 30
0.0
 41
1.0
 10
14.52033333333333
 20
-31.06419948323568
 30
0.0
 41
1.0
  0
SPLINE
  5
FB
330
70
100
AcDbEntity
  8
lageman v1_Sketch1
100
AcDbSpline
210
0.0
220
0.0
230
1.0
 70
    12
 71
     3
 72
     8
 73
     4
 74
     0
 42
0.000000001
 43
0.0000000001
 40
0.0
 40
0.0
 40
0.0
 40
0.0
 40
1.0
 40
1.0
 40
1.0
 40
1.0
 10
12.92013255818685
 20
-25.1375302327474
 30
0.0
 41
1.0
 10
12.99633333333333
 20
-24.35860103352865
 30
0.0
 41
1.0
 10
13.21646718343099
 20
-23.66433333333334
 30
0.0
 41
1.0
 10
13.65673359171549
 20
-23.15633333333334
 30
0.0
 41
1.0
  0
SPLINE
  5
FC
330
70
100
AcDbEntity
  8
lageman v1_Sketch1
100
AcDbSpline
210
0.0
220
0.0
230
1.0
 70
    12
 71
     3
 72
     8
 73
     4
 74
     0
 42
0.000000001
 43
0.0000000001
 40
0.0
 40
0.0
 40
0.0
 40
0.0
 40
1.0
 40
1.0
 40
1.0
 40
1.0
 10
31.06419948323568
 20
-55.07566666666668
 30
0.0
 41
1.0
 10
30.79326770019532
 20
-55.07566666666668
 30
0.0
 41
1.0
 10
30.52233333333334
 20
-55.07566666666668
 30
0.0
 41
1.0
 10
30.25986614990235
 20
-55.08413126627605
 30
0.0
 41
1.0
  0
SPLINE
  5
FD
330
70
100
AcDbEntity
  8
lageman v1_Sketch1
100
AcDbSpline
210
0.0
220
0.0
230
1.0
 70
    12
 71
     3
 72
     8
 73
     4
 74
     0
 42
0.000000001
 43
0.0000000001
 40
0.0
 40
0.0
 40
0.0
 40
0.0
 40
1.0
 40
1.0
 40
1.0
 40
1.0
 10
10.86273229980469
 20
-49.74166666666667
 30
0.0
 41
1.0
 10
11.05746589152018
 20
-51.2572020670573
 30
0.0
 41
1.0
 10
12.36979922485352
 20
-53.18760103352865
 30
0.0
 41
1.0
 10
14.14779922485352
 20
-52.82353540039063
 30
0.0
 41
1.0
  0
LINE
  5
FE
330
70
100
AcDbEntity
  8
lageman v1_Sketch1
100
AcDbLine
 10
14.12239896647135
 20
-43.44246976725261
 30
0.0
 11
14.35946589152018
 21
-43.11227028401694
 31
0.0
  0
LINE
  5
FF
330
70
100
AcDbEntity
  8
lageman v1_Sketch1
100
AcDbLine
 10
31.69919948323568
 20
-55.03333333333334
 30
0.0
 11
31.69073229980469
 21
-55.03333333333334
 31
0.0
  0
SPLINE
  5
100
330
70
100
AcDbEntity
  8
lageman v1_Sketch1
100
AcDbSpline
210
0.0
220
0.0
230
1.0
 70
    12
 71
     3
 72
     8
 73
     4
 74
     0
 42
0.000000001
 43
0.0000000001
 40
0.0
 40
0.0
 40
0.0
 40
0.0
 40
1.0
 40
1.0
 40
1.0
 40
1.0
 10
30.65780051676433
 20
-51.81600000000001
 30
0.0
 41
1.0
 10
30.83560103352865
 20
-51.90913126627605
 30
0.0
 41
1.0
 10
31.00493436686198
 20
-51.99379793294272
 30
0.0
 41
1.0
 10
31.14886614990235
 20
-52.07
 30
0.0
 41
1.0
  0
SPLINE
  5
101
330
70
100
AcDbEntity
  8
lageman v1_Sketch1
100
AcDbSpline
210
0.0
220
0.0
230
1.0
 70
    12
 71
     3
 72
     8
 73
     4
 74
     0
 42
0.000000001
 43
0.0000000001
 40
0.0
 40
0.0
 40
0.0
 40
0.0
 40
1.0
 40
1.0
 40
1.0
 40
1.0
 10
36.90619948323568
 20
-49.93640413411458
 30
0.0
 41
1.0
 10
36.92313385009767
 20
-50.927
 30
0.0
 41
1.0
 10
36.21193436686199
 20
-52.01073229980469
 30
0.0
 41
1.0
 10
32.9607322998047
 20
-51.55353540039063
 30
0.0
 41
1.0
  0
SPLINE
  5
102
330
70
100
AcDbEntity
  8
lageman v1_Sketch1
100
AcDbSpline
210
0.0
220
0.0
230
1.0
 70
    12
 71
     3
 72
     8
 73
     4
 74
     0
 42
0.000000001
 43
0.0000000001
 40
0.0
 40
0.0
 40
0.0
 40
0.0
 40
1.0
 40
1.0
 40
1.0
 40
1.0
 10
23.79133333333334
 20
-51.3842020670573
 30
0.0
 41
1.0
 10
23.94373229980469
 20
-51.32493436686199
 30
0.0
 41
1.0
 10
24.32473229980469
 20
-51.24026770019533
 30
0.0
 41
1.0
 10
24.519467183431
 20
-51.26566666666668
 30
0.0
 41
1.0
  0
LINE
  5
103
330
70
100
AcDbEntity
  8
lageman v1_Sketch1
100
AcDbLine
 10
38.87893436686198
 20
-50.12266666666667
 30
0.0
 11
38.870467183431
 21
-50.13960103352865
 31
0.0
  0
SPLINE
  5
104
330
70
100
AcDbEntity
  8
lageman v1_Sketch1
100
AcDbSpline
210
0.0
220
0.0
230
1.0
 70
    12
 71
     3
 72
     8
 73
     4
 74
     0
 42
0.000000001
 43
0.0000000001
 40
0.0
 40
0.0
 40
0.0
 40
0.0
 40
1.0
 40
1.0
 40
1.0
 40
1.0
 10
38.870467183431
 20
-50.13960103352865
 30
0.0
 41
1.0
 10
37.93913385009766
 20
-51.74826770019532
 30
0.0
 41
1.0
 10
37.12633333333335
 20
-52.94206563313803
 30
0.0
 41
1.0
 10
36.42360103352866
 20
-53.72946976725262
 30
0.0
 41
1.0
  0
SPLINE
  5
105
330
70
100
AcDbEntity
  8
lageman v1_Sketch1
100
AcDbSpline
210
0.0
220
0.0
230
1.0
 70
    12
 71
     3
 72
     8
 73
     4
 74
     0
 42
0.000000001
 43
0.0000000001
 40
0.0
 40
0.0
 40
0.0
 40
0.0
 40
1.0
 40
1.0
 40
1.0
 40
1.0
 10
27.49973229980469
 20
-51.6382020670573
 30
0.0
 41
1.0
 10
26.83933333333334
 20
-52.36633333333334
 30
0.0
 41
1.0
 10
25.51853281656902
 20
-53.2384041341146
 30
0.0
 41
1.0
 10
24.17233333333334
 20
-53.69560103352865
 30
0.0
 41
1.0
  0
SPLINE
  5
106
330
70
100
AcDbEntity
  8
lageman v1_Sketch1
100
AcDbSpline
210
0.0
220
0.0
230
1.0
 70
    12
 71
     3
 72
     8
 73
     4
 74
     0
 42
0.000000001
 43
0.0000000001
 40
0.0
 40
0.0
 40
0.0
 40
0.0
 40
1.0
 40
1.0
 40
1.0
 40
1.0
 10
35.70393436686199
 20
-54.24593436686198
 30
0.0
 41
1.0
 10
35.52613385009767
 20
-54.22900000000001
 30
0.0
 41
1.0
 10
35.34833333333334
 20
-54.19513643391928
 30
0.0
 41
1.0
 10
35.17900000000001
 20
-54.14433333333334
 30
0.0
 41
1.0
  0
SPLINE
  5
107
330
70
100
AcDbEntity
  8
lageman v1_Sketch1
100
AcDbSpline
210
0.0
220
0.0
230
1.0
 70
    12
 71
     3
 72
     8
 73
     4
 74
     0
 42
0.000000001
 43
0.0000000001
 40
0.0
 40
0.0
 40
0.0
 40
0.0
 40
1.0
 40
1.0
 40
1.0
 40
1.0
 10
33.17239896647136
 20
-52.49333333333334
 30
0.0
 41
1.0
 10
34.75566666666667
 20
-52.94206563313803
 30
0.0
 41
1.0
 10
35.30600000000001
 20
-52.93360103352865
 30
0.0
 41
1.0
 10
36.60986614990235
 20
-52.46793436686199
 30
0.0
 41
1.0
  0
SPLINE
  5
108
330
70
100
AcDbEntity
  8
lageman v1_Sketch1
100
AcDbSpline
210
0.0
220
0.0
230
1.0
 70
    12
 71
     3
 72
     8
 73
     4
 74
     0
 42
0.000000001
 43
0.0000000001
 40
0.0
 40
0.0
 40
0.0
 40
0.0
 40
1.0
 40
1.0
 40
1.0
 40
1.0
 10
36.60986614990235
 20
-52.46793436686199
 30
0.0
 41
1.0
 10
37.600467183431
 20
-52.12080310058595
 30
0.0
 41
1.0
 10
38.70959844970704
 20
-50.95239896647136
 30
0.0
 41
1.0
 10
38.20159844970703
 20
-49.80939896647136
 30
0.0
 41
1.0
  0
SPLINE
  5
109
330
70
100
AcDbEntity
  8
lageman v1_Sketch1
100
AcDbSpline
210
0.0
220
0.0
230
1.0
 70
    12
 71
     3
 72
     8
 73
     4
 74
     0
 42
0.000000001
 43
0.0000000001
 40
0.0
 40
0.0
 40
0.0
 40
0.0
 40
1.0
 40
1.0
 40
1.0
 40
1.0
 10
28.80359844970703
 20
-54.38986356608074
 30
0.0
 41
1.0
 10
28.3802651163737
 20
-54.46606563313803
 30
0.0
 41
1.0
 10
27.97386614990235
 20
-54.70313126627605
 30
0.0
 41
1.0
 10
27.6182651163737
 20
-55.05026253255209
 30
0.0
 41
1.0
  0
SPLINE
  5
10A
330
70
100
AcDbEntity
  8
lageman v1_Sketch1
100
AcDbSpline
210
0.0
220
0.0
230
1.0
 70
    12
 71
     3
 72
     8
 73
     4
 74
     0
 42
0.000000001
 43
0.0000000001
 40
0.0
 40
0.0
 40
0.0
 40
0.0
 40
1.0
 40
1.0
 40
1.0
 40
1.0
 10
24.519467183431
 20
-51.26566666666668
 30
0.0
 41
1.0
 10
24.30780051676433
 20
-51.6382020670573
 30
0.0
 41
1.0
 10
24.08766666666667
 20
-51.8837322998047
 30
0.0
 41
1.0
 10
23.79980051676433
 20
-51.97686873372397
 30
0.0
 41
1.0
  0
SPLINE
  5
10B
330
70
100
AcDbEntity
  8
lageman v1_Sketch1
100
AcDbSpline
210
0.0
220
0.0
230
1.0
 70
    12
 71
     3
 72
     8
 73
     4
 74
     0
 42
0.000000001
 43
0.0000000001
 40
0.0
 40
0.0
 40
0.0
 40
0.0
 40
1.0
 40
1.0
 40
1.0
 40
1.0
 10
32.9607322998047
 20
-51.55353540039063
 30
0.0
 41
1.0
 10
33.36713126627605
 20
-49.8094041341146
 30
0.0
 41
1.0
 10
35.89866666666667
 20
-49.03046976725261
 30
0.0
 41
1.0
 10
36.90619948323568
 20
-49.93640413411458
 30
0.0
 41
1.0
  0
SPLINE
  5
10C
330
70
100
AcDbEntity
  8
lageman v1_Sketch1
100
AcDbSpline
210
0.0
220
0.0
230
1.0
 70
    12
 71
     3
 72
     8
 73
     4
 74
     0
 42
0.000000001
 43
0.0000000001
 40
0.0
 40
0.0
 40
0.0
 40
0.0
 40
1.0
 40
1.0
 40
1.0
 40
1.0
 10
32.8845302327474
 20
-49.49613126627605
 30
0.0
 41
1.0
 10
32.58819689941407
 20
-49.44533333333335
 30
0.0
 41
1.0
 10
32.26646459960938
 20
-49.35219689941407
 30
0.0
 41
1.0
 10
31.92779793294271
 20
-49.24213126627605
 30
0.0
 41
1.0
  0
SPLINE
  5
10D
330
70
100
AcDbEntity
  8
lageman v1_Sketch1
100
AcDbSpline
210
0.0
220
0.0
230
1.0
 70
    12
 71
     3
 72
     8
 73
     4
 74
     0
 42
0.000000001
 43
0.0000000001
 40
0.0
 40
0.0
 40
0.0
 40
0.0
 40
1.0
 40
1.0
 40
1.0
 40
1.0
 10
23.79980051676433
 20
-51.97686873372397
 30
0.0
 41
1.0
 10
23.79133333333334
 20
-51.79060103352865
 30
0.0
 41
1.0
 10
23.77439896647136
 20
-51.59586873372397
 30
0.0
 41
1.0
 10
23.76593436686198
 20
-51.39266666666667
 30
0.0
 41
1.0
  0
SPLINE
  5
10E
330
70
100
AcDbEntity
  8
lageman v1_Sketch1
100
AcDbSpline
210
0.0
220
0.0
230
1.0
 70
    12
 71
     3
 72
     8
 73
     4
 74
     0
 42
0.000000001
 43
0.0000000001
 40
0.0
 40
0.0
 40
0.0
 40
0.0
 40
1.0
 40
1.0
 40
1.0
 40
1.0
 10
30.25986614990235
 20
-55.08413126627605
 30
0.0
 41
1.0
 10
30.02280051676433
 20
-54.60153023274741
 30
0.0
 41
1.0
 10
29.48939896647136
 20
-54.27133333333334
 30
0.0
 41
1.0
 10
28.80359844970703
 20
-54.38986356608074
 30
0.0
 41
1.0
  0
LINE
  5
10F
330
70
100
AcDbEntity
  8
lageman v1_Sketch1
100
AcDbLine
 10
33.7142651163737
 20
-54.82166666666667
 30
0.0
 11
33.64653281656901
 21
-54.83013126627604
 31
0.0
  0
LINE
  5
110
330
70
100
AcDbEntity
  8
lageman v1_Sketch1
100
AcDbLine
 10
15.19766666666667
 20
-55.06720206705729
 30
0.0
 11
14.84206692504883
 21
-55.10107080078125
 31
0.0
  0
LINE
  5
111
330
70
100
AcDbEntity
  8
lageman v1_Sketch1
100
AcDbLine
 10
23.74900000000001
 20
-50.24966666666667
 30
0.0
 11
23.74900000000001
 21
-50.06339896647136
 31
0.0
  0
SPLINE
  5
112
330
70
100
AcDbEntity
  8
lageman v1_Sketch1
100
AcDbSpline
210
0.0
220
0.0
230
1.0
 70
    12
 71
     3
 72
     8
 73
     4
 74
     0
 42
0.000000001
 43
0.0000000001
 40
0.0
 40
0.0
 40
0.0
 40
0.0
 40
1.0
 40
1.0
 40
1.0
 40
1.0
 10
33.64653281656901
 20
-54.83013126627604
 30
0.0
 41
1.0
 10
33.028467183431
 20
-54.92326253255209
 30
0.0
 41
1.0
 10
32.38500000000001
 20
-54.99946459960938
 30
0.0
 41
1.0
 10
31.69919948323569
 20
-55.03333333333334
 30
0.0
 41
1.0
  0
SPLINE
  5
113
330
70
100
AcDbEntity
  8
lageman v1_Sketch1
100
AcDbSpline
210
0.0
220
0.0
230
1.0
 70
    12
 71
     3
 72
     8
 73
     4
 74
     0
 42
0.000000001
 43
0.0000000001
 40
0.0
 40
0.0
 40
0.0
 40
0.0
 40
1.0
 40
1.0
 40
1.0
 40
1.0
 10
24.83273229980469
 20
-54.44913126627604
 30
0.0
 41
1.0
 10
25.63706563313802
 20
-54.18666666666667
 30
0.0
 41
1.0
 10
26.40753281656902
 20
-53.81413126627605
 30
0.0
 41
1.0
 10
27.04253281656902
 20
-53.43313126627605
 30
0.0
 41
1.0
  0
SPLINE
  5
114
330
70
100
AcDbEntity
  8
lageman v1_Sketch1
100
AcDbSpline
210
0.0
220
0.0
230
1.0
 70
    12
 71
     3
 72
     8
 73
     4
 74
     0
 42
0.000000001
 43
0.0000000001
 40
0.0
 40
0.0
 40
0.0
 40
0.0
 40
1.0
 40
1.0
 40
1.0
 40
1.0
 10
25.36613126627605
 20
-51.14713643391928
 30
0.0
 41
1.0
 10
26.17046459960938
 20
-51.22333850097657
 30
0.0
 41
1.0
 10
26.69539896647136
 20
-51.30800516764324
 30
0.0
 41
1.0
 10
27.49973229980469
 20
-51.6382020670573
 30
0.0
 41
1.0
  0
SPLINE
  5
115
330
70
100
AcDbEntity
  8
lageman v1_Sketch1
100
AcDbSpline
210
0.0
220
0.0
230
1.0
 70
    12
 71
     3
 72
     8
 73
     4
 74
     0
 42
0.000000001
 43
0.0000000001
 40
0.0
 40
0.0
 40
0.0
 40
0.0
 40
1.0
 40
1.0
 40
1.0
 40
1.0
 10
31.14886614990235
 20
-53.56013126627605
 30
0.0
 41
1.0
 10
30.70859844970704
 20
-52.74733333333334
 30
0.0
 41
1.0
 10
29.99739896647136
 20
-52.09539896647136
 30
0.0
 41
1.0
 10
29.218467183431
 20
-51.60433333333334
 30
0.0
 41
1.0
  0
SPLINE
  5
116
330
70
100
AcDbEntity
  8
lageman v1_Sketch1
100
AcDbSpline
210
0.0
220
0.0
230
1.0
 70
    12
 71
     3
 72
     8
 73
     4
 74
     0
 42
0.000000001
 43
0.0000000001
 40
0.0
 40
0.0
 40
0.0
 40
0.0
 40
1.0
 40
1.0
 40
1.0
 40
1.0
 10
23.74900000000001
 20
-50.06339896647136
 30
0.0
 41
1.0
 10
24.01146718343099
 20
-50.1565302327474
 30
0.0
 41
1.0
 10
24.26546718343099
 20
-50.29200000000001
 30
0.0
 41
1.0
 10
24.511
 20
-50.48673229980469
 30
0.0
 41
1.0
  0
LINE
  5
117
330
70
100
AcDbEntity
  8
lageman v1_Sketch1
100
AcDbLine
 10
14.35946589152018
 20
-43.11227028401694
 30
0.0
 11
16.54386614990234
 21
-43.11227028401694
 31
0.0
  0
SPLINE
  5
118
330
70
100
AcDbEntity
  8
lageman v1_Sketch1
100
AcDbSpline
210
0.0
220
0.0
230
1.0
 70
    12
 71
     3
 72
     8
 73
     4
 74
     0
 42
0.000000001
 43
0.0000000001
 40
0.0
 40
0.0
 40
0.0
 40
0.0
 40
1.0
 40
1.0
 40
1.0
 40
1.0
 10
26.44986614990235
 20
-54.95713126627605
 30
0.0
 41
1.0
 10
25.76406563313803
 20
-54.87246459960939
 30
0.0
 41
1.0
 10
25.22219948323568
 20
-54.70313126627605
 30
0.0
 41
1.0
 10
24.83273229980469
 20
-54.44913126627604
 30
0.0
 41
1.0
  0
SPLINE
  5
119
330
70
100
AcDbEntity
  8
lageman v1_Sketch1
100
AcDbSpline
210
0.0
220
0.0
230
1.0
 70
    12
 71
     3
 72
     8
 73
     4
 74
     0
 42
0.000000001
 43
0.0000000001
 40
0.0
 40
0.0
 40
0.0
 40
0.0
 40
1.0
 40
1.0
 40
1.0
 40
1.0
 10
31.14886614990235
 20
-52.07
 30
0.0
 41
1.0
 10
31.38593178304037
 20
-52.20546459960939
 30
0.0
 41
1.0
 10
31.623
 20
-52.32400000000001
 30
0.0
 41
1.0
 10
31.81773229980469
 20
-52.40866666666668
 30
0.0
 41
1.0
  0
SPLINE
  5
11A
330
70
100
AcDbEntity
  8
lageman v1_Sketch1
100
AcDbSpline
210
0.0
220
0.0
230
1.0
 70
    12
 71
     3
 72
     8
 73
     4
 74
     0
 42
0.000000001
 43
0.0000000001
 40
0.0
 40
0.0
 40
0.0
 40
0.0
 40
1.0
 40
1.0
 40
1.0
 40
1.0
 10
10.61719689941406
 20
-39.70866408284506
 30
0.0
 41
1.0
 10
10.49019689941406
 20
-40.66539638264974
 30
0.0
 41
1.0
 10
10.31239702860514
 20
-41.3342651163737
 30
0.0
 41
1.0
 10
10.06686356608073
 20
-41.70679793294271
 30
0.0
 41
1.0
  0
SPLINE
  5
11B
330
70
100
AcDbEntity
  8
lageman v1_Sketch1
100
AcDbSpline
210
0.0
220
0.0
230
1.0
 70
    12
 71
     3
 72
     8
 73
     4
 74
     0
 42
0.000000001
 43
0.0000000001
 40
0.0
 40
0.0
 40
0.0
 40
0.0
 40
1.0
 40
1.0
 40
1.0
 40
1.0
 10
31.81773229980469
 20
-52.40866666666668
 30
0.0
 41
1.0
 10
32.24953281656901
 20
-53.47546459960938
 30
0.0
 41
1.0
 10
32.90993178304037
 20
-54.3052020670573
 30
0.0
 41
1.0
 10
33.7142651163737
 20
-54.82166666666667
 30
0.0
 41
1.0
  0
SPLINE
  5
11C
330
70
100
AcDbEntity
  8
lageman v1_Sketch1
100
AcDbSpline
210
0.0
220
0.0
230
1.0
 70
    12
 71
     3
 72
     8
 73
     4
 74
     0
 42
0.000000001
 43
0.0000000001
 40
0.0
 40
0.0
 40
0.0
 40
0.0
 40
1.0
 40
1.0
 40
1.0
 40
1.0
 10
35.17900000000001
 20
-54.14433333333334
 30
0.0
 41
1.0
 10
34.26460103352865
 20
-53.85646459960938
 30
0.0
 41
1.0
 10
33.34173229980469
 20
-53.17913126627605
 30
0.0
 41
1.0
 10
33.17239896647136
 20
-52.49333333333334
 30
0.0
 41
1.0
  0
SPLINE
  5
11D
330
70
100
AcDbEntity
  8
lageman v1_Sketch1
100
AcDbSpline
210
0.0
220
0.0
230
1.0
 70
    12
 71
     3
 72
     8
 73
     4
 74
     0
 42
0.000000001
 43
0.0000000001
 40
0.0
 40
0.0
 40
0.0
 40
0.0
 40
1.0
 40
1.0
 40
1.0
 40
1.0
 10
38.20159844970703
 20
-49.80939896647136
 30
0.0
 41
1.0
 10
37.71899741617839
 20
-48.72566666666667
 30
0.0
 41
1.0
 10
35.98333074951173
 20
-48.44626770019532
 30
0.0
 41
1.0
 10
34.97579793294271
 20
-48.5817322998047
 30
0.0
 41
1.0
  0
SPLINE
  5
11E
330
70
100
AcDbEntity
  8
lageman v1_Sketch1
100
AcDbSpline
210
0.0
220
0.0
230
1.0
 70
    12
 71
     3
 72
     8
 73
     4
 74
     0
 42
0.000000001
 43
0.0000000001
 40
0.0
 40
0.0
 40
0.0
 40
0.0
 40
1.0
 40
1.0
 40
1.0
 40
1.0
 10
13.98693307495117
 20
-54.66927286783855
 30
0.0
 41
1.0
 10
10.55793307495117
 20
-56.34566666666668
 30
0.0
 41
1.0
 10
7.128933074951173
 20
-50.31739896647136
 30
0.0
 41
1.0
 10
8.915400258382163
 20
-47.1932020670573
 30
0.0
 41
1.0
  0
SPLINE
  5
11F
330
70
100
AcDbEntity
  8
lageman v1_Sketch1
100
AcDbSpline
210
0.0
220
0.0
230
1.0
 70
    12
 71
     3
 72
     8
 73
     4
 74
     0
 42
0.000000001
 43
0.0000000001
 40
0.0
 40
0.0
 40
0.0
 40
0.0
 40
1.0
 40
1.0
 40
1.0
 40
1.0
 10
36.42360103352866
 20
-53.72946976725262
 30
0.0
 41
1.0
 10
36.25426770019532
 20
-53.9242020670573
 30
0.0
 41
1.0
 10
36.00873488362631
 20
-54.09353540039063
 30
0.0
 41
1.0
 10
35.70393436686199
 20
-54.24593436686198
 30
0.0
 41
1.0
  0
SPLINE
  5
120
330
70
100
AcDbEntity
  8
lageman v1_Sketch1
100
AcDbSpline
210
0.0
220
0.0
230
1.0
 70
    12
 71
     3
 72
     8
 73
     4
 74
     0
 42
0.000000001
 43
0.0000000001
 40
0.0
 40
0.0
 40
0.0
 40
0.0
 40
1.0
 40
1.0
 40
1.0
 40
1.0
 10
34.97579793294271
 20
-48.5817322998047
 30
0.0
 41
1.0
 10
34.17146459960938
 20
-48.69179793294271
 30
0.0
 41
1.0
 10
33.44333074951173
 20
-49.00506563313803
 30
0.0
 41
1.0
 10
32.8845302327474
 20
-49.49613126627605
 30
0.0
 41
1.0
  0
LINE
  5
121
330
70
100
AcDbEntity
  8
lageman v1_Sketch1
100
AcDbLine
 10
10.01606369527181
 20
-41.7745302327474
 30
0.0
 11
8.551333333333335
 21
-41.7745302327474
 31
0.0
  0
SPLINE
  5
122
330
70
100
AcDbEntity
  8
lageman v1_Sketch1
100
AcDbSpline
210
0.0
220
0.0
230
1.0
 70
    12
 71
     3
 72
     8
 73
     4
 74
     0
 42
0.000000001
 43
0.0000000001
 40
0.0
 40
0.0
 40
0.0
 40
0.0
 40
1.0
 40
1.0
 40
1.0
 40
1.0
 10
11.88719948323568
 20
-44.84793436686199
 30
0.0
 41
1.0
 10
10.76113255818685
 20
-46.96460103352865
 30
0.0
 41
1.0
 10
10.60873294576009
 20
-47.752
 30
0.0
 41
1.0
 10
10.86273229980469
 20
-49.74166666666667
 30
0.0
 41
1.0
  0
SPLINE
  5
123
330
70
100
AcDbEntity
  8
lageman v1_Sketch1
100
AcDbSpline
210
0.0
220
0.0
230
1.0
 70
    12
 71
     3
 72
     8
 73
     4
 74
     0
 42
0.000000001
 43
0.0000000001
 40
0.0
 40
0.0
 40
0.0
 40
0.0
 40
1.0
 40
1.0
 40
1.0
 40
1.0
 10
18.27106692504883
 20
-52.11233333333334
 30
0.0
 41
1.0
 10
18.27106692504883
 20
-52.7812020670573
 30
0.0
 41
1.0
 10
18.161
 20
-53.32306563313803
 30
0.0
 41
1.0
 10
17.93240025838216
 20
-53.75486873372397
 30
0.0
 41
1.0
  0
SPLINE
  5
124
330
70
100
AcDbEntity
  8
lageman v1_Sketch1
100
AcDbSpline
210
0.0
220
0.0
230
1.0
 70
    12
 71
     3
 72
     8
 73
     4
 74
     0
 42
0.000000001
 43
0.0000000001
 40
0.0
 40
0.0
 40
0.0
 40
0.0
 40
1.0
 40
1.0
 40
1.0
 40
1.0
 10
17.93240025838216
 20
-53.75486873372397
 30
0.0
 41
1.0
 10
17.70380051676432
 20
-54.18666666666667
 30
0.0
 41
1.0
 10
17.3397335917155
 20
-54.50840413411459
 30
0.0
 41
1.0
 10
16.81480051676432
 20
-54.72853540039063
 30
0.0
 41
1.0
  0
SPLINE
  5
125
330
70
100
AcDbEntity
  8
lageman v1_Sketch1
100
AcDbSpline
210
0.0
220
0.0
230
1.0
 70
    12
 71
     3
 72
     8
 73
     4
 74
     0
 42
0.000000001
 43
0.0000000001
 40
0.0
 40
0.0
 40
0.0
 40
0.0
 40
1.0
 40
1.0
 40
1.0
 40
1.0
 10
24.40939896647136
 20
-52.51026770019532
 30
0.0
 41
1.0
 10
24.94279793294272
 20
-52.23933333333334
 30
0.0
 41
1.0
 10
25.12906563313803
 20
-51.84139896647137
 30
0.0
 41
1.0
 10
25.36613126627605
 20
-51.14713643391928
 30
0.0
 41
1.0
  0
SPLINE
  5
126
330
70
100
AcDbEntity
  8
lageman v1_Sketch1
100
AcDbSpline
210
0.0
220
0.0
230
1.0
 70
    12
 71
     3
 72
     8
 73
     4
 74
     0
 42
0.000000001
 43
0.0000000001
 40
0.0
 40
0.0
 40
0.0
 40
0.0
 40
1.0
 40
1.0
 40
1.0
 40
1.0
 10
16.54386614990234
 20
-43.11227028401694
 30
0.0
 41
1.0
 10
18.73673229980469
 20
-47.56573746744792
 30
0.0
 41
1.0
 10
17.61066666666667
 20
-52.9082020670573
 30
0.0
 41
1.0
 10
13.98693307495117
 20
-54.66927286783855
 30
0.0
 41
1.0
  0
SPLINE
  5
127
330
70
100
AcDbEntity
  8
lageman v1_Sketch1
100
AcDbSpline
210
0.0
220
0.0
230
1.0
 70
    28
 71
     3
 72
     8
 73
     4
 74
     0
 42
0.000000001
 43
0.0000000001
 40
0.0
 40
0.0
 40
0.0
 40
0.0
 40
1.0
 40
1.0
 40
1.0
 40
1.0
 10
23.74900000000001
 20
-50.63913126627605
 30
0.0
 41
1.0
 10
23.74900000000001
 20
-50.51213126627605
 30
0.0
 41
1.0
 10
23.74900000000001
 20
-50.38513126627605
 30
0.0
 41
1.0
 10
23.74900000000001
 20
-50.24966666666667
 30
0.0
 41
1.0
  0
SPLINE
  5
128
330
70
100
AcDbEntity
  8
lageman v1_Sketch1
100
AcDbSpline
210
0.0
220
0.0
230
1.0
 70
    12
 71
     3
 72
     8
 73
     4
 74
     0
 42
0.000000001
 43
0.0000000001
 40
0.0
 40
0.0
 40
0.0
 40
0.0
 40
1.0
 40
1.0
 40
1.0
 40
1.0
 10
8.915400258382163
 20
-47.1932020670573
 30
0.0
 41
1.0
 10
9.609666666666669
 20
-45.98246976725261
 30
0.0
 41
1.0
 10
10.8542664082845
 20
-44.87333333333334
 30
0.0
 41
1.0
 10
11.88719948323568
 20
-44.84793436686199
 30
0.0
 41
1.0
  0
SPLINE
  5
129
330
70
100
AcDbEntity
  8
lageman v1_Sketch1
100
AcDbSpline
210
0.0
220
0.0
230
1.0
 70
    12
 71
     3
 72
     8
 73
     4
 74
     0
 42
0.000000001
 43
0.0000000001
 40
0.0
 40
0.0
 40
0.0
 40
0.0
 40
1.0
 40
1.0
 40
1.0
 40
1.0
 10
27.04253281656902
 20
-53.43313126627605
 30
0.0
 41
1.0
 10
27.60133333333334
 20
-53.09446459960938
 30
0.0
 41
1.0
 10
28.47339896647136
 20
-52.43406563313803
 30
0.0
 41
1.0
 10
28.74433333333334
 20
-52.15466666666667
 30
0.0
 41
1.0
  0
SPLINE
  5
12A
330
70
100
AcDbEntity
  8
lageman v1_Sketch1
100
AcDbSpline
210
0.0
220
0.0
230
1.0
 70
    12
 71
     3
 72
     8
 73
     4
 74
     0
 42
0.000000001
 43
0.0000000001
 40
0.0
 40
0.0
 40
0.0
 40
0.0
 40
1.0
 40
1.0
 40
1.0
 40
1.0
 10
16.81480051676432
 20
-54.72853540039063
 30
0.0
 41
1.0
 10
16.51846718343099
 20
-54.87246976725261
 30
0.0
 41
1.0
 10
15.97660103352865
 20
-54.98253540039063
 30
0.0
 41
1.0
 10
15.19766666666667
 20
-55.0672020670573
 30
0.0
 41
1.0
  0
SPLINE
  5
12B
330
70
100
AcDbEntity
  8
lageman v1_Sketch1
100
AcDbSpline
210
0.0
220
0.0
230
1.0
 70
    12
 71
     3
 72
     8
 73
     4
 74
     0
 42
0.000000001
 43
0.0000000001
 40
0.0
 40
0.0
 40
0.0
 40
0.0
 40
1.0
 40
1.0
 40
1.0
 40
1.0
 10
30.31913385009766
 20
-53.4077322998047
 30
0.0
 41
1.0
 10
30.71706821695964
 20
-53.9665302327474
 30
0.0
 41
1.0
 10
30.97953281656902
 20
-54.52533333333335
 30
0.0
 41
1.0
 10
31.06419948323568
 20
-55.07566666666668
 30
0.0
 41
1.0
  0
LINE
  5
12C
330
70
100
AcDbEntity
  8
lageman v1_Sketch1
100
AcDbLine
 10
23.76593436686198
 20
-51.39266666666667
 30
0.0
 11
23.79133333333334
 21
-51.3842020670573
 31
0.0
  0
SPLINE
  5
12D
330
70
100
AcDbEntity
  8
lageman v1_Sketch1
100
AcDbSpline
210
0.0
220
0.0
230
1.0
 70
    12
 71
     3
 72
     8
 73
     4
 74
     0
 42
0.000000001
 43
0.0000000001
 40
0.0
 40
0.0
 40
0.0
 40
0.0
 40
1.0
 40
1.0
 40
1.0
 40
1.0
 10
10.06686356608073
 20
-41.70679793294271
 30
0.0
 41
1.0
 10
10.04993049112956
 20
-41.73219689941407
 30
0.0
 41
1.0
 10
10.03299677022298
 20
-41.74913126627605
 30
0.0
 41
1.0
 10
10.01606369527181
 20
-41.7745302327474
 30
0.0
 41
1.0
  0
LINE
  5
12E
330
70
100
AcDbEntity
  8
lageman v1_Sketch1
100
AcDbLine
 10
18.27106692504883
 20
-50.61373746744792
 30
0.0
 11
18.27106692504883
 21
-52.11233333333334
 31
0.0
  0
SPLINE
  5
12F
330
70
100
AcDbEntity
  8
lageman v1_Sketch1
100
AcDbSpline
210
0.0
220
0.0
230
1.0
 70
    12
 71
     3
 72
     8
 73
     4
 74
     0
 42
0.000000001
 43
0.0000000001
 40
0.0
 40
0.0
 40
0.0
 40
0.0
 40
1.0
 40
1.0
 40
1.0
 40
1.0
 10
14.84206692504883
 20
-55.10107080078125
 30
0.0
 41
1.0
 10
16.28986744181315
 20
-54.33060620117188
 30
0.0
 41
1.0
 10
17.55986614990234
 20
-52.80660620117188
 30
0.0
 41
1.0
 10
18.27106692504883
 20
-50.61373746744792
 30
0.0
 41
1.0
  0
SPLINE
  5
130
330
70
100
AcDbEntity
  8
lageman v1_Sketch1
100
AcDbSpline
210
0.0
220
0.0
230
1.0
 70
    12
 71
     3
 72
     8
 73
     4
 74
     0
 42
0.000000001
 43
0.0000000001
 40
0.0
 40
0.0
 40
0.0
 40
0.0
 40
1.0
 40
1.0
 40
1.0
 40
1.0
 10
8.551333333333335
 20
-41.7745302327474
 30
0.0
 41
1.0
 10
8.534400258382163
 20
-41.61366666666667
 30
0.0
 41
1.0
 10
8.525933074951172
 20
-41.41893436686198
 30
0.0
 41
1.0
 10
8.525933074951172
 20
-41.17339896647136
 30
0.0
 41
1.0
  0
SPLINE
  5
131
330
70
100
AcDbEntity
  8
lageman v1_Sketch1
100
AcDbSpline
210
0.0
220
0.0
230
1.0
 70
    12
 71
     3
 72
     8
 73
     4
 74
     0
 42
0.000000001
 43
0.0000000001
 40
0.0
 40
0.0
 40
0.0
 40
0.0
 40
1.0
 40
1.0
 40
1.0
 40
1.0
 10
23.876
 20
-52.70500000000001
 30
0.0
 41
1.0
 10
24.04533333333334
 20
-52.67113126627605
 30
0.0
 41
1.0
 10
24.22313385009766
 20
-52.60339896647136
 30
0.0
 41
1.0
 10
24.40939896647136
 20
-52.51026770019532
 30
0.0
 41
1.0
  0
SPLINE
  5
132
330
70
100
AcDbEntity
  8
lageman v1_Sketch1
100
AcDbSpline
210
0.0
220
0.0
230
1.0
 70
    12
 71
     3
 72
     8
 73
     4
 74
     0
 42
0.000000001
 43
0.0000000001
 40
0.0
 40
0.0
 40
0.0
 40
0.0
 40
1.0
 40
1.0
 40
1.0
 40
1.0
 10
27.6182651163737
 20
-55.05026253255209
 30
0.0
 41
1.0
 10
27.16953281656901
 20
-55.02486356608073
 30
0.0
 41
1.0
 10
26.78006563313803
 20
-54.99946459960938
 30
0.0
 41
1.0
 10
26.44986614990235
 20
-54.95713126627605
 30
0.0
 41
1.0
  0
SPLINE
  5
133
330
70
100
AcDbEntity
  8
lageman v1_Sketch1
100
AcDbSpline
210
0.0
220
0.0
230
1.0
 70
    12
 71
     3
 72
     8
 73
     4
 74
     0
 42
0.000000001
 43
0.0000000001
 40
0.0
 40
0.0
 40
0.0
 40
0.0
 40
1.0
 40
1.0
 40
1.0
 40
1.0
 10
14.14779922485352
 20
-52.82353540039063
 30
0.0
 41
1.0
 10
15.83266537475586
 20
-52.4764041341146
 30
0.0
 41
1.0
 10
16.77246589152018
 20
-50.08880310058595
 30
0.0
 41
1.0
 10
16.88253281656901
 20
-48.61560103352865
 30
0.0
 41
1.0
  0
SPLINE
  5
134
330
70
100
AcDbEntity
  8
lageman v1_Sketch1
100
AcDbSpline
210
0.0
220
0.0
230
1.0
 70
    12
 71
     3
 72
     8
 73
     4
 74
     0
 42
0.000000001
 43
0.0000000001
 40
0.0
 40
0.0
 40
0.0
 40
0.0
 40
1.0
 40
1.0
 40
1.0
 40
1.0
 10
24.511
 20
-50.48673229980469
 30
0.0
 41
1.0
 10
24.29933333333334
 20
-50.46133333333334
 30
0.0
 41
1.0
 10
24.01993436686198
 20
-50.52060103352865
 30
0.0
 41
1.0
 10
23.74900000000001
 20
-50.63913126627605
 30
0.0
 41
1.0
  0
SPLINE
  5
135
330
70
100
AcDbEntity
  8
lageman v1_Sketch1
100
AcDbSpline
210
0.0
220
0.0
230
1.0
 70
    12
 71
     3
 72
     8
 73
     4
 74
     0
 42
0.000000001
 43
0.0000000001
 40
0.0
 40
0.0
 40
0.0
 40
0.0
 40
1.0
 40
1.0
 40
1.0
 40
1.0
 10
31.69073229980469
 20
-55.03333333333334
 30
0.0
 41
1.0
 10
31.59759844970704
 20
-54.47453540039063
 30
0.0
 41
1.0
 10
31.38593178304037
 20
-54.00039896647136
 30
0.0
 41
1.0
 10
31.14886614990235
 20
-53.56013126627605
 30
0.0
 41
1.0
  0
SPLINE
  5
136
330
70
100
AcDbEntity
  8
lageman v1_Sketch1
100
AcDbSpline
210
0.0
220
0.0
230
1.0
 70
    12
 71
     3
 72
     8
 73
     4
 74
     0
 42
0.000000001
 43
0.0000000001
 40
0.0
 40
0.0
 40
0.0
 40
0.0
 40
1.0
 40
1.0
 40
1.0
 40
1.0
 10
16.88253281656901
 20
-48.61560103352865
 30
0.0
 41
1.0
 10
17.05186614990234
 20
-46.42273229980469
 30
0.0
 41
1.0
 10
16.15439896647136
 20
-44.37380310058594
 30
0.0
 41
1.0
 10
14.12239896647135
 20
-43.44246976725261
 30
0.0
 41
1.0
  0
SPLINE
  5
137
330
70
100
AcDbEntity
  8
lageman v1_Sketch1
100
AcDbSpline
210
0.0
220
0.0
230
1.0
 70
    12
 71
     3
 72
     8
 73
     4
 74
     0
 42
0.000000001
 43
0.0000000001
 40
0.0
 40
0.0
 40
0.0
 40
0.0
 40
1.0
 40
1.0
 40
1.0
 40
1.0
 10
24.17233333333334
 20
-53.69560103352865
 30
0.0
 41
1.0
 10
24.05380051676433
 20
-53.46700000000002
 30
0.0
 41
1.0
 10
23.96913385009766
 20
-53.19606563313803
 30
0.0
 41
1.0
 10
23.90986614990235
 20
-52.89126770019532
 30
0.0
 41
1.0
  0
LINE
  5
138
330
70
100
AcDbEntity
  8
lageman v1_Sketch1
100
AcDbLine
 10
29.218467183431
 20
-51.60433333333334
 30
0.0
 11
29.56560103352865
 21
-51.26566666666668
 31
0.0
  0
SPLINE
  5
139
330
70
100
AcDbEntity
  8
lageman v1_Sketch1
100
AcDbSpline
210
0.0
220
0.0
230
1.0
 70
    12
 71
     3
 72
     8
 73
     4
 74
     0
 42
0.000000001
 43
0.0000000001
 40
0.0
 40
0.0
 40
0.0
 40
0.0
 40
1.0
 40
1.0
 40
1.0
 40
1.0
 10
23.90986614990235
 20
-52.89126770019532
 30
0.0
 41
1.0
 10
23.90139896647136
 20
-52.832
 30
0.0
 41
1.0
 10
23.89293178304037
 20
-52.77273229980469
 30
0.0
 41
1.0
 10
23.876
 20
-52.70500000000001
 30
0.0
 41
1.0
  0
SPLINE
  5
13A
330
70
100
AcDbEntity
  8
lageman v1_Sketch1
100
AcDbSpline
210
0.0
220
0.0
230
1.0
 70
    12
 71
     3
 72
     8
 73
     4
 74
     0
 42
0.000000001
 43
0.0000000001
 40
0.0
 40
0.0
 40
0.0
 40
0.0
 40
1.0
 40
1.0
 40
1.0
 40
1.0
 10
29.56560103352865
 20
-51.26566666666668
 30
0.0
 41
1.0
 10
29.95506821695964
 20
-51.46039896647137
 30
0.0
 41
1.0
 10
30.32760103352865
 20
-51.64666666666668
 30
0.0
 41
1.0
 10
30.65780051676433
 20
-51.81600000000001
 30
0.0
 41
1.0
  0
SPLINE
  5
13B
330
70
100
AcDbEntity
  8
lageman v1_Sketch1
100
AcDbSpline
210
0.0
220
0.0
230
1.0
 70
    12
 71
     3
 72
     8
 73
     4
 74
     0
 42
0.000000001
 43
0.0000000001
 40
0.0
 40
0.0
 40
0.0
 40
0.0
 40
1.0
 40
1.0
 40
1.0
 40
1.0
 10
28.74433333333334
 20
-52.15466666666667
 30
0.0
 41
1.0
 10
29.48939896647136
 20
-52.55260103352865
 30
0.0
 41
1.0
 10
29.87886614990235
 20
-52.79813126627605
 30
0.0
 41
1.0
 10
30.31913385009766
 20
-53.4077322998047
 30
0.0
 41
1.0
  0
SPLINE
  5
13C
330
70
100
AcDbEntity
  8
lageman v1_Sketch1
100
AcDbSpline
210
0.0
220
0.0
230
1.0
 70
    12
 71
     3
 72
     8
 73
     4
 74
     0
 42
0.000000001
 43
0.0000000001
 40
0.0
 40
0.0
 40
0.0
 40
0.0
 40
1.0
 40
1.0
 40
1.0
 40
1.0
 10
30.76786873372397
 20
-20.8279987080892
 30
0.0
 41
1.0
 10
28.3972020670573
 20
-20.9465315246582
 30
0.0
 41
1.0
 10
28.68506821695964
 20
-24.60413126627605
 30
0.0
 41
1.0
 10
30.24293436686198
 20
-25.56933333333334
 30
0.0
 41
1.0
  0
SPLINE
  5
13D
330
70
100
AcDbEntity
  8
lageman v1_Sketch1
100
AcDbSpline
210
0.0
220
0.0
230
1.0
 70
    12
 71
     3
 72
     8
 73
     4
 74
     0
 42
0.000000001
 43
0.0000000001
 40
0.0
 40
0.0
 40
0.0
 40
0.0
 40
1.0
 40
1.0
 40
1.0
 40
1.0
 10
12.53913255818685
 20
-30.04819948323568
 30
0.0
 41
1.0
 10
12.80159974161784
 20
-30.79326511637371
 30
0.0
 41
1.0
 10
13.35193307495117
 20
-31.99553281656902
 30
0.0
 41
1.0
 10
13.61439896647135
 20
-32.39346718343099
 30
0.0
 41
1.0
  0
SPLINE
  5
13E
330
70
100
AcDbEntity
  8
lageman v1_Sketch1
100
AcDbSpline
210
0.0
220
0.0
230
1.0
 70
    12
 71
     3
 72
     8
 73
     4
 74
     0
 42
0.000000001
 43
0.0000000001
 40
0.0
 40
0.0
 40
0.0
 40
0.0
 40
1.0
 40
1.0
 40
1.0
 40
1.0
 10
39.86106821695964
 20
-29.29466666666667
 30
0.0
 41
1.0
 10
37.99840155029297
 20
-26.25513385009766
 30
0.0
 41
1.0
 10
34.45086873372396
 20
-26.25513385009766
 30
0.0
 41
1.0
 10
32.13946976725261
 20
-28.98139896647136
 30
0.0
 41
1.0
  0
SPLINE
  5
13F
330
70
100
AcDbEntity
  8
lageman v1_Sketch1
100
AcDbSpline
210
0.0
220
0.0
230
1.0
 70
    12
 71
     3
 72
     8
 73
     4
 74
     0
 42
0.000000001
 43
0.0000000001
 40
0.0
 40
0.0
 40
0.0
 40
0.0
 40
1.0
 40
1.0
 40
1.0
 40
1.0
 10
9.939865503946942
 20
-30.82713385009766
 30
0.0
 41
1.0
 10
10.22773229980469
 20
-31.377467183431
 30
0.0
 41
1.0
 10
10.37166537475586
 20
-31.80080051676433
 30
0.0
 41
1.0
 10
9.990665374755861
 20
-32.30880051676433
 30
0.0
 41
1.0
  0
SPLINE
  5
140
330
70
100
AcDbEntity
  8
lageman v1_Sketch1
100
AcDbSpline
210
0.0
220
0.0
230
1.0
 70
    12
 71
     3
 72
     8
 73
     4
 74
     0
 42
0.000000001
 43
0.0000000001
 40
0.0
 40
0.0
 40
0.0
 40
0.0
 40
1.0
 40
1.0
 40
1.0
 40
1.0
 10
32.21566925048829
 20
-27.27959844970704
 30
0.0
 41
1.0
 10
32.8422020670573
 20
-26.76313126627605
 30
0.0
 41
1.0
 10
33.43486873372397
 20
-26.12813126627605
 30
0.0
 41
1.0
 10
33.73966925048829
 20
-25.0782651163737
 30
0.0
 41
1.0
  0
SPLINE
  5
141
330
70
100
AcDbEntity
  8
lageman v1_Sketch1
100
AcDbSpline
210
0.0
220
0.0
230
1.0
 70
    12
 71
     3
 72
     8
 73
     4
 74
     0
 42
0.000000001
 43
0.0000000001
 40
0.0
 40
0.0
 40
0.0
 40
0.0
 40
1.0
 40
1.0
 40
1.0
 40
1.0
 10
30.24293436686198
 20
-25.56933333333334
 30
0.0
 41
1.0
 10
31.25893436686199
 20
-26.19586614990235
 30
0.0
 41
1.0
 10
32.36806821695964
 20
-25.48466666666667
 30
0.0
 41
1.0
 10
32.39346718343099
 20
-24.46866666666667
 30
0.0
 41
1.0
  0
SPLINE
  5
142
330
70
100
AcDbEntity
  8
lageman v1_Sketch1
100
AcDbSpline
210
0.0
220
0.0
230
1.0
 70
    12
 71
     3
 72
     8
 73
     4
 74
     0
 42
0.000000001
 43
0.0000000001
 40
0.0
 40
0.0
 40
0.0
 40
0.0
 40
1.0
 40
1.0
 40
1.0
 40
1.0
 10
32.39346718343099
 20
-24.46866666666667
 30
0.0
 41
1.0
 10
32.41040155029298
 20
-23.68973229980469
 30
0.0
 41
1.0
 10
31.82619948323568
 20
-22.72453281656901
 30
0.0
 41
1.0
 10
30.72553281656901
 20
-22.8007322998047
 30
0.0
 41
1.0
  0
SPLINE
  5
143
330
70
100
AcDbEntity
  8
lageman v1_Sketch1
100
AcDbSpline
210
0.0
220
0.0
230
1.0
 70
    12
 71
     3
 72
     8
 73
     4
 74
     0
 42
0.000000001
 43
0.0000000001
 40
0.0
 40
0.0
 40
0.0
 40
0.0
 40
1.0
 40
1.0
 40
1.0
 40
1.0
 10
10.52406692504883
 20
-20.5147335917155
 30
0.0
 41
1.0
 10
9.922933720906577
 20
-21.25133333333334
 30
0.0
 41
1.0
 10
9.880600387573243
 20
-22.05566666666667
 30
0.0
 41
1.0
 10
10.19386679585775
 20
-22.93619948323568
 30
0.0
 41
1.0
  0
SPLINE
  5
144
330
70
100
AcDbEntity
  8
lageman v1_Sketch1
100
AcDbSpline
210
0.0
220
0.0
230
1.0
 70
    12
 71
     3
 72
     8
 73
     4
 74
     0
 42
0.000000001
 43
0.0000000001
 40
0.0
 40
0.0
 40
0.0
 40
0.0
 40
1.0
 40
1.0
 40
1.0
 40
1.0
 10
30.72553281656901
 20
-22.8007322998047
 30
0.0
 41
1.0
 10
30.45459844970704
 20
-22.81766666666667
 30
0.0
 41
1.0
 10
30.34453281656901
 20
-22.92773229980469
 30
0.0
 41
1.0
 10
30.59006563313803
 20
-23.12246459960938
 30
0.0
 41
1.0
  0
SPLINE
  5
145
330
70
100
AcDbEntity
  8
lageman v1_Sketch1
100
AcDbSpline
210
0.0
220
0.0
230
1.0
 70
    12
 71
     3
 72
     8
 73
     4
 74
     0
 42
0.000000001
 43
0.0000000001
 40
0.0
 40
0.0
 40
0.0
 40
0.0
 40
1.0
 40
1.0
 40
1.0
 40
1.0
 10
6.087532170613608
 20
-29.33700000000001
 30
0.0
 41
1.0
 10
4.952998708089193
 20
-30.84406563313803
 30
0.0
 41
1.0
 10
5.384798901875814
 20
-33.57880051676433
 30
0.0
 41
1.0
 10
7.653865503946941
 20
-34.679467183431
 30
0.0
 41
1.0
  0
LINE
  5
146
330
70
100
AcDbEntity
  8
lageman v1_Sketch1
100
AcDbLine
 10
7.653865503946941
 20
-34.67946718343099
 30
0.0
 11
6.129865503946941
 21
-34.679467183431
 31
0.0
  0
SPLINE
  5
147
330
70
100
AcDbEntity
  8
lageman v1_Sketch1
100
AcDbSpline
210
0.0
220
0.0
230
1.0
 70
    12
 71
     3
 72
     8
 73
     4
 74
     0
 42
0.000000001
 43
0.0000000001
 40
0.0
 40
0.0
 40
0.0
 40
0.0
 40
1.0
 40
1.0
 40
1.0
 40
1.0
 10
7.306732299804688
 20
-36.12726770019532
 30
0.0
 41
1.0
 10
7.365998708089193
 20
-36.23733333333334
 30
0.0
 41
1.0
 10
7.391398966471355
 20
-36.51673488362631
 30
0.0
 41
1.0
 10
7.391398966471355
 20
-36.965467183431
 30
0.0
 41
1.0
  0
LINE
  5
148
330
70
100
AcDbEntity
  8
lageman v1_Sketch1
100
AcDbLine
 10
7.391398966471355
 20
-36.965467183431
 30
0.0
 11
7.391398966471355
 21
-41.16493436686198
 31
0.0
  0
SPLINE
  5
149
330
70
100
AcDbEntity
  8
lageman v1_Sketch1
100
AcDbSpline
210
0.0
220
0.0
230
1.0
 70
    12
 71
     3
 72
     8
 73
     4
 74
     0
 42
0.000000001
 43
0.0000000001
 40
0.0
 40
0.0
 40
0.0
 40
0.0
 40
1.0
 40
1.0
 40
1.0
 40
1.0
 10
13.61439896647135
 20
-32.39346718343099
 30
0.0
 41
1.0
 10
12.95399870808919
 20
-33.17240155029298
 30
0.0
 41
1.0
 10
12.55606563313802
 20
-33.57880051676433
 30
0.0
 41
1.0
 10
11.72633204142253
 20
-33.93440155029298
 30
0.0
 41
1.0
  0
SPLINE
  5
14A
330
70
100
AcDbEntity
  8
lageman v1_Sketch1
100
AcDbSpline
210
0.0
220
0.0
230
1.0
 70
    12
 71
     3
 72
     8
 73
     4
 74
     0
 42
0.000000001
 43
0.0000000001
 40
0.0
 40
0.0
 40
0.0
 40
0.0
 40
1.0
 40
1.0
 40
1.0
 40
1.0
 10
28.15166408284506
 20
-25.82333333333334
 30
0.0
 41
1.0
 10
27.4235302327474
 20
-24.84966666666667
 30
0.0
 41
1.0
 10
26.37366408284506
 20
-23.79980051676433
 30
0.0
 41
1.0
 10
25.22219689941407
 20
-23.13939896647136
 30
0.0
 41
1.0
  0
SPLINE
  5
14B
330
70
100
AcDbEntity
  8
lageman v1_Sketch1
100
AcDbSpline
210
0.0
220
0.0
230
1.0
 70
    12
 71
     3
 72
     8
 73
     4
 74
     0
 42
0.000000001
 43
0.0000000001
 40
0.0
 40
0.0
 40
0.0
 40
0.0
 40
1.0
 40
1.0
 40
1.0
 40
1.0
 10
8.398931783040366
 20
-30.64933333333334
 30
0.0
 41
1.0
 10
8.365064987182618
 20
-30.28526770019532
 30
0.0
 41
1.0
 10
8.1872651163737
 20
-30.32760103352865
 30
0.0
 41
1.0
 10
8.000998708089193
 20
-30.56466666666667
 30
0.0
 41
1.0
  0
SPLINE
  5
14C
330
70
100
AcDbEntity
  8
lageman v1_Sketch1
100
AcDbSpline
210
0.0
220
0.0
230
1.0
 70
    12
 71
     3
 72
     8
 73
     4
 74
     0
 42
0.000000001
 43
0.0000000001
 40
0.0
 40
0.0
 40
0.0
 40
0.0
 40
1.0
 40
1.0
 40
1.0
 40
1.0
 10
31.00493178304037
 20
-25.0782651163737
 30
0.0
 41
1.0
 10
30.46306563313803
 20
-25.10366408284506
 30
0.0
 41
1.0
 10
30.22599741617839
 20
-24.79886614990235
 30
0.0
 41
1.0
 10
29.96353281656901
 20
-24.32473229980469
 30
0.0
 41
1.0
  0
LINE
  5
14D
330
70
100
AcDbEntity
  8
lageman v1_Sketch1
100
AcDbLine
 10
7.365998708089193
 20
-41.76606821695965
 30
0.0
 11
6.129866795857748
 21
-41.76606821695965
 31
0.0
  0
SPLINE
  5
14E
330
70
100
AcDbEntity
  8
lageman v1_Sketch1
100
AcDbSpline
210
0.0
220
0.0
230
1.0
 70
    12
 71
     3
 72
     8
 73
     4
 74
     0
 42
0.000000001
 43
0.0000000001
 40
0.0
 40
0.0
 40
0.0
 40
0.0
 40
1.0
 40
1.0
 40
1.0
 40
1.0
 10
32.13946976725261
 20
-28.98139896647136
 30
0.0
 41
1.0
 10
31.63146976725261
 20
-29.04913126627605
 30
0.0
 41
1.0
 10
30.40380310058595
 20
-29.09146459960938
 30
0.0
 41
1.0
 10
29.85346976725261
 20
-29.10839896647136
 30
0.0
 41
1.0
  0
SPLINE
  5
14F
330
70
100
AcDbEntity
  8
lageman v1_Sketch1
100
AcDbSpline
210
0.0
220
0.0
230
1.0
 70
    12
 71
     3
 72
     8
 73
     4
 74
     0
 42
0.000000001
 43
0.0000000001
 40
0.0
 40
0.0
 40
0.0
 40
0.0
 40
1.0
 40
1.0
 40
1.0
 40
1.0
 10
42.82439896647136
 20
-36.19500000000001
 30
0.0
 41
1.0
 10
42.8582651163737
 20
-36.12726770019532
 30
0.0
 41
1.0
 10
42.90059844970704
 20
-36.06800000000001
 30
0.0
 41
1.0
 10
42.95986614990235
 20
-36.02566666666668
 30
0.0
 41
1.0
  0
SPLINE
  5
150
330
70
100
AcDbEntity
  8
lageman v1_Sketch1
100
AcDbSpline
210
0.0
220
0.0
230
1.0
 70
    12
 71
     3
 72
     8
 73
     4
 74
     0
 42
0.000000001
 43
0.0000000001
 40
0.0
 40
0.0
 40
0.0
 40
0.0
 40
1.0
 40
1.0
 40
1.0
 40
1.0
 10
33.73966925048829
 20
-25.0782651163737
 30
0.0
 41
1.0
 10
34.44240155029298
 20
-22.65679793294271
 30
0.0
 41
1.0
 10
32.53740155029298
 20
-20.73486485799154
 30
0.0
 41
1.0
 10
30.76786873372397
 20
-20.8279987080892
 30
0.0
 41
1.0
  0
SPLINE
  5
151
330
70
100
AcDbEntity
  8
lageman v1_Sketch1
100
AcDbSpline
210
0.0
220
0.0
230
1.0
 70
    12
 71
     3
 72
     8
 73
     4
 74
     0
 42
0.000000001
 43
0.0000000001
 40
0.0
 40
0.0
 40
0.0
 40
0.0
 40
1.0
 40
1.0
 40
1.0
 40
1.0
 10
31.33513126627605
 20
-27.12719948323568
 30
0.0
 41
1.0
 10
30.67473229980469
 20
-27.55053281656901
 30
0.0
 41
1.0
 10
30.19213126627605
 20
-27.63519948323568
 30
0.0
 41
1.0
 10
29.31159844970704
 20
-27.73680051676433
 30
0.0
 41
1.0
  0
SPLINE
  5
152
330
70
100
AcDbEntity
  8
lageman v1_Sketch1
100
AcDbSpline
210
0.0
220
0.0
230
1.0
 70
    12
 71
     3
 72
     8
 73
     4
 74
     0
 42
0.000000001
 43
0.0000000001
 40
0.0
 40
0.0
 40
0.0
 40
0.0
 40
1.0
 40
1.0
 40
1.0
 40
1.0
 10
39.27686614990236
 20
-34.679467183431
 30
0.0
 41
1.0
 10
39.89493178304037
 20
-34.19686614990235
 30
0.0
 41
1.0
 10
40.30980051676433
 20
-33.536467183431
 30
0.0
 41
1.0
 10
40.47913385009766
 20
-32.77446718343099
 30
0.0
 41
1.0
  0
SPLINE
  5
153
330
70
100
AcDbEntity
  8
lageman v1_Sketch1
100
AcDbSpline
210
0.0
220
0.0
230
1.0
 70
    12
 71
     3
 72
     8
 73
     4
 74
     0
 42
0.000000001
 43
0.0000000001
 40
0.0
 40
0.0
 40
0.0
 40
0.0
 40
1.0
 40
1.0
 40
1.0
 40
1.0
 10
8.51746524556478
 20
-33.23166666666667
 30
0.0
 41
1.0
 10
9.499598449707033
 20
-33.85819948323568
 30
0.0
 41
1.0
 10
10.88813126627604
 20
-33.26553281656901
 30
0.0
 41
1.0
 10
10.94739896647135
 20
-31.89393436686199
 30
0.0
 41
1.0
  0
LINE
  5
154
330
70
100
AcDbEntity
  8
lageman v1_Sketch1
100
AcDbLine
 10
6.129865503946941
 20
-34.679467183431
 30
0.0
 11
6.129865503946941
 21
-36.02566666666668
 31
0.0
  0
SPLINE
  5
155
330
70
100
AcDbEntity
  8
lageman v1_Sketch1
100
AcDbSpline
210
0.0
220
0.0
230
1.0
 70
    12
 71
     3
 72
     8
 73
     4
 74
     0
 42
0.000000001
 43
0.0000000001
 40
0.0
 40
0.0
 40
0.0
 40
0.0
 40
1.0
 40
1.0
 40
1.0
 40
1.0
 10
29.73493178304037
 20
-22.33506563313802
 30
0.0
 41
1.0
 10
30.10746459960938
 20
-21.03966537475586
 30
0.0
 41
1.0
 10
31.75846459960938
 20
-21.35293178304037
 30
0.0
 41
1.0
 10
32.66439896647136
 20
-22.49593178304037
 30
0.0
 41
1.0
  0
LINE
  5
156
330
70
100
AcDbEntity
  8
lageman v1_Sketch1
100
AcDbLine
 10
6.129865503946941
 20
-36.02566666666668
 30
0.0
 11
7.222065633138022
 21
-36.02566666666668
 31
0.0
  0
LINE
  5
157
330
70
100
AcDbEntity
  8
lageman v1_Sketch1
100
AcDbLine
 10
6.129866795857748
 20
-41.76606821695965
 30
0.0
 11
6.129866795857748
 21
-43.11226770019533
 31
0.0
  0
SPLINE
  5
158
330
70
100
AcDbEntity
  8
lageman v1_Sketch1
100
AcDbSpline
210
0.0
220
0.0
230
1.0
 70
    12
 71
     3
 72
     8
 73
     4
 74
     0
 42
0.000000001
 43
0.0000000001
 40
0.0
 40
0.0
 40
0.0
 40
0.0
 40
1.0
 40
1.0
 40
1.0
 40
1.0
 10
30.59006563313803
 20
-23.12246459960938
 30
0.0
 41
1.0
 10
30.84406563313803
 20
-23.32566408284506
 30
0.0
 41
1.0
 10
31.1827322998047
 20
-23.25793178304037
 30
0.0
 41
1.0
 10
31.43673229980469
 20
-23.64739896647136
 30
0.0
 41
1.0
  0
LINE
  5
159
330
70
100
AcDbEntity
  8
lageman v1_Sketch1
100
AcDbLine
 10
43.98433333333334
 20
-36.02566666666668
 30
0.0
 11
43.98433333333334
 21
-34.679467183431
 31
0.0
  0
LINE
  5
15A
330
70
100
AcDbEntity
  8
lageman v1_Sketch1
100
AcDbLine
 10
28.82053281656902
 20
-22.44513385009766
 30
0.0
 11
28.82053281656902
 21
-20.59940025838217
 31
0.0
  0
SPLINE
  5
15B
330
70
100
AcDbEntity
  8
lageman v1_Sketch1
100
AcDbSpline
210
0.0
220
0.0
230
1.0
 70
    12
 71
     3
 72
     8
 73
     4
 74
     0
 42
0.000000001
 43
0.0000000001
 40
0.0
 40
0.0
 40
0.0
 40
0.0
 40
1.0
 40
1.0
 40
1.0
 40
1.0
 10
8.000998708089193
 20
-30.56466666666667
 30
0.0
 41
1.0
 10
7.222065633138021
 20
-31.5637322998047
 30
0.0
 41
1.0
 10
7.75546524556478
 20
-32.74906563313802
 30
0.0
 41
1.0
 10
8.51746524556478
 20
-33.23166666666667
 30
0.0
 41
1.0
  0
SPLINE
  5
15C
330
70
100
AcDbEntity
  8
lageman v1_Sketch1
100
AcDbSpline
210
0.0
220
0.0
230
1.0
 70
    12
 71
     3
 72
     8
 73
     4
 74
     0
 42
0.000000001
 43
0.0000000001
 40
0.0
 40
0.0
 40
0.0
 40
0.0
 40
1.0
 40
1.0
 40
1.0
 40
1.0
 10
31.43673229980469
 20
-23.64739896647136
 30
0.0
 41
1.0
 10
31.75000000000001
 20
-24.11306563313802
 30
0.0
 41
1.0
 10
31.73306563313803
 20
-25.04439896647136
 30
0.0
 41
1.0
 10
31.00493178304037
 20
-25.0782651163737
 30
0.0
 41
1.0
  0
LINE
  5
15D
330
70
100
AcDbEntity
  8
lageman v1_Sketch1
100
AcDbLine
 10
6.129866795857748
 20
-43.11226770019533
 30
0.0
 11
11.67553281656901
 21
-43.11226770019532
 31
0.0
  0
SPLINE
  5
15E
330
70
100
AcDbEntity
  8
lageman v1_Sketch1
100
AcDbSpline
210
0.0
220
0.0
230
1.0
 70
    12
 71
     3
 72
     8
 73
     4
 74
     0
 42
0.000000001
 43
0.0000000001
 40
0.0
 40
0.0
 40
0.0
 40
0.0
 40
1.0
 40
1.0
 40
1.0
 40
1.0
 10
11.67553281656901
 20
-43.11226770019532
 30
0.0
 41
1.0
 10
7.594599741617839
 20
-44.17060103352866
 30
0.0
 41
1.0
 10
5.50333268737793
 20
-47.89593436686199
 30
0.0
 41
1.0
 10
7.357532816569011
 20
-51.96839896647136
 30
0.0
 41
1.0
  0
SPLINE
  5
15F
330
70
100
AcDbEntity
  8
lageman v1_Sketch1
100
AcDbSpline
210
0.0
220
0.0
230
1.0
 70
    12
 71
     3
 72
     8
 73
     4
 74
     0
 42
0.000000001
 43
0.0000000001
 40
0.0
 40
0.0
 40
0.0
 40
0.0
 40
1.0
 40
1.0
 40
1.0
 40
1.0
 10
7.357532816569011
 20
-51.96839896647136
 30
0.0
 41
1.0
 10
8.026399612426759
 20
-53.44160103352866
 30
0.0
 41
1.0
 10
9.220199483235678
 20
-54.71160103352866
 30
0.0
 41
1.0
 10
10.87119948323568
 20
-55.37200000000001
 30
0.0
 41
1.0
  0
SPLINE
  5
160
330
70
100
AcDbEntity
  8
lageman v1_Sketch1
100
AcDbSpline
210
0.0
220
0.0
230
1.0
 70
    12
 71
     3
 72
     8
 73
     4
 74
     0
 42
0.000000001
 43
0.0000000001
 40
0.0
 40
0.0
 40
0.0
 40
0.0
 40
1.0
 40
1.0
 40
1.0
 40
1.0
 10
29.96353281656901
 20
-24.32473229980469
 30
0.0
 41
1.0
 10
29.6587322998047
 20
-23.74900000000001
 30
0.0
 41
1.0
 10
29.53173229980469
 20
-23.03779793294271
 30
0.0
 41
1.0
 10
29.73493178304037
 20
-22.33506563313802
 30
0.0
 41
1.0
  0
SPLINE
  5
161
330
70
100
AcDbEntity
  8
lageman v1_Sketch1
100
AcDbSpline
210
0.0
220
0.0
230
1.0
 70
    12
 71
     3
 72
     8
 73
     4
 74
     0
 42
0.000000001
 43
0.0000000001
 40
0.0
 40
0.0
 40
0.0
 40
0.0
 40
1.0
 40
1.0
 40
1.0
 40
1.0
 10
10.19386679585775
 20
-22.93619948323568
 30
0.0
 41
1.0
 10
10.53253346252441
 20
-23.876
 30
0.0
 41
1.0
 10
11.20140025838216
 20
-24.52793178304037
 30
0.0
 41
1.0
 10
11.91259974161784
 20
-25.12059844970704
 30
0.0
 41
1.0
  0
SPLINE
  5
162
330
70
100
AcDbEntity
  8
lageman v1_Sketch1
100
AcDbSpline
210
0.0
220
0.0
230
1.0
 70
    12
 71
     3
 72
     8
 73
     4
 74
     0
 42
0.000000001
 43
0.0000000001
 40
0.0
 40
0.0
 40
0.0
 40
0.0
 40
1.0
 40
1.0
 40
1.0
 40
1.0
 10
8.195732299804689
 20
-29.32006821695964
 30
0.0
 41
1.0
 10
9.000065633138023
 20
-29.58253540039063
 30
0.0
 41
1.0
 10
9.592732299804689
 20
-30.15826770019532
 30
0.0
 41
1.0
 10
9.939865503946942
 20
-30.82713385009766
 30
0.0
 41
1.0
  0
LINE
  5
163
330
70
100
AcDbEntity
  8
lageman v1_Sketch1
100
AcDbLine
 10
42.95986614990236
 20
-36.02566666666668
 30
0.0
 11
43.98433333333334
 21
-36.02566666666668
 31
0.0
  0
SPLINE
  5
164
330
70
100
AcDbEntity
  8
lageman v1_Sketch1
100
AcDbSpline
210
0.0
220
0.0
230
1.0
 70
    12
 71
     3
 72
     8
 73
     4
 74
     0
 42
0.000000001
 43
0.0000000001
 40
0.0
 40
0.0
 40
0.0
 40
0.0
 40
1.0
 40
1.0
 40
1.0
 40
1.0
 10
7.222065633138021
 20
-36.02566666666668
 30
0.0
 41
1.0
 10
7.255932428995769
 20
-36.05106563313803
 30
0.0
 41
1.0
 10
7.281332041422527
 20
-36.08493436686199
 30
0.0
 41
1.0
 10
7.306732299804688
 20
-36.12726770019532
 30
0.0
 41
1.0
  0
SPLINE
  5
165
330
70
100
AcDbEntity
  8
lageman v1_Sketch1
100
AcDbSpline
210
0.0
220
0.0
230
1.0
 70
    12
 71
     3
 72
     8
 73
     4
 74
     0
 42
0.000000001
 43
0.0000000001
 40
0.0
 40
0.0
 40
0.0
 40
0.0
 40
1.0
 40
1.0
 40
1.0
 40
1.0
 10
10.87119948323568
 20
-55.37200000000001
 30
0.0
 41
1.0
 10
11.69246589152018
 20
-55.7022020670573
 30
0.0
 41
1.0
 10
12.573
 20
-55.77839896647136
 30
0.0
 41
1.0
 10
13.43659974161784
 20
-55.60906563313803
 30
0.0
 41
1.0
  0
SPLINE
  5
166
330
70
100
AcDbEntity
  8
lageman v1_Sketch1
100
AcDbSpline
210
0.0
220
0.0
230
1.0
 70
    12
 71
     3
 72
     8
 73
     4
 74
     0
 42
0.000000001
 43
0.0000000001
 40
0.0
 40
0.0
 40
0.0
 40
0.0
 40
1.0
 40
1.0
 40
1.0
 40
1.0
 10
29.56560361735027
 20
-28.43953281656902
 30
0.0
 41
1.0
 10
30.51387131754558
 20
-28.27019948323568
 30
0.0
 41
1.0
 10
31.46213643391928
 20
-27.90613385009766
 30
0.0
 41
1.0
 10
32.21566925048829
 20
-27.27959844970704
 30
0.0
 41
1.0
  0
SPLINE
  5
167
330
70
100
AcDbEntity
  8
lageman v1_Sketch1
100
AcDbSpline
210
0.0
220
0.0
230
1.0
 70
    12
 71
     3
 72
     8
 73
     4
 74
     0
 42
0.000000001
 43
0.0000000001
 40
0.0
 40
0.0
 40
0.0
 40
0.0
 40
1.0
 40
1.0
 40
1.0
 40
1.0
 10
6.460065633138022
 20
-32.21566925048829
 30
0.0
 41
1.0
 10
5.952065633138022
 20
-30.61546976725261
 30
0.0
 41
1.0
 10
6.714065633138021
 20
-28.83746976725261
 30
0.0
 41
1.0
 10
8.195732299804689
 20
-29.32006821695964
 30
0.0
 41
1.0
  0
SPLINE
  5
168
330
70
100
AcDbEntity
  8
lageman v1_Sketch1
100
AcDbSpline
210
0.0
220
0.0
230
1.0
 70
    12
 71
     3
 72
     8
 73
     4
 74
     0
 42
0.000000001
 43
0.0000000001
 40
0.0
 40
0.0
 40
0.0
 40
0.0
 40
1.0
 40
1.0
 40
1.0
 40
1.0
 10
7.391398966471355
 20
-41.16493436686198
 30
0.0
 41
1.0
 10
7.391398966471355
 20
-41.41893436686198
 30
0.0
 41
1.0
 10
7.382932428995769
 20
-41.62213385009766
 30
0.0
 41
1.0
 10
7.365998708089193
 20
-41.76606821695965
 30
0.0
 41
1.0
  0
SPLINE
  5
169
330
70
100
AcDbEntity
  8
lageman v1_Sketch1
100
AcDbSpline
210
0.0
220
0.0
230
1.0
 70
    12
 71
     3
 72
     8
 73
     4
 74
     0
 42
0.000000001
 43
0.0000000001
 40
0.0
 40
0.0
 40
0.0
 40
0.0
 40
1.0
 40
1.0
 40
1.0
 40
1.0
 10
29.31159844970704
 20
-27.73680051676433
 30
0.0
 41
1.0
 10
29.15073229980469
 20
-27.35580051676433
 30
0.0
 41
1.0
 10
28.55806563313803
 20
-26.37366666666667
 30
0.0
 41
1.0
 10
28.15166408284506
 20
-25.82333333333334
 30
0.0
 41
1.0
  0
SPLINE
  5
16A
330
70
100
AcDbEntity
  8
lageman v1_Sketch1
100
AcDbSpline
210
0.0
220
0.0
230
1.0
 70
    12
 71
     3
 72
     8
 73
     4
 74
     0
 42
0.000000001
 43
0.0000000001
 40
0.0
 40
0.0
 40
0.0
 40
0.0
 40
1.0
 40
1.0
 40
1.0
 40
1.0
 10
25.28146459960938
 20
-23.114
 30
0.0
 41
1.0
 10
25.62859844970704
 20
-22.98700000000001
 30
0.0
 41
1.0
 10
26.18739896647136
 20
-22.86
 30
0.0
 41
1.0
 10
26.94939896647136
 20
-22.69913385009766
 30
0.0
 41
1.0
  0
LINE
  5
16B
330
70
100
AcDbEntity
  8
lageman v1_Sketch1
100
AcDbLine
 10
29.85346976725261
 20
-29.10839896647136
 30
0.0
 11
29.56560361735027
 21
-28.43953281656902
 31
0.0
  0
LINE
  5
16C
330
70
100
AcDbEntity
  8
lageman v1_Sketch1
100
AcDbLine
 10
43.98433333333334
 20
-34.679467183431
 30
0.0
 11
39.27686614990235
 21
-34.679467183431
 31
0.0
  0
SPLINE
  5
16D
330
70
100
AcDbEntity
  8
lageman v1_Sketch1
100
AcDbSpline
210
0.0
220
0.0
230
1.0
 70
    12
 71
     3
 72
     8
 73
     4
 74
     0
 42
0.000000001
 43
0.0000000001
 40
0.0
 40
0.0
 40
0.0
 40
0.0
 40
1.0
 40
1.0
 40
1.0
 40
1.0
 10
32.66439896647136
 20
-22.49593178304037
 30
0.0
 41
1.0
 10
33.92593178304037
 20
-24.07919948323568
 30
0.0
 41
1.0
 10
32.90146459960939
 20
-26.11966408284505
 30
0.0
 41
1.0
 10
31.33513126627605
 20
-27.12719948323568
 30
0.0
 41
1.0
  0
LINE
  5
16E
330
70
100
AcDbEntity
  8
lageman v1_Sketch1
100
AcDbLine
 10
25.22219689941407
 20
-23.13939896647136
 30
0.0
 11
25.28146459960938
 21
-23.114
 31
0.0
  0
SPLINE
  5
16F
330
70
100
AcDbEntity
  8
lageman v1_Sketch1
100
AcDbSpline
210
0.0
220
0.0
230
1.0
 70
    12
 71
     3
 72
     8
 73
     4
 74
     0
 42
0.000000001
 43
0.0000000001
 40
0.0
 40
0.0
 40
0.0
 40
0.0
 40
1.0
 40
1.0
 40
1.0
 40
1.0
 10
26.94939896647136
 20
-22.69913385009766
 30
0.0
 41
1.0
 10
27.71139896647136
 20
-22.54673488362631
 30
0.0
 41
1.0
 10
28.33793178304037
 20
-22.46206821695964
 30
0.0
 41
1.0
 10
28.82053281656902
 20
-22.44513385009766
 30
0.0
 41
1.0
  0
SPLINE
  5
170
330
70
100
AcDbEntity
  8
lageman v1_Sketch1
100
AcDbSpline
210
0.0
220
0.0
230
1.0
 70
    12
 71
     3
 72
     8
 73
     4
 74
     0
 42
0.000000001
 43
0.0000000001
 40
0.0
 40
0.0
 40
0.0
 40
0.0
 40
1.0
 40
1.0
 40
1.0
 40
1.0
 10
13.7837335917155
 20
-20.59940025838217
 30
0.0
 41
1.0
 10
13.16566666666667
 20
-19.67653410847982
 30
0.0
 41
1.0
 10
11.50620077514648
 20
-19.32093307495117
 30
0.0
 41
1.0
 10
10.52406692504883
 20
-20.5147335917155
 30
0.0
 41
1.0
  0
LINE
  5
171
330
70
100
AcDbEntity
  8
lageman v1_Sketch1
100
AcDbLine
 10
28.82053281656902
 20
-20.59940025838217
 30
0.0
 11
13.7837335917155
 21
-20.59940025838217
 31
0.0
  0
SPLINE
  5
172
330
70
100
AcDbEntity
  8
lageman v1_Sketch1
100
AcDbSpline
210
0.0
220
0.0
230
1.0
 70
    12
 71
     3
 72
     8
 73
     4
 74
     0
 42
0.000000001
 43
0.0000000001
 40
0.0
 40
0.0
 40
0.0
 40
0.0
 40
1.0
 40
1.0
 40
1.0
 40
1.0
 10
40.47913385009766
 20
-32.77446718343099
 30
0.0
 41
1.0
 10
40.75006821695963
 20
-31.52140155029298
 30
0.0
 41
1.0
 10
40.47066666666667
 20
-30.29373488362631
 30
0.0
 41
1.0
 10
39.86106821695964
 20
-29.29466666666667
 30
0.0
 41
1.0
  0
SPLINE
  5
173
330
70
100
AcDbEntity
  8
lageman v1_Sketch1
100
AcDbSpline
210
0.0
220
0.0
230
1.0
 70
    12
 71
     3
 72
     8
 73
     4
 74
     0
 42
0.000000001
 43
0.0000000001
 40
0.0
 40
0.0
 40
0.0
 40
0.0
 40
1.0
 40
1.0
 40
1.0
 40
1.0
 10
11.91259974161784
 20
-25.12059844970704
 30
0.0
 41
1.0
 10
11.69246589152018
 20
-26.73773229980469
 30
0.0
 41
1.0
 10
12.03959974161784
 20
-28.61733074951172
 30
0.0
 41
1.0
 10
12.53913255818685
 20
-30.04819948323568
 30
0.0
 41
1.0
  0
SPLINE
  5
174
330
70
100
AcDbEntity
  8
lageman v1_Sketch1
100
AcDbSpline
210
0.0
220
0.0
230
1.0
 70
    12
 71
     3
 72
     8
 73
     4
 74
     0
 42
0.000000001
 43
0.0000000001
 40
0.0
 40
0.0
 40
0.0
 40
0.0
 40
1.0
 40
1.0
 40
1.0
 40
1.0
 10
11.72633204142253
 20
-33.93440155029298
 30
0.0
 41
1.0
 10
9.762065633138021
 20
-34.78106821695964
 30
0.0
 41
1.0
 10
7.154332041422526
 20
-34.43393436686199
 30
0.0
 41
1.0
 10
6.460065633138022
 20
-32.21566925048829
 30
0.0
 41
1.0
  0
SPLINE
  5
175
330
70
100
AcDbEntity
  8
lageman v1_Sketch1
100
AcDbSpline
210
0.0
220
0.0
230
1.0
 70
    12
 71
     3
 72
     8
 73
     4
 74
     0
 42
0.000000001
 43
0.0000000001
 40
0.0
 40
0.0
 40
0.0
 40
0.0
 40
1.0
 40
1.0
 40
1.0
 40
1.0
 10
9.990665374755861
 20
-32.30880051676433
 30
0.0
 41
1.0
 10
9.491131912231447
 20
-32.97766666666667
 30
0.0
 41
1.0
 10
8.585198837280275
 20
-32.39346718343099
 30
0.0
 41
1.0
 10
8.348131912231446
 20
-31.79233333333334
 30
0.0
 41
1.0
  0
SPLINE
  5
176
330
70
100
AcDbEntity
  8
lageman v1_Sketch1
100
AcDbSpline
210
0.0
220
0.0
230
1.0
 70
    12
 71
     3
 72
     8
 73
     4
 74
     0
 42
0.000000001
 43
0.0000000001
 40
0.0
 40
0.0
 40
0.0
 40
0.0
 40
1.0
 40
1.0
 40
1.0
 40
1.0
 10
8.348131912231446
 20
-31.79233333333334
 30
0.0
 41
1.0
 10
8.144931783040366
 20
-31.30126770019532
 30
0.0
 41
1.0
 10
8.432798578898113
 20
-31.02186614990235
 30
0.0
 41
1.0
 10
8.398931783040366
 20
-30.64933333333334
 30
0.0
 41
1.0
  0
SPLINE
  5
177
330
70
100
AcDbEntity
  8
lageman v1_Sketch1
100
AcDbSpline
210
0.0
220
0.0
230
1.0
 70
    12
 71
     3
 72
     8
 73
     4
 74
     0
 42
0.000000001
 43
0.0000000001
 40
0.0
 40
0.0
 40
0.0
 40
0.0
 40
1.0
 40
1.0
 40
1.0
 40
1.0
 10
10.94739896647135
 20
-31.89393436686199
 30
0.0
 41
1.0
 10
11.04053281656901
 20
-29.78573488362631
 30
0.0
 41
1.0
 10
7.730065633138022
 20
-27.16106821695964
 30
0.0
 41
1.0
 10
6.087532170613608
 20
-29.33700000000001
 30
0.0
 41
1.0
  0
SPLINE
  5
178
330
70
100
AcDbEntity
  8
lageman v1_Sketch1
100
AcDbSpline
210
0.0
220
0.0
230
1.0
 70
    12
 71
     3
 72
     8
 73
     4
 74
     0
 42
0.000000001
 43
0.0000000001
 40
0.0
 40
0.0
 40
0.0
 40
0.0
 40
1.0
 40
1.0
 40
1.0
 40
1.0
 10
30.742467183431
 20
-45.42366666666667
 30
0.0
 41
1.0
 10
30.22600000000001
 20
-45.44060103352864
 30
0.0
 41
1.0
 10
29.28619948323568
 20
-45.81313126627605
 30
0.0
 41
1.0
 10
29.464
 20
-46.482
 30
0.0
 41
1.0
  0
LINE
  5
179
330
70
100
AcDbEntity
  8
lageman v1_Sketch1
100
AcDbLine
 10
19.93053410847982
 20
-41.77453281656902
 30
0.0
 11
18.16100129191081
 21
-41.77453281656902
 31
0.0
  0
SPLINE
  5
17A
330
70
100
AcDbEntity
  8
lageman v1_Sketch1
100
AcDbSpline
210
0.0
220
0.0
230
1.0
 70
    12
 71
     3
 72
     8
 73
     4
 74
     0
 42
0.000000001
 43
0.0000000001
 40
0.0
 40
0.0
 40
0.0
 40
0.0
 40
1.0
 40
1.0
 40
1.0
 40
1.0
 10
28.8967322998047
 20
-43.61179793294271
 30
0.0
 41
1.0
 10
28.82900000000001
 20
-43.63719689941407
 30
0.0
 41
1.0
 10
28.7697322998047
 20
-43.67106563313803
 30
0.0
 41
1.0
 10
28.71893178304037
 20
-43.70492919921876
 30
0.0
 41
1.0
  0
LINE
  5
17B
330
70
100
AcDbEntity
  8
lageman v1_Sketch1
100
AcDbLine
 10
30.89486614990235
 20
-49.96180310058594
 30
0.0
 11
31.10653281656901
 21
-50.06340413411459
 31
0.0
  0
SPLINE
  5
17C
330
70
100
AcDbEntity
  8
lageman v1_Sketch1
100
AcDbSpline
210
0.0
220
0.0
230
1.0
 70
    12
 71
     3
 72
     8
 73
     4
 74
     0
 42
0.000000001
 43
0.0000000001
 40
0.0
 40
0.0
 40
0.0
 40
0.0
 40
1.0
 40
1.0
 40
1.0
 40
1.0
 10
18.16100129191081
 20
-41.77453281656902
 30
0.0
 41
1.0
 10
18.11866795857747
 20
-41.70680051676433
 30
0.0
 41
1.0
 10
18.08480180867513
 20
-41.63059844970703
 30
0.0
 41
1.0
 10
18.05093436686198
 20
-41.54593178304037
 30
0.0
 41
1.0
  0
SPLINE
  5
17D
330
70
100
AcDbEntity
  8
lageman v1_Sketch1
100
AcDbSpline
210
0.0
220
0.0
230
1.0
 70
    12
 71
     3
 72
     8
 73
     4
 74
     0
 42
0.000000001
 43
0.0000000001
 40
0.0
 40
0.0
 40
0.0
 40
0.0
 40
1.0
 40
1.0
 40
1.0
 40
1.0
 10
18.05093436686198
 20
-41.54593178304037
 30
0.0
 41
1.0
 10
17.83080051676433
 20
-40.99559844970704
 30
0.0
 41
1.0
 10
17.71226770019531
 20
-40.18279793294271
 30
0.0
 41
1.0
 10
17.71226770019531
 20
-39.10753281656902
 30
0.0
 41
1.0
  0
LINE
  5
17E
330
70
100
AcDbEntity
  8
lageman v1_Sketch1
100
AcDbLine
 10
40.05580051676433
 20
-36.01719948323569
 30
0.0
 11
42.02853281656902
 21
-36.01719948323569
 31
0.0
  0
SPLINE
  5
17F
330
70
100
AcDbEntity
  8
lageman v1_Sketch1
100
AcDbSpline
210
0.0
220
0.0
230
1.0
 70
    12
 71
     3
 72
     8
 73
     4
 74
     0
 42
0.000000001
 43
0.0000000001
 40
0.0
 40
0.0
 40
0.0
 40
0.0
 40
1.0
 40
1.0
 40
1.0
 40
1.0
 10
17.71226770019531
 20
-39.10753281656902
 30
0.0
 41
1.0
 10
17.71226770019531
 20
-38.0407322998047
 30
0.0
 41
1.0
 10
17.83080051676433
 20
-37.23639896647136
 30
0.0
 41
1.0
 10
18.07633462524414
 20
-36.68606563313803
 30
0.0
 41
1.0
  0
LINE
  5
180
330
70
100
AcDbEntity
  8
lageman v1_Sketch1
100
AcDbLine
 10
13.43659974161784
 20
-57.08226770019532
 30
0.0
 11
41.88460103352865
 21
-57.08226770019532
 31
0.0
  0
LINE
  5
181
330
70
100
AcDbEntity
  8
lageman v1_Sketch1
100
AcDbLine
 10
43.99280310058594
 20
-41.76606821695964
 30
0.0
 11
42.69740413411459
 21
-41.76606821695965
 31
0.0
  0
LINE
  5
182
330
70
100
AcDbEntity
  8
lageman v1_Sketch1
100
AcDbLine
 10
42.299467183431
 20
-37.219467183431
 30
0.0
 11
42.29946718343099
 21
-40.30980051676432
 31
0.0
  0
LINE
  5
183
330
70
100
AcDbEntity
  8
lageman v1_Sketch1
100
AcDbLine
 10
42.29946718343099
 20
-40.30980051676432
 30
0.0
 11
40.05580051676433
 21
-36.01719948323569
 31
0.0
  0
LINE
  5
184
330
70
100
AcDbEntity
  8
lageman v1_Sketch1
100
AcDbLine
 10
13.43659974161784
 20
-55.60906563313803
 30
0.0
 11
13.43659974161784
 21
-57.08226770019532
 31
0.0
  0
SPLINE
  5
185
330
70
100
AcDbEntity
  8
lageman v1_Sketch1
100
AcDbSpline
210
0.0
220
0.0
230
1.0
 70
    12
 71
     3
 72
     8
 73
     4
 74
     0
 42
0.000000001
 43
0.0000000001
 40
0.0
 40
0.0
 40
0.0
 40
0.0
 40
1.0
 40
1.0
 40
1.0
 40
1.0
 10
38.91280051676433
 20
-40.902467183431
 30
0.0
 41
1.0
 10
38.91280051676433
 20
-41.283467183431
 30
0.0
 41
1.0
 10
38.88740155029298
 20
-41.57133333333334
 30
0.0
 41
1.0
 10
38.84506821695964
 20
-41.75760103352865
 30
0.0
 41
1.0
  0
LINE
  5
186
330
70
100
AcDbEntity
  8
lageman v1_Sketch1
100
AcDbLine
 10
28.46493178304037
 20
-43.12072971598307
 30
0.0
 11
34.46779793294272
 21
-43.12072971598308
 31
0.0
  0
SPLINE
  5
187
330
70
100
AcDbEntity
  8
lageman v1_Sketch1
100
AcDbSpline
210
0.0
220
0.0
230
1.0
 70
    12
 71
     3
 72
     8
 73
     4
 74
     0
 42
0.000000001
 43
0.0000000001
 40
0.0
 40
0.0
 40
0.0
 40
0.0
 40
1.0
 40
1.0
 40
1.0
 40
1.0
 10
38.51486614990236
 20
-36.0172020670573
 30
0.0
 41
1.0
 10
38.5487322998047
 20
-36.05106563313803
 30
0.0
 41
1.0
 10
38.57413385009766
 20
-36.08493436686199
 30
0.0
 41
1.0
 10
38.60800000000001
 20
-36.11033333333334
 30
0.0
 41
1.0
  0
LINE
  5
188
330
70
100
AcDbEntity
  8
lageman v1_Sketch1
100
AcDbLine
 10
43.99280310058594
 20
-43.11226770019532
 30
0.0
 11
43.99280310058594
 21
-41.76606821695964
 31
0.0
  0
SPLINE
  5
189
330
70
100
AcDbEntity
  8
lageman v1_Sketch1
100
AcDbSpline
210
0.0
220
0.0
230
1.0
 70
    12
 71
     3
 72
     8
 73
     4
 74
     0
 42
0.000000001
 43
0.0000000001
 40
0.0
 40
0.0
 40
0.0
 40
0.0
 40
1.0
 40
1.0
 40
1.0
 40
1.0
 10
28.3887322998047
 20
-45.466
 30
0.0
 41
1.0
 10
28.47339896647136
 20
-45.34746459960937
 30
0.0
 41
1.0
 10
28.54959844970704
 20
-45.22893436686199
 30
0.0
 41
1.0
 10
28.60886614990235
 20
-45.10193436686199
 30
0.0
 41
1.0
  0
LINE
  5
18A
330
70
100
AcDbEntity
  8
lageman v1_Sketch1
100
AcDbLine
 10
41.88460103352865
 20
-57.08226770019532
 30
0.0
 11
42.65506821695963
 21
-46.23646459960938
 31
0.0
  0
SPLINE
  5
18B
330
70
100
AcDbEntity
  8
lageman v1_Sketch1
100
AcDbSpline
210
0.0
220
0.0
230
1.0
 70
    12
 71
     3
 72
     8
 73
     4
 74
     0
 42
0.000000001
 43
0.0000000001
 40
0.0
 40
0.0
 40
0.0
 40
0.0
 40
1.0
 40
1.0
 40
1.0
 40
1.0
 10
28.71893178304037
 20
-43.70492919921876
 30
0.0
 41
1.0
 10
28.65966408284506
 20
-43.49326253255209
 30
0.0
 41
1.0
 10
28.57499741617839
 20
-43.2985302327474
 30
0.0
 41
1.0
 10
28.46493178304037
 20
-43.12072971598308
 30
0.0
 41
1.0
  0
SPLINE
  5
18C
330
70
100
AcDbEntity
  8
lageman v1_Sketch1
100
AcDbSpline
210
0.0
220
0.0
230
1.0
 70
    12
 71
     3
 72
     8
 73
     4
 74
     0
 42
0.000000001
 43
0.0000000001
 40
0.0
 40
0.0
 40
0.0
 40
0.0
 40
1.0
 40
1.0
 40
1.0
 40
1.0
 10
42.69740413411459
 20
-37.22793436686199
 30
0.0
 41
1.0
 10
42.69739896647136
 20
-36.711467183431
 30
0.0
 41
1.0
 10
42.73973229980469
 20
-36.37280051676433
 30
0.0
 41
1.0
 10
42.82439896647136
 20
-36.19500000000001
 30
0.0
 41
1.0
  0
SPLINE
  5
18D
330
70
100
AcDbEntity
  8
lageman v1_Sketch1
100
AcDbSpline
210
0.0
220
0.0
230
1.0
 70
    12
 71
     3
 72
     8
 73
     4
 74
     0
 42
0.000000001
 43
0.0000000001
 40
0.0
 40
0.0
 40
0.0
 40
0.0
 40
1.0
 40
1.0
 40
1.0
 40
1.0
 10
26.93246459960938
 20
-46.38039896647136
 30
0.0
 41
1.0
 10
27.50819689941407
 20
-46.28726770019532
 30
0.0
 41
1.0
 10
27.9992651163737
 20
-45.99939896647136
 30
0.0
 41
1.0
 10
28.3887322998047
 20
-45.466
 30
0.0
 41
1.0
  0
SPLINE
  5
18E
330
70
100
AcDbEntity
  8
lageman v1_Sketch1
100
AcDbSpline
210
0.0
220
0.0
230
1.0
 70
    12
 71
     3
 72
     8
 73
     4
 74
     0
 42
0.000000001
 43
0.0000000001
 40
0.0
 40
0.0
 40
0.0
 40
0.0
 40
1.0
 40
1.0
 40
1.0
 40
1.0
 10
29.57406563313803
 20
-44.38226770019531
 30
0.0
 41
1.0
 10
29.37086614990235
 20
-44.196
 30
0.0
 41
1.0
 10
29.2692651163737
 20
-44.48386873372396
 30
0.0
 41
1.0
 10
29.12533333333334
 20
-44.63626770019532
 30
0.0
 41
1.0
  0
SPLINE
  5
18F
330
70
100
AcDbEntity
  8
lageman v1_Sketch1
100
AcDbSpline
210
0.0
220
0.0
230
1.0
 70
    12
 71
     3
 72
     8
 73
     4
 74
     0
 42
0.000000001
 43
0.0000000001
 40
0.0
 40
0.0
 40
0.0
 40
0.0
 40
1.0
 40
1.0
 40
1.0
 40
1.0
 10
29.12533333333334
 20
-44.63626770019532
 30
0.0
 41
1.0
 10
29.01526770019532
 20
-44.75480310058594
 30
0.0
 41
1.0
 10
28.86286614990235
 20
-44.76326770019531
 30
0.0
 41
1.0
 10
28.76126770019532
 20
-44.67860103352864
 30
0.0
 41
1.0
  0
SPLINE
  5
190
330
70
100
AcDbEntity
  8
lageman v1_Sketch1
100
AcDbSpline
210
0.0
220
0.0
230
1.0
 70
    12
 71
     3
 72
     8
 73
     4
 74
     0
 42
0.000000001
 43
0.0000000001
 40
0.0
 40
0.0
 40
0.0
 40
0.0
 40
1.0
 40
1.0
 40
1.0
 40
1.0
 10
28.80360103352865
 20
-44.06900000000001
 30
0.0
 41
1.0
 10
29.31160103352865
 20
-43.51866666666667
 30
0.0
 41
1.0
 10
31.01340155029298
 20
-43.69646459960939
 30
0.0
 41
1.0
 10
30.742467183431
 20
-45.42366666666667
 30
0.0
 41
1.0
  0
SPLINE
  5
191
330
70
100
AcDbEntity
  8
lageman v1_Sketch1
100
AcDbSpline
210
0.0
220
0.0
230
1.0
 70
    12
 71
     3
 72
     8
 73
     4
 74
     0
 42
0.000000001
 43
0.0000000001
 40
0.0
 40
0.0
 40
0.0
 40
0.0
 40
1.0
 40
1.0
 40
1.0
 40
1.0
 10
29.464
 20
-46.482
 30
0.0
 41
1.0
 10
29.56560103352865
 20
-46.86300000000001
 30
0.0
 41
1.0
 10
30.06513385009766
 20
-47.10853540039063
 30
0.0
 41
1.0
 10
30.488467183431
 20
-46.82066666666667
 30
0.0
 41
1.0
  0
SPLINE
  5
192
330
70
100
AcDbEntity
  8
lageman v1_Sketch1
100
AcDbSpline
210
0.0
220
0.0
230
1.0
 70
    12
 71
     3
 72
     8
 73
     4
 74
     0
 42
0.000000001
 43
0.0000000001
 40
0.0
 40
0.0
 40
0.0
 40
0.0
 40
1.0
 40
1.0
 40
1.0
 40
1.0
 10
32.34266666666667
 20
-47.97213126627605
 30
0.0
 41
1.0
 10
31.82619948323568
 20
-48.2007322998047
 30
0.0
 41
1.0
 10
31.36053281656902
 20
-48.48860103352865
 30
0.0
 41
1.0
 10
30.89486614990235
 20
-48.82726770019532
 30
0.0
 41
1.0
  0
SPLINE
  5
193
330
70
100
AcDbEntity
  8
lageman v1_Sketch1
100
AcDbSpline
210
0.0
220
0.0
230
1.0
 70
    12
 71
     3
 72
     8
 73
     4
 74
     0
 42
0.000000001
 43
0.0000000001
 40
0.0
 40
0.0
 40
0.0
 40
0.0
 40
1.0
 40
1.0
 40
1.0
 40
1.0
 10
28.29559844970704
 20
-47.371
 30
0.0
 41
1.0
 10
27.88073229980469
 20
-47.07466666666667
 30
0.0
 41
1.0
 10
27.44893178304037
 20
-46.73600000000001
 30
0.0
 41
1.0
 10
26.93246459960938
 20
-46.38039896647136
 30
0.0
 41
1.0
  0
SPLINE
  5
194
330
70
100
AcDbEntity
  8
lageman v1_Sketch1
100
AcDbSpline
210
0.0
220
0.0
230
1.0
 70
    12
 71
     3
 72
     8
 73
     4
 74
     0
 42
0.000000001
 43
0.0000000001
 40
0.0
 40
0.0
 40
0.0
 40
0.0
 40
1.0
 40
1.0
 40
1.0
 40
1.0
 10
32.79139896647136
 20
-46.90533333333333
 30
0.0
 41
1.0
 10
32.5797322998047
 20
-46.09253540039063
 30
0.0
 41
1.0
 10
31.88546459960938
 20
-45.60146459960939
 30
0.0
 41
1.0
 10
31.09806563313803
 20
-45.466
 30
0.0
 41
1.0
  0
SPLINE
  5
195
330
70
100
AcDbEntity
  8
lageman v1_Sketch1
100
AcDbSpline
210
0.0
220
0.0
230
1.0
 70
    12
 71
     3
 72
     8
 73
     4
 74
     0
 42
0.000000001
 43
0.0000000001
 40
0.0
 40
0.0
 40
0.0
 40
0.0
 40
1.0
 40
1.0
 40
1.0
 40
1.0
 10
28.76126770019532
 20
-44.67860103352864
 30
0.0
 41
1.0
 10
28.80360103352865
 20
-44.47539896647136
 30
0.0
 41
1.0
 10
28.82053540039063
 20
-44.2722020670573
 30
0.0
 41
1.0
 10
28.80360103352865
 20
-44.06900000000001
 30
0.0
 41
1.0
  0
SPLINE
  5
196
330
70
100
AcDbEntity
  8
lageman v1_Sketch1
100
AcDbSpline
210
0.0
220
0.0
230
1.0
 70
    12
 71
     3
 72
     8
 73
     4
 74
     0
 42
0.000000001
 43
0.0000000001
 40
0.0
 40
0.0
 40
0.0
 40
0.0
 40
1.0
 40
1.0
 40
1.0
 40
1.0
 10
31.59760103352865
 20
-50.32586873372396
 30
0.0
 41
1.0
 10
31.76693436686198
 20
-50.41900000000001
 30
0.0
 41
1.0
 10
31.93626770019532
 20
-50.50366666666668
 30
0.0
 41
1.0
 10
32.08866666666668
 20
-50.57986873372397
 30
0.0
 41
1.0
  0
LINE
  5
197
330
70
100
AcDbEntity
  8
lageman v1_Sketch1
100
AcDbLine
 10
38.84506821695964
 20
-41.75760103352865
 30
0.0
 11
37.67666666666667
 21
-41.75760103352865
 31
0.0
  0
LINE
  5
198
330
70
100
AcDbEntity
  8
lageman v1_Sketch1
100
AcDbLine
 10
42.69740413411459
 20
-41.76606821695965
 30
0.0
 11
42.69740413411459
 21
-37.22793436686199
 31
0.0
  0
LINE
  5
199
330
70
100
AcDbEntity
  8
lageman v1_Sketch1
100
AcDbLine
 10
38.91280051676433
 20
-36.57600000000001
 30
0.0
 11
38.91280051676433
 21
-40.902467183431
 31
0.0
  0
SPLINE
  5
19A
330
70
100
AcDbEntity
  8
lageman v1_Sketch1
100
AcDbSpline
210
0.0
220
0.0
230
1.0
 70
    12
 71
     3
 72
     8
 73
     4
 74
     0
 42
0.000000001
 43
0.0000000001
 40
0.0
 40
0.0
 40
0.0
 40
0.0
 40
1.0
 40
1.0
 40
1.0
 40
1.0
 10
37.67666666666668
 20
-41.75760103352865
 30
0.0
 41
1.0
 10
37.62586614990235
 20
-41.63906821695964
 30
0.0
 41
1.0
 10
37.57506563313802
 20
-41.48666666666667
 30
0.0
 41
1.0
 10
37.53273229980469
 20
-41.30040155029297
 30
0.0
 41
1.0
  0
SPLINE
  5
19B
330
70
100
AcDbEntity
  8
lageman v1_Sketch1
100
AcDbSpline
210
0.0
220
0.0
230
1.0
 70
    12
 71
     3
 72
     8
 73
     4
 74
     0
 42
0.000000001
 43
0.0000000001
 40
0.0
 40
0.0
 40
0.0
 40
0.0
 40
1.0
 40
1.0
 40
1.0
 40
1.0
 10
31.91086614990235
 20
-51.11326770019532
 30
0.0
 41
1.0
 10
31.6822651163737
 20
-51.04553540039063
 30
0.0
 41
1.0
 10
31.43673229980469
 20
-50.96933333333335
 30
0.0
 41
1.0
 10
31.19119948323568
 20
-50.8762020670573
 30
0.0
 41
1.0
  0
SPLINE
  5
19C
330
70
100
AcDbEntity
  8
lageman v1_Sketch1
100
AcDbSpline
210
0.0
220
0.0
230
1.0
 70
    12
 71
     3
 72
     8
 73
     4
 74
     0
 42
0.000000001
 43
0.0000000001
 40
0.0
 40
0.0
 40
0.0
 40
0.0
 40
1.0
 40
1.0
 40
1.0
 40
1.0
 10
30.89486614990235
 20
-48.82726770019532
 30
0.0
 41
1.0
 10
29.86193178304037
 20
-48.36160103352866
 30
0.0
 41
1.0
 10
28.85439896647136
 20
-47.76893436686198
 30
0.0
 41
1.0
 10
28.29559844970704
 20
-47.371
 30
0.0
 41
1.0
  0
LINE
  5
19D
330
70
100
AcDbEntity
  8
lageman v1_Sketch1
100
AcDbLine
 10
37.53273229980468
 20
-41.30040155029297
 30
0.0
 11
36.27119948323568
 21
-36.0172020670573
 31
0.0
  0
LINE
  5
19E
330
70
100
AcDbEntity
  8
lageman v1_Sketch1
100
AcDbLine
 10
36.27119948323568
 20
-36.0172020670573
 30
0.0
 11
38.51486614990236
 21
-36.0172020670573
 31
0.0
  0
SPLINE
  5
19F
330
70
100
AcDbEntity
  8
lageman v1_Sketch1
100
AcDbSpline
210
0.0
220
0.0
230
1.0
 70
    12
 71
     3
 72
     8
 73
     4
 74
     0
 42
0.000000001
 43
0.0000000001
 40
0.0
 40
0.0
 40
0.0
 40
0.0
 40
1.0
 40
1.0
 40
1.0
 40
1.0
 10
30.35300000000001
 20
-50.51213643391928
 30
0.0
 41
1.0
 10
30.52233333333334
 20
-50.31740413411458
 30
0.0
 41
1.0
 10
30.70860103352865
 20
-50.13113643391928
 30
0.0
 41
1.0
 10
30.89486614990235
 20
-49.96180310058594
 30
0.0
 41
1.0
  0
SPLINE
  5
1A0
330
70
100
AcDbEntity
  8
lageman v1_Sketch1
100
AcDbSpline
210
0.0
220
0.0
230
1.0
 70
    12
 71
     3
 72
     8
 73
     4
 74
     0
 42
0.000000001
 43
0.0000000001
 40
0.0
 40
0.0
 40
0.0
 40
0.0
 40
1.0
 40
1.0
 40
1.0
 40
1.0
 10
33.95979793294272
 20
-43.57792919921876
 30
0.0
 41
1.0
 10
33.20626770019532
 20
-44.39073229980469
 30
0.0
 41
1.0
 10
32.96919948323568
 20
-45.23739896647136
 30
0.0
 41
1.0
 10
32.84219948323568
 20
-46.0502020670573
 30
0.0
 41
1.0
  0
SPLINE
  5
1A1
330
70
100
AcDbEntity
  8
lageman v1_Sketch1
100
AcDbSpline
210
0.0
220
0.0
230
1.0
 70
    12
 71
     3
 72
     8
 73
     4
 74
     0
 42
0.000000001
 43
0.0000000001
 40
0.0
 40
0.0
 40
0.0
 40
0.0
 40
1.0
 40
1.0
 40
1.0
 40
1.0
 10
30.488467183431
 20
-46.82066666666667
 30
0.0
 41
1.0
 10
30.83560103352865
 20
-46.57513126627605
 30
0.0
 41
1.0
 10
30.98800000000001
 20
-46.12639896647136
 30
0.0
 41
1.0
 10
31.14886614990235
 20
-45.76233333333334
 30
0.0
 41
1.0
  0
SPLINE
  5
1A2
330
70
100
AcDbEntity
  8
lageman v1_Sketch1
100
AcDbSpline
210
0.0
220
0.0
230
1.0
 70
    12
 71
     3
 72
     8
 73
     4
 74
     0
 42
0.000000001
 43
0.0000000001
 40
0.0
 40
0.0
 40
0.0
 40
0.0
 40
1.0
 40
1.0
 40
1.0
 40
1.0
 10
34.46779793294272
 20
-43.12072971598308
 30
0.0
 41
1.0
 10
34.2899974161784
 20
-43.25619689941407
 30
0.0
 41
1.0
 10
34.12066408284506
 20
-43.40859586588542
 30
0.0
 41
1.0
 10
33.95979793294272
 20
-43.57792919921876
 30
0.0
 41
1.0
  0
SPLINE
  5
1A3
330
70
100
AcDbEntity
  8
lageman v1_Sketch1
100
AcDbSpline
210
0.0
220
0.0
230
1.0
 70
    12
 71
     3
 72
     8
 73
     4
 74
     0
 42
0.000000001
 43
0.0000000001
 40
0.0
 40
0.0
 40
0.0
 40
0.0
 40
1.0
 40
1.0
 40
1.0
 40
1.0
 10
31.10653281656901
 20
-50.06340413411459
 30
0.0
 41
1.0
 10
31.29280051676433
 20
-50.165
 30
0.0
 41
1.0
 10
31.45366666666668
 20
-50.24966666666667
 30
0.0
 41
1.0
 10
31.59760103352865
 20
-50.32586873372396
 30
0.0
 41
1.0
  0
LINE
  5
1A4
330
70
100
AcDbEntity
  8
lageman v1_Sketch1
100
AcDbLine
 10
19.52413385009766
 20
-39.03980051676433
 30
0.0
 11
19.52413385009766
 21
-39.57319948323569
 31
0.0
  0
LINE
  5
1A5
330
70
100
AcDbEntity
  8
lageman v1_Sketch1
100
AcDbLine
 10
19.52413385009766
 20
-39.57319948323569
 30
0.0
 11
19.685
 21
-39.59013385009767
 31
0.0
  0
SPLINE
  5
1A6
330
70
100
AcDbEntity
  8
lageman v1_Sketch1
100
AcDbSpline
210
0.0
220
0.0
230
1.0
 70
    12
 71
     3
 72
     8
 73
     4
 74
     0
 42
0.000000001
 43
0.0000000001
 40
0.0
 40
0.0
 40
0.0
 40
0.0
 40
1.0
 40
1.0
 40
1.0
 40
1.0
 10
32.84219948323568
 20
-46.0502020670573
 30
0.0
 41
1.0
 10
32.79986614990235
 20
-46.32960103352865
 30
0.0
 41
1.0
 10
32.78293178304037
 20
-46.61746976725261
 30
0.0
 41
1.0
 10
32.79139896647136
 20
-46.90533333333333
 30
0.0
 41
1.0
  0
SPLINE
  5
1A7
330
70
100
AcDbEntity
  8
lageman v1_Sketch1
100
AcDbSpline
210
0.0
220
0.0
230
1.0
 70
    12
 71
     3
 72
     8
 73
     4
 74
     0
 42
0.000000001
 43
0.0000000001
 40
0.0
 40
0.0
 40
0.0
 40
0.0
 40
1.0
 40
1.0
 40
1.0
 40
1.0
 10
32.08866666666668
 20
-50.57986873372397
 30
0.0
 41
1.0
 10
32.01246718343099
 20
-50.7492020670573
 30
0.0
 41
1.0
 10
31.95319948323569
 20
-50.927
 30
0.0
 41
1.0
 10
31.91086614990235
 20
-51.11326770019532
 30
0.0
 41
1.0
  0
SPLINE
  5
1A8
330
70
100
AcDbEntity
  8
lageman v1_Sketch1
100
AcDbSpline
210
0.0
220
0.0
230
1.0
 70
    12
 71
     3
 72
     8
 73
     4
 74
     0
 42
0.000000001
 43
0.0000000001
 40
0.0
 40
0.0
 40
0.0
 40
0.0
 40
1.0
 40
1.0
 40
1.0
 40
1.0
 10
19.685
 20
-39.59013385009767
 30
0.0
 41
1.0
 10
19.85433333333334
 20
-39.60706821695964
 30
0.0
 41
1.0
 10
19.96440025838216
 20
-39.68326770019532
 30
0.0
 41
1.0
 10
20.02366666666667
 20
-39.81026770019532
 30
0.0
 41
1.0
  0
SPLINE
  5
1A9
330
70
100
AcDbEntity
  8
lageman v1_Sketch1
100
AcDbSpline
210
0.0
220
0.0
230
1.0
 70
    12
 71
     3
 72
     8
 73
     4
 74
     0
 42
0.000000001
 43
0.0000000001
 40
0.0
 40
0.0
 40
0.0
 40
0.0
 40
1.0
 40
1.0
 40
1.0
 40
1.0
 10
20.02366666666667
 20
-39.81026770019532
 30
0.0
 41
1.0
 10
20.08293307495117
 20
-39.93726770019532
 30
0.0
 41
1.0
 10
20.11680051676433
 20
-40.1997348836263
 30
0.0
 41
1.0
 10
20.11680051676433
 20
-40.59766666666667
 30
0.0
 41
1.0
  0
SPLINE
  5
1AA
330
70
100
AcDbEntity
  8
lageman v1_Sketch1
100
AcDbSpline
210
0.0
220
0.0
230
1.0
 70
    12
 71
     3
 72
     8
 73
     4
 74
     0
 42
0.000000001
 43
0.0000000001
 40
0.0
 40
0.0
 40
0.0
 40
0.0
 40
1.0
 40
1.0
 40
1.0
 40
1.0
 10
20.11680051676433
 20
-40.59766666666667
 30
0.0
 41
1.0
 10
20.11680051676433
 20
-41.09719948323568
 30
0.0
 41
1.0
 10
20.05753410847982
 20
-41.48666666666667
 30
0.0
 41
1.0
 10
19.93053410847982
 20
-41.77453281656902
 30
0.0
 41
1.0
  0
LINE
  5
1AB
330
70
100
AcDbEntity
  8
lageman v1_Sketch1
100
AcDbLine
 10
31.19119948323568
 20
-50.8762020670573
 30
0.0
 11
30.35300000000001
 21
-50.51213643391928
 31
0.0
  0
SPLINE
  5
1AC
330
70
100
AcDbEntity
  8
lageman v1_Sketch1
100
AcDbSpline
210
0.0
220
0.0
230
1.0
 70
    12
 71
     3
 72
     8
 73
     4
 74
     0
 42
0.000000001
 43
0.0000000001
 40
0.0
 40
0.0
 40
0.0
 40
0.0
 40
1.0
 40
1.0
 40
1.0
 40
1.0
 10
39.25146976725261
 20
-45.53373229980469
 30
0.0
 41
1.0
 10
39.48007080078126
 20
-45.06806563313802
 30
0.0
 41
1.0
 10
39.50546976725262
 20
-44.52619689941406
 30
0.0
 41
1.0
 10
39.20066925048829
 20
-43.942
 30
0.0
 41
1.0
  0
SPLINE
  5
1AD
330
70
100
AcDbEntity
  8
lageman v1_Sketch1
100
AcDbSpline
210
0.0
220
0.0
230
1.0
 70
    12
 71
     3
 72
     8
 73
     4
 74
     0
 42
0.000000001
 43
0.0000000001
 40
0.0
 40
0.0
 40
0.0
 40
0.0
 40
1.0
 40
1.0
 40
1.0
 40
1.0
 10
39.20066925048829
 20
-43.942
 30
0.0
 41
1.0
 10
39.03133591715496
 20
-43.62026770019531
 30
0.0
 41
1.0
 10
38.78580310058595
 20
-43.34086614990235
 30
0.0
 41
1.0
 10
38.48946976725261
 20
-43.11226770019532
 30
0.0
 41
1.0
  0
SPLINE
  5
1AE
330
70
100
AcDbEntity
  8
lageman v1_Sketch1
100
AcDbSpline
210
0.0
220
0.0
230
1.0
 70
    12
 71
     3
 72
     8
 73
     4
 74
     0
 42
0.000000001
 43
0.0000000001
 40
0.0
 40
0.0
 40
0.0
 40
0.0
 40
1.0
 40
1.0
 40
1.0
 40
1.0
 10
28.60886614990235
 20
-45.10193436686199
 30
0.0
 41
1.0
 10
28.63426511637371
 20
-45.11886873372396
 30
0.0
 41
1.0
 10
28.65966666666667
 20
-45.13580310058594
 30
0.0
 41
1.0
 10
28.68506563313803
 20
-45.15273229980469
 30
0.0
 41
1.0
  0
SPLINE
  5
1AF
330
70
100
AcDbEntity
  8
lageman v1_Sketch1
100
AcDbSpline
210
0.0
220
0.0
230
1.0
 70
    12
 71
     3
 72
     8
 73
     4
 74
     0
 42
0.000000001
 43
0.0000000001
 40
0.0
 40
0.0
 40
0.0
 40
0.0
 40
1.0
 40
1.0
 40
1.0
 40
1.0
 10
40.84320206705729
 20
-46.23646459960938
 30
0.0
 41
1.0
 10
40.72466925048829
 20
-45.60146459960939
 30
0.0
 41
1.0
 10
39.92880310058595
 20
-45.21200000000001
 30
0.0
 41
1.0
 10
39.25146976725261
 20
-45.53373229980469
 30
0.0
 41
1.0
  0
SPLINE
  5
1B0
330
70
100
AcDbEntity
  8
lageman v1_Sketch1
100
AcDbSpline
210
0.0
220
0.0
230
1.0
 70
    12
 71
     3
 72
     8
 73
     4
 74
     0
 42
0.000000001
 43
0.0000000001
 40
0.0
 40
0.0
 40
0.0
 40
0.0
 40
1.0
 40
1.0
 40
1.0
 40
1.0
 10
42.02853281656902
 20
-36.01719948323569
 30
0.0
 41
1.0
 10
42.07933333333333
 20
-36.076467183431
 30
0.0
 41
1.0
 10
42.13013385009766
 20
-36.12726770019532
 30
0.0
 41
1.0
 10
42.16400000000001
 20
-36.18653281656902
 30
0.0
 41
1.0
  0
SPLINE
  5
1B1
330
70
100
AcDbEntity
  8
lageman v1_Sketch1
100
AcDbSpline
210
0.0
220
0.0
230
1.0
 70
    12
 71
     3
 72
     8
 73
     4
 74
     0
 42
0.000000001
 43
0.0000000001
 40
0.0
 40
0.0
 40
0.0
 40
0.0
 40
1.0
 40
1.0
 40
1.0
 40
1.0
 10
28.68506563313803
 20
-45.15273229980469
 30
0.0
 41
1.0
 10
29.29466666666667
 20
-45.50833333333334
 30
0.0
 41
1.0
 10
29.92119948323568
 20
-44.704
 30
0.0
 41
1.0
 10
29.57406563313803
 20
-44.38226770019531
 30
0.0
 41
1.0
  0
SPLINE
  5
1B2
330
70
100
AcDbEntity
  8
lageman v1_Sketch1
100
AcDbSpline
210
0.0
220
0.0
230
1.0
 70
    12
 71
     3
 72
     8
 73
     4
 74
     0
 42
0.000000001
 43
0.0000000001
 40
0.0
 40
0.0
 40
0.0
 40
0.0
 40
1.0
 40
1.0
 40
1.0
 40
1.0
 10
38.60800000000001
 20
-36.11033333333334
 30
0.0
 41
1.0
 10
38.71806563313803
 20
-36.22039896647136
 30
0.0
 41
1.0
 10
38.81966666666667
 20
-36.37280051676433
 30
0.0
 41
1.0
 10
38.91280051676433
 20
-36.57600000000001
 30
0.0
 41
1.0
  0
SPLINE
  5
1B3
330
70
100
AcDbEntity
  8
lageman v1_Sketch1
100
AcDbSpline
210
0.0
220
0.0
230
1.0
 70
    12
 71
     3
 72
     8
 73
     4
 74
     0
 42
0.000000001
 43
0.0000000001
 40
0.0
 40
0.0
 40
0.0
 40
0.0
 40
1.0
 40
1.0
 40
1.0
 40
1.0
 10
31.14886614990235
 20
-45.76233333333334
 30
0.0
 41
1.0
 10
32.41886614990235
 20
-46.15179793294271
 30
0.0
 41
1.0
 10
32.73213385009766
 20
-47.17626770019531
 30
0.0
 41
1.0
 10
32.34266666666667
 20
-47.97213126627605
 30
0.0
 41
1.0
  0
LINE
  5
1B4
330
70
100
AcDbEntity
  8
lageman v1_Sketch1
100
AcDbLine
 10
38.48946976725261
 20
-43.11226770019532
 30
0.0
 11
43.99280310058594
 21
-43.11226770019532
 31
0.0
  0
LINE
  5
1B5
330
70
100
AcDbEntity
  8
lageman v1_Sketch1
100
AcDbLine
 10
42.65506821695963
 20
-46.23646459960938
 30
0.0
 11
40.84320206705729
 21
-46.23646459960938
 31
0.0
  0
SPLINE
  5
1B6
330
70
100
AcDbEntity
  8
lageman v1_Sketch1
100
AcDbSpline
210
0.0
220
0.0
230
1.0
 70
    12
 71
     3
 72
     8
 73
     4
 74
     0
 42
0.000000001
 43
0.0000000001
 40
0.0
 40
0.0
 40
0.0
 40
0.0
 40
1.0
 40
1.0
 40
1.0
 40
1.0
 10
42.16400000000001
 20
-36.18653281656902
 30
0.0
 41
1.0
 10
42.25713385009767
 20
-36.35586614990235
 30
0.0
 41
1.0
 10
42.29946718343099
 20
-36.70300000000001
 30
0.0
 41
1.0
 10
42.29946718343099
 20
-37.219467183431
 30
0.0
 41
1.0
  0
SPLINE
  5
1B7
330
70
100
AcDbEntity
  8
lageman v1_Sketch1
100
AcDbSpline
210
0.0
220
0.0
230
1.0
 70
    12
 71
     3
 72
     8
 73
     4
 74
     0
 42
0.000000001
 43
0.0000000001
 40
0.0
 40
0.0
 40
0.0
 40
0.0
 40
1.0
 40
1.0
 40
1.0
 40
1.0
 10
31.09806563313803
 20
-45.466
 30
0.0
 41
1.0
 10
31.36900000000001
 20
-44.49233333333334
 30
0.0
 41
1.0
 10
30.40379793294271
 20
-42.9937322998047
 30
0.0
 41
1.0
 10
28.8967322998047
 20
-43.61179793294271
 30
0.0
 41
1.0
  0
LINE
  5
1B8
330
70
100
AcDbEntity
  8
lageman v1_Sketch1
100
AcDbLine
 10
14.52033333333333
 20
-41.76606821695965
 30
0.0
 11
12.09886614990234
 21
-41.76606821695965
 31
0.0
  0
SPLINE
  5
1B9
330
70
100
AcDbEntity
  8
lageman v1_Sketch1
100
AcDbSpline
210
0.0
220
0.0
230
1.0
 70
    12
 71
     3
 72
     8
 73
     4
 74
     0
 42
0.000000001
 43
0.0000000001
 40
0.0
 40
0.0
 40
0.0
 40
0.0
 40
1.0
 40
1.0
 40
1.0
 40
1.0
 10
12.09886614990234
 20
-41.76606821695965
 30
0.0
 41
1.0
 10
12.08193307495117
 20
-41.71526770019531
 30
0.0
 41
1.0
 10
12.08193307495117
 20
-41.664467183431
 30
0.0
 41
1.0
 10
12.08193307495117
 20
-41.59673229980469
 30
0.0
 41
1.0
  0
LINE
  5
1BA
330
70
100
AcDbEntity
  8
lageman v1_Sketch1
100
AcDbLine
 10
35.28059844970704
 20
-36.63526770019532
 30
0.0
 11
35.98333333333334
 21
-39.59013385009767
 31
0.0
  0
SPLINE
  5
1BB
330
70
100
AcDbEntity
  8
lageman v1_Sketch1
100
AcDbSpline
210
0.0
220
0.0
230
1.0
 70
    12
 71
     3
 72
     8
 73
     4
 74
     0
 42
0.000000001
 43
0.0000000001
 40
0.0
 40
0.0
 40
0.0
 40
0.0
 40
1.0
 40
1.0
 40
1.0
 40
1.0
 10
33.70580051676433
 20
-41.01253281656902
 30
0.0
 41
1.0
 10
33.62113385009767
 20
-41.3342651163737
 30
0.0
 41
1.0
 10
33.52800000000001
 20
-41.58826511637371
 30
0.0
 41
1.0
 10
33.44333333333334
 20
-41.76606563313803
 30
0.0
 41
1.0
  0
LINE
  5
1BC
330
70
100
AcDbEntity
  8
lageman v1_Sketch1
100
AcDbLine
 10
20.91266666666667
 20
-37.91373229980469
 30
0.0
 11
20.85340025838217
 21
-36.03413126627605
 31
0.0
  0
SPLINE
  5
1BD
330
70
100
AcDbEntity
  8
lageman v1_Sketch1
100
AcDbSpline
210
0.0
220
0.0
230
1.0
 70
    12
 71
     3
 72
     8
 73
     4
 74
     0
 42
0.000000001
 43
0.0000000001
 40
0.0
 40
0.0
 40
0.0
 40
0.0
 40
1.0
 40
1.0
 40
1.0
 40
1.0
 10
22.54673229980469
 20
-36.03413126627605
 30
0.0
 41
1.0
 10
22.58059844970704
 20
-36.0595302327474
 30
0.0
 41
1.0
 10
22.60600000000001
 20
-36.09339896647136
 30
0.0
 41
1.0
 10
22.63139896647136
 20
-36.13573229980469
 30
0.0
 41
1.0
  0
SPLINE
  5
1BE
330
70
100
AcDbEntity
  8
lageman v1_Sketch1
100
AcDbSpline
210
0.0
220
0.0
230
1.0
 70
    12
 71
     3
 72
     8
 73
     4
 74
     0
 42
0.000000001
 43
0.0000000001
 40
0.0
 40
0.0
 40
0.0
 40
0.0
 40
1.0
 40
1.0
 40
1.0
 40
1.0
 10
22.63139896647136
 20
-36.13573229980469
 30
0.0
 41
1.0
 10
22.69066666666667
 20
-36.24579793294272
 30
0.0
 41
1.0
 10
22.71606563313802
 20
-36.52519948323568
 30
0.0
 41
1.0
 10
22.71606563313802
 20
-36.97393178304037
 30
0.0
 41
1.0
  0
LINE
  5
1BF
330
70
100
AcDbEntity
  8
lageman v1_Sketch1
100
AcDbLine
 10
20.85340025838217
 20
-36.03413126627605
 30
0.0
 11
22.54673229980469
 21
-36.03413126627605
 31
0.0
  0
SPLINE
  5
1C0
330
70
100
AcDbEntity
  8
lageman v1_Sketch1
100
AcDbSpline
210
0.0
220
0.0
230
1.0
 70
    12
 71
     3
 72
     8
 73
     4
 74
     0
 42
0.000000001
 43
0.0000000001
 40
0.0
 40
0.0
 40
0.0
 40
0.0
 40
1.0
 40
1.0
 40
1.0
 40
1.0
 10
21.16666666666667
 20
-40.63153281656902
 30
0.0
 41
1.0
 10
21.16666666666667
 20
-40.18280051676433
 30
0.0
 41
1.0
 10
21.19206692504883
 20
-39.90339896647137
 30
0.0
 41
1.0
 10
21.25133333333334
 20
-39.79333333333335
 30
0.0
 41
1.0
  0
SPLINE
  5
1C1
330
70
100
AcDbEntity
  8
lageman v1_Sketch1
100
AcDbSpline
210
0.0
220
0.0
230
1.0
 70
    12
 71
     3
 72
     8
 73
     4
 74
     0
 42
0.000000001
 43
0.0000000001
 40
0.0
 40
0.0
 40
0.0
 40
0.0
 40
1.0
 40
1.0
 40
1.0
 40
1.0
 10
15.72259974161784
 20
-41.76606563313803
 30
0.0
 41
1.0
 10
15.67179922485352
 20
-41.64753281656902
 30
0.0
 41
1.0
 10
15.621
 20
-41.49513126627605
 30
0.0
 41
1.0
 10
15.57866666666667
 20
-41.30886614990235
 30
0.0
 41
1.0
  0
LINE
  5
1C2
330
70
100
AcDbEntity
  8
lageman v1_Sketch1
100
AcDbLine
 10
14.02926640828451
 20
-39.59013385009767
 30
0.0
 11
12.53066666666667
 21
-39.59013385009767
 31
0.0
  0
SPLINE
  5
1C3
330
70
100
AcDbEntity
  8
lageman v1_Sketch1
100
AcDbSpline
210
0.0
220
0.0
230
1.0
 70
    12
 71
     3
 72
     8
 73
     4
 74
     0
 42
0.000000001
 43
0.0000000001
 40
0.0
 40
0.0
 40
0.0
 40
0.0
 40
1.0
 40
1.0
 40
1.0
 40
1.0
 10
26.80546459960938
 20
-32.24953540039063
 30
0.0
 41
1.0
 10
26.87319948323568
 20
-32.44426770019532
 30
0.0
 41
1.0
 10
26.87319948323568
 20
-32.69826770019532
 30
0.0
 41
1.0
 10
26.84780051676433
 20
-32.88453281656901
 30
0.0
 41
1.0
  0
LINE
  5
1C4
330
70
100
AcDbEntity
  8
lageman v1_Sketch1
100
AcDbLine
 10
33.44333333333335
 20
-41.76606563313803
 30
0.0
 11
32.28339896647136
 21
-41.76606563313803
 31
0.0
  0
SPLINE
  5
1C5
330
70
100
AcDbEntity
  8
lageman v1_Sketch1
100
AcDbSpline
210
0.0
220
0.0
230
1.0
 70
    12
 71
     3
 72
     8
 73
     4
 74
     0
 42
0.000000001
 43
0.0000000001
 40
0.0
 40
0.0
 40
0.0
 40
0.0
 40
1.0
 40
1.0
 40
1.0
 40
1.0
 10
32.28339896647136
 20
-41.76606563313803
 30
0.0
 41
1.0
 10
32.26646459960938
 20
-41.62213126627604
 30
0.0
 41
1.0
 10
32.258
 20
-41.41893178304036
 30
0.0
 41
1.0
 10
32.258
 20
-41.16493178304037
 30
0.0
 41
1.0
  0
SPLINE
  5
1C6
330
70
100
AcDbEntity
  8
lageman v1_Sketch1
100
AcDbSpline
210
0.0
220
0.0
230
1.0
 70
    12
 71
     3
 72
     8
 73
     4
 74
     0
 42
0.000000001
 43
0.0000000001
 40
0.0
 40
0.0
 40
0.0
 40
0.0
 40
1.0
 40
1.0
 40
1.0
 40
1.0
 10
19.66806692504883
 20
-36.03413126627605
 30
0.0
 41
1.0
 10
19.76966666666667
 20
-36.11033074951173
 30
0.0
 41
1.0
 10
19.86280051676432
 20
-36.21193178304037
 30
0.0
 41
1.0
 10
19.95593307495117
 20
-36.33893178304037
 30
0.0
 41
1.0
  0
LINE
  5
1C7
330
70
100
AcDbEntity
  8
lageman v1_Sketch1
100
AcDbLine
 10
18.27106692504883
 20
-34.679467183431
 30
0.0
 11
16.29833333333333
 21
-34.679467183431
 31
0.0
  0
LINE
  5
1C8
330
70
100
AcDbEntity
  8
lageman v1_Sketch1
100
AcDbLine
 10
32.258
 20
-41.16493178304037
 30
0.0
 11
32.258
 21
-36.96546459960938
 31
0.0
  0
SPLINE
  5
1C9
330
70
100
AcDbEntity
  8
lageman v1_Sketch1
100
AcDbSpline
210
0.0
220
0.0
230
1.0
 70
    12
 71
     3
 72
     8
 73
     4
 74
     0
 42
0.000000001
 43
0.0000000001
 40
0.0
 40
0.0
 40
0.0
 40
0.0
 40
1.0
 40
1.0
 40
1.0
 40
1.0
 10
32.258
 20
-36.96546459960938
 30
0.0
 41
1.0
 10
32.258
 20
-36.52519689941407
 30
0.0
 41
1.0
 10
32.28339896647136
 20
-36.24579793294272
 30
0.0
 41
1.0
 10
32.34266666666667
 20
-36.12726511637371
 30
0.0
 41
1.0
  0
SPLINE
  5
1CA
330
70
100
AcDbEntity
  8
lageman v1_Sketch1
100
AcDbSpline
210
0.0
220
0.0
230
1.0
 70
    12
 71
     3
 72
     8
 73
     4
 74
     0
 42
0.000000001
 43
0.0000000001
 40
0.0
 40
0.0
 40
0.0
 40
0.0
 40
1.0
 40
1.0
 40
1.0
 40
1.0
 10
32.34266666666667
 20
-36.12726511637371
 30
0.0
 41
1.0
 10
32.36806563313802
 20
-36.08493178304037
 30
0.0
 41
1.0
 10
32.39346718343099
 20
-36.05106563313803
 30
0.0
 41
1.0
 10
32.42733333333334
 20
-36.02566408284506
 30
0.0
 41
1.0
  0
LINE
  5
1CB
330
70
100
AcDbEntity
  8
lageman v1_Sketch1
100
AcDbLine
 10
12.53066666666667
 20
-39.59013385009767
 30
0.0
 11
13.31806692504883
 21
-36.63526770019532
 31
0.0
  0
LINE
  5
1CC
330
70
100
AcDbEntity
  8
lageman v1_Sketch1
100
AcDbLine
 10
32.42733333333334
 20
-36.02566408284506
 30
0.0
 11
35.060467183431
 21
-36.02566408284506
 31
0.0
  0
LINE
  5
1CD
330
70
100
AcDbEntity
  8
lageman v1_Sketch1
100
AcDbLine
 10
14.17319948323568
 20
-40.18280051676433
 30
0.0
 11
14.40179922485351
 21
-41.16493436686198
 31
0.0
  0
LINE
  5
1CE
330
70
100
AcDbEntity
  8
lageman v1_Sketch1
100
AcDbLine
 10
22.71606563313802
 20
-36.97393178304037
 30
0.0
 11
22.71606563313802
 21
-41.17339896647136
 31
0.0
  0
LINE
  5
1CF
330
70
100
AcDbEntity
  8
lageman v1_Sketch1
100
AcDbLine
 10
21.58153281656901
 20
-39.59860103352865
 30
0.0
 11
21.75086614990235
 21
-39.58166666666667
 31
0.0
  0
LINE
  5
1D0
330
70
100
AcDbEntity
  8
lageman v1_Sketch1
100
AcDbLine
 10
12.36979922485352
 20
-40.18280051676433
 30
0.0
 11
14.17319948323568
 21
-40.18280051676433
 31
0.0
  0
SPLINE
  5
1D1
330
70
100
AcDbEntity
  8
lageman v1_Sketch1
100
AcDbSpline
210
0.0
220
0.0
230
1.0
 70
    12
 71
     3
 72
     8
 73
     4
 74
     0
 42
0.000000001
 43
0.0000000001
 40
0.0
 40
0.0
 40
0.0
 40
0.0
 40
1.0
 40
1.0
 40
1.0
 40
1.0
 10
15.99353281656901
 20
-33.87513385009766
 30
0.0
 41
1.0
 10
16.56079922485352
 20
-33.17240155029298
 30
0.0
 41
1.0
 10
17.37359974161784
 20
-32.647467183431
 30
0.0
 41
1.0
 10
18.27106563313802
 20
-31.70766666666667
 30
0.0
 41
1.0
  0
SPLINE
  5
1D2
330
70
100
AcDbEntity
  8
lageman v1_Sketch1
100
AcDbSpline
210
0.0
220
0.0
230
1.0
 70
    12
 71
     3
 72
     8
 73
     4
 74
     0
 42
0.000000001
 43
0.0000000001
 40
0.0
 40
0.0
 40
0.0
 40
0.0
 40
1.0
 40
1.0
 40
1.0
 40
1.0
 10
14.40179922485351
 20
-41.16493436686198
 30
0.0
 41
1.0
 10
14.44413255818685
 20
-41.3512020670573
 30
0.0
 41
1.0
 10
14.47799870808919
 20
-41.48666666666667
 30
0.0
 41
1.0
 10
14.49493307495117
 20
-41.57980051676433
 30
0.0
 41
1.0
  0
LINE
  5
1D3
330
70
100
AcDbEntity
  8
lageman v1_Sketch1
100
AcDbLine
 10
17.06033591715495
 20
-41.76606304931641
 30
0.0
 11
15.72259974161784
 21
-41.76606563313803
 31
0.0
  0
LINE
  5
1D4
330
70
100
AcDbEntity
  8
lageman v1_Sketch1
100
AcDbLine
 10
22.69066666666667
 20
-41.77453281656902
 30
0.0
 11
21.16666666666667
 21
-41.77453281656902
 31
0.0
  0
LINE
  5
1D5
330
70
100
AcDbEntity
  8
lageman v1_Sketch1
100
AcDbLine
 10
12.15813255818685
 20
-41.02946718343099
 30
0.0
 11
12.36979922485352
 21
-40.18280051676433
 31
0.0
  0
SPLINE
  5
1D6
330
70
100
AcDbEntity
  8
lageman v1_Sketch1
100
AcDbSpline
210
0.0
220
0.0
230
1.0
 70
    12
 71
     3
 72
     8
 73
     4
 74
     0
 42
0.000000001
 43
0.0000000001
 40
0.0
 40
0.0
 40
0.0
 40
0.0
 40
1.0
 40
1.0
 40
1.0
 40
1.0
 10
13.26726640828451
 20
-44.84793436686199
 30
0.0
 41
1.0
 10
17.28046718343099
 20
-46.76139896647136
 30
0.0
 41
1.0
 10
15.58713255818685
 20
-51.74826770019532
 30
0.0
 41
1.0
 10
13.91919948323568
 20
-52.12926770019532
 30
0.0
 41
1.0
  0
SPLINE
  5
1D7
330
70
100
AcDbEntity
  8
lageman v1_Sketch1
100
AcDbSpline
210
0.0
220
0.0
230
1.0
 70
    12
 71
     3
 72
     8
 73
     4
 74
     0
 42
0.000000001
 43
0.0000000001
 40
0.0
 40
0.0
 40
0.0
 40
0.0
 40
1.0
 40
1.0
 40
1.0
 40
1.0
 10
17.24660103352865
 20
-36.18653281656902
 30
0.0
 41
1.0
 10
16.99260103352865
 20
-36.55059844970704
 30
0.0
 41
1.0
 10
16.79786744181315
 20
-36.98239896647136
 30
0.0
 41
1.0
 10
16.66240155029297
 20
-37.48193178304037
 30
0.0
 41
1.0
  0
SPLINE
  5
1D8
330
70
100
AcDbEntity
  8
lageman v1_Sketch1
100
AcDbSpline
210
0.0
220
0.0
230
1.0
 70
    12
 71
     3
 72
     8
 73
     4
 74
     0
 42
0.000000001
 43
0.0000000001
 40
0.0
 40
0.0
 40
0.0
 40
0.0
 40
1.0
 40
1.0
 40
1.0
 40
1.0
 10
19.95593307495117
 20
-36.33893178304037
 30
0.0
 41
1.0
 10
20.17606692504883
 20
-36.66066408284506
 30
0.0
 41
1.0
 10
20.37926640828451
 20
-37.18559844970704
 30
0.0
 41
1.0
 10
20.56553281656901
 20
-37.91373229980469
 30
0.0
 41
1.0
  0
LINE
  5
1D9
330
70
100
AcDbEntity
  8
lageman v1_Sketch1
100
AcDbLine
 10
21.16666666666667
 20
-41.77453281656902
 30
0.0
 11
21.16666666666667
 21
-40.63153281656902
 31
0.0
  0
SPLINE
  5
1DA
330
70
100
AcDbEntity
  8
lageman v1_Sketch1
100
AcDbSpline
210
0.0
220
0.0
230
1.0
 70
    12
 71
     3
 72
     8
 73
     4
 74
     0
 42
0.000000001
 43
0.0000000001
 40
0.0
 40
0.0
 40
0.0
 40
0.0
 40
1.0
 40
1.0
 40
1.0
 40
1.0
 10
16.29833333333333
 20
-34.679467183431
 30
0.0
 41
1.0
 10
16.20519948323568
 20
-34.40853281656901
 30
0.0
 41
1.0
 10
16.10359974161784
 20
-34.05293436686199
 30
0.0
 41
1.0
 10
15.99353281656901
 20
-33.87513385009766
 30
0.0
 41
1.0
  0
SPLINE
  5
1DB
330
70
100
AcDbEntity
  8
lageman v1_Sketch1
100
AcDbSpline
210
0.0
220
0.0
230
1.0
 70
    12
 71
     3
 72
     8
 73
     4
 74
     0
 42
0.000000001
 43
0.0000000001
 40
0.0
 40
0.0
 40
0.0
 40
0.0
 40
1.0
 40
1.0
 40
1.0
 40
1.0
 10
30.31913385009766
 20
-32.139467183431
 30
0.0
 41
1.0
 10
31.04726770019532
 20
-33.21473488362631
 30
0.0
 41
1.0
 10
31.91086614990235
 20
-34.05293436686199
 30
0.0
 41
1.0
 10
33.11313385009766
 20
-34.679467183431
 30
0.0
 41
1.0
  0
LINE
  5
1DC
330
70
100
AcDbEntity
  8
lageman v1_Sketch1
100
AcDbLine
 10
14.31713385009766
 20
-36.02566666666668
 30
0.0
 11
17.37360103352864
 21
-36.02566666666668
 31
0.0
  0
SPLINE
  5
1DD
330
70
100
AcDbEntity
  8
lageman v1_Sketch1
100
AcDbSpline
210
0.0
220
0.0
230
1.0
 70
    12
 71
     3
 72
     8
 73
     4
 74
     0
 42
0.000000001
 43
0.0000000001
 40
0.0
 40
0.0
 40
0.0
 40
0.0
 40
1.0
 40
1.0
 40
1.0
 40
1.0
 10
22.71606563313802
 20
-41.17339896647136
 30
0.0
 41
1.0
 10
22.71606563313802
 20
-41.42739896647135
 30
0.0
 41
1.0
 10
22.70759844970704
 20
-41.63059844970703
 30
0.0
 41
1.0
 10
22.69066666666667
 20
-41.77453281656902
 30
0.0
 41
1.0
  0
LINE
  5
1DE
330
70
100
AcDbEntity
  8
lageman v1_Sketch1
100
AcDbLine
 10
21.75086614990235
 20
-39.58166666666667
 30
0.0
 11
21.75086614990235
 21
-39.04826770019532
 31
0.0
  0
LINE
  5
1DF
330
70
100
AcDbEntity
  8
lageman v1_Sketch1
100
AcDbLine
 10
21.75086614990235
 20
-39.04826770019532
 30
0.0
 11
19.52413385009766
 21
-39.04826770019532
 31
0.0
  0
SPLINE
  5
1E0
330
70
100
AcDbEntity
  8
lageman v1_Sketch1
100
AcDbSpline
210
0.0
220
0.0
230
1.0
 70
    12
 71
     3
 72
     8
 73
     4
 74
     0
 42
0.000000001
 43
0.0000000001
 40
0.0
 40
0.0
 40
0.0
 40
0.0
 40
1.0
 40
1.0
 40
1.0
 40
1.0
 10
26.54300000000001
 20
-34.679467183431
 30
0.0
 41
1.0
 10
26.89860103352865
 20
-34.38313385009767
 30
0.0
 41
1.0
 10
27.16106563313803
 20
-33.97673229980469
 30
0.0
 41
1.0
 10
27.23726770019532
 20
-33.56186614990235
 30
0.0
 41
1.0
  0
SPLINE
  5
1E1
330
70
100
AcDbEntity
  8
lageman v1_Sketch1
100
AcDbSpline
210
0.0
220
0.0
230
1.0
 70
    12
 71
     3
 72
     8
 73
     4
 74
     0
 42
0.000000001
 43
0.0000000001
 40
0.0
 40
0.0
 40
0.0
 40
0.0
 40
1.0
 40
1.0
 40
1.0
 40
1.0
 10
18.07633462524414
 20
-36.68606563313803
 30
0.0
 41
1.0
 10
18.21180180867513
 20
-36.38973229980469
 30
0.0
 41
1.0
 10
18.37266795857748
 20
-36.16959844970704
 30
0.0
 41
1.0
 10
18.57586744181315
 20
-36.03413126627605
 30
0.0
 41
1.0
  0
SPLINE
  5
1E2
330
70
100
AcDbEntity
  8
lageman v1_Sketch1
100
AcDbSpline
210
0.0
220
0.0
230
1.0
 70
    12
 71
     3
 72
     8
 73
     4
 74
     0
 42
0.000000001
 43
0.0000000001
 40
0.0
 40
0.0
 40
0.0
 40
0.0
 40
1.0
 40
1.0
 40
1.0
 40
1.0
 10
12.08193307495117
 20
-41.59673229980469
 30
0.0
 41
1.0
 10
12.08193307495117
 20
-41.50359844970703
 30
0.0
 41
1.0
 10
12.09040025838216
 20
-41.41046459960938
 30
0.0
 41
1.0
 10
12.09886614990234
 20
-41.31733333333333
 30
0.0
 41
1.0
  0
SPLINE
  5
1E3
330
70
100
AcDbEntity
  8
lageman v1_Sketch1
100
AcDbSpline
210
0.0
220
0.0
230
1.0
 70
    12
 71
     3
 72
     8
 73
     4
 74
     0
 42
0.000000001
 43
0.0000000001
 40
0.0
 40
0.0
 40
0.0
 40
0.0
 40
1.0
 40
1.0
 40
1.0
 40
1.0
 10
17.37360103352864
 20
-36.02566666666668
 30
0.0
 41
1.0
 10
17.33126770019531
 20
-36.076467183431
 30
0.0
 41
1.0
 10
17.28893436686198
 20
-36.12726770019532
 30
0.0
 41
1.0
 10
17.24660103352865
 20
-36.18653281656902
 30
0.0
 41
1.0
  0
LINE
  5
1E4
330
70
100
AcDbEntity
  8
lageman v1_Sketch1
100
AcDbLine
 10
18.27106563313802
 20
-31.70766666666667
 30
0.0
 11
18.27106692504883
 21
-34.679467183431
 31
0.0
  0
SPLINE
  5
1E5
330
70
100
AcDbEntity
  8
lageman v1_Sketch1
100
AcDbSpline
210
0.0
220
0.0
230
1.0
 70
    12
 71
     3
 72
     8
 73
     4
 74
     0
 42
0.000000001
 43
0.0000000001
 40
0.0
 40
0.0
 40
0.0
 40
0.0
 40
1.0
 40
1.0
 40
1.0
 40
1.0
 10
16.65393565877279
 20
-40.71619689941407
 30
0.0
 41
1.0
 10
16.75553540039063
 20
-41.12259586588542
 30
0.0
 41
1.0
 10
16.89100258382161
 20
-41.46972971598308
 30
0.0
 41
1.0
 10
17.06033591715495
 20
-41.76606304931641
 30
0.0
 41
1.0
  0
SPLINE
  5
1E6
330
70
100
AcDbEntity
  8
lageman v1_Sketch1
100
AcDbSpline
210
0.0
220
0.0
230
1.0
 70
    12
 71
     3
 72
     8
 73
     4
 74
     0
 42
0.000000001
 43
0.0000000001
 40
0.0
 40
0.0
 40
0.0
 40
0.0
 40
1.0
 40
1.0
 40
1.0
 40
1.0
 10
14.49493307495117
 20
-41.57980051676433
 30
0.0
 41
1.0
 10
14.51186614990234
 20
-41.664467183431
 30
0.0
 41
1.0
 10
14.52033333333333
 20
-41.7237348836263
 30
0.0
 41
1.0
 10
14.52033333333333
 20
-41.76606821695965
 30
0.0
 41
1.0
  0
LINE
  5
1E7
330
70
100
AcDbEntity
  8
lageman v1_Sketch1
100
AcDbLine
 10
33.11313385009766
 20
-34.679467183431
 30
0.0
 11
26.543
 21
-34.679467183431
 31
0.0
  0
LINE
  5
1E8
330
70
100
AcDbEntity
  8
lageman v1_Sketch1
100
AcDbLine
 10
15.57866666666667
 20
-41.30886614990234
 30
0.0
 11
14.31713385009766
 21
-36.02566666666668
 31
0.0
  0
SPLINE
  5
1E9
330
70
100
AcDbEntity
  8
lageman v1_Sketch1
100
AcDbSpline
210
0.0
220
0.0
230
1.0
 70
    12
 71
     3
 72
     8
 73
     4
 74
     0
 42
0.000000001
 43
0.0000000001
 40
0.0
 40
0.0
 40
0.0
 40
0.0
 40
1.0
 40
1.0
 40
1.0
 40
1.0
 10
16.66240155029297
 20
-37.48193178304037
 30
0.0
 41
1.0
 10
16.52693436686198
 20
-37.98146459960938
 30
0.0
 41
1.0
 10
16.45920206705729
 20
-38.51486614990236
 30
0.0
 41
1.0
 10
16.45920206705729
 20
-39.07366408284506
 30
0.0
 41
1.0
  0
SPLINE
  5
1EA
330
70
100
AcDbEntity
  8
lageman v1_Sketch1
100
AcDbSpline
210
0.0
220
0.0
230
1.0
 70
    12
 71
     3
 72
     8
 73
     4
 74
     0
 42
0.000000001
 43
0.0000000001
 40
0.0
 40
0.0
 40
0.0
 40
0.0
 40
1.0
 40
1.0
 40
1.0
 40
1.0
 10
13.91919948323568
 20
-52.12926770019532
 30
0.0
 41
1.0
 10
11.31993307495117
 20
-52.18006563313803
 30
0.0
 41
1.0
 10
11.38766666666667
 20
-46.76139896647136
 30
0.0
 41
1.0
 10
13.26726640828451
 20
-44.84793436686199
 30
0.0
 41
1.0
  0
SPLINE
  5
1EB
330
70
100
AcDbEntity
  8
lageman v1_Sketch1
100
AcDbSpline
210
0.0
220
0.0
230
1.0
 70
    12
 71
     3
 72
     8
 73
     4
 74
     0
 42
0.000000001
 43
0.0000000001
 40
0.0
 40
0.0
 40
0.0
 40
0.0
 40
1.0
 40
1.0
 40
1.0
 40
1.0
 10
27.23726770019532
 20
-33.56186614990235
 30
0.0
 41
1.0
 10
28.42260103352865
 20
-33.89206563313802
 30
0.0
 41
1.0
 10
29.75186873372397
 20
-33.52800000000001
 30
0.0
 41
1.0
 10
30.31913385009766
 20
-32.139467183431
 30
0.0
 41
1.0
  0
LINE
  5
1EC
330
70
100
AcDbEntity
  8
lageman v1_Sketch1
100
AcDbLine
 10
18.57586744181315
 20
-36.03413126627606
 30
0.0
 11
19.66806692504883
 21
-36.03413126627605
 31
0.0
  0
LINE
  5
1ED
330
70
100
AcDbEntity
  8
lageman v1_Sketch1
100
AcDbLine
 10
13.31806692504883
 20
-36.63526770019532
 30
0.0
 11
14.02926640828451
 21
-39.59013385009767
 31
0.0
  0
LINE
  5
1EE
330
70
100
AcDbEntity
  8
lageman v1_Sketch1
100
AcDbLine
 10
19.52413385009766
 20
-39.04826770019532
 30
0.0
 11
19.52413385009766
 21
-39.03980051676433
 31
0.0
  0
SPLINE
  5
1EF
330
70
100
AcDbEntity
  8
lageman v1_Sketch1
100
AcDbSpline
210
0.0
220
0.0
230
1.0
 70
    12
 71
     3
 72
     8
 73
     4
 74
     0
 42
0.000000001
 43
0.0000000001
 40
0.0
 40
0.0
 40
0.0
 40
0.0
 40
1.0
 40
1.0
 40
1.0
 40
1.0
 10
26.84780051676433
 20
-32.88453281656901
 30
0.0
 41
1.0
 10
26.56840155029297
 20
-32.79986614990235
 30
0.0
 41
1.0
 10
26.33980051676433
 20
-32.55433333333334
 30
0.0
 41
1.0
 10
26.23819948323568
 20
-32.258
 30
0.0
 41
1.0
  0
SPLINE
  5
1F0
330
70
100
AcDbEntity
  8
lageman v1_Sketch1
100
AcDbSpline
210
0.0
220
0.0
230
1.0
 70
    12
 71
     3
 72
     8
 73
     4
 74
     0
 42
0.000000001
 43
0.0000000001
 40
0.0
 40
0.0
 40
0.0
 40
0.0
 40
1.0
 40
1.0
 40
1.0
 40
1.0
 10
26.30593178304037
 20
-31.85160103352866
 30
0.0
 41
1.0
 10
26.52606563313803
 20
-31.75000000000001
 30
0.0
 41
1.0
 10
26.72079793294271
 20
-31.97013385009766
 30
0.0
 41
1.0
 10
26.80546459960938
 20
-32.24953540039063
 30
0.0
 41
1.0
  0
SPLINE
  5
1F1
330
70
100
AcDbEntity
  8
lageman v1_Sketch1
100
AcDbSpline
210
0.0
220
0.0
230
1.0
 70
    12
 71
     3
 72
     8
 73
     4
 74
     0
 42
0.000000001
 43
0.0000000001
 40
0.0
 40
0.0
 40
0.0
 40
0.0
 40
1.0
 40
1.0
 40
1.0
 40
1.0
 10
26.23819948323568
 20
-32.258
 30
0.0
 41
1.0
 10
26.15353281656902
 20
-32.01246718343099
 30
0.0
 41
1.0
 10
26.21280051676433
 20
-31.90239896647136
 30
0.0
 41
1.0
 10
26.30593178304037
 20
-31.85160103352866
 30
0.0
 41
1.0
  0
LINE
  5
1F2
330
70
100
AcDbEntity
  8
lageman v1_Sketch1
100
AcDbLine
 10
35.98333333333334
 20
-39.59013385009767
 30
0.0
 11
34.49319948323569
 21
-39.59013385009767
 31
0.0
  0
LINE
  5
1F3
330
70
100
AcDbEntity
  8
lageman v1_Sketch1
100
AcDbLine
 10
20.56553281656901
 20
-37.91373229980469
 30
0.0
 11
20.91266666666667
 21
-37.91373229980469
 31
0.0
  0
LINE
  5
1F4
330
70
100
AcDbEntity
  8
lageman v1_Sketch1
100
AcDbLine
 10
34.49319948323569
 20
-39.59013385009767
 30
0.0
 11
35.28059844970704
 21
-36.63526770019532
 31
0.0
  0
SPLINE
  5
1F5
330
70
100
AcDbEntity
  8
lageman v1_Sketch1
100
AcDbSpline
210
0.0
220
0.0
230
1.0
 70
    12
 71
     3
 72
     8
 73
     4
 74
     0
 42
0.000000001
 43
0.0000000001
 40
0.0
 40
0.0
 40
0.0
 40
0.0
 40
1.0
 40
1.0
 40
1.0
 40
1.0
 10
16.45920206705729
 20
-39.07366408284506
 30
0.0
 41
1.0
 10
16.45920206705729
 20
-39.66633074951172
 30
0.0
 41
1.0
 10
16.52693565877279
 20
-40.20819689941407
 30
0.0
 41
1.0
 10
16.65393565877279
 20
-40.71619689941407
 30
0.0
 41
1.0
  0
SPLINE
  5
1F6
330
70
100
AcDbEntity
  8
lageman v1_Sketch1
100
AcDbSpline
210
0.0
220
0.0
230
1.0
 70
    12
 71
     3
 72
     8
 73
     4
 74
     0
 42
0.000000001
 43
0.0000000001
 40
0.0
 40
0.0
 40
0.0
 40
0.0
 40
1.0
 40
1.0
 40
1.0
 40
1.0
 10
21.25133333333334
 20
-39.79333333333335
 30
0.0
 41
1.0
 10
21.31059974161784
 20
-39.68326770019532
 30
0.0
 41
1.0
 10
21.42066666666667
 20
-39.61553281656902
 30
0.0
 41
1.0
 10
21.58153281656901
 20
-39.59860103352865
 30
0.0
 41
1.0
  0
SPLINE
  5
1F7
330
70
100
AcDbEntity
  8
lageman v1_Sketch1
100
AcDbSpline
210
0.0
220
0.0
230
1.0
 70
    12
 71
     3
 72
     8
 73
     4
 74
     0
 42
0.000000001
 43
0.0000000001
 40
0.0
 40
0.0
 40
0.0
 40
0.0
 40
1.0
 40
1.0
 40
1.0
 40
1.0
 10
12.09886614990234
 20
-41.31733333333333
 30
0.0
 41
1.0
 10
12.11579922485352
 20
-41.22419948323568
 30
0.0
 41
1.0
 10
12.13273229980469
 20
-41.12260103352865
 30
0.0
 41
1.0
 10
12.15813255818685
 20
-41.02946718343099
 30
0.0
 41
1.0
  0
SPLINE
  5
1F8
330
70
100
AcDbEntity
  8
lageman v1_Sketch1
100
AcDbSpline
210
0.0
220
0.0
230
1.0
 70
    12
 71
     3
 72
     8
 73
     4
 74
     0
 42
0.000000001
 43
0.0000000001
 40
0.0
 40
0.0
 40
0.0
 40
0.0
 40
1.0
 40
1.0
 40
1.0
 40
1.0
 10
25.96726253255209
 20
-43.31547235107422
 30
0.0
 41
1.0
 10
25.99266149902344
 20
-43.24774005126953
 30
0.0
 41
1.0
 10
26.0265302327474
 20
-43.18000516764324
 30
0.0
 41
1.0
 10
26.06886356608073
 20
-43.12074005126953
 30
0.0
 41
1.0
  0
SPLINE
  5
1F9
330
70
100
AcDbEntity
  8
lageman v1_Sketch1
100
AcDbSpline
210
0.0
220
0.0
230
1.0
 70
    12
 71
     3
 72
     8
 73
     4
 74
     0
 42
0.000000001
 43
0.0000000001
 40
0.0
 40
0.0
 40
0.0
 40
0.0
 40
1.0
 40
1.0
 40
1.0
 40
1.0
 10
27.97386614990235
 20
-41.76606563313803
 30
0.0
 41
1.0
 10
27.92306563313803
 20
-41.57133333333334
 30
0.0
 41
1.0
 10
27.90613385009766
 20
-41.28346459960938
 30
0.0
 41
1.0
 10
27.90613385009766
 20
-40.91093178304038
 30
0.0
 41
1.0
  0
LINE
  5
1FA
330
70
100
AcDbEntity
  8
lageman v1_Sketch1
100
AcDbLine
 10
27.90613385009767
 20
-40.91093178304038
 30
0.0
 11
27.90613385009766
 21
-36.03413126627605
 31
0.0
  0
LINE
  5
1FB
330
70
100
AcDbEntity
  8
lageman v1_Sketch1
100
AcDbLine
 10
26.31440155029297
 20
-40.10660103352865
 30
0.0
 11
25.9842020670573
 21
-40.10660103352865
 31
0.0
  0
SPLINE
  5
1FC
330
70
100
AcDbEntity
  8
lageman v1_Sketch1
100
AcDbSpline
210
0.0
220
0.0
230
1.0
 70
    12
 71
     3
 72
     8
 73
     4
 74
     0
 42
0.000000001
 43
0.0000000001
 40
0.0
 40
0.0
 40
0.0
 40
0.0
 40
1.0
 40
1.0
 40
1.0
 40
1.0
 10
26.70386356608073
 20
-44.34840413411459
 30
0.0
 41
1.0
 10
26.88166408284506
 20
-44.1452020670573
 30
0.0
 41
1.0
 10
26.81392919921876
 20
-43.7726718343099
 30
0.0
 41
1.0
 10
26.56839638264975
 20
-43.5186718343099
 30
0.0
 41
1.0
  0
LINE
  5
1FD
330
70
100
AcDbEntity
  8
lageman v1_Sketch1
100
AcDbLine
 10
30.78480051676433
 20
-36.03413385009766
 30
0.0
 11
29.91273488362631
 21
-40.12353281656902
 31
0.0
  0
SPLINE
  5
1FE
330
70
100
AcDbEntity
  8
lageman v1_Sketch1
100
AcDbSpline
210
0.0
220
0.0
230
1.0
 70
    12
 71
     3
 72
     8
 73
     4
 74
     0
 42
0.000000001
 43
0.0000000001
 40
0.0
 40
0.0
 40
0.0
 40
0.0
 40
1.0
 40
1.0
 40
1.0
 40
1.0
 10
27.440467183431
 20
-36.13573488362631
 30
0.0
 41
1.0
 10
27.49973488362631
 20
-36.25426770019532
 30
0.0
 41
1.0
 10
27.52513385009766
 20
-36.53366925048829
 30
0.0
 41
1.0
 10
27.52513385009766
 20
-36.97393436686198
 30
0.0
 41
1.0
  0
LINE
  5
1FF
330
70
100
AcDbEntity
  8
lageman v1_Sketch1
100
AcDbLine
 10
23.85907080078125
 20
-39.11600000000001
 30
0.0
 11
24.13846976725261
 21
-39.11600000000001
 31
0.0
  0
LINE
  5
200
330
70
100
AcDbEntity
  8
lageman v1_Sketch1
100
AcDbLine
 10
24.13846976725261
 20
-38.59953281656902
 30
0.0
 11
23.85907080078125
 21
-38.59953281656902
 31
0.0
  0
LINE
  5
201
330
70
100
AcDbEntity
  8
lageman v1_Sketch1
100
AcDbLine
 10
23.85907080078125
 20
-38.59953281656902
 30
0.0
 11
23.85907080078125
 21
-36.97393178304037
 31
0.0
  0
SPLINE
  5
202
330
70
100
AcDbEntity
  8
lageman v1_Sketch1
100
AcDbSpline
210
0.0
220
0.0
230
1.0
 70
    12
 71
     3
 72
     8
 73
     4
 74
     0
 42
0.000000001
 43
0.0000000001
 40
0.0
 40
0.0
 40
0.0
 40
0.0
 40
1.0
 40
1.0
 40
1.0
 40
1.0
 10
24.13846976725261
 20
-39.11600000000001
 30
0.0
 41
1.0
 10
24.38400258382162
 20
-39.11600000000001
 30
0.0
 41
1.0
 10
24.57027028401693
 20
-39.23453281656902
 30
0.0
 41
1.0
 10
24.68880310058594
 20
-39.46313385009766
 30
0.0
 41
1.0
  0
LINE
  5
203
330
70
100
AcDbEntity
  8
lageman v1_Sketch1
100
AcDbLine
 10
29.91273488362631
 20
-40.12353281656902
 30
0.0
 11
29.00680051676433
 21
-36.03413385009766
 31
0.0
  0
SPLINE
  5
204
330
70
100
AcDbEntity
  8
lageman v1_Sketch1
100
AcDbSpline
210
0.0
220
0.0
230
1.0
 70
    12
 71
     3
 72
     8
 73
     4
 74
     0
 42
0.000000001
 43
0.0000000001
 40
0.0
 40
0.0
 40
0.0
 40
0.0
 40
1.0
 40
1.0
 40
1.0
 40
1.0
 10
28.09239638264975
 20
-43.72187390136719
 30
0.0
 41
1.0
 10
28.28712868245443
 20
-44.46693953450521
 30
0.0
 41
1.0
 10
28.03312868245443
 20
-45.1696718343099
 30
0.0
 41
1.0
 10
27.33039638264975
 20
-45.51680826822917
 30
0.0
 41
1.0
  0
SPLINE
  5
205
330
70
100
AcDbEntity
  8
lageman v1_Sketch1
100
AcDbSpline
210
0.0
220
0.0
230
1.0
 70
    12
 71
     3
 72
     8
 73
     4
 74
     0
 42
0.000000001
 43
0.0000000001
 40
0.0
 40
0.0
 40
0.0
 40
0.0
 40
1.0
 40
1.0
 40
1.0
 40
1.0
 10
24.68880310058594
 20
-39.46313385009766
 30
0.0
 41
1.0
 10
24.81580310058594
 20
-39.69173488362631
 30
0.0
 41
1.0
 10
24.88353540039063
 20
-40.05580051676433
 30
0.0
 41
1.0
 10
24.9089369506836
 20
-40.54686614990234
 30
0.0
 41
1.0
  0
SPLINE
  5
206
330
70
100
AcDbEntity
  8
lageman v1_Sketch1
100
AcDbSpline
210
0.0
220
0.0
230
1.0
 70
    12
 71
     3
 72
     8
 73
     4
 74
     0
 42
0.000000001
 43
0.0000000001
 40
0.0
 40
0.0
 40
0.0
 40
0.0
 40
1.0
 40
1.0
 40
1.0
 40
1.0
 10
23.98607080078125
 20
-36.08493178304037
 30
0.0
 41
1.0
 10
24.00300516764323
 20
-36.0679974161784
 30
0.0
 41
1.0
 10
24.01146976725261
 20
-36.05106563313803
 30
0.0
 41
1.0
 10
24.02840413411459
 20
-36.03413126627605
 30
0.0
 41
1.0
  0
LINE
  5
207
330
70
100
AcDbEntity
  8
lageman v1_Sketch1
100
AcDbLine
 10
24.02840413411459
 20
-36.03413126627605
 30
0.0
 11
25.05287131754558
 21
-36.03413126627605
 31
0.0
  0
LINE
  5
208
330
70
100
AcDbEntity
  8
lageman v1_Sketch1
100
AcDbLine
 10
31.13193436686199
 20
-41.77453540039063
 30
0.0
 11
29.91273488362631
 21
-41.77453540039063
 31
0.0
  0
SPLINE
  5
209
330
70
100
AcDbEntity
  8
lageman v1_Sketch1
100
AcDbSpline
210
0.0
220
0.0
230
1.0
 70
    12
 71
     3
 72
     8
 73
     4
 74
     0
 42
0.000000001
 43
0.0000000001
 40
0.0
 40
0.0
 40
0.0
 40
0.0
 40
1.0
 40
1.0
 40
1.0
 40
1.0
 10
26.56839638264975
 20
-43.5186718343099
 30
0.0
 41
1.0
 10
26.38212868245443
 20
-43.33240413411458
 30
0.0
 41
1.0
 10
26.14506304931641
 20
-43.25620465087891
 30
0.0
 41
1.0
 10
25.96726253255209
 20
-43.31547235107422
 30
0.0
 41
1.0
  0
LINE
  5
20A
330
70
100
AcDbEntity
  8
lageman v1_Sketch1
100
AcDbLine
 10
29.00680051676433
 20
-36.03413385009766
 30
0.0
 11
30.78480051676433
 21
-36.03413385009766
 31
0.0
  0
SPLINE
  5
20B
330
70
100
AcDbEntity
  8
lageman v1_Sketch1
100
AcDbSpline
210
0.0
220
0.0
230
1.0
 70
    12
 71
     3
 72
     8
 73
     4
 74
     0
 42
0.000000001
 43
0.0000000001
 40
0.0
 40
0.0
 40
0.0
 40
0.0
 40
1.0
 40
1.0
 40
1.0
 40
1.0
 10
25.05287131754558
 20
-36.03413126627605
 30
0.0
 41
1.0
 10
25.21373746744792
 20
-36.11033074951173
 30
0.0
 41
1.0
 10
25.3576718343099
 20
-36.22886356608074
 30
0.0
 41
1.0
 10
25.47620465087891
 20
-36.38973229980469
 30
0.0
 41
1.0
  0
SPLINE
  5
20C
330
70
100
AcDbEntity
  8
lageman v1_Sketch1
100
AcDbSpline
210
0.0
220
0.0
230
1.0
 70
    12
 71
     3
 72
     8
 73
     4
 74
     0
 42
0.000000001
 43
0.0000000001
 40
0.0
 40
0.0
 40
0.0
 40
0.0
 40
1.0
 40
1.0
 40
1.0
 40
1.0
 10
25.47620465087891
 20
-36.38973229980469
 30
0.0
 41
1.0
 10
25.71327028401694
 20
-36.71146459960938
 30
0.0
 41
1.0
 10
25.8656718343099
 20
-37.20253281656902
 30
0.0
 41
1.0
 10
25.9249369506836
 20
-37.86293178304037
 30
0.0
 41
1.0
  0
LINE
  5
20D
330
70
100
AcDbEntity
  8
lageman v1_Sketch1
100
AcDbLine
 10
25.9249369506836
 20
-37.86293178304037
 30
0.0
 11
26.25513643391928
 21
-37.86293178304037
 31
0.0
  0
LINE
  5
20E
330
70
100
AcDbEntity
  8
lageman v1_Sketch1
100
AcDbLine
 10
31.15733333333334
 20
-36.03413385009766
 30
0.0
 11
31.15733333333334
 21
-41.17340155029297
 31
0.0
  0
LINE
  5
20F
330
70
100
AcDbEntity
  8
lageman v1_Sketch1
100
AcDbLine
 10
31.14039896647136
 20
-36.03413385009766
 30
0.0
 11
31.15733333333334
 21
-36.03413385009766
 31
0.0
  0
SPLINE
  5
210
330
70
100
AcDbEntity
  8
lageman v1_Sketch1
100
AcDbSpline
210
0.0
220
0.0
230
1.0
 70
    12
 71
     3
 72
     8
 73
     4
 74
     0
 42
0.000000001
 43
0.0000000001
 40
0.0
 40
0.0
 40
0.0
 40
0.0
 40
1.0
 40
1.0
 40
1.0
 40
1.0
 10
25.9842020670573
 20
-40.10660103352865
 30
0.0
 41
1.0
 10
25.8572020670573
 20
-40.894
 30
0.0
 41
1.0
 10
25.67940155029297
 20
-41.44433333333334
 30
0.0
 41
1.0
 10
25.44233591715495
 20
-41.76606821695965
 30
0.0
 41
1.0
  0
LINE
  5
211
330
70
100
AcDbEntity
  8
lageman v1_Sketch1
100
AcDbLine
 10
25.44233591715495
 20
-41.76606821695965
 30
0.0
 11
23.88446976725261
 21
-41.76606821695965
 31
0.0
  0
SPLINE
  5
212
330
70
100
AcDbEntity
  8
lageman v1_Sketch1
100
AcDbSpline
210
0.0
220
0.0
230
1.0
 70
    12
 71
     3
 72
     8
 73
     4
 74
     0
 42
0.000000001
 43
0.0000000001
 40
0.0
 40
0.0
 40
0.0
 40
0.0
 40
1.0
 40
1.0
 40
1.0
 40
1.0
 10
31.15733333333334
 20
-41.17340155029298
 30
0.0
 41
1.0
 10
31.15733333333334
 20
-41.42740155029297
 30
0.0
 41
1.0
 10
31.14886614990235
 20
-41.63060103352865
 30
0.0
 41
1.0
 10
31.13193436686199
 20
-41.77453540039063
 30
0.0
 41
1.0
  0
LINE
  5
213
330
70
100
AcDbEntity
  8
lageman v1_Sketch1
100
AcDbLine
 10
25.23913643391928
 20
-37.25333333333334
 30
0.0
 11
24.9089369506836
 21
-37.25333333333334
 31
0.0
  0
SPLINE
  5
214
330
70
100
AcDbEntity
  8
lageman v1_Sketch1
100
AcDbSpline
210
0.0
220
0.0
230
1.0
 70
    12
 71
     3
 72
     8
 73
     4
 74
     0
 42
0.000000001
 43
0.0000000001
 40
0.0
 40
0.0
 40
0.0
 40
0.0
 40
1.0
 40
1.0
 40
1.0
 40
1.0
 10
23.85907080078125
 20
-36.97393178304037
 30
0.0
 41
1.0
 10
23.85907080078125
 20
-36.49133074951173
 30
0.0
 41
1.0
 10
23.90140413411459
 20
-36.19499741617839
 30
0.0
 41
1.0
 10
23.98607080078125
 20
-36.08493178304037
 30
0.0
 41
1.0
  0
SPLINE
  5
215
330
70
100
AcDbEntity
  8
lageman v1_Sketch1
100
AcDbSpline
210
0.0
220
0.0
230
1.0
 70
    12
 71
     3
 72
     8
 73
     4
 74
     0
 42
0.000000001
 43
0.0000000001
 40
0.0
 40
0.0
 40
0.0
 40
0.0
 40
1.0
 40
1.0
 40
1.0
 40
1.0
 10
25.81486614990235
 20
-44.09439896647135
 30
0.0
 41
1.0
 10
25.84873229980469
 20
-44.15366666666667
 30
0.0
 41
1.0
 10
25.89106563313803
 20
-44.20446459960937
 30
0.0
 41
1.0
 10
25.94186614990235
 20
-44.25526770019532
 30
0.0
 41
1.0
  0
SPLINE
  5
216
330
70
100
AcDbEntity
  8
lageman v1_Sketch1
100
AcDbSpline
210
0.0
220
0.0
230
1.0
 70
    12
 71
     3
 72
     8
 73
     4
 74
     0
 42
0.000000001
 43
0.0000000001
 40
0.0
 40
0.0
 40
0.0
 40
0.0
 40
1.0
 40
1.0
 40
1.0
 40
1.0
 10
25.5777953491211
 20
-45.59301033528647
 30
0.0
 41
1.0
 10
25.28146201578776
 20
-45.44907596842448
 30
0.0
 41
1.0
 10
24.95972971598308
 20
-45.30514160156251
 30
0.0
 41
1.0
 10
24.60412868245443
 20
-45.16967700195313
 30
0.0
 41
1.0
  0
SPLINE
  5
217
330
70
100
AcDbEntity
  8
lageman v1_Sketch1
100
AcDbSpline
210
0.0
220
0.0
230
1.0
 70
    12
 71
     3
 72
     8
 73
     4
 74
     0
 42
0.000000001
 43
0.0000000001
 40
0.0
 40
0.0
 40
0.0
 40
0.0
 40
1.0
 40
1.0
 40
1.0
 40
1.0
 10
27.76219689941407
 20
-43.12074005126953
 30
0.0
 41
1.0
 10
27.91459586588542
 20
-43.29007338460287
 30
0.0
 41
1.0
 10
28.03313126627605
 20
-43.50173746744792
 30
0.0
 41
1.0
 10
28.09239638264975
 20
-43.72187390136719
 30
0.0
 41
1.0
  0
LINE
  5
218
330
70
100
AcDbEntity
  8
lageman v1_Sketch1
100
AcDbLine
 10
27.97386614990235
 20
-41.7745302327474
 30
0.0
 11
27.97386614990235
 21
-41.76606563313803
 31
0.0
  0
SPLINE
  5
219
330
70
100
AcDbEntity
  8
lageman v1_Sketch1
100
AcDbSpline
210
0.0
220
0.0
230
1.0
 70
    12
 71
     3
 72
     8
 73
     4
 74
     0
 42
0.000000001
 43
0.0000000001
 40
0.0
 40
0.0
 40
0.0
 40
0.0
 40
1.0
 40
1.0
 40
1.0
 40
1.0
 10
27.35580051676433
 20
-36.03413385009766
 30
0.0
 41
1.0
 10
27.38966666666667
 20
-36.05953281656902
 30
0.0
 41
1.0
 10
27.42353281656902
 20
-36.09340155029297
 30
0.0
 41
1.0
 10
27.440467183431
 20
-36.13573488362631
 30
0.0
 41
1.0
  0
LINE
  5
21A
330
70
100
AcDbEntity
  8
lageman v1_Sketch1
100
AcDbLine
 10
27.52513385009766
 20
-36.97393436686198
 30
0.0
 11
27.52513385009766
 21
-40.91093436686198
 31
0.0
  0
SPLINE
  5
21B
330
70
100
AcDbEntity
  8
lageman v1_Sketch1
100
AcDbSpline
210
0.0
220
0.0
230
1.0
 70
    12
 71
     3
 72
     8
 73
     4
 74
     0
 42
0.000000001
 43
0.0000000001
 40
0.0
 40
0.0
 40
0.0
 40
0.0
 40
1.0
 40
1.0
 40
1.0
 40
1.0
 10
27.33039638264975
 20
-45.51680826822917
 30
0.0
 41
1.0
 10
26.7885302327474
 20
-45.77927286783855
 30
0.0
 41
1.0
 10
26.16199741617839
 20
-45.7623436686198
 30
0.0
 41
1.0
 10
25.5777953491211
 20
-45.59301033528647
 30
0.0
 41
1.0
  0
SPLINE
  5
21C
330
70
100
AcDbEntity
  8
lageman v1_Sketch1
100
AcDbSpline
210
0.0
220
0.0
230
1.0
 70
    12
 71
     3
 72
     8
 73
     4
 74
     0
 42
0.000000001
 43
0.0000000001
 40
0.0
 40
0.0
 40
0.0
 40
0.0
 40
1.0
 40
1.0
 40
1.0
 40
1.0
 10
25.64552764892578
 20
-43.12074263509115
 30
0.0
 41
1.0
 10
25.53546718343099
 20
-43.47633333333334
 30
0.0
 41
1.0
 10
25.63706563313802
 20
-43.84039896647136
 30
0.0
 41
1.0
 10
25.81486614990235
 20
-44.09439896647135
 30
0.0
 41
1.0
  0
SPLINE
  5
21D
330
70
100
AcDbEntity
  8
lageman v1_Sketch1
100
AcDbSpline
210
0.0
220
0.0
230
1.0
 70
    12
 71
     3
 72
     8
 73
     4
 74
     0
 42
0.000000001
 43
0.0000000001
 40
0.0
 40
0.0
 40
0.0
 40
0.0
 40
1.0
 40
1.0
 40
1.0
 40
1.0
 10
27.52513385009766
 20
-40.91093436686199
 30
0.0
 41
1.0
 10
27.52513385009766
 20
-41.29193436686199
 30
0.0
 41
1.0
 10
27.49973488362631
 20
-41.57980051676433
 30
0.0
 41
1.0
 10
27.45740155029297
 20
-41.76606821695965
 30
0.0
 41
1.0
  0
LINE
  5
21E
330
70
100
AcDbEntity
  8
lageman v1_Sketch1
100
AcDbLine
 10
27.90613385009766
 20
-36.03413126627605
 30
0.0
 11
27.91460103352865
 21
-36.03413126627605
 31
0.0
  0
LINE
  5
21F
330
70
100
AcDbEntity
  8
lageman v1_Sketch1
100
AcDbLine
 10
35.060467183431
 20
-36.02566408284506
 30
0.0
 11
33.70580051676433
 21
-41.01253281656902
 31
0.0
  0
SPLINE
  5
220
330
70
100
AcDbEntity
  8
lageman v1_Sketch1
100
AcDbSpline
210
0.0
220
0.0
230
1.0
 70
    12
 71
     3
 72
     8
 73
     4
 74
     0
 42
0.000000001
 43
0.0000000001
 40
0.0
 40
0.0
 40
0.0
 40
0.0
 40
1.0
 40
1.0
 40
1.0
 40
1.0
 10
26.35672971598308
 20
-44.47540413411458
 30
0.0
 41
1.0
 10
26.49219689941407
 20
-44.49233850097657
 30
0.0
 41
1.0
 10
26.61919689941407
 20
-44.45000516764324
 30
0.0
 41
1.0
 10
26.70386356608073
 20
-44.34840413411459
 30
0.0
 41
1.0
  0
LINE
  5
221
330
70
100
AcDbEntity
  8
lageman v1_Sketch1
100
AcDbLine
 10
23.74899483235678
 20
-44.92414160156251
 30
0.0
 11
23.74899483235678
 21
-43.12074263509115
 31
0.0
  0
LINE
  5
222
330
70
100
AcDbEntity
  8
lageman v1_Sketch1
100
AcDbLine
 10
27.45740155029297
 20
-41.76606821695965
 30
0.0
 11
26.28053540039063
 21
-41.76606821695965
 31
0.0
  0
SPLINE
  5
223
330
70
100
AcDbEntity
  8
lageman v1_Sketch1
100
AcDbSpline
210
0.0
220
0.0
230
1.0
 70
    12
 71
     3
 72
     8
 73
     4
 74
     0
 42
0.000000001
 43
0.0000000001
 40
0.0
 40
0.0
 40
0.0
 40
0.0
 40
1.0
 40
1.0
 40
1.0
 40
1.0
 10
26.00959844970704
 20
-44.31453540039063
 30
0.0
 41
1.0
 10
26.04346459960938
 20
-44.34840413411459
 30
0.0
 41
1.0
 10
26.08579793294272
 20
-44.37380310058594
 30
0.0
 41
1.0
 10
26.11966408284505
 20
-44.3992020670573
 30
0.0
 41
1.0
  0
LINE
  5
224
330
70
100
AcDbEntity
  8
lageman v1_Sketch1
100
AcDbLine
 10
26.28053540039063
 20
-41.76606821695965
 30
0.0
 11
26.31440155029297
 21
-40.10660103352865
 31
0.0
  0
LINE
  5
225
330
70
100
AcDbEntity
  8
lageman v1_Sketch1
100
AcDbLine
 10
23.74899483235678
 20
-43.12074263509115
 30
0.0
 11
25.64552764892578
 21
-43.12074263509115
 31
0.0
  0
LINE
  5
226
330
70
100
AcDbEntity
  8
lageman v1_Sketch1
100
AcDbLine
 10
27.91460103352865
 20
-36.03413126627605
 30
0.0
 11
29.17613385009767
 21
-41.7745302327474
 31
0.0
  0
LINE
  5
227
330
70
100
AcDbEntity
  8
lageman v1_Sketch1
100
AcDbLine
 10
29.17613385009767
 20
-41.7745302327474
 30
0.0
 11
27.97386614990235
 21
-41.7745302327474
 31
0.0
  0
LINE
  5
228
330
70
100
AcDbEntity
  8
lageman v1_Sketch1
100
AcDbLine
 10
29.91273488362631
 20
-41.77453540039063
 30
0.0
 11
31.14039896647136
 21
-36.03413385009766
 31
0.0
  0
SPLINE
  5
229
330
70
100
AcDbEntity
  8
lageman v1_Sketch1
100
AcDbSpline
210
0.0
220
0.0
230
1.0
 70
    12
 71
     3
 72
     8
 73
     4
 74
     0
 42
0.000000001
 43
0.0000000001
 40
0.0
 40
0.0
 40
0.0
 40
0.0
 40
1.0
 40
1.0
 40
1.0
 40
1.0
 10
24.60412868245443
 20
-45.16967700195313
 30
0.0
 41
1.0
 10
24.37552764892579
 20
-45.08501033528647
 30
0.0
 41
1.0
 10
24.07919431559245
 20
-45.0003436686198
 30
0.0
 41
1.0
 10
23.74899483235678
 20
-44.92414160156251
 30
0.0
 41
1.0
  0
SPLINE
  5
22A
330
70
100
AcDbEntity
  8
lageman v1_Sketch1
100
AcDbSpline
210
0.0
220
0.0
230
1.0
 70
    12
 71
     3
 72
     8
 73
     4
 74
     0
 42
0.000000001
 43
0.0000000001
 40
0.0
 40
0.0
 40
0.0
 40
0.0
 40
1.0
 40
1.0
 40
1.0
 40
1.0
 10
23.88446976725261
 20
-41.76606821695965
 30
0.0
 41
1.0
 10
23.86753540039063
 20
-41.61366925048828
 30
0.0
 41
1.0
 10
23.85907080078125
 20
-41.41046718343099
 30
0.0
 41
1.0
 10
23.85907080078125
 20
-41.16493436686198
 30
0.0
 41
1.0
  0
LINE
  5
22B
330
70
100
AcDbEntity
  8
lageman v1_Sketch1
100
AcDbLine
 10
24.9089369506836
 20
-40.54686614990234
 30
0.0
 11
25.23913643391928
 21
-40.55533333333333
 31
0.0
  0
SPLINE
  5
22C
330
70
100
AcDbEntity
  8
lageman v1_Sketch1
100
AcDbSpline
210
0.0
220
0.0
230
1.0
 70
    12
 71
     3
 72
     8
 73
     4
 74
     0
 42
0.000000001
 43
0.0000000001
 40
0.0
 40
0.0
 40
0.0
 40
0.0
 40
1.0
 40
1.0
 40
1.0
 40
1.0
 10
24.9089369506836
 20
-37.25333333333334
 30
0.0
 41
1.0
 10
24.89200258382162
 20
-37.71053281656902
 30
0.0
 41
1.0
 10
24.82427028401693
 20
-38.04919948323568
 30
0.0
 41
1.0
 10
24.69727028401693
 20
-38.26933333333334
 30
0.0
 41
1.0
  0
SPLINE
  5
22D
330
70
100
AcDbEntity
  8
lageman v1_Sketch1
100
AcDbSpline
210
0.0
220
0.0
230
1.0
 70
    12
 71
     3
 72
     8
 73
     4
 74
     0
 42
0.000000001
 43
0.0000000001
 40
0.0
 40
0.0
 40
0.0
 40
0.0
 40
1.0
 40
1.0
 40
1.0
 40
1.0
 10
24.69727028401693
 20
-38.26933333333334
 30
0.0
 41
1.0
 10
24.57027028401693
 20
-38.489467183431
 30
0.0
 41
1.0
 10
24.38400258382162
 20
-38.59953281656902
 30
0.0
 41
1.0
 10
24.13846976725261
 20
-38.59953281656902
 30
0.0
 41
1.0
  0
LINE
  5
22E
330
70
100
AcDbEntity
  8
lageman v1_Sketch1
100
AcDbLine
 10
23.85907080078125
 20
-41.16493436686197
 30
0.0
 11
23.85907080078125
 21
-39.11600000000001
 31
0.0
  0
LINE
  5
22F
330
70
100
AcDbEntity
  8
lageman v1_Sketch1
100
AcDbLine
 10
25.23913643391928
 20
-40.55533333333333
 30
0.0
 11
25.23913643391928
 21
-37.25333333333334
 31
0.0
  0
SPLINE
  5
230
330
70
100
AcDbEntity
  8
lageman v1_Sketch1
100
AcDbSpline
210
0.0
220
0.0
230
1.0
 70
    12
 71
     3
 72
     8
 73
     4
 74
     0
 42
0.000000001
 43
0.0000000001
 40
0.0
 40
0.0
 40
0.0
 40
0.0
 40
1.0
 40
1.0
 40
1.0
 40
1.0
 10
25.94186614990235
 20
-44.25526770019532
 30
0.0
 41
1.0
 10
25.96726511637371
 20
-44.28066666666667
 30
0.0
 41
1.0
 10
25.98419948323568
 20
-44.29760103352864
 30
0.0
 41
1.0
 10
26.00959844970704
 20
-44.31453540039063
 30
0.0
 41
1.0
  0
LINE
  5
231
330
70
100
AcDbEntity
  8
lageman v1_Sketch1
100
AcDbLine
 10
26.06886356608073
 20
-43.12074005126953
 30
0.0
 11
27.76219689941407
 21
-43.12074005126953
 31
0.0
  0
SPLINE
  5
232
330
70
100
AcDbEntity
  8
lageman v1_Sketch1
100
AcDbSpline
210
0.0
220
0.0
230
1.0
 70
    12
 71
     3
 72
     8
 73
     4
 74
     0
 42
0.000000001
 43
0.0000000001
 40
0.0
 40
0.0
 40
0.0
 40
0.0
 40
1.0
 40
1.0
 40
1.0
 40
1.0
 10
26.11966408284505
 20
-44.3992020670573
 30
0.0
 41
1.0
 10
26.20433074951173
 20
-44.45000000000001
 30
0.0
 41
1.0
 10
26.29746459960938
 20
-44.48386873372396
 30
0.0
 41
1.0
 10
26.35672971598308
 20
-44.47540413411458
 30
0.0
 41
1.0
  0
SPLINE
  5
233
330
70
100
AcDbEntity
  8
lageman v1_Sketch1
100
AcDbSpline
210
0.0
220
0.0
230
1.0
 70
    12
 71
     3
 72
     8
 73
     4
 74
     0
 42
0.000000001
 43
0.0000000001
 40
0.0
 40
0.0
 40
0.0
 40
0.0
 40
1.0
 40
1.0
 40
1.0
 40
1.0
 10
40.22513385009766
 20
-46.03326770019531
 30
0.0
 41
1.0
 10
40.43680051676433
 20
-46.27880310058595
 30
0.0
 41
1.0
 10
40.28440155029297
 20
-46.54973229980469
 30
0.0
 41
1.0
 10
39.99653281656902
 20
-46.56666666666668
 30
0.0
 41
1.0
  0
LINE
  5
234
330
70
100
AcDbEntity
  8
lageman v1_Sketch1
100
AcDbLine
 10
41.64753540039063
 20
-41.77453281656902
 30
0.0
 11
39.38693436686199
 21
-41.77453281656902
 31
0.0
  0
SPLINE
  5
235
330
70
100
AcDbEntity
  8
lageman v1_Sketch1
100
AcDbSpline
210
0.0
220
0.0
230
1.0
 70
    12
 71
     3
 72
     8
 73
     4
 74
     0
 42
0.000000001
 43
0.0000000001
 40
0.0
 40
0.0
 40
0.0
 40
0.0
 40
1.0
 40
1.0
 40
1.0
 40
1.0
 10
31.92779793294271
 20
-49.24213126627605
 30
0.0
 41
1.0
 10
32.02093178304037
 20
-49.17439896647136
 30
0.0
 41
1.0
 10
32.11406563313803
 20
-49.09819689941407
 30
0.0
 41
1.0
 10
32.1987322998047
 20
-49.0135302327474
 30
0.0
 41
1.0
  0
SPLINE
  5
236
330
70
100
AcDbEntity
  8
lageman v1_Sketch1
100
AcDbSpline
210
0.0
220
0.0
230
1.0
 70
    12
 71
     3
 72
     8
 73
     4
 74
     0
 42
0.000000001
 43
0.0000000001
 40
0.0
 40
0.0
 40
0.0
 40
0.0
 40
1.0
 40
1.0
 40
1.0
 40
1.0
 10
37.28719948323568
 20
-45.29666666666667
 30
0.0
 41
1.0
 10
37.59200000000001
 20
-45.40673229980469
 30
0.0
 41
1.0
 10
37.61739896647136
 20
-45.25433333333334
 30
0.0
 41
1.0
 10
37.49886614990235
 20
-45.00879793294271
 30
0.0
 41
1.0
  0
SPLINE
  5
237
330
70
100
AcDbEntity
  8
lageman v1_Sketch1
100
AcDbSpline
210
0.0
220
0.0
230
1.0
 70
    12
 71
     3
 72
     8
 73
     4
 74
     0
 42
0.000000001
 43
0.0000000001
 40
0.0
 40
0.0
 40
0.0
 40
0.0
 40
1.0
 40
1.0
 40
1.0
 40
1.0
 10
35.34833333333334
 20
-46.85453023274741
 30
0.0
 41
1.0
 10
36.14419948323568
 20
-47.26939896647136
 30
0.0
 41
1.0
 10
37.32953281656901
 20
-47.09159586588542
 30
0.0
 41
1.0
 10
38.21853281656902
 20
-46.56666149902345
 30
0.0
 41
1.0
  0
LINE
  5
238
330
70
100
AcDbEntity
  8
lageman v1_Sketch1
100
AcDbLine
 10
39.31073488362631
 20
-37.35493178304038
 30
0.0
 11
41.64753540039063
 21
-41.77453281656902
 31
0.0
  0
SPLINE
  5
239
330
70
100
AcDbEntity
  8
lageman v1_Sketch1
100
AcDbSpline
210
0.0
220
0.0
230
1.0
 70
    12
 71
     3
 72
     8
 73
     4
 74
     0
 42
0.000000001
 43
0.0000000001
 40
0.0
 40
0.0
 40
0.0
 40
0.0
 40
1.0
 40
1.0
 40
1.0
 40
1.0
 10
36.39819948323569
 20
-44.83100000000001
 30
0.0
 41
1.0
 10
36.86386614990235
 20
-44.85639896647136
 30
0.0
 41
1.0
 10
36.98239896647136
 20
-45.18660103352865
 30
0.0
 41
1.0
 10
37.28719948323568
 20
-45.29666666666667
 30
0.0
 41
1.0
  0
SPLINE
  5
23A
330
70
100
AcDbEntity
  8
lageman v1_Sketch1
100
AcDbSpline
210
0.0
220
0.0
230
1.0
 70
    12
 71
     3
 72
     8
 73
     4
 74
     0
 42
0.000000001
 43
0.0000000001
 40
0.0
 40
0.0
 40
0.0
 40
0.0
 40
1.0
 40
1.0
 40
1.0
 40
1.0
 10
38.21853281656902
 20
-46.56666149902345
 30
0.0
 41
1.0
 10
38.0407322998047
 20
-47.00692919921876
 30
0.0
 41
1.0
 10
38.04919948323568
 20
-47.4895302327474
 30
0.0
 41
1.0
 10
38.19313385009767
 20
-47.91286356608074
 30
0.0
 41
1.0
  0
SPLINE
  5
23B
330
70
100
AcDbEntity
  8
lageman v1_Sketch1
100
AcDbSpline
210
0.0
220
0.0
230
1.0
 70
    12
 71
     3
 72
     8
 73
     4
 74
     0
 42
0.000000001
 43
0.0000000001
 40
0.0
 40
0.0
 40
0.0
 40
0.0
 40
1.0
 40
1.0
 40
1.0
 40
1.0
 10
33.42639896647136
 20
-46.71059586588542
 30
0.0
 41
1.0
 10
33.48566666666668
 20
-44.83099483235678
 30
0.0
 41
1.0
 10
34.72179793294272
 20
-42.89212868245443
 30
0.0
 41
1.0
 10
36.75379793294272
 20
-43.16306304931641
 30
0.0
 41
1.0
  0
SPLINE
  5
23C
330
70
100
AcDbEntity
  8
lageman v1_Sketch1
100
AcDbSpline
210
0.0
220
0.0
230
1.0
 70
    12
 71
     3
 72
     8
 73
     4
 74
     0
 42
0.000000001
 43
0.0000000001
 40
0.0
 40
0.0
 40
0.0
 40
0.0
 40
1.0
 40
1.0
 40
1.0
 40
1.0
 10
35.17053281656902
 20
-47.31173229980469
 30
0.0
 41
1.0
 10
34.56939896647136
 20
-47.32019689941407
 30
0.0
 41
1.0
 10
34.01059844970704
 20
-47.39639896647136
 30
0.0
 41
1.0
 10
33.48566666666668
 20
-47.53186356608074
 30
0.0
 41
1.0
  0
SPLINE
  5
23D
330
70
100
AcDbEntity
  8
lageman v1_Sketch1
100
AcDbSpline
210
0.0
220
0.0
230
1.0
 70
    12
 71
     3
 72
     8
 73
     4
 74
     0
 42
0.000000001
 43
0.0000000001
 40
0.0
 40
0.0
 40
0.0
 40
0.0
 40
1.0
 40
1.0
 40
1.0
 40
1.0
 10
39.99653281656902
 20
-46.56666666666668
 30
0.0
 41
1.0
 10
39.74253281656902
 20
-46.58360103352864
 30
0.0
 41
1.0
 10
39.378467183431
 20
-46.44813126627605
 30
0.0
 41
1.0
 10
39.40386614990235
 20
-46.79526770019531
 30
0.0
 41
1.0
  0
SPLINE
  5
23E
330
70
100
AcDbEntity
  8
lageman v1_Sketch1
100
AcDbSpline
210
0.0
220
0.0
230
1.0
 70
    12
 71
     3
 72
     8
 73
     4
 74
     0
 42
0.000000001
 43
0.0000000001
 40
0.0
 40
0.0
 40
0.0
 40
0.0
 40
1.0
 40
1.0
 40
1.0
 40
1.0
 10
40.45373229980468
 20
-47.10853540039063
 30
0.0
 41
1.0
 10
40.27593178304036
 20
-47.51493436686199
 30
0.0
 41
1.0
 10
40.05579793294272
 20
-47.9552020670573
 30
0.0
 41
1.0
 10
39.81026511637371
 20
-48.43780310058594
 30
0.0
 41
1.0
  0
SPLINE
  5
23F
330
70
100
AcDbEntity
  8
lageman v1_Sketch1
100
AcDbSpline
210
0.0
220
0.0
230
1.0
 70
    12
 71
     3
 72
     8
 73
     4
 74
     0
 42
0.000000001
 43
0.0000000001
 40
0.0
 40
0.0
 40
0.0
 40
0.0
 40
1.0
 40
1.0
 40
1.0
 40
1.0
 10
35.38219948323568
 20
-45.94860103352865
 30
0.0
 41
1.0
 10
35.03506563313802
 20
-45.30513643391928
 30
0.0
 41
1.0
 10
35.83939896647136
 20
-44.80560103352865
 30
0.0
 41
1.0
 10
36.39819948323569
 20
-44.83100000000001
 30
0.0
 41
1.0
  0
SPLINE
  5
240
330
70
100
AcDbEntity
  8
lageman v1_Sketch1
100
AcDbSpline
210
0.0
220
0.0
230
1.0
 70
    12
 71
     3
 72
     8
 73
     4
 74
     0
 42
0.000000001
 43
0.0000000001
 40
0.0
 40
0.0
 40
0.0
 40
0.0
 40
1.0
 40
1.0
 40
1.0
 40
1.0
 10
38.19313385009767
 20
-47.91286356608074
 30
0.0
 41
1.0
 10
37.38033333333334
 20
-47.51492919921875
 30
0.0
 41
1.0
 10
36.36433333333334
 20
-47.28632816569011
 30
0.0
 41
1.0
 10
35.17053281656902
 20
-47.31173229980469
 30
0.0
 41
1.0
  0
SPLINE
  5
241
330
70
100
AcDbEntity
  8
lageman v1_Sketch1
100
AcDbSpline
210
0.0
220
0.0
230
1.0
 70
    12
 71
     3
 72
     8
 73
     4
 74
     0
 42
0.000000001
 43
0.0000000001
 40
0.0
 40
0.0
 40
0.0
 40
0.0
 40
1.0
 40
1.0
 40
1.0
 40
1.0
 10
35.187467183431
 20
-44.42459586588542
 30
0.0
 41
1.0
 10
34.32386614990235
 20
-44.97492919921875
 30
0.0
 41
1.0
 10
34.28153281656902
 20
-46.29572713216147
 30
0.0
 41
1.0
 10
35.34833333333334
 20
-46.85453023274741
 30
0.0
 41
1.0
  0
SPLINE
  5
242
330
70
100
AcDbEntity
  8
lageman v1_Sketch1
100
AcDbSpline
210
0.0
220
0.0
230
1.0
 70
    12
 71
     3
 72
     8
 73
     4
 74
     0
 42
0.000000001
 43
0.0000000001
 40
0.0
 40
0.0
 40
0.0
 40
0.0
 40
1.0
 40
1.0
 40
1.0
 40
1.0
 10
36.75379793294272
 20
-43.16306304931641
 30
0.0
 41
1.0
 10
38.21853281656902
 20
-43.36626770019532
 30
0.0
 41
1.0
 10
39.35306563313803
 20
-44.62779793294272
 30
0.0
 41
1.0
 10
38.4217322998047
 20
-45.62686873372396
 30
0.0
 41
1.0
  0
SPLINE
  5
243
330
70
100
AcDbEntity
  8
lageman v1_Sketch1
100
AcDbSpline
210
0.0
220
0.0
230
1.0
 70
    12
 71
     3
 72
     8
 73
     4
 74
     0
 42
0.000000001
 43
0.0000000001
 40
0.0
 40
0.0
 40
0.0
 40
0.0
 40
1.0
 40
1.0
 40
1.0
 40
1.0
 10
39.40386614990235
 20
-46.79526770019531
 30
0.0
 41
1.0
 10
39.4292651163737
 20
-47.20166666666667
 30
0.0
 41
1.0
 10
40.03039896647136
 20
-47.34560103352865
 30
0.0
 41
1.0
 10
40.45373229980468
 20
-47.10853540039063
 30
0.0
 41
1.0
  0
SPLINE
  5
244
330
70
100
AcDbEntity
  8
lageman v1_Sketch1
100
AcDbSpline
210
0.0
220
0.0
230
1.0
 70
    12
 71
     3
 72
     8
 73
     4
 74
     0
 42
0.000000001
 43
0.0000000001
 40
0.0
 40
0.0
 40
0.0
 40
0.0
 40
1.0
 40
1.0
 40
1.0
 40
1.0
 10
36.57600000000001
 20
-46.45660103352866
 30
0.0
 41
1.0
 10
36.02566666666668
 20
-46.482
 30
0.0
 41
1.0
 10
35.63619948323569
 20
-46.4312020670573
 30
0.0
 41
1.0
 10
35.38219948323568
 20
-45.94860103352865
 30
0.0
 41
1.0
  0
SPLINE
  5
245
330
70
100
AcDbEntity
  8
lageman v1_Sketch1
100
AcDbSpline
210
0.0
220
0.0
230
1.0
 70
    12
 71
     3
 72
     8
 73
     4
 74
     0
 42
0.000000001
 43
0.0000000001
 40
0.0
 40
0.0
 40
0.0
 40
0.0
 40
1.0
 40
1.0
 40
1.0
 40
1.0
 10
38.4217322998047
 20
-45.62686873372396
 30
0.0
 41
1.0
 10
37.91373229980469
 20
-46.16873746744793
 30
0.0
 41
1.0
 10
37.23639896647136
 20
-46.4312020670573
 30
0.0
 41
1.0
 10
36.57600000000001
 20
-46.45660103352866
 30
0.0
 41
1.0
  0
SPLINE
  5
246
330
70
100
AcDbEntity
  8
lageman v1_Sketch1
100
AcDbSpline
210
0.0
220
0.0
230
1.0
 70
    12
 71
     3
 72
     8
 73
     4
 74
     0
 42
0.000000001
 43
0.0000000001
 40
0.0
 40
0.0
 40
0.0
 40
0.0
 40
1.0
 40
1.0
 40
1.0
 40
1.0
 10
39.14986614990235
 20
-49.29292919921876
 30
0.0
 41
1.0
 10
39.01439896647136
 20
-49.54693436686198
 30
0.0
 41
1.0
 10
38.92126770019532
 20
-49.83479793294272
 30
0.0
 41
1.0
 10
38.87893436686198
 20
-50.12266666666667
 30
0.0
 41
1.0
  0
SPLINE
  5
247
330
70
100
AcDbEntity
  8
lageman v1_Sketch1
100
AcDbSpline
210
0.0
220
0.0
230
1.0
 70
    12
 71
     3
 72
     8
 73
     4
 74
     0
 42
0.000000001
 43
0.0000000001
 40
0.0
 40
0.0
 40
0.0
 40
0.0
 40
1.0
 40
1.0
 40
1.0
 40
1.0
 10
39.4969974161784
 20
-48.72567183430991
 30
0.0
 41
1.0
 10
37.219467183431
 20
-47.41333333333334
 30
0.0
 41
1.0
 10
39.41233333333335
 20
-45.09346459960938
 30
0.0
 41
1.0
 10
40.22513385009766
 20
-46.03326770019531
 30
0.0
 41
1.0
  0
SPLINE
  5
248
330
70
100
AcDbEntity
  8
lageman v1_Sketch1
100
AcDbSpline
210
0.0
220
0.0
230
1.0
 70
    12
 71
     3
 72
     8
 73
     4
 74
     0
 42
0.000000001
 43
0.0000000001
 40
0.0
 40
0.0
 40
0.0
 40
0.0
 40
1.0
 40
1.0
 40
1.0
 40
1.0
 10
39.38693436686199
 20
-41.76606563313803
 30
0.0
 41
1.0
 10
39.33613385009766
 20
-41.57133333333334
 30
0.0
 41
1.0
 10
39.31073488362631
 20
-41.28346459960938
 30
0.0
 41
1.0
 10
39.31073488362631
 20
-40.91093178304038
 30
0.0
 41
1.0
  0
SPLINE
  5
249
330
70
100
AcDbEntity
  8
lageman v1_Sketch1
100
AcDbSpline
210
0.0
220
0.0
230
1.0
 70
    12
 71
     3
 72
     8
 73
     4
 74
     0
 42
0.000000001
 43
0.0000000001
 40
0.0
 40
0.0
 40
0.0
 40
0.0
 40
1.0
 40
1.0
 40
1.0
 40
1.0
 10
37.49886614990235
 20
-45.00879793294271
 30
0.0
 41
1.0
 10
36.99086614990235
 20
-44.01819689941407
 30
0.0
 41
1.0
 10
35.85633333333334
 20
-44.00126253255209
 30
0.0
 41
1.0
 10
35.187467183431
 20
-44.42459586588542
 30
0.0
 41
1.0
  0
SPLINE
  5
24A
330
70
100
AcDbEntity
  8
lageman v1_Sketch1
100
AcDbSpline
210
0.0
220
0.0
230
1.0
 70
    28
 71
     3
 72
     8
 73
     4
 74
     0
 42
0.000000001
 43
0.0000000001
 40
0.9999862325910607
 40
0.9999862325910607
 40
0.9999862325910607
 40
0.9999862325910607
 40
1.0
 40
1.0
 40
1.0
 40
1.0
 10
32.85066666666186
 20
-47.57420451473187
 30
0.0
 41
1.0
 10
32.85066666666507
 20
-47.57420369884035
 30
0.0
 41
1.0
 10
32.85066666666668
 20
-47.57420288294882
 30
0.0
 41
1.0
 10
32.85066666666668
 20
-47.5742020670573
 30
0.0
 41
1.0
  0
SPLINE
  5
24B
330
70
100
AcDbEntity
  8
lageman v1_Sketch1
100
AcDbSpline
210
0.0
220
0.0
230
1.0
 70
    12
 71
     3
 72
     8
 73
     4
 74
     0
 42
0.000000001
 43
0.0000000001
 40
0.0
 40
0.0
 40
0.0
 40
0.0
 40
1.0
 40
1.0
 40
1.0
 40
1.0
 10
39.81026511637371
 20
-48.43780310058594
 30
0.0
 41
1.0
 10
39.6832651163737
 20
-48.53093436686198
 30
0.0
 41
1.0
 10
39.58166408284506
 20
-48.63253540039064
 30
0.0
 41
1.0
 10
39.4969974161784
 20
-48.72567183430991
 30
0.0
 41
1.0
  0
LINE
  5
24C
330
70
100
AcDbEntity
  8
lageman v1_Sketch1
100
AcDbLine
 10
39.38693436686199
 20
-41.77453281656902
 30
0.0
 11
39.38693436686199
 21
-41.76606563313803
 31
0.0
  0
LINE
  5
24D
330
70
100
AcDbEntity
  8
lageman v1_Sketch1
100
AcDbLine
 10
39.3107348836263
 20
-40.91093178304038
 30
0.0
 11
39.31073488362631
 21
-37.35493178304038
 31
0.0
  0
SPLINE
  5
24E
330
70
100
AcDbEntity
  8
lageman v1_Sketch1
100
AcDbSpline
210
0.0
220
0.0
230
1.0
 70
    12
 71
     3
 72
     8
 73
     4
 74
     0
 42
0.000000001
 43
0.0000000001
 40
0.0
 40
0.0
 40
0.0
 40
0.0
 40
1.0
 40
1.0
 40
1.0
 40
1.0
 10
33.48566666666668
 20
-47.53186356608074
 30
0.0
 41
1.0
 10
33.43486614990235
 20
-47.27786356608073
 30
0.0
 41
1.0
 10
33.409467183431
 20
-47.02386356608073
 30
0.0
 41
1.0
 10
33.42639896647136
 20
-46.71059586588542
 30
0.0
 41
1.0
  0
SPLINE
  5
24F
330
70
100
AcDbEntity
  8
lageman v1_Sketch1
100
AcDbSpline
210
0.0
220
0.0
230
1.0
 70
    12
 71
     3
 72
     8
 73
     4
 74
     0
 42
0.000000001
 43
0.0000000001
 40
0.0
 40
0.0
 40
0.0
 40
0.0
 40
1.0
 40
1.0
 40
1.0
 40
1.0
 10
32.1987322998047
 20
-49.0135302327474
 30
0.0
 41
1.0
 10
34.59479793294271
 20
-47.60806563313803
 30
0.0
 41
1.0
 10
37.53273229980469
 20
-47.67579793294271
 30
0.0
 41
1.0
 10
39.14986614990235
 20
-49.29292919921876
 30
0.0
 41
1.0
  0
ENDSEC
  0
SECTION
  2
OBJECTS
  0
DICTIONARY
  5
C
330
0
100
AcDbDictionary
281
     1
  3
ACAD_COLOR
350
63
  3
ACAD_DETAILVIEWSTYLE
350
6A
  3
ACAD_GROUP
350
D
  3
ACAD_LAYOUT
350
62
  3
ACAD_MATERIAL
350
10
  3
ACAD_MLEADERSTYLE
350
66
  3
ACAD_MLINESTYLE
350
5F
  3
ACAD_PLOTSETTINGS
350
61
  3
ACAD_PLOTSTYLENAME
350
E
  3
ACAD_SCALELIST
350
42
  3
ACAD_SECTIONVIEWSTYLE
350
68
  3
ACAD_TABLESTYLE
350
64
  3
ACAD_VISUALSTYLE
350
29
  3
ACDB_RECOMPOSE_DATA
350
258
  3
AcDbVariableDictionary
350
250
  0
DICTIONARY
  5
63
102
{ACAD_REACTORS
330
C
102
}
330
C
100
AcDbDictionary
281
     1
  0
DICTIONARY
  5
6A
102
{ACAD_REACTORS
330
C
102
}
330
C
100
AcDbDictionary
281
     1
  3
Imperial24
350
6B
  0
DICTIONARY
  5
D
102
{ACAD_REACTORS
330
C
102
}
330
C
100
AcDbDictionary
281
     1
  0
DICTIONARY
  5
62
102
{ACAD_REACTORS
330
C
102
}
330
C
100
AcDbDictionary
281
     1
  3
Layout1
350
6F
  3
Layout2
350
77
  3
Model
350
73
  0
DICTIONARY
  5
10
102
{ACAD_REACTORS
330
C
102
}
330
C
100
AcDbDictionary
281
     1
  3
ByBlock
350
19
  3
ByLayer
350
11
  3
Global
350
21
  0
DICTIONARY
  5
66
102
{ACAD_REACTORS
330
C
102
}
330
C
100
AcDbDictionary
281
     1
  3
Standard
350
67
  0
DICTIONARY
  5
5F
102
{ACAD_REACTORS
330
C
102
}
330
C
100
AcDbDictionary
281
     1
  3
Standard
350
60
  0
DICTIONARY
  5
61
102
{ACAD_REACTORS
330
C
102
}
330
C
100
AcDbDictionary
281
     1
  0
ACDBDICTIONARYWDFLT
  5
E
102
{ACAD_REACTORS
330
C
102
}
330
C
100
AcDbDictionary
281
     1
  3
Normal
350
F
100
AcDbDictionaryWithDefault
340
F
  0
DICTIONARY
  5
42
102
{ACAD_REACTORS
330
C
102
}
330
C
100
AcDbDictionary
281
     1
  3
A0
350
43
  3
A1
350
44
  3
A2
350
45
  3
A3
350
46
  3
A4
350
47
  3
A5
350
48
  3
A6
350
49
  3
A7
350
4A
  3
A8
350
4B
  3
A9
350
4C
  3
B0
350
4D
  3
B1
350
4E
  3
B2
350
4F
  3
B3
350
50
  3
B4
350
51
  3
B5
350
52
  3
B6
350
53
  0
DICTIONARY
  5
68
102
{ACAD_REACTORS
330
C
102
}
330
C
100
AcDbDictionary
281
     1
  3
Imperial24
350
69
  0
DICTIONARY
  5
64
102
{ACAD_REACTORS
330
C
102
}
330
C
100
AcDbDictionary
281
     1
  3
Standard
350
65
  0
DICTIONARY
  5
29
102
{ACAD_REACTORS
330
C
102
}
330
C
100
AcDbDictionary
281
     1
  3
2dWireframe
350
2F
  3
Basic
350
2E
  3
Brighten
350
35
  3
ColorChange
350
39
  3
Conceptual
350
32
  3
Dim
350
34
  3
EdgeColorOff
350
41
  3
Facepattern
350
38
  3
Flat
350
2A
  3
FlatWithEdges
350
2B
  3
Gouraud
350
2C
  3
GouraudWithEdges
350
2D
  3
Hidden
350
31
  3
JitterOff
350
3F
  3
Linepattern
350
37
  3
OverhangOff
350
40
  3
Realistic
350
33
  3
Shaded
350
3E
  3
Shaded with edges
350
3D
  3
Shades of Gray
350
3A
  3
Sketchy
350
3B
  3
Thicken
350
36
  3
Wireframe
350
30
  3
X-Ray
350
3C
  0
XRECORD
  5
258
102
{ACAD_REACTORS
330
C
102
}
330
C
100
AcDbXrecord
280
     1
 90
        1
330
65
  0
DICTIONARY
  5
250
102
{ACAD_REACTORS
330
C
102
}
330
C
100
AcDbDictionary
281
     1
  3
CANNOSCALE
350
255
  3
CMLEADERSTYLE
350
252
  3
CTABLESTYLE
350
251
  3
CVIEWDETAILSTYLE
350
253
  3
CVIEWSECTIONSTYLE
350
254
  0
ACDBDETAILVIEWSTYLE
  5
6B
102
{ACAD_XDICTIONARY
360
25B
102
}
102
{ACAD_REACTORS
330
6A
102
}
330
6A
100
AcDbModelDocViewStyle
 70
     0
  3
Imperial24
290
     0
100
AcDbDetailViewStyle
 70
     0
 71
     0
 90
        3
 71
     1
340
55
 62
   256
 40
0.24
340
0
 62
   256
 40
0.24
300

 40
0.36
280
     3
 71
     2
340
5D
 90
       25
 62
   256
 71
     3
340
55
 62
   256
 40
0.24
 90
        1
 40
0.75
 90
        1
300
%<\AcVar ViewType \f "%tc1">% %<\AcVar ViewDetailId>%\PSCALE %<\AcVar ViewScale \f "%sn">%
 71
     4
340
5D
 90
       25
 62
   256
340
5D
 90
       25
 62
   256
280
     0
  0
LAYOUT
  5
6F
102
{ACAD_REACTORS
330
62
102
}
330
62
100
AcDbPlotSettings
  1

  2

  4

  6

 40
0.0
 41
0.0
 42
0.0
 43
0.0
 44
0.0
 45
0.0
 46
0.0
 47
0.0
 48
0.0
 49
0.0
140
0.0
141
0.0
142
1.0
143
1.0
 70
   688
 72
     0
 73
     0
 74
     5
  7

 75
    16
147
1.0
 76
     0
 77
     2
 78
   300
148
0.0
149
0.0
100
AcDbLayout
  1
Layout1
 70
     1
 71
     1
 10
0.0
 20
0.0
 11
12.0
 21
9.0
 12
0.0
 22
0.0
 32
0.0
 14
0.0
 24
0.0
 34
0.0
 15
0.0
 25
0.0
 35
0.0
146
0.0
 13
0.0
 23
0.0
 33
0.0
 16
1.0
 26
0.0
 36
0.0
 17
0.0
 27
1.0
 37
0.0
 76
     0
330
6C
  0
LAYOUT
  5
77
102
{ACAD_REACTORS
330
62
102
}
330
62
100
AcDbPlotSettings
  1

  2

  4

  6

 40
0.0
 41
0.0
 42
0.0
 43
0.0
 44
0.0
 45
0.0
 46
0.0
 47
0.0
 48
0.0
 49
0.0
140
0.0
141
0.0
142
1.0
143
1.0
 70
   688
 72
     0
 73
     0
 74
     5
  7

 75
    16
147
1.0
 76
     0
 77
     2
 78
   300
148
0.0
149
0.0
100
AcDbLayout
  1
Layout2
 70
     1
 71
     2
 10
0.0
 20
0.0
 11
12.0
 21
9.0
 12
0.0
 22
0.0
 32
0.0
 14
0.0
 24
0.0
 34
0.0
 15
0.0
 25
0.0
 35
0.0
146
0.0
 13
0.0
 23
0.0
 33
0.0
 16
1.0
 26
0.0
 36
0.0
 17
0.0
 27
1.0
 37
0.0
 76
     0
330
74
  0
LAYOUT
  5
73
102
{ACAD_REACTORS
330
62
102
}
330
62
100
AcDbPlotSettings
  1

  2

  4

  6

 40
0.0
 41
0.0
 42
0.0
 43
0.0
 44
0.0
 45
0.0
 46
0.0
 47
0.0
 48
0.0
 49
0.0
140
0.0
141
0.0
142
1.0
143
1.0
 70
  1712
 72
     0
 73
     0
 74
     0
  7

 75
     0
147
1.0
 76
     0
 77
     2
 78
   300
148
0.0
149
0.0
100
AcDbLayout
  1
Model
 70
     1
 71
     0
 10
0.0
 20
0.0
 11
12.0
 21
9.0
 12
0.0
 22
0.0
 32
0.0
 14
0.0
 24
0.0
 34
0.0
 15
0.0
 25
0.0
 35
0.0
146
0.0
 13
0.0
 23
0.0
 33
0.0
 16
1.0
 26
0.0
 36
0.0
 17
0.0
 27
1.0
 37
0.0
 76
     0
330
70
  0
MATERIAL
  5
19
102
{ACAD_XDICTIONARY
360
1A
102
}
102
{ACAD_REACTORS
330
10
102
}
330
10
100
AcDbMaterial
  1
ByBlock
 72
     0
 43
0.0208333333333333
 43
0.0
 43
0.0
 43
0.0
 43
0.0
 43
0.0208333333333333
 43
0.0
 43
0.0
 43
0.0
 43
0.0
 43
1.0
 43
0.0
 43
0.0
 43
0.0
 43
0.0
 43
1.0
 77
     0
 47
0.0208333333333333
 47
0.0
 47
0.0
 47
0.0
 47
0.0
 47
0.0208333333333333
 47
0.0
 47
0.0
 47
0.0
 47
0.0
 47
1.0
 47
0.0
 47
0.0
 47
0.0
 47
0.0
 47
1.0
171
     0
 49
0.0208333333333333
 49
0.0
 49
0.0
 49
0.0
 49
0.0
 49
0.0208333333333333
 49
0.0
 49
0.0
 49
0.0
 49
0.0
 49
1.0
 49
0.0
 49
0.0
 49
0.0
 49
0.0
 49
1.0
175
     0
142
0.0208333333333333
142
0.0
142
0.0
142
0.0
142
0.0
142
0.0208333333333333
142
0.0
142
0.0
142
0.0
142
0.0
142
1.0
142
0.0
142
0.0
142
0.0
142
0.0
142
1.0
179
     0
144
0.0208333333333333
144
0.0
144
0.0
144
0.0
144
0.0
144
0.0208333333333333
144
0.0
144
0.0
144
0.0
144
0.0
144
1.0
144
0.0
144
0.0
144
0.0
144
0.0
144
1.0
147
0.0208333333333333
147
0.0
147
0.0
147
0.0
147
0.0
147
0.0208333333333333
147
0.0
147
0.0
147
0.0
147
0.0
147
1.0
147
0.0
147
0.0
147
0.0
147
0.0
147
1.0
  0
MATERIAL
  5
11
102
{ACAD_XDICTIONARY
360
12
102
}
102
{ACAD_REACTORS
330
10
102
}
330
10
100
AcDbMaterial
  1
ByLayer
 72
     0
 43
0.0208333333333333
 43
0.0
 43
0.0
 43
0.0
 43
0.0
 43
0.0208333333333333
 43
0.0
 43
0.0
 43
0.0
 43
0.0
 43
1.0
 43
0.0
 43
0.0
 43
0.0
 43
0.0
 43
1.0
 77
     0
 47
0.0208333333333333
 47
0.0
 47
0.0
 47
0.0
 47
0.0
 47
0.0208333333333333
 47
0.0
 47
0.0
 47
0.0
 47
0.0
 47
1.0
 47
0.0
 47
0.0
 47
0.0
 47
0.0
 47
1.0
171
     0
 49
0.0208333333333333
 49
0.0
 49
0.0
 49
0.0
 49
0.0
 49
0.0208333333333333
 49
0.0
 49
0.0
 49
0.0
 49
0.0
 49
1.0
 49
0.0
 49
0.0
 49
0.0
 49
0.0
 49
1.0
175
     0
142
0.0208333333333333
142
0.0
142
0.0
142
0.0
142
0.0
142
0.0208333333333333
142
0.0
142
0.0
142
0.0
142
0.0
142
1.0
142
0.0
142
0.0
142
0.0
142
0.0
142
1.0
179
     0
144
0.0208333333333333
144
0.0
144
0.0
144
0.0
144
0.0
144
0.0208333333333333
144
0.0
144
0.0
144
0.0
144
0.0
144
1.0
144
0.0
144
0.0
144
0.0
144
0.0
144
1.0
147
0.0208333333333333
147
0.0
147
0.0
147
0.0
147
0.0
147
0.0208333333333333
147
0.0
147
0.0
147
0.0
147
0.0
147
1.0
147
0.0
147
0.0
147
0.0
147
0.0
147
1.0
  0
MATERIAL
  5
21
102
{ACAD_XDICTIONARY
360
22
102
}
102
{ACAD_REACTORS
330
10
102
}
330
10
100
AcDbMaterial
  1
Global
 72
     0
 43
0.0208333333333333
 43
0.0
 43
0.0
 43
0.0
 43
0.0
 43
0.0208333333333333
 43
0.0
 43
0.0
 43
0.0
 43
0.0
 43
1.0
 43
0.0
 43
0.0
 43
0.0
 43
0.0
 43
1.0
 77
     0
 47
0.0208333333333333
 47
0.0
 47
0.0
 47
0.0
 47
0.0
 47
0.0208333333333333
 47
0.0
 47
0.0
 47
0.0
 47
0.0
 47
1.0
 47
0.0
 47
0.0
 47
0.0
 47
0.0
 47
1.0
171
     0
 49
0.0208333333333333
 49
0.0
 49
0.0
 49
0.0
 49
0.0
 49
0.0208333333333333
 49
0.0
 49
0.0
 49
0.0
 49
0.0
 49
1.0
 49
0.0
 49
0.0
 49
0.0
 49
0.0
 49
1.0
175
     0
142
0.0208333333333333
142
0.0
142
0.0
142
0.0
142
0.0
142
0.0208333333333333
142
0.0
142
0.0
142
0.0
142
0.0
142
1.0
142
0.0
142
0.0
142
0.0
142
0.0
142
1.0
179
     0
144
0.0208333333333333
144
0.0
144
0.0
144
0.0
144
0.0
144
0.0208333333333333
144
0.0
144
0.0
144
0.0
144
0.0
144
1.0
144
0.0
144
0.0
144
0.0
144
0.0
144
1.0
147
0.0208333333333333
147
0.0
147
0.0
147
0.0
147
0.0
147
0.0208333333333333
147
0.0
147
0.0
147
0.0
147
0.0
147
1.0
147
0.0
147
0.0
147
0.0
147
0.0
147
1.0
  0
MLEADERSTYLE
  5
67
102
{ACAD_REACTORS
330
66
102
}
330
66
100
AcDbMLeaderStyle
179
     2
170
     2
171
     1
172
     0
 90
        2
 40
0.0
 41
0.0
173
     1
 91
-1056964608
340
5B
 92
       -2
290
     1
 42
0.09
291
     1
 43
0.36
  3
Standard
 44
0.18
300

342
55
174
     1
178
     6
175
     1
176
     0
 93
-1056964608
 45
0.18
292
     0
297
     0
 46
0.18
 94
-1056964608
 47
1.0
 49
1.0
140
1.0
293
     1
141
0.0
294
     1
177
     0
142
1.0
295
     0
296
     0
143
0.125
271
     0
272
     9
273
     9
298
     1
  0
MLINESTYLE
  5
60
102
{ACAD_REACTORS
330
5F
102
}
330
5F
100
AcDbMlineStyle
  2
STANDARD
 70
     0
  3

 62
   256
 51
90.0
 52
90.0
 71
     2
 49
0.5
 62
   256
  6
BYLAYER
 49
-0.5
 62
   256
  6
BYLAYER
  0
ACDBPLACEHOLDER
  5
F
102
{ACAD_REACTORS
330
E
102
}
330
E
  0
SCALE
  5
43
102
{ACAD_REACTORS
330
42
102
}
330
42
100
AcDbScale
 70
     0
300
1:1
140
1.0
141
1.0
290
     1
  0
SCALE
  5
44
102
{ACAD_REACTORS
330
42
102
}
330
42
100
AcDbScale
 70
     0
300
1/128" = 1'-0"
140
0.0078125
141
12.0
290
     0
  0
SCALE
  5
45
102
{ACAD_REACTORS
330
42
102
}
330
42
100
AcDbScale
 70
     0
300
1/64" = 1'-0"
140
0.015625
141
12.0
290
     0
  0
SCALE
  5
46
102
{ACAD_REACTORS
330
42
102
}
330
42
100
AcDbScale
 70
     0
300
1/32" = 1'-0"
140
0.03125
141
12.0
290
     0
  0
SCALE
  5
47
102
{ACAD_REACTORS
330
42
102
}
330
42
100
AcDbScale
 70
     0
300
1/16" = 1'-0"
140
0.0625
141
12.0
290
     0
  0
SCALE
  5
48
102
{ACAD_REACTORS
330
42
102
}
330
42
100
AcDbScale
 70
     0
300
3/32" = 1'-0"
140
0.09375
141
12.0
290
     0
  0
SCALE
  5
49
102
{ACAD_REACTORS
330
42
102
}
330
42
100
AcDbScale
 70
     0
300
1/8" = 1'-0"
140
0.125
141
12.0
290
     0
  0
SCALE
  5
4A
102
{ACAD_REACTORS
330
42
102
}
330
42
100
AcDbScale
 70
     0
300
3/16" = 1'-0"
140
0.1875
141
12.0
290
     0
  0
SCALE
  5
4B
102
{ACAD_REACTORS
330
42
102
}
330
42
100
AcDbScale
 70
     0
300
1/4" = 1'-0"
140
0.25
141
12.0
290
     0
  0
SCALE
  5
4C
102
{ACAD_REACTORS
330
42
102
}
330
42
100
AcDbScale
 70
     0
300
3/8" = 1'-0"
140
0.375
141
12.0
290
     0
  0
SCALE
  5
4D
102
{ACAD_REACTORS
330
42
102
}
330
42
100
AcDbScale
 70
     0
300
1/2" = 1'-0"
140
0.5
141
12.0
290
     0
  0
SCALE
  5
4E
102
{ACAD_REACTORS
330
42
102
}
330
42
100
AcDbScale
 70
     0
300
3/4" = 1'-0"
140
0.75
141
12.0
290
     0
  0
SCALE
  5
4F
102
{ACAD_REACTORS
330
42
102
}
330
42
100
AcDbScale
 70
     0
300
1" = 1'-0"
140
1.0
141
12.0
290
     0
  0
SCALE
  5
50
102
{ACAD_REACTORS
330
42
102
}
330
42
100
AcDbScale
 70
     0
300
1-1/2" = 1'-0"
140
1.5
141
12.0
290
     0
  0
SCALE
  5
51
102
{ACAD_REACTORS
330
42
102
}
330
42
100
AcDbScale
 70
     0
300
3" = 1'-0"
140
3.0
141
12.0
290
     0
  0
SCALE
  5
52
102
{ACAD_REACTORS
330
42
102
}
330
42
100
AcDbScale
 70
     0
300
6" = 1'-0"
140
6.0
141
12.0
290
     0
  0
SCALE
  5
53
102
{ACAD_REACTORS
330
42
102
}
330
42
100
AcDbScale
 70
     0
300
1'-0" = 1'-0"
140
12.0
141
12.0
290
     0
  0
ACDBSECTIONVIEWSTYLE
  5
69
102
{ACAD_XDICTIONARY
360
259
102
}
102
{ACAD_REACTORS
330
68
102
}
330
68
100
AcDbModelDocViewStyle
 70
     0
  3
Imperial24
290
     0
100
AcDbSectionViewStyle
 70
     0
 71
     0
 90
       78
 71
     1
340
55
 62
   256
 40
0.24
340
0
340
0
 62
   256
 40
0.24
300
I, O, Q, S, X, Z
 40
0.48
 90
        3
 40
0.18
 90
        1
 71
     2
340
5D
 90
       25
 62
   256
340
5D
 90
       50
 62
   256
 40
0.24
 40
0.0
 40
0.24
 71
     3
340
55
 62
   256
 40
0.24
 90
        1
 40
0.75
 90
        1
300
%<\AcVar ViewType \f "%tc1">% %<\AcVar ViewSectionStartId>%-%<\AcVar ViewSectionEndId>%\PSCALE %<\AcVar ViewScale \f "%sn">%
 71
     4
 62
   256
 62
   257
300
ANSI31
 40
1.0
 90
        0
290
     0
290
     0
 90
        6
 40
0.0
 40
1.570796326794896
 40
0.2617993877991494
 40
1.308996938995747
 40
-0.2617993877991494
 40
1.832595714594046
  0
TABLESTYLE
  5
65
102
{ACAD_XDICTIONARY
360
256
102
}
102
{ACAD_REACTORS
330
64
102
}
330
64
100
AcDbTableStyle
280
     0
  3
Standard
 70
     0
 71
     0
 40
0.06
 41
0.06
280
     0
281
     0
  7
Standard
140
0.18
170
     2
 62
     0
 63
     7
283
     0
 90
      512
 91
        0
  1

274
    -2
284
     1
 64
     0
275
    -2
285
     1
 65
     0
276
    -2
286
     1
 66
     0
277
    -2
287
     1
 67
     0
278
    -2
288
     1
 68
     0
279
    -2
289
     1
 69
     0
  7
Standard
140
0.25
170
     5
 62
     0
 63
     7
283
     0
 90
      512
 91
        0
  1

274
    -2
284
     1
 64
     0
275
    -2
285
     1
 65
     0
276
    -2
286
     1
 66
     0
277
    -2
287
     1
 67
     0
278
    -2
288
     1
 68
     0
279
    -2
289
     1
 69
     0
  7
Standard
140
0.18
170
     5
 62
     0
 63
     7
283
     0
 90
      512
 91
        0
  1

274
    -2
284
     1
 64
     0
275
    -2
285
     1
 65
     0
276
    -2
286
     1
 66
     0
277
    -2
287
     1
 67
     0
278
    -2
288
     1
 68
     0
279
    -2
289
     1
 69
     0
  0
VISUALSTYLE
  5
2F
102
{ACAD_REACTORS
330
29
102
}
330
29
100
AcDbVisualStyle
  2
2dWireframe
 70
     4
177
     3
291
     0
 70
    58
 90
        0
176
     1
 90
        2
176
     1
 90
        0
176
     1
 90
        0
176
     1
 40
0.6
176
     1
 40
30.0
176
     1
 62
     7
420
 16777215
176
     1
 90
        1
176
     1
 90
        4
176
     1
 62
     7
176
     1
 62
   257
176
     1
 90
        1
176
     1
 90
        1
176
     1
 40
1.0
176
     1
 90
        0
176
     1
 62
   257
176
     1
 40
1.0
176
     1
 90
        1
176
     1
 90
        6
176
     1
 90
        2
176
     1
 62
     7
176
     1
 90
        5
176
     1
 90
        0
176
     1
 90
        0
176
     1
290
     0
176
     1
 90
        1
176
     1
 40
0.0
176
     1
 90
        0
176
     1
290
     1
176
     1
290
     1
176
     1
290
     0
176
     1
290
     0
176
     1
290
     0
176
     1
290
     0
176
     1
290
     0
176
     1
290
     0
176
     1
290
     0
176
     1
 90
       50
176
     1
 40
0.0
176
     1
 40
1.0
176
     1
 90
        0
176
     1
 62
    18
420
        0
176
     1
 90
       50
176
     1
 90
        3
176
     1
 62
     5
420
      255
176
     1
290
     0
176
     1
 90
       50
176
     1
 90
       50
176
     1
 90
       50
176
     1
290
     0
176
     1
 90
       50
176
     1
 62
   256
176
     0
 40
1.0
176
     0
 90
        2
176
     1
  1
strokes_ogs.tif
176
     1
290
     0
176
     1
 40
1.0
176
     1
 40
1.0
176
     1
1001
ACAD
1000
AcDbSavedByObjectVersion
1070
     0
  0
VISUALSTYLE
  5
2E
102
{ACAD_REACTORS
330
29
102
}
330
29
100
AcDbVisualStyle
  2
Basic
 70
     7
177
     3
291
     1
 70
    58
 90
        1
176
     1
 90
        0
176
     1
 90
        1
176
     1
 90
        0
176
     1
 40
0.6
176
     1
 40
30.0
176
     1
 62
     7
420
 16777215
176
     1
 90
        0
176
     1
 90
        4
176
     1
 62
     7
176
     1
 62
   257
176
     1
 90
        1
176
     1
 90
        1
176
     1
 40
1.0
176
     1
 90
        8
176
     1
 62
     7
176
     1
 40
1.0
176
     1
 90
        1
176
     1
 90
        6
176
     1
 90
        2
176
     1
 62
     7
176
     1
 90
        5
176
     1
 90
        0
176
     1
 90
        0
176
     1
290
     0
176
     1
 90
        1
176
     1
 40
0.0
176
     1
 90
        0
176
     1
290
     0
176
     1
290
     1
176
     1
290
     1
176
     1
290
     0
176
     1
290
     0
176
     1
290
     0
176
     1
290
     0
176
     1
290
     0
176
     1
290
     0
176
     1
 90
       50
176
     1
 40
0.0
176
     1
 40
1.0
176
     1
 90
        0
176
     1
 62
    18
420
        0
176
     1
 90
       50
176
     1
 90
        3
176
     1
 62
     5
420
      255
176
     1
290
     0
176
     1
 90
       50
176
     1
 90
       50
176
     1
 90
       50
176
     1
290
     0
176
     1
 90
       50
176
     1
 62
   256
176
     0
 40
1.0
176
     0
 90
        2
176
     1
  1
strokes_ogs.tif
176
     1
290
     0
176
     1
 40
1.0
176
     1
 40
1.0
176
     1
1001
ACAD
1000
AcDbSavedByObjectVersion
1070
     0
  0
VISUALSTYLE
  5
35
102
{ACAD_REACTORS
330
29
102
}
330
29
100
AcDbVisualStyle
  2
Brighten
 70
    12
177
     3
291
     1
 70
    58
 90
        2
176
     1
 90
        2
176
     1
 90
        0
176
     1
 90
        0
176
     1
 40
0.6
176
     1
 40
30.0
176
     1
 62
     7
420
 16777215
176
     1
 90
        1
176
     1
 90
        4
176
     1
 62
     7
176
     1
 62
   257
176
     1
 90
        1
176
     1
 90
        1
176
     1
 40
1.0
176
     1
 90
        8
176
     1
 62
     7
176
     1
 40
1.0
176
     1
 90
        1
176
     1
 90
        6
176
     1
 90
        2
176
     1
 62
     7
176
     1
 90
        5
176
     1
 90
        0
176
     1
 90
        0
176
     1
290
     0
176
     1
 90
        1
176
     1
 40
50.0
176
     1
 90
        0
176
     1
290
     0
176
     1
290
     1
176
     1
290
     1
176
     1
290
     0
176
     1
290
     0
176
     1
290
     0
176
     1
290
     0
176
     1
290
     0
176
     1
290
     0
176
     1
 90
       50
176
     1
 40
0.0
176
     1
 40
1.0
176
     1
 90
        0
176
     1
 62
    18
420
        0
176
     1
 90
       50
176
     1
 90
        3
176
     1
 62
     5
420
      255
176
     1
290
     0
176
     1
 90
       50
176
     1
 90
       50
176
     1
 90
       50
176
     1
290
     0
176
     1
 90
       50
176
     1
 62
   256
176
     0
 40
1.0
176
     0
 90
        2
176
     1
  1
strokes_ogs.tif
176
     1
290
     0
176
     1
 40
1.0
176
     1
 40
1.0
176
     1
1001
ACAD
1000
AcDbSavedByObjectVersion
1070
     0
  0
VISUALSTYLE
  5
39
102
{ACAD_REACTORS
330
29
102
}
330
29
100
AcDbVisualStyle
  2
ColorChange
 70
    16
177
     3
291
     1
 70
    58
 90
        2
176
     1
 90
        2
176
     1
 90
        3
176
     1
 90
        0
176
     1
 40
0.6
176
     1
 40
30.0
176
     1
 62
     8
420
  8421504
176
     1
 90
        1
176
     1
 90
        4
176
     1
 62
     7
176
     1
 62
   257
176
     1
 90
        1
176
     1
 90
        1
176
     1
 40
1.0
176
     1
 90
        8
176
     1
 62
     8
420
  8421504
176
     1
 40
1.0
176
     1
 90
        1
176
     1
 90
        6
176
     1
 90
        2
176
     1
 62
     7
176
     1
 90
        5
176
     1
 90
        0
176
     1
 90
        0
176
     1
290
     0
176
     1
 90
        1
176
     1
 40
0.0
176
     1
 90
        0
176
     1
290
     0
176
     1
290
     1
176
     1
290
     1
176
     1
290
     0
176
     1
290
     0
176
     1
290
     0
176
     1
290
     0
176
     1
290
     0
176
     1
290
     0
176
     1
 90
       50
176
     1
 40
0.0
176
     1
 40
1.0
176
     1
 90
        0
176
     1
 62
    18
420
        0
176
     1
 90
       50
176
     1
 90
        3
176
     1
 62
     5
420
      255
176
     1
290
     0
176
     1
 90
       50
176
     1
 90
       50
176
     1
 90
       50
176
     1
290
     0
176
     1
 90
       50
176
     1
 62
   256
176
     0
 40
1.0
176
     0
 90
        2
176
     1
  1
strokes_ogs.tif
176
     1
290
     0
176
     1
 40
1.0
176
     1
 40
1.0
176
     1
1001
ACAD
1000
AcDbSavedByObjectVersion
1070
     0
  0
VISUALSTYLE
  5
32
102
{ACAD_REACTORS
330
29
102
}
330
29
100
AcDbVisualStyle
  2
Conceptual
 70
     9
177
     3
291
     0
 70
    58
 90
        3
176
     1
 90
        2
176
     1
 90
        0
176
     1
 90
        0
176
     1
 40
0.6
176
     1
 40
30.0
176
     1
 62
     7
420
 16777215
176
     1
 90
        2
176
     1
 90
        2
176
     1
 62
     7
176
     1
 62
   257
176
     1
 90
        1
176
     1
 90
        1
176
     1
 40
179.0
176
     1
 90
        8
176
     1
 62
     7
176
     1
 40
1.0
176
     1
 90
        1
176
     1
 90
        6
176
     1
 90
        2
176
     1
 62
     7
176
     1
 90
        3
176
     1
 90
        0
176
     1
 90
        0
176
     1
290
     0
176
     1
 90
        1
176
     1
 40
0.0
176
     1
 90
        0
176
     1
290
     0
176
     1
290
     1
176
     1
290
     1
176
     1
290
     0
176
     1
290
     0
176
     1
290
     0
176
     1
290
     0
176
     1
290
     0
176
     1
290
     0
176
     1
 90
       50
176
     1
 40
0.0
176
     1
 40
1.0
176
     1
 90
        0
176
     1
 62
    18
420
        0
176
     1
 90
       50
176
     1
 90
        3
176
     1
 62
     5
420
      255
176
     1
290
     0
176
     1
 90
       50
176
     1
 90
       50
176
     1
 90
       50
176
     1
290
     0
176
     1
 90
       50
176
     1
 62
   256
176
     0
 40
1.0
176
     0
 90
        2
176
     1
  1
strokes_ogs.tif
176
     1
290
     0
176
     1
 40
1.0
176
     1
 40
1.0
176
     1
1001
ACAD
1000
AcDbSavedByObjectVersion
1070
     0
  0
VISUALSTYLE
  5
34
102
{ACAD_REACTORS
330
29
102
}
330
29
100
AcDbVisualStyle
  2
Dim
 70
    11
177
     3
291
     1
 70
    58
 90
        2
176
     1
 90
        2
176
     1
 90
        0
176
     1
 90
        0
176
     1
 40
0.6
176
     1
 40
30.0
176
     1
 62
     7
420
 16777215
176
     1
 90
        1
176
     1
 90
        4
176
     1
 62
     7
176
     1
 62
   257
176
     1
 90
        1
176
     1
 90
        1
176
     1
 40
1.0
176
     1
 90
        8
176
     1
 62
     7
176
     1
 40
1.0
176
     1
 90
        1
176
     1
 90
        6
176
     1
 90
        2
176
     1
 62
     7
176
     1
 90
        5
176
     1
 90
        0
176
     1
 90
        0
176
     1
290
     0
176
     1
 90
        1
176
     1
 40
-50.0
176
     1
 90
        0
176
     1
290
     0
176
     1
290
     1
176
     1
290
     1
176
     1
290
     0
176
     1
290
     0
176
     1
290
     0
176
     1
290
     0
176
     1
290
     0
176
     1
290
     0
176
     1
 90
       50
176
     1
 40
0.0
176
     1
 40
1.0
176
     1
 90
        0
176
     1
 62
    18
420
        0
176
     1
 90
       50
176
     1
 90
        3
176
     1
 62
     5
420
      255
176
     1
290
     0
176
     1
 90
       50
176
     1
 90
       50
176
     1
 90
       50
176
     1
290
     0
176
     1
 90
       50
176
     1
 62
   256
176
     0
 40
1.0
176
     0
 90
        2
176
     1
  1
strokes_ogs.tif
176
     1
290
     0
176
     1
 40
1.0
176
     1
 40
1.0
176
     1
1001
ACAD
1000
AcDbSavedByObjectVersion
1070
     0
  0
VISUALSTYLE
  5
41
102
{ACAD_REACTORS
330
29
102
}
330
29
100
AcDbVisualStyle
  2
EdgeColorOff
 70
    22
177
     3
291
     1
 70
    58
 90
        2
176
     0
 90
        2
176
     0
 90
        0
176
     0
 90
        0
176
     0
 40
0.6
176
     0
 40
30.0
176
     0
 62
     7
420
 16777215
176
     0
 90
        1
176
     0
 90
        4
176
     0
 62
     7
176
     0
 62
   257
176
     0
 90
        1
176
     0
 90
        1
176
     0
 40
1.0
176
     0
 90
        8
176
     2
 62
     7
176
     0
 40
1.0
176
     0
 90
        1
176
     0
 90
        6
176
     0
 90
        2
176
     0
 62
     7
176
     0
 90
        5
176
     0
 90
        0
176
     0
 90
        0
176
     0
290
     0
176
     0
 90
        1
176
     0
 40
0.0
176
     0
 90
        0
176
     0
290
     0
176
     0
290
     1
176
     0
290
     1
176
     0
290
     0
176
     0
290
     0
176
     0
290
     0
176
     0
290
     0
176
     0
290
     0
176
     0
290
     0
176
     0
 90
       50
176
     0
 40
0.0
176
     0
 40
1.0
176
     0
 90
        0
176
     0
 62
    18
420
        0
176
     0
 90
       50
176
     0
 90
        3
176
     0
 62
     5
420
      255
176
     0
290
     0
176
     0
 90
       50
176
     0
 90
       50
176
     0
 90
       50
176
     0
290
     0
176
     0
 90
       50
176
     0
 62
   256
176
     0
 40
1.0
176
     0
 90
        2
176
     0
  1
strokes_ogs.tif
176
     0
290
     0
176
     0
 40
1.0
176
     0
 40
1.0
176
     0
1001
ACAD
1000
AcDbSavedByObjectVersion
1070
     0
  0
VISUALSTYLE
  5
38
102
{ACAD_REACTORS
330
29
102
}
330
29
100
AcDbVisualStyle
  2
Facepattern
 70
    15
177
     3
291
     1
 70
    58
 90
        2
176
     1
 90
        2
176
     1
 90
        0
176
     1
 90
        0
176
     1
 40
0.6
176
     1
 40
30.0
176
     1
 62
     7
420
 16777215
176
     1
 90
        1
176
     1
 90
        4
176
     1
 62
     7
176
     1
 62
   257
176
     1
 90
        1
176
     1
 90
        1
176
     1
 40
1.0
176
     1
 90
        8
176
     1
 62
     7
176
     1
 40
1.0
176
     1
 90
        1
176
     1
 90
        6
176
     1
 90
        2
176
     1
 62
     7
176
     1
 90
        5
176
     1
 90
        0
176
     1
 90
        0
176
     1
290
     0
176
     1
 90
        1
176
     1
 40
0.0
176
     1
 90
        0
176
     1
290
     0
176
     1
290
     1
176
     1
290
     1
176
     1
290
     0
176
     1
290
     0
176
     1
290
     0
176
     1
290
     0
176
     1
290
     0
176
     1
290
     0
176
     1
 90
       50
176
     1
 40
0.0
176
     1
 40
1.0
176
     1
 90
        0
176
     1
 62
    18
420
        0
176
     1
 90
       50
176
     1
 90
        3
176
     1
 62
     5
420
      255
176
     1
290
     0
176
     1
 90
       50
176
     1
 90
       50
176
     1
 90
       50
176
     1
290
     0
176
     1
 90
       50
176
     1
 62
   256
176
     0
 40
1.0
176
     0
 90
        2
176
     1
  1
strokes_ogs.tif
176
     1
290
     0
176
     1
 40
1.0
176
     1
 40
1.0
176
     1
1001
ACAD
1000
AcDbSavedByObjectVersion
1070
     0
  0
VISUALSTYLE
  5
2A
102
{ACAD_REACTORS
330
29
102
}
330
29
100
AcDbVisualStyle
  2
Flat
 70
     0
177
     3
291
     1
 70
    58
 90
        2
176
     1
 90
        1
176
     1
 90
        1
176
     1
 90
        2
176
     1
 40
0.6
176
     1
 40
30.0
176
     1
 62
     7
420
 16777215
176
     1
 90
        0
176
     1
 90
        0
176
     1
 62
     7
176
     1
 62
   257
176
     1
 90
        1
176
     1
 90
        1
176
     1
 40
1.0
176
     1
 90
        8
176
     1
 62
     7
176
     1
 40
1.0
176
     1
 90
        1
176
     1
 90
        6
176
     1
 90
        2
176
     1
 62
     7
176
     1
 90
        5
176
     1
 90
        0
176
     1
 90
        0
176
     1
290
     0
176
     1
 90
       13
176
     1
 40
0.0
176
     1
 90
        0
176
     1
290
     0
176
     1
290
     1
176
     1
290
     1
176
     1
290
     0
176
     1
290
     0
176
     1
290
     0
176
     1
290
     0
176
     1
290
     0
176
     1
290
     0
176
     1
 90
       50
176
     1
 40
0.0
176
     1
 40
1.0
176
     1
 90
        0
176
     1
 62
    18
420
        0
176
     1
 90
       50
176
     1
 90
        3
176
     1
 62
     5
420
      255
176
     1
290
     0
176
     1
 90
       50
176
     1
 90
       50
176
     1
 90
       50
176
     1
290
     0
176
     1
 90
       50
176
     1
 62
   256
176
     0
 40
1.0
176
     0
 90
        2
176
     1
  1
strokes_ogs.tif
176
     1
290
     0
176
     1
 40
1.0
176
     1
 40
1.0
176
     1
1001
ACAD
1000
AcDbSavedByObjectVersion
1070
     0
  0
VISUALSTYLE
  5
2B
102
{ACAD_REACTORS
330
29
102
}
330
29
100
AcDbVisualStyle
  2
FlatWithEdges
 70
     1
177
     3
291
     1
 70
    58
 90
        2
176
     1
 90
        1
176
     1
 90
        1
176
     1
 90
        2
176
     1
 40
0.6
176
     1
 40
30.0
176
     1
 62
     7
420
 16777215
176
     1
 90
        1
176
     1
 90
        0
176
     1
 62
     7
176
     1
 62
   257
176
     1
 90
        1
176
     1
 90
        1
176
     1
 40
1.0
176
     1
 90
        0
176
     1
 62
   257
176
     1
 40
1.0
176
     1
 90
        1
176
     1
 90
        6
176
     1
 90
        2
176
     1
 62
     7
176
     1
 90
        5
176
     1
 90
        0
176
     1
 90
        0
176
     1
290
     0
176
     1
 90
       13
176
     1
 40
0.0
176
     1
 90
        0
176
     1
290
     0
176
     1
290
     1
176
     1
290
     1
176
     1
290
     0
176
     1
290
     0
176
     1
290
     0
176
     1
290
     0
176
     1
290
     0
176
     1
290
     0
176
     1
 90
       50
176
     1
 40
0.0
176
     1
 40
1.0
176
     1
 90
        0
176
     1
 62
    18
420
        0
176
     1
 90
       50
176
     1
 90
        3
176
     1
 62
     5
420
      255
176
     1
290
     0
176
     1
 90
       50
176
     1
 90
       50
176
     1
 90
       50
176
     1
290
     0
176
     1
 90
       50
176
     1
 62
   256
176
     0
 40
1.0
176
     0
 90
        2
176
     1
  1
strokes_ogs.tif
176
     1
290
     0
176
     1
 40
1.0
176
     1
 40
1.0
176
     1
1001
ACAD
1000
AcDbSavedByObjectVersion
1070
     0
  0
VISUALSTYLE
  5
2C
102
{ACAD_REACTORS
330
29
102
}
330
29
100
AcDbVisualStyle
  2
Gouraud
 70
     2
177
     3
291
     1
 70
    58
 90
        2
176
     1
 90
        2
176
     1
 90
        1
176
     1
 90
        2
176
     1
 40
0.6
176
     1
 40
30.0
176
     1
 62
     7
420
 16777215
176
     1
 90
        0
176
     1
 90
        0
176
     1
 62
     7
176
     1
 62
   257
176
     1
 90
        1
176
     1
 90
        1
176
     1
 40
1.0
176
     1
 90
        0
176
     1
 62
     7
176
     1
 40
1.0
176
     1
 90
        1
176
     1
 90
        6
176
     1
 90
        2
176
     1
 62
     7
176
     1
 90
        5
176
     1
 90
        0
176
     1
 90
        0
176
     1
290
     0
176
     1
 90
       13
176
     1
 40
0.0
176
     1
 90
        0
176
     1
290
     0
176
     1
290
     1
176
     1
290
     1
176
     1
290
     0
176
     1
290
     0
176
     1
290
     0
176
     1
290
     0
176
     1
290
     0
176
     1
290
     0
176
     1
 90
       50
176
     1
 40
0.0
176
     1
 40
1.0
176
     1
 90
        0
176
     1
 62
    18
420
        0
176
     1
 90
       50
176
     1
 90
        3
176
     1
 62
     5
420
      255
176
     1
290
     0
176
     1
 90
       50
176
     1
 90
       50
176
     1
 90
       50
176
     1
290
     0
176
     1
 90
       50
176
     1
 62
   256
176
     0
 40
1.0
176
     0
 90
        2
176
     1
  1
strokes_ogs.tif
176
     1
290
     0
176
     1
 40
1.0
176
     1
 40
1.0
176
     1
1001
ACAD
1000
AcDbSavedByObjectVersion
1070
     0
  0
VISUALSTYLE
  5
2D
102
{ACAD_REACTORS
330
29
102
}
330
29
100
AcDbVisualStyle
  2
GouraudWithEdges
 70
     3
177
     3
291
     1
 70
    58
 90
        2
176
     1
 90
        2
176
     1
 90
        1
176
     1
 90
        2
176
     1
 40
0.6
176
     1
 40
30.0
176
     1
 62
     7
420
 16777215
176
     1
 90
        1
176
     1
 90
        0
176
     1
 62
     7
176
     1
 62
   257
176
     1
 90
        1
176
     1
 90
        1
176
     1
 40
1.0
176
     1
 90
        0
176
     1
 62
   257
176
     1
 40
1.0
176
     1
 90
        1
176
     1
 90
        6
176
     1
 90
        2
176
     1
 62
     7
176
     1
 90
        5
176
     1
 90
        0
176
     1
 90
        0
176
     1
290
     0
176
     1
 90
       13
176
     1
 40
0.0
176
     1
 90
        0
176
     1
290
     0
176
     1
290
     1
176
     1
290
     1
176
     1
290
     0
176
     1
290
     0
176
     1
290
     0
176
     1
290
     0
176
     1
290
     0
176
     1
290
     0
176
     1
 90
       50
176
     1
 40
0.0
176
     1
 40
1.0
176
     1
 90
        0
176
     1
 62
    18
420
        0
176
     1
 90
       50
176
     1
 90
        3
176
     1
 62
     5
420
      255
176
     1
290
     0
176
     1
 90
       50
176
     1
 90
       50
176
     1
 90
       50
176
     1
290
     0
176
     1
 90
       50
176
     1
 62
   256
176
     0
 40
1.0
176
     0
 90
        2
176
     1
  1
strokes_ogs.tif
176
     1
290
     0
176
     1
 40
1.0
176
     1
 40
1.0
176
     1
1001
ACAD
1000
AcDbSavedByObjectVersion
1070
     0
  0
VISUALSTYLE
  5
31
102
{ACAD_REACTORS
330
29
102
}
330
29
100
AcDbVisualStyle
  2
Hidden
 70
     6
177
     3
291
     0
 70
    58
 90
        1
176
     1
 90
        2
176
     1
 90
        2
176
     1
 90
        0
176
     1
 40
0.6
176
     1
 40
30.0
176
     1
 62
     7
420
 16777215
176
     1
 90
        2
176
     1
 90
        2
176
     1
 62
     7
176
     1
 62
   257
176
     1
 90
        2
176
     1
 90
        1
176
     1
 40
40.0
176
     1
 90
        0
176
     1
 62
   257
176
     1
 40
1.0
176
     1
 90
        1
176
     1
 90
        6
176
     1
 90
        2
176
     1
 62
     7
176
     1
 90
        3
176
     1
 90
        0
176
     1
 90
        0
176
     1
290
     0
176
     1
 90
        1
176
     1
 40
0.0
176
     1
 90
        0
176
     1
290
     0
176
     1
290
     1
176
     1
290
     1
176
     1
290
     0
176
     1
290
     0
176
     1
290
     0
176
     1
290
     0
176
     1
290
     0
176
     1
290
     0
176
     1
 90
       50
176
     1
 40
0.0
176
     1
 40
1.0
176
     1
 90
        0
176
     1
 62
    18
420
        0
176
     1
 90
       50
176
     1
 90
        3
176
     1
 62
     5
420
      255
176
     1
290
     0
176
     1
 90
       50
176
     1
 90
       50
176
     1
 90
       50
176
     1
290
     0
176
     1
 90
       50
176
     1
 62
   256
176
     0
 40
1.0
176
     0
 90
        2
176
     1
  1
strokes_ogs.tif
176
     1
290
     0
176
     1
 40
1.0
176
     1
 40
1.0
176
     1
1001
ACAD
1000
AcDbSavedByObjectVersion
1070
     0
  0
VISUALSTYLE
  5
3F
102
{ACAD_REACTORS
330
29
102
}
330
29
100
AcDbVisualStyle
  2
JitterOff
 70
    20
177
     3
291
     1
 70
    58
 90
        2
176
     0
 90
        2
176
     0
 90
        0
176
     0
 90
        0
176
     0
 40
0.6
176
     0
 40
30.0
176
     0
 62
     7
420
 16777215
176
     0
 90
        1
176
     0
 90
        4
176
     0
 62
     7
176
     0
 62
   257
176
     0
 90
        1
176
     0
 90
        1
176
     0
 40
1.0
176
     0
 90
       10
176
     2
 62
     7
176
     0
 40
1.0
176
     0
 90
        1
176
     0
 90
        6
176
     0
 90
        2
176
     0
 62
     7
176
     0
 90
        5
176
     0
 90
        0
176
     0
 90
        0
176
     0
290
     0
176
     0
 90
        1
176
     0
 40
0.0
176
     0
 90
        0
176
     0
290
     0
176
     0
290
     1
176
     0
290
     1
176
     0
290
     0
176
     0
290
     0
176
     0
290
     0
176
     0
290
     0
176
     0
290
     0
176
     0
290
     0
176
     0
 90
       50
176
     0
 40
0.0
176
     0
 40
1.0
176
     0
 90
        0
176
     0
 62
    18
420
        0
176
     0
 90
       50
176
     0
 90
        3
176
     0
 62
     5
420
      255
176
     0
290
     0
176
     0
 90
       50
176
     0
 90
       50
176
     0
 90
       50
176
     0
290
     0
176
     0
 90
       50
176
     0
 62
   256
176
     0
 40
1.0
176
     0
 90
        2
176
     0
  1
strokes_ogs.tif
176
     0
290
     0
176
     0
 40
1.0
176
     0
 40
1.0
176
     0
1001
ACAD
1000
AcDbSavedByObjectVersion
1070
     0
  0
VISUALSTYLE
  5
37
102
{ACAD_REACTORS
330
29
102
}
330
29
100
AcDbVisualStyle
  2
Linepattern
 70
    14
177
     3
291
     1
 70
    58
 90
        2
176
     1
 90
        2
176
     1
 90
        0
176
     1
 90
        0
176
     1
 40
0.6
176
     1
 40
30.0
176
     1
 62
     7
420
 16777215
176
     1
 90
        1
176
     1
 90
        4
176
     1
 62
     7
176
     1
 62
   257
176
     1
 90
        7
176
     1
 90
        7
176
     1
 40
1.0
176
     1
 90
        8
176
     1
 62
     7
176
     1
 40
1.0
176
     1
 90
        1
176
     1
 90
        6
176
     1
 90
        2
176
     1
 62
     7
176
     1
 90
        5
176
     1
 90
        0
176
     1
 90
        0
176
     1
290
     0
176
     1
 90
        1
176
     1
 40
0.0
176
     1
 90
        0
176
     1
290
     0
176
     1
290
     1
176
     1
290
     1
176
     1
290
     0
176
     1
290
     0
176
     1
290
     0
176
     1
290
     0
176
     1
290
     0
176
     1
290
     0
176
     1
 90
       50
176
     1
 40
0.0
176
     1
 40
1.0
176
     1
 90
        0
176
     1
 62
    18
420
        0
176
     1
 90
       50
176
     1
 90
        3
176
     1
 62
     5
420
      255
176
     1
290
     0
176
     1
 90
       50
176
     1
 90
       50
176
     1
 90
       50
176
     1
290
     0
176
     1
 90
       50
176
     1
 62
   256
176
     0
 40
1.0
176
     0
 90
        2
176
     1
  1
strokes_ogs.tif
176
     1
290
     0
176
     1
 40
1.0
176
     1
 40
1.0
176
     1
1001
ACAD
1000
AcDbSavedByObjectVersion
1070
     0
  0
VISUALSTYLE
  5
40
102
{ACAD_REACTORS
330
29
102
}
330
29
100
AcDbVisualStyle
  2
OverhangOff
 70
    21
177
     3
291
     1
 70
    58
 90
        2
176
     0
 90
        2
176
     0
 90
        0
176
     0
 90
        0
176
     0
 40
0.6
176
     0
 40
30.0
176
     0
 62
     7
420
 16777215
176
     0
 90
        1
176
     0
 90
        4
176
     0
 62
     7
176
     0
 62
   257
176
     0
 90
        1
176
     0
 90
        1
176
     0
 40
1.0
176
     0
 90
        9
176
     2
 62
     7
176
     0
 40
1.0
176
     0
 90
        1
176
     0
 90
        6
176
     0
 90
        2
176
     0
 62
     7
176
     0
 90
        5
176
     0
 90
        0
176
     0
 90
        0
176
     0
290
     0
176
     0
 90
        1
176
     0
 40
0.0
176
     0
 90
        0
176
     0
290
     0
176
     0
290
     1
176
     0
290
     1
176
     0
290
     0
176
     0
290
     0
176
     0
290
     0
176
     0
290
     0
176
     0
290
     0
176
     0
290
     0
176
     0
 90
       50
176
     0
 40
0.0
176
     0
 40
1.0
176
     0
 90
        0
176
     0
 62
    18
420
        0
176
     0
 90
       50
176
     0
 90
        3
176
     0
 62
     5
420
      255
176
     0
290
     0
176
     0
 90
       50
176
     0
 90
       50
176
     0
 90
       50
176
     0
290
     0
176
     0
 90
       50
176
     0
 62
   256
176
     0
 40
1.0
176
     0
 90
        2
176
     0
  1
strokes_ogs.tif
176
     0
290
     0
176
     0
 40
1.0
176
     0
 40
1.0
176
     0
1001
ACAD
1000
AcDbSavedByObjectVersion
1070
     0
  0
VISUALSTYLE
  5
33
102
{ACAD_REACTORS
330
29
102
}
330
29
100
AcDbVisualStyle
  2
Realistic
 70
     8
177
     3
291
     0
 70
    58
 90
        2
176
     1
 90
        3
176
     1
 90
        0
176
     1
 90
        2
176
     1
 40
0.6
176
     1
 40
30.0
176
     1
 62
     7
420
 16777215
176
     1
 90
        0
176
     1
 90
        0
176
     1
 62
     7
176
     1
 62
   257
176
     1
 90
        1
176
     1
 90
        1
176
     1
 40
1.0
176
     1
 90
        8
176
     1
 62
   257
176
     1
 40
1.0
176
     1
 90
        1
176
     1
 90
        6
176
     1
 90
        2
176
     1
 62
     7
176
     1
 90
        3
176
     1
 90
        0
176
     1
 90
        0
176
     1
290
     0
176
     1
 90
       13
176
     1
 40
0.0
176
     1
 90
        0
176
     1
290
     0
176
     1
290
     1
176
     1
290
     1
176
     1
290
     0
176
     1
290
     0
176
     1
290
     0
176
     1
290
     0
176
     1
290
     0
176
     1
290
     0
176
     1
 90
       50
176
     1
 40
0.0
176
     1
 40
1.0
176
     1
 90
        0
176
     1
 62
    18
420
        0
176
     1
 90
       50
176
     1
 90
        3
176
     1
 62
     5
420
      255
176
     1
290
     0
176
     1
 90
       50
176
     1
 90
       50
176
     1
 90
       50
176
     1
290
     0
176
     1
 90
       50
176
     1
 62
   256
176
     0
 40
1.0
176
     0
 90
        2
176
     1
  1
strokes_ogs.tif
176
     1
290
     0
176
     1
 40
1.0
176
     1
 40
1.0
176
     1
1001
ACAD
1000
AcDbSavedByObjectVersion
1070
     0
  0
VISUALSTYLE
  5
3E
102
{ACAD_REACTORS
330
29
102
}
330
29
100
AcDbVisualStyle
  2
Shaded
 70
    27
177
     3
291
     0
 70
    58
 90
        2
176
     1
 90
        2
176
     1
 90
        1
176
     1
 90
        2
176
     1
 40
0.6
176
     1
 40
30.0
176
     1
 62
     7
420
 16777215
176
     1
 90
        0
176
     1
 90
        4
176
     1
 62
     7
176
     1
 62
   257
176
     1
 90
        1
176
     1
 90
        1
176
     1
 40
1.0
176
     1
 90
        8
176
     1
 62
   257
176
     1
 40
1.0
176
     1
 90
        1
176
     1
 90
        6
176
     1
 90
        2
176
     1
 62
     8
420
  7895160
176
     1
 90
        3
176
     1
 90
        0
176
     1
 90
        0
176
     1
290
     0
176
     1
 90
        5
176
     1
 40
0.0
176
     1
 90
        0
176
     1
290
     0
176
     1
290
     1
176
     1
290
     1
176
     1
290
     0
176
     1
290
     0
176
     1
290
     0
176
     1
290
     0
176
     1
290
     0
176
     1
290
     0
176
     1
 90
       50
176
     1
 40
0.0
176
     1
 40
1.0
176
     1
 90
        0
176
     1
 62
    18
420
        0
176
     1
 90
       50
176
     1
 90
        3
176
     1
 62
     5
420
      255
176
     1
290
     0
176
     1
 90
       50
176
     1
 90
       50
176
     1
 90
       50
176
     1
290
     0
176
     1
 90
       50
176
     1
 62
   256
176
     0
 40
1.0
176
     0
 90
        2
176
     1
  1
strokes_ogs.tif
176
     1
290
     0
176
     1
 40
1.0
176
     1
 40
1.0
176
     1
1001
ACAD
1000
AcDbSavedByObjectVersion
1070
     0
  0
VISUALSTYLE
  5
3D
102
{ACAD_REACTORS
330
29
102
}
330
29
100
AcDbVisualStyle
  2
Shaded with edges
 70
    26
177
     3
291
     0
 70
    58
 90
        2
176
     1
 90
        2
176
     1
 90
        1
176
     1
 90
        2
176
     1
 40
0.6
176
     1
 40
30.0
176
     1
 62
     7
420
 16777215
176
     1
 90
        1
176
     1
 90
        2
176
     1
 62
     7
176
     1
 62
   257
176
     1
 90
        2
176
     1
 90
        1
176
     1
 40
1.0
176
     1
 90
        8
176
     1
 62
   257
176
     1
 40
1.0
176
     1
 90
        1
176
     1
 90
        6
176
     1
 90
        2
176
     1
 62
     7
176
     1
 90
        3
176
     1
 90
        0
176
     1
 90
        0
176
     1
290
     0
176
     1
 90
        5
176
     1
 40
0.0
176
     1
 90
        0
176
     1
290
     0
176
     1
290
     1
176
     1
290
     1
176
     1
290
     0
176
     1
290
     0
176
     1
290
     0
176
     1
290
     0
176
     1
290
     0
176
     1
290
     0
176
     1
 90
       50
176
     1
 40
0.0
176
     1
 40
1.0
176
     1
 90
        0
176
     1
 62
    18
420
        0
176
     1
 90
       50
176
     1
 90
        3
176
     1
 62
     5
420
      255
176
     1
290
     0
176
     1
 90
       50
176
     1
 90
       50
176
     1
 90
       50
176
     1
290
     0
176
     1
 90
       50
176
     1
 62
   256
176
     0
 40
1.0
176
     0
 90
        2
176
     1
  1
strokes_ogs.tif
176
     1
290
     0
176
     1
 40
1.0
176
     1
 40
1.0
176
     1
1001
ACAD
1000
AcDbSavedByObjectVersion
1070
     0
  0
VISUALSTYLE
  5
3A
102
{ACAD_REACTORS
330
29
102
}
330
29
100
AcDbVisualStyle
  2
Shades of Gray
 70
    23
177
     3
291
     0
 70
    58
 90
        2
176
     1
 90
        2
176
     1
 90
        3
176
     1
 90
        0
176
     1
 40
0.6
176
     1
 40
30.0
176
     1
 62
     7
420
 16777215
176
     1
 90
        2
176
     1
 90
        2
176
     1
 62
     7
176
     1
 62
     7
176
     1
 90
        1
176
     1
 90
        1
176
     1
 40
40.0
176
     1
 90
        8
176
     1
 62
     7
176
     1
 40
1.0
176
     1
 90
        1
176
     1
 90
        6
176
     1
 90
        2
176
     1
 62
     7
176
     1
 90
        3
176
     1
 90
        0
176
     1
 90
        0
176
     1
290
     0
176
     1
 90
        1
176
     1
 40
0.0
176
     1
 90
        0
176
     1
290
     0
176
     1
290
     1
176
     1
290
     1
176
     1
290
     0
176
     1
290
     0
176
     1
290
     0
176
     1
290
     0
176
     1
290
     0
176
     1
290
     0
176
     1
 90
       50
176
     1
 40
0.0
176
     1
 40
1.0
176
     1
 90
        0
176
     1
 62
    18
420
        0
176
     1
 90
       50
176
     1
 90
        3
176
     1
 62
     5
420
      255
176
     1
290
     0
176
     1
 90
       50
176
     1
 90
       50
176
     1
 90
       50
176
     1
290
     0
176
     1
 90
       50
176
     1
 62
   256
176
     0
 40
1.0
176
     0
 90
        2
176
     1
  1
strokes_ogs.tif
176
     1
290
     0
176
     1
 40
1.0
176
     1
 40
1.0
176
     1
1001
ACAD
1000
AcDbSavedByObjectVersion
1070
     0
  0
VISUALSTYLE
  5
3B
102
{ACAD_REACTORS
330
29
102
}
330
29
100
AcDbVisualStyle
  2
Sketchy
 70
    24
177
     3
291
     0
 70
    58
 90
        1
176
     1
 90
        2
176
     1
 90
        2
176
     1
 90
        0
176
     1
 40
0.6
176
     1
 40
30.0
176
     1
 62
     7
420
 16777215
176
     1
 90
        2
176
     1
 90
        2
176
     1
 62
     7
176
     1
 62
     7
176
     1
 90
        1
176
     1
 90
        1
176
     1
 40
40.0
176
     1
 90
       11
176
     1
 62
     7
176
     1
 40
1.0
176
     1
 90
        1
176
     1
 90
        6
176
     1
 90
        2
176
     1
 62
     7
176
     1
 90
        6
176
     1
 90
        0
176
     1
 90
        0
176
     1
290
     0
176
     1
 90
        1
176
     1
 40
0.0
176
     1
 90
        0
176
     1
290
     0
176
     1
290
     1
176
     1
290
     1
176
     1
290
     0
176
     1
290
     0
176
     1
290
     0
176
     1
290
     0
176
     1
290
     0
176
     1
290
     0
176
     1
 90
       50
176
     1
 40
0.0
176
     1
 40
1.0
176
     1
 90
        0
176
     1
 62
    18
420
        0
176
     1
 90
       50
176
     1
 90
        3
176
     1
 62
     5
420
      255
176
     1
290
     0
176
     1
 90
       50
176
     1
 90
       50
176
     1
 90
       50
176
     1
290
     0
176
     1
 90
       50
176
     1
 62
   256
176
     0
 40
1.0
176
     0
 90
        2
176
     1
  1
strokes_ogs.tif
176
     1
290
     0
176
     1
 40
1.0
176
     1
 40
1.0
176
     1
1001
ACAD
1000
AcDbSavedByObjectVersion
1070
     0
  0
VISUALSTYLE
  5
36
102
{ACAD_REACTORS
330
29
102
}
330
29
100
AcDbVisualStyle
  2
Thicken
 70
    13
177
     3
291
     1
 70
    58
 90
        2
176
     1
 90
        2
176
     1
 90
        0
176
     1
 90
        0
176
     1
 40
0.6
176
     1
 40
30.0
176
     1
 62
     7
420
 16777215
176
     1
 90
        1
176
     1
 90
        4
176
     1
 62
     7
176
     1
 62
   257
176
     1
 90
        1
176
     1
 90
        1
176
     1
 40
1.0
176
     1
 90
       12
176
     1
 62
     7
176
     1
 40
1.0
176
     1
 90
        1
176
     1
 90
        6
176
     1
 90
        2
176
     1
 62
     7
176
     1
 90
        5
176
     1
 90
        0
176
     1
 90
        0
176
     1
290
     0
176
     1
 90
        1
176
     1
 40
0.0
176
     1
 90
        0
176
     1
290
     0
176
     1
290
     1
176
     1
290
     1
176
     1
290
     0
176
     1
290
     0
176
     1
290
     0
176
     1
290
     0
176
     1
290
     0
176
     1
290
     0
176
     1
 90
       50
176
     1
 40
0.0
176
     1
 40
1.0
176
     1
 90
        0
176
     1
 62
    18
420
        0
176
     1
 90
       50
176
     1
 90
        3
176
     1
 62
     5
420
      255
176
     1
290
     0
176
     1
 90
       50
176
     1
 90
       50
176
     1
 90
       50
176
     1
290
     0
176
     1
 90
       50
176
     1
 62
   256
176
     0
 40
1.0
176
     0
 90
        2
176
     1
  1
strokes_ogs.tif
176
     1
290
     0
176
     1
 40
1.0
176
     1
 40
1.0
176
     1
1001
ACAD
1000
AcDbSavedByObjectVersion
1070
     0
  0
VISUALSTYLE
  5
30
102
{ACAD_REACTORS
330
29
102
}
330
29
100
AcDbVisualStyle
  2
Wireframe
 70
     5
177
     3
291
     0
 70
    58
 90
        0
176
     1
 90
        2
176
     1
 90
        0
176
     1
 90
        0
176
     1
 40
0.6
176
     1
 40
30.0
176
     1
 62
     7
420
 16777215
176
     1
 90
        1
176
     1
 90
        4
176
     1
 62
     7
176
     1
 62
   257
176
     1
 90
        1
176
     1
 90
        1
176
     1
 40
1.0
176
     1
 90
        0
176
     1
 62
   257
176
     1
 40
1.0
176
     1
 90
        1
176
     1
 90
        6
176
     1
 90
        2
176
     1
 62
     7
176
     1
 90
        3
176
     1
 90
        0
176
     1
 90
        0
176
     1
290
     0
176
     1
 90
        1
176
     1
 40
0.0
176
     1
 90
        0
176
     1
290
     0
176
     1
290
     1
176
     1
290
     1
176
     1
290
     0
176
     1
290
     0
176
     1
290
     0
176
     1
290
     0
176
     1
290
     0
176
     1
290
     0
176
     1
 90
       50
176
     1
 40
0.0
176
     1
 40
1.0
176
     1
 90
        0
176
     1
 62
    18
420
        0
176
     1
 90
       50
176
     1
 90
        3
176
     1
 62
     5
420
      255
176
     1
290
     0
176
     1
 90
       50
176
     1
 90
       50
176
     1
 90
       50
176
     1
290
     0
176
     1
 90
       50
176
     1
 62
   256
176
     0
 40
1.0
176
     0
 90
        2
176
     1
  1
strokes_ogs.tif
176
     1
290
     0
176
     1
 40
1.0
176
     1
 40
1.0
176
     1
1001
ACAD
1000
AcDbSavedByObjectVersion
1070
     0
  0
VISUALSTYLE
  5
3C
102
{ACAD_REACTORS
330
29
102
}
330
29
100
AcDbVisualStyle
  2
X-Ray
 70
    25
177
     3
291
     0
 70
    58
 90
        2
176
     1
 90
        2
176
     1
 90
        1
176
     1
 90
        1
176
     1
 40
0.5
176
     1
 40
30.0
176
     1
 62
     7
420
 16777215
176
     1
 90
        1
176
     1
 90
        0
176
     1
 62
     7
176
     1
 62
   257
176
     1
 90
        1
176
     1
 90
        1
176
     1
 40
1.0
176
     1
 90
        8
176
     1
 62
     7
176
     1
 40
1.0
176
     1
 90
        1
176
     1
 90
        6
176
     1
 90
        2
176
     1
 62
     7
176
     1
 90
        3
176
     1
 90
        0
176
     1
 90
        0
176
     1
290
     0
176
     1
 90
       13
176
     1
 40
0.0
176
     1
 90
        0
176
     1
290
     0
176
     1
290
     1
176
     1
290
     1
176
     1
290
     0
176
     1
290
     0
176
     1
290
     0
176
     1
290
     0
176
     1
290
     0
176
     1
290
     0
176
     1
 90
       50
176
     1
 40
0.0
176
     1
 40
1.0
176
     1
 90
        0
176
     1
 62
    18
420
        0
176
     1
 90
       50
176
     1
 90
        3
176
     1
 62
     5
420
      255
176
     1
290
     0
176
     1
 90
       50
176
     1
 90
       50
176
     1
 90
       50
176
     1
290
     0
176
     1
 90
       50
176
     1
 62
   256
176
     0
 40
1.0
176
     0
 90
        2
176
     1
  1
strokes_ogs.tif
176
     1
290
     0
176
     1
 40
1.0
176
     1
 40
1.0
176
     1
1001
ACAD
1000
AcDbSavedByObjectVersion
1070
     0
  0
DICTIONARYVAR
  5
255
102
{ACAD_REACTORS
330
250
102
}
330
250
100
DictionaryVariables
280
     0
  1
1:1
  0
DICTIONARYVAR
  5
252
102
{ACAD_REACTORS
330
250
102
}
330
250
100
DictionaryVariables
280
     0
  1
STANDARD
  0
DICTIONARYVAR
  5
251
102
{ACAD_REACTORS
330
250
102
}
330
250
100
DictionaryVariables
280
     0
  1
STANDARD
  0
DICTIONARYVAR
  5
253
102
{ACAD_REACTORS
330
250
102
}
330
250
100
DictionaryVariables
280
     0
  1
Imperial24
  0
DICTIONARYVAR
  5
254
102
{ACAD_REACTORS
330
250
102
}
330
250
100
DictionaryVariables
280
     0
  1
Imperial24
  0
DICTIONARY
  5
25B
330
6B
100
AcDbDictionary
280
     1
281
     1
  3
ACAD_XREC_ROUNDTRIP
360
25C
  0
DICTIONARY
  5
1A
330
19
100
AcDbDictionary
280
     1
281
     1
  3
BUMPTILE
360
1C
  3
DIFFUSETILE
360
1B
  3
OPACITYTILE
360
1F
  3
REFLECTIONTILE
360
1E
  3
REFRACTIONTILE
360
20
  3
SPECULARTILE
360
1D
  0
DICTIONARY
  5
12
330
11
100
AcDbDictionary
280
     1
281
     1
  3
BUMPTILE
360
14
  3
DIFFUSETILE
360
13
  3
OPACITYTILE
360
17
  3
REFLECTIONTILE
360
16
  3
REFRACTIONTILE
360
18
  3
SPECULARTILE
360
15
  0
DICTIONARY
  5
22
330
21
100
AcDbDictionary
280
     1
281
     1
  3
BUMPTILE
360
24
  3
DIFFUSETILE
360
23
  3
OPACITYTILE
360
27
  3
REFLECTIONTILE
360
26
  3
REFRACTIONTILE
360
28
  3
SPECULARTILE
360
25
  0
DICTIONARY
  5
259
330
69
100
AcDbDictionary
280
     1
281
     1
  3
ACAD_XREC_ROUNDTRIP
360
25A
  0
DICTIONARY
  5
256
330
65
100
AcDbDictionary
280
     1
281
     1
  3
ACAD_ROUNDTRIP_2008_TABLESTYLE_CELLSTYLEMAP
360
257
  0
XRECORD
  5
25C
102
{ACAD_REACTORS
330
25B
102
}
330
25B
100
AcDbXrecord
280
     1
102
DISPLAYNAME
  1
Imperial24
102
FLAGS
 90
        0
  0
XRECORD
  5
1C
102
{ACAD_REACTORS
330
1A
102
}
330
1A
100
AcDbXrecord
280
     1
270
     1
271
     1
  0
XRECORD
  5
1B
102
{ACAD_REACTORS
330
1A
102
}
330
1A
100
AcDbXrecord
280
     1
270
     1
271
     1
  0
XRECORD
  5
1F
102
{ACAD_REACTORS
330
1A
102
}
330
1A
100
AcDbXrecord
280
     1
270
     1
271
     1
  0
XRECORD
  5
1E
102
{ACAD_REACTORS
330
1A
102
}
330
1A
100
AcDbXrecord
280
     1
270
     1
271
     1
  0
XRECORD
  5
20
102
{ACAD_REACTORS
330
1A
102
}
330
1A
100
AcDbXrecord
280
     1
270
     1
271
     1
  0
XRECORD
  5
1D
102
{ACAD_REACTORS
330
1A
102
}
330
1A
100
AcDbXrecord
280
     1
270
     1
271
     1
  0
XRECORD
  5
14
102
{ACAD_REACTORS
330
12
102
}
330
12
100
AcDbXrecord
280
     1
270
     1
271
     1
  0
XRECORD
  5
13
102
{ACAD_REACTORS
330
12
102
}
330
12
100
AcDbXrecord
280
     1
270
     1
271
     1
  0
XRECORD
  5
17
102
{ACAD_REACTORS
330
12
102
}
330
12
100
AcDbXrecord
280
     1
270
     1
271
     1
  0
XRECORD
  5
16
102
{ACAD_REACTORS
330
12
102
}
330
12
100
AcDbXrecord
280
     1
270
     1
271
     1
  0
XRECORD
  5
18
102
{ACAD_REACTORS
330
12
102
}
330
12
100
AcDbXrecord
280
     1
270
     1
271
     1
  0
XRECORD
  5
15
102
{ACAD_REACTORS
330
12
102
}
330
12
100
AcDbXrecord
280
     1
270
     1
271
     1
  0
XRECORD
  5
24
102
{ACAD_REACTORS
330
22
102
}
330
22
100
AcDbXrecord
280
     1
270
     1
271
     1
  0
XRECORD
  5
23
102
{ACAD_REACTORS
330
22
102
}
330
22
100
AcDbXrecord
280
     1
270
     1
271
     1
  0
XRECORD
  5
27
102
{ACAD_REACTORS
330
22
102
}
330
22
100
AcDbXrecord
280
     1
270
     1
271
     1
  0
XRECORD
  5
26
102
{ACAD_REACTORS
330
22
102
}
330
22
100
AcDbXrecord
280
     1
270
     1
271
     1
  0
XRECORD
  5
28
102
{ACAD_REACTORS
330
22
102
}
330
22
100
AcDbXrecord
280
     1
270
     1
271
     1
  0
XRECORD
  5
25
102
{ACAD_REACTORS
330
22
102
}
330
22
100
AcDbXrecord
280
     1
270
     1
271
     1
  0
XRECORD
  5
25A
102
{ACAD_REACTORS
330
259
102
}
330
259
100
AcDbXrecord
280
     1
102
DISPLAYNAME
  1
Imperial24
102
FLAGS
 90
        0
  0
CELLSTYLEMAP
  5
257
102
{ACAD_REACTORS
330
256
102
}
330
256
100
AcDbCellStyleMap
 90
        3
300
CELLSTYLE
  1
TABLEFORMAT_BEGIN
 90
        5
170
     1
 91
        0
 92
    32768
 62
   257
 93
        1
300
CONTENTFORMAT
  1
CONTENTFORMAT_BEGIN
 90
        0
 91
        0
 92
      512
 93
        0
300

 40
0.0
140
1.0
 94
        5
 62
     0
340
55
144
0.25
309
CONTENTFORMAT_END
171
     0
 94
        0
309
TABLEFORMAT_END
  1
CELLSTYLE_BEGIN
 90
        1
 91
        1
300
_TITLE
309
CELLSTYLE_END
300
CELLSTYLE
  1
TABLEFORMAT_BEGIN
 90
        5
170
     1
 91
        0
 92
        0
 62
   257
 93
        1
300
CONTENTFORMAT
  1
CONTENTFORMAT_BEGIN
 90
        0
 91
        0
 92
      512
 93
        0
300

 40
0.0
140
1.0
 94
        5
 62
     0
340
55
144
0.18
309
CONTENTFORMAT_END
171
     0
 94
        0
309
TABLEFORMAT_END
  1
CELLSTYLE_BEGIN
 90
        2
 91
        1
300
_HEADER
309
CELLSTYLE_END
300
CELLSTYLE
  1
TABLEFORMAT_BEGIN
 90
        5
170
     1
 91
        0
 92
        0
 62
   257
 93
        1
300
CONTENTFORMAT
  1
CONTENTFORMAT_BEGIN
 90
        0
 91
        0
 92
      512
 93
        0
300

 40
0.0
140
1.0
 94
        2
 62
     0
340
55
144
0.18
309
CONTENTFORMAT_END
171
     0
 94
        0
309
TABLEFORMAT_END
  1
CELLSTYLE_BEGIN
 90
        3
 91
        2
300
_DATA
309
CELLSTYLE_END
  0
ENDSEC
  0
EOF
