  0
SECTION
  2
HEADER
  9
$ACADVER
  1
AC1027
  9
$ACADMAINTVER
 70
   125
  9
$DWGCODEPAGE
  3
ANSI_1252
  9
$REQUIREDVERSIONS
160
                 0
  9
$INSBASE
 10
0.0
 20
0.0
 30
0.0
  9
$EXTMIN
 10
1.000000000000000E+20
 20
1.000000000000000E+20
 30
1.000000000000000E+20
  9
$EXTMAX
 10
-1.000000000000000E+20
 20
-1.000000000000000E+20
 30
-1.000000000000000E+20
  9
$LIMMIN
 10
0.0
 20
0.0
  9
$LIMMAX
 10
12.0
 20
9.0
  9
$ORTHOMODE
 70
     0
  9
$REGENMODE
 70
     1
  9
$FILLMODE
 70
     1
  9
$QTEXTMODE
 70
     0
  9
$MIRRTEXT
 70
     0
  9
$LTSCALE
 40
1.0
  9
$ATTMODE
 70
     1
  9
$TEXTSIZE
 40
0.2
  9
$TRACEWID
 40
0.05
  9
$TEXTSTYLE
  7
Standard
  9
$CLAYER
  8
0
  9
$CELTYPE
  6
ByLayer
  9
$CECOLOR
 62
   256
  9
$CELTSCALE
 40
1.0
  9
$DISPSILH
 70
     0
  9
$DIMSCALE
 40
1.0
  9
$DIMASZ
 40
0.18
  9
$DIMEXO
 40
0.0625
  9
$DIMDLI
 40
0.38
  9
$DIMRND
 40
0.0
  9
$DIMDLE
 40
0.0
  9
$DIMEXE
 40
0.18
  9
$DIMTP
 40
0.0
  9
$DIMTM
 40
0.0
  9
$DIMTXT
 40
0.18
  9
$DIMCEN
 40
0.09
  9
$DIMTSZ
 40
0.0
  9
$DIMTOL
 70
     0
  9
$DIMLIM
 70
     0
  9
$DIMTIH
 70
     1
  9
$DIMTOH
 70
     1
  9
$DIMSE1
 70
     0
  9
$DIMSE2
 70
     0
  9
$DIMTAD
 70
     0
  9
$DIMZIN
 70
     0
  9
$DIMBLK
  1

  9
$DIMASO
 70
     1
  9
$DIMSHO
 70
     1
  9
$DIMPOST
  1

  9
$DIMAPOST
  1

  9
$DIMALT
 70
     0
  9
$DIMALTD
 70
     2
  9
$DIMALTF
 40
25.4
  9
$DIMLFAC
 40
1.0
  9
$DIMTOFL
 70
     0
  9
$DIMTVP
 40
0.0
  9
$DIMTIX
 70
     0
  9
$DIMSOXD
 70
     0
  9
$DIMSAH
 70
     0
  9
$DIMBLK1
  1

  9
$DIMBLK2
  1

  9
$DIMSTYLE
  2
Standard
  9
$DIMCLRD
 70
     0
  9
$DIMCLRE
 70
     0
  9
$DIMCLRT
 70
     0
  9
$DIMTFAC
 40
1.0
  9
$DIMGAP
 40
0.09
  9
$DIMJUST
 70
     0
  9
$DIMSD1
 70
     0
  9
$DIMSD2
 70
     0
  9
$DIMTOLJ
 70
     1
  9
$DIMTZIN
 70
     0
  9
$DIMALTZ
 70
     0
  9
$DIMALTTZ
 70
     0
  9
$DIMUPT
 70
     0
  9
$DIMDEC
 70
     4
  9
$DIMTDEC
 70
     4
  9
$DIMALTU
 70
     2
  9
$DIMALTTD
 70
     2
  9
$DIMTXSTY
  7
Standard
  9
$DIMAUNIT
 70
     0
  9
$DIMADEC
 70
     0
  9
$DIMALTRND
 40
0.0
  9
$DIMAZIN
 70
     0
  9
$DIMDSEP
 70
    46
  9
$DIMATFIT
 70
     3
  9
$DIMFRAC
 70
     0
  9
$DIMLDRBLK
  1

  9
$DIMLUNIT
 70
     2
  9
$DIMLWD
 70
    -2
  9
$DIMLWE
 70
    -2
  9
$DIMTMOVE
 70
     0
  9
$DIMFXL
 40
1.0
  9
$DIMFXLON
 70
     0
  9
$DIMJOGANG
 40
0.7853981633974483
  9
$DIMTFILL
 70
     0
  9
$DIMTFILLCLR
 70
     0
  9
$DIMARCSYM
 70
     0
  9
$DIMLTYPE
  6

  9
$DIMLTEX1
  6

  9
$DIMLTEX2
  6

  9
$DIMTXTDIRECTION
 70
     0
  9
$LUNITS
 70
     2
  9
$LUPREC
 70
     4
  9
$SKETCHINC
 40
0.1
  9
$FILLETRAD
 40
0.0
  9
$AUNITS
 70
     0
  9
$AUPREC
 70
     0
  9
$MENU
  1
.
  9
$ELEVATION
 40
0.0
  9
$PELEVATION
 40
0.0
  9
$THICKNESS
 40
0.0
  9
$LIMCHECK
 70
     0
  9
$CHAMFERA
 40
0.0
  9
$CHAMFERB
 40
0.0
  9
$CHAMFERC
 40
0.0
  9
$CHAMFERD
 40
0.0
  9
$SKPOLY
 70
     0
  9
$TDCREATE
 40
2460115.031284722
  9
$TDUCREATE
 40
2460115.031284722
  9
$TDUPDATE
 40
2460115.031284722
  9
$TDUUPDATE
 40
2460115.031284722
  9
$TDINDWG
 40
0.0000000000
  9
$TDUSRTIMER
 40
0.0000000000
  9
$USRTIMER
 70
     1
  9
$ANGBASE
 50
0.0
  9
$ANGDIR
 70
     0
  9
$PDMODE
 70
     0
  9
$PDSIZE
 40
0.0
  9
$PLINEWID
 40
0.0
  9
$SPLFRAME
 70
     0
  9
$SPLINETYPE
 70
     6
  9
$SPLINESEGS
 70
     8
  9
$HANDSEED
  5
196
  9
$SURFTAB1
 70
     6
  9
$SURFTAB2
 70
     6
  9
$SURFTYPE
 70
     6
  9
$SURFU
 70
     6
  9
$SURFV
 70
     6
  9
$UCSBASE
  2

  9
$UCSNAME
  2

  9
$UCSORG
 10
0.0
 20
0.0
 30
0.0
  9
$UCSXDIR
 10
1.0
 20
0.0
 30
0.0
  9
$UCSYDIR
 10
0.0
 20
1.0
 30
0.0
  9
$UCSORTHOREF
  2

  9
$UCSORTHOVIEW
 70
     0
  9
$UCSORGTOP
 10
0.0
 20
0.0
 30
0.0
  9
$UCSORGBOTTOM
 10
0.0
 20
0.0
 30
0.0
  9
$UCSORGLEFT
 10
0.0
 20
0.0
 30
0.0
  9
$UCSORGRIGHT
 10
0.0
 20
0.0
 30
0.0
  9
$UCSORGFRONT
 10
0.0
 20
0.0
 30
0.0
  9
$UCSORGBACK
 10
0.0
 20
0.0
 30
0.0
  9
$PUCSBASE
  2

  9
$PUCSNAME
  2

  9
$PUCSORG
 10
0.0
 20
0.0
 30
0.0
  9
$PUCSXDIR
 10
1.0
 20
0.0
 30
0.0
  9
$PUCSYDIR
 10
0.0
 20
1.0
 30
0.0
  9
$PUCSORTHOREF
  2

  9
$PUCSORTHOVIEW
 70
     0
  9
$PUCSORGTOP
 10
0.0
 20
0.0
 30
0.0
  9
$PUCSORGBOTTOM
 10
0.0
 20
0.0
 30
0.0
  9
$PUCSORGLEFT
 10
0.0
 20
0.0
 30
0.0
  9
$PUCSORGRIGHT
 10
0.0
 20
0.0
 30
0.0
  9
$PUCSORGFRONT
 10
0.0
 20
0.0
 30
0.0
  9
$PUCSORGBACK
 10
0.0
 20
0.0
 30
0.0
  9
$USERI1
 70
     0
  9
$USERI2
 70
     0
  9
$USERI3
 70
     0
  9
$USERI4
 70
     0
  9
$USERI5
 70
     0
  9
$USERR1
 40
0.0
  9
$USERR2
 40
0.0
  9
$USERR3
 40
0.0
  9
$USERR4
 40
0.0
  9
$USERR5
 40
0.0
  9
$WORLDVIEW
 70
     1
  9
$SHADEDGE
 70
     3
  9
$SHADEDIF
 70
    70
  9
$TILEMODE
 70
     1
  9
$MAXACTVP
 70
    64
  9
$PINSBASE
 10
0.0
 20
0.0
 30
0.0
  9
$PLIMCHECK
 70
     0
  9
$PEXTMIN
 10
1.000000000000000E+20
 20
1.000000000000000E+20
 30
1.000000000000000E+20
  9
$PEXTMAX
 10
-1.000000000000000E+20
 20
-1.000000000000000E+20
 30
-1.000000000000000E+20
  9
$PLIMMIN
 10
0.0
 20
0.0
  9
$PLIMMAX
 10
12.0
 20
9.0
  9
$UNITMODE
 70
     0
  9
$VISRETAIN
 70
     1
  9
$PLINEGEN
 70
     0
  9
$PSLTSCALE
 70
     1
  9
$TREEDEPTH
 70
  3020
  9
$CMLSTYLE
  2
Standard
  9
$CMLJUST
 70
     0
  9
$CMLSCALE
 40
1.0
  9
$PROXYGRAPHICS
 70
     1
  9
$MEASUREMENT
 70
     0
  9
$CELWEIGHT
370
    -1
  9
$ENDCAPS
280
     0
  9
$JOINSTYLE
280
     0
  9
$LWDISPLAY
290
     0
  9
$INSUNITS
 70
     5
  9
$HYPERLINKBASE
  1

  9
$STYLESHEET
  1

  9
$XEDIT
290
     1
  9
$CEPSNTYPE
380
     0
  9
$PSTYLEMODE
290
     1
  9
$FINGERPRINTGUID
  2
{D83F3702-3281-F643-AC49-0391A7AB22EC}
  9
$VERSIONGUID
  2
{35A2C16C-7792-5946-9F3F-63009FC54145}
  9
$EXTNAMES
290
     1
  9
$PSVPSCALE
 40
0.0
  9
$OLESTARTUP
290
     0
  9
$SORTENTS
280
   127
  9
$INDEXCTL
280
     0
  9
$HIDETEXT
280
     1
  9
$XCLIPFRAME
280
     2
  9
$HALOGAP
280
     0
  9
$OBSCOLOR
 70
   257
  9
$OBSLTYPE
280
     0
  9
$INTERSECTIONDISPLAY
280
     0
  9
$INTERSECTIONCOLOR
 70
   257
  9
$DIMASSOC
280
     2
  9
$PROJECTNAME
  1

  9
$CAMERADISPLAY
290
     0
  9
$LENSLENGTH
 40
50.0
  9
$CAMERAHEIGHT
 40
0.0
  9
$STEPSPERSEC
 40
2.0
  9
$STEPSIZE
 40
6.0
  9
$3DDWFPREC
 40
2.0
  9
$PSOLWIDTH
 40
0.25
  9
$PSOLHEIGHT
 40
4.0
  9
$LOFTANG1
 40
1.570796326794896
  9
$LOFTANG2
 40
1.570796326794896
  9
$LOFTMAG1
 40
0.0
  9
$LOFTMAG2
 40
0.0
  9
$LOFTPARAM
 70
     7
  9
$LOFTNORMALS
280
     1
  9
$LATITUDE
 40
37.795
  9
$LONGITUDE
 40
-122.394
  9
$NORTHDIRECTION
 40
0.0
  9
$TIMEZONE
 70
 -8000
  9
$LIGHTGLYPHDISPLAY
280
     1
  9
$TILEMODELIGHTSYNCH
280
     1
  9
$CMATERIAL
347
11
  9
$SOLIDHIST
280
     0
  9
$SHOWHIST
280
     1
  9
$DWFFRAME
280
     2
  9
$DGNFRAME
280
     0
  9
$REALWORLDSCALE
290
     1
  9
$INTERFERECOLOR
 62
     1
  9
$INTERFEREOBJVS
345
33
  9
$INTERFEREVPVS
346
30
  9
$CSHADOW
280
     0
  9
$SHADOWPLANELOCATION
 40
0.0
  0
ENDSEC
  0
SECTION
  2
CLASSES
  0
CLASS
  1
ACDBDICTIONARYWDFLT
  2
AcDbDictionaryWithDefault
  3
ObjectDBX Classes
 90
        0
 91
        1
280
     0
281
     0
  0
CLASS
  1
MATERIAL
  2
AcDbMaterial
  3
ObjectDBX Classes
 90
     1153
 91
        3
280
     0
281
     0
  0
CLASS
  1
VISUALSTYLE
  2
AcDbVisualStyle
  3
ObjectDBX Classes
 90
     4095
 91
       24
280
     0
281
     0
  0
CLASS
  1
SCALE
  2
AcDbScale
  3
ObjectDBX Classes
 90
     1153
 91
       17
280
     0
281
     0
  0
CLASS
  1
TABLESTYLE
  2
AcDbTableStyle
  3
ObjectDBX Classes
 90
     4095
 91
        1
280
     0
281
     0
  0
CLASS
  1
MLEADERSTYLE
  2
AcDbMLeaderStyle
  3
ACDB_MLEADERSTYLE_CLASS
 90
     4095
 91
        1
280
     0
281
     0
  0
CLASS
  1
ACDBSECTIONVIEWSTYLE
  2
AcDbSectionViewStyle
  3
ObjectDBX Classes
 90
     1025
 91
        1
280
     0
281
     0
  0
CLASS
  1
ACDBDETAILVIEWSTYLE
  2
AcDbDetailViewStyle
  3
ObjectDBX Classes
 90
     1025
 91
        1
280
     0
281
     0
  0
CLASS
  1
DICTIONARYVAR
  2
AcDbDictionaryVar
  3
ObjectDBX Classes
 90
        0
 91
        5
280
     0
281
     0
  0
CLASS
  1
CELLSTYLEMAP
  2
AcDbCellStyleMap
  3
ObjectDBX Classes
 90
     1152
 91
        1
280
     0
281
     0
  0
ENDSEC
  0
SECTION
  2
TABLES
  0
TABLE
  2
VPORT
  5
8
330
0
100
AcDbSymbolTable
 70
     1
1001
ACAD
1000
DbSaveVer
1071
      291
  0
VPORT
  5
57
330
8
100
AcDbSymbolTableRecord
100
AcDbViewportTableRecord
  2
*Active
 70
     0
 10
0.0
 20
0.0
 11
1.0
 21
1.0
 12
500.0
 22
500.0
 13
0.0
 23
0.0
 14
1.0
 24
1.0
 15
0.0
 25
0.0
 16
0.0
 26
0.0
 36
1.0
 17
0.0
 27
0.0
 37
0.0
 40
12.0
 41
1.0
 42
50.0
 43
0.0
 44
0.0
 50
0.0
 51
0.0
 71
     0
 72
   100
 73
     1
 74
     1
 75
     0
 76
     0
 77
     0
 78
     0
281
     0
 65
     1
110
0.0
120
0.0
130
0.0
111
1.0
121
0.0
131
0.0
112
0.0
122
1.0
132
0.0
 79
     0
146
0.0
 60
     3
 61
     5
292
     1
282
     1
141
0.0
142
0.0
 63
   250
421
  3355443
  0
ENDTAB
  0
TABLE
  2
LTYPE
  5
5
330
0
100
AcDbSymbolTable
 70
     1
  0
LTYPE
  5
5B
330
5
100
AcDbSymbolTableRecord
100
AcDbLinetypeTableRecord
  2
ByBlock
 70
     0
  3

 72
    65
 73
     0
 40
0.0
  0
LTYPE
  5
5C
330
5
100
AcDbSymbolTableRecord
100
AcDbLinetypeTableRecord
  2
ByLayer
 70
     0
  3

 72
    65
 73
     0
 40
0.0
  0
LTYPE
  5
5D
330
5
100
AcDbSymbolTableRecord
100
AcDbLinetypeTableRecord
  2
Continuous
 70
     0
  3
Solid line
 72
    65
 73
     0
 40
0.0
  0
ENDTAB
  0
TABLE
  2
LAYER
  5
2
330
0
100
AcDbSymbolTable
 70
     2
  0
LAYER
  5
54
330
2
100
AcDbSymbolTableRecord
100
AcDbLayerTableRecord
  2
0
 70
     0
 62
     7
  6
Continuous
370
    -3
390
F
347
21
348
0
  0
LAYER
  5
7A
330
2
100
AcDbSymbolTableRecord
100
AcDbLayerTableRecord
  2
sinclair sign final v1_Sketch1
 70
     0
 62
     7
  6
Continuous
370
    -3
390
F
347
21
348
0
1001
NFusion_SketchTransform
1000
1.000000;0.000000;0.000000;0.000000;0.000000;1.000000;0.000000;0.000000;0.000000;0.000000;1.000000;0.000000;0.000000;0.000000;0.000000;1.000000
  0
ENDTAB
  0
TABLE
  2
STYLE
  5
3
330
0
100
AcDbSymbolTable
 70
     2
  0
STYLE
  5
55
330
3
100
AcDbSymbolTableRecord
100
AcDbTextStyleTableRecord
  2
Standard
 70
     0
 40
0.0
 41
1.0
 50
0.0
 71
     0
 42
0.2
  3
txt
  4

  0
STYLE
  5
5A
330
3
100
AcDbSymbolTableRecord
100
AcDbTextStyleTableRecord
  2
Annotative
 70
     0
 40
0.0
 41
1.0
 50
0.0
 71
     0
 42
0.2
  3
txt
  4

1001
AcadAnnotative
1000
AnnotativeData
1002
{
1070
     1
1070
     1
1002
}
  0
ENDTAB
  0
TABLE
  2
VIEW
  5
6
330
0
100
AcDbSymbolTable
 70
     0
  0
ENDTAB
  0
TABLE
  2
UCS
  5
7
330
0
100
AcDbSymbolTable
 70
     0
  0
ENDTAB
  0
TABLE
  2
APPID
  5
9
330
0
100
AcDbSymbolTable
 70
     4
  0
APPID
  5
56
330
9
100
AcDbSymbolTableRecord
100
AcDbRegAppTableRecord
  2
ACAD
 70
     0
  0
APPID
  5
5E
330
9
100
AcDbSymbolTableRecord
100
AcDbRegAppTableRecord
  2
AcadAnnotative
 70
     0
  0
APPID
  5
78
330
9
100
AcDbSymbolTableRecord
100
AcDbRegAppTableRecord
  2
EDIT_IN_FUSION_ACAD_ADDIN
 70
     0
  0
APPID
  5
79
330
9
100
AcDbSymbolTableRecord
100
AcDbRegAppTableRecord
  2
NFusion_SketchTransform
 70
     0
  0
ENDTAB
  0
TABLE
  2
DIMSTYLE
  5
A
330
0
100
AcDbSymbolTable
 70
     2
100
AcDbDimStyleTable
 71
     0
  0
DIMSTYLE
105
58
330
A
100
AcDbSymbolTableRecord
100
AcDbDimStyleTableRecord
  2
Standard
 70
     0
340
55
  0
DIMSTYLE
105
59
330
A
100
AcDbSymbolTableRecord
100
AcDbDimStyleTableRecord
  2
Annotative
 70
     0
340
55
1001
AcadAnnotative
1000
AnnotativeData
1002
{
1070
     1
1070
     1
1002
}
  0
ENDTAB
  0
TABLE
  2
BLOCK_RECORD
  5
1
330
0
100
AcDbSymbolTable
 70
     1
  0
BLOCK_RECORD
  5
70
330
1
100
AcDbSymbolTableRecord
100
AcDbBlockTableRecord
  2
*Model_Space
340
73
 70
     0
280
     1
281
     0
  0
BLOCK_RECORD
  5
6C
330
1
100
AcDbSymbolTableRecord
100
AcDbBlockTableRecord
  2
*Paper_Space
340
6F
 70
     0
280
     1
281
     0
  0
BLOCK_RECORD
  5
74
330
1
100
AcDbSymbolTableRecord
100
AcDbBlockTableRecord
  2
*Paper_Space0
340
77
 70
     0
280
     1
281
     0
  0
ENDTAB
  0
ENDSEC
  0
SECTION
  2
BLOCKS
  0
BLOCK
  5
71
330
70
100
AcDbEntity
  8
0
100
AcDbBlockBegin
  2
*Model_Space
 70
     0
 10
0.0
 20
0.0
 30
0.0
  3
*Model_Space
  1

  0
ENDBLK
  5
72
330
70
100
AcDbEntity
  8
0
100
AcDbBlockEnd
  0
BLOCK
  5
6D
330
6C
100
AcDbEntity
 67
     1
  8
0
100
AcDbBlockBegin
  2
*Paper_Space
 70
     0
 10
0.0
 20
0.0
 30
0.0
  3
*Paper_Space
  1

  0
ENDBLK
  5
6E
330
6C
100
AcDbEntity
 67
     1
  8
0
100
AcDbBlockEnd
  0
BLOCK
  5
75
330
74
100
AcDbEntity
 67
     1
  8
0
100
AcDbBlockBegin
  2
*Paper_Space0
 70
     0
 10
0.0
 20
0.0
 30
0.0
  3
*Paper_Space0
  1

  0
ENDBLK
  5
76
330
74
100
AcDbEntity
 67
     1
  8
0
100
AcDbBlockEnd
  0
ENDSEC
  0
SECTION
  2
ENTITIES
  0
POINT
  5
7B
330
70
100
AcDbEntity
  8
sinclair sign final v1_Sketch1
100
AcDbPoint
 10
59.48766610857851
 20
-1.472203472724259
 30
0.0
  0
POINT
  5
7C
330
70
100
AcDbEntity
  8
sinclair sign final v1_Sketch1
100
AcDbPoint
 10
0.0
 20
0.0
 30
0.0
  0
POINT
  5
7D
330
70
100
AcDbEntity
  8
sinclair sign final v1_Sketch1
100
AcDbPoint
 10
0.0
 20
0.0
 30
0.0
  0
SPLINE
  5
7E
330
70
100
AcDbEntity
  8
sinclair sign final v1_Sketch1
100
AcDbSpline
210
0.0
220
0.0
230
1.0
 70
     8
 71
     3
 72
    11
 73
     7
 74
     0
 42
0.000000001
 43
0.0000000001
 40
0.0
 40
0.0
 40
0.0
 40
0.0
 40
0.6362632894017823
 40
0.6362632894017823
 40
0.6362632894017823
 40
0.9999995694317027
 40
0.9999995694317027
 40
0.9999995694317027
 40
0.9999995694317027
 10
65.7985314521449
 20
-13.07254494953282
 30
0.0
 10
65.42132807581949
 20
-10.75394712437176
 30
0.0
 10
65.06920087011129
 20
-8.655577280920102
 30
0.0
 10
64.77771753867017
 20
-6.985581997578178
 30
0.0
 10
64.61108359257405
 20
-6.030886225955998
 30
0.0
 10
64.46442220063201
 20
-5.216844792001117
 30
0.0
 10
64.34291233500935
 20
-4.575517594515438
 30
0.0
  0
SPLINE
  5
7F
330
70
100
AcDbEntity
  8
sinclair sign final v1_Sketch1
100
AcDbSpline
210
0.0
220
0.0
230
1.0
 70
     8
 71
     3
 72
    17
 73
    13
 74
     0
 42
0.000000001
 43
0.0000000001
 40
0.1476108471208261
 40
0.1476108471208261
 40
0.1476108471208261
 40
0.1476108471208261
 40
0.179267639595754
 40
0.179267639595754
 40
0.179267639595754
 40
0.4059439531673699
 40
0.4059439531673699
 40
0.4059439531673699
 40
0.9669794001687249
 40
0.9669794001687249
 40
0.9669794001687249
 40
1.0
 40
1.0
 40
1.0
 40
1.0
 10
62.81830305348822
 20
-46.02077777368154
 30
0.0
 10
62.81974193742087
 20
-46.00870422118092
 30
0.0
 10
62.82140673380093
 20
-45.99507047885252
 30
0.0
 10
62.82333933293266
 20
-45.97959735784596
 30
0.0
 10
62.83717757782553
 20
-45.868803125234
 30
0.0
 10
62.86304630414359
 20
-45.6792609719947
 30
0.0
 10
62.89690310646511
 20
-45.44367258151289
 30
0.0
 10
62.9807004204641
 20
-44.86057928923324
 30
0.0
 10
63.11456298126785
 20
-43.98223850939152
 30
0.0
 10
63.26536402888415
 20
-43.03465241505327
 30
0.0
 10
63.27423965532467
 20
-42.97888078530321
 30
0.0
 10
63.28317503982479
 20
-42.92286061458727
 30
0.0
 10
63.29216368787868
 20
-42.86663586042359
 30
0.0
  0
SPLINE
  5
80
330
70
100
AcDbEntity
  8
sinclair sign final v1_Sketch1
100
AcDbSpline
210
0.0
220
0.0
230
1.0
 70
    12
 71
     3
 72
     8
 73
     4
 74
     0
 42
0.000000001
 43
0.0000000001
 40
0.0
 40
0.0
 40
0.0
 40
0.0
 40
1.0
 40
1.0
 40
1.0
 40
1.0
 10
81.1125423626756
 20
-22.02311868706757
 30
0.0
 41
1.0
 10
79.78919199751368
 20
-20.97500642720277
 30
0.0
 41
1.0
 10
79.0349606911992
 20
-18.79760263291412
 30
0.0
 41
1.0
 10
79.5065152565097
 20
-17.38665968552644
 30
0.0
 41
1.0
  0
SPLINE
  5
81
330
70
100
AcDbEntity
  8
sinclair sign final v1_Sketch1
100
AcDbSpline
210
0.0
220
0.0
230
1.0
 70
    12
 71
     3
 72
     8
 73
     4
 74
     0
 42
0.000000001
 43
0.0000000001
 40
0.0
 40
0.0
 40
0.0
 40
0.0
 40
1.0
 40
1.0
 40
1.0
 40
1.0
 10
87.13632266114702
 20
-40.90919573489236
 30
0.0
 41
1.0
 10
89.3031641459321
 20
-41.68468328372049
 30
0.0
 41
1.0
 10
89.8896498772954
 20
-42.10782805863429
 30
0.0
 41
1.0
 10
90.68961558316699
 20
-43.47286683121729
 30
0.0
 41
1.0
  0
SPLINE
  5
82
330
70
100
AcDbEntity
  8
sinclair sign final v1_Sketch1
100
AcDbSpline
210
0.0
220
0.0
230
1.0
 70
    12
 71
     3
 72
     8
 73
     4
 74
     0
 42
0.000000001
 43
0.0000000001
 40
0.0
 40
0.0
 40
0.0
 40
0.0
 40
1.0
 40
1.0
 40
1.0
 40
1.0
 10
91.1472113802289
 20
-40.15223848668147
 30
0.0
 41
1.0
 10
91.09564167188157
 20
-40.15231097498943
 30
0.0
 41
1.0
 10
89.98456568621149
 20
-39.76295147434284
 30
0.0
 41
1.0
 10
88.6781527864789
 20
-39.28699324432424
 30
0.0
 41
1.0
  0
SPLINE
  5
83
330
70
100
AcDbEntity
  8
sinclair sign final v1_Sketch1
100
AcDbSpline
210
0.0
220
0.0
230
1.0
 70
    12
 71
     3
 72
     8
 73
     4
 74
     0
 42
0.000000001
 43
0.0000000001
 40
0.0
 40
0.0
 40
0.0
 40
0.0
 40
1.0
 40
1.0
 40
1.0
 40
1.0
 10
104.8051684114788
 20
9.457813313092588
 30
0.0
 41
1.0
 10
99.23572384379852
 20
10.84121070345816
 30
0.0
 41
1.0
 10
93.35686293362128
 20
12.31373056086481
 30
0.0
 41
1.0
 10
91.74103559897886
 20
12.73009577139794
 30
0.0
 41
1.0
  0
SPLINE
  5
84
330
70
100
AcDbEntity
  8
sinclair sign final v1_Sketch1
100
AcDbSpline
210
0.0
220
0.0
230
1.0
 70
    12
 71
     3
 72
     8
 73
     4
 74
     0
 42
0.000000001
 43
0.0000000001
 40
0.0
 40
0.0
 40
0.0
 40
0.0
 40
1.0
 40
1.0
 40
1.0
 40
1.0
 10
117.1817648837421
 20
-34.27636676541379
 30
0.0
 41
1.0
 10
117.6820715548847
 20
-31.13055351344159
 30
0.0
 41
1.0
 10
119.2720568077419
 20
-21.36105244914108
 30
0.0
 41
1.0
 10
119.6059226934765
 20
-19.381400574122
 30
0.0
 41
1.0
  0
SPLINE
  5
85
330
70
100
AcDbEntity
  8
sinclair sign final v1_Sketch1
100
AcDbSpline
210
0.0
220
0.0
230
1.0
 70
    12
 71
     3
 72
     8
 73
     4
 74
     0
 42
0.000000001
 43
0.0000000001
 40
0.0
 40
0.0
 40
0.0
 40
0.0
 40
1.0
 40
1.0
 40
1.0
 40
1.0
 10
88.29918963526239
 20
-18.08989928237014
 30
0.0
 41
1.0
 10
89.50117931221475
 20
-18.54232551852279
 30
0.0
 41
1.0
 10
89.99908051608551
 20
-18.8208828252893
 30
0.0
 41
1.0
 10
90.45286113904465
 20
-19.29479230681473
 30
0.0
 41
1.0
  0
LINE
  5
86
330
70
100
AcDbEntity
  8
sinclair sign final v1_Sketch1
100
AcDbLine
 10
110.8475801126812
 20
-19.2119725073915
 30
0.0
 11
109.76411644958
 21
-19.55655521718078
 31
0.0
  0
LINE
  5
87
330
70
100
AcDbEntity
  8
sinclair sign final v1_Sketch1
100
AcDbLine
 10
52.92867508963897
 20
-50.578874996189
 30
0.0
 11
58.3608392065717
 21
-49.14772401585873
 31
0.0
  0
SPLINE
  5
88
330
70
100
AcDbEntity
  8
sinclair sign final v1_Sketch1
100
AcDbSpline
210
0.0
220
0.0
230
1.0
 70
     8
 71
     3
 72
    17
 73
    13
 74
     0
 42
0.000000001
 43
0.0000000001
 40
0.0000001510404557
 40
0.0000001510404557
 40
0.0000001510404557
 40
0.0000001510404557
 40
0.25
 40
0.25
 40
0.25
 40
0.4930959101292549
 40
0.4930959101292549
 40
0.4930959101292549
 40
0.8803446789251719
 40
0.8803446789251719
 40
0.8803446789251719
 40
1.0
 40
1.0
 40
1.0
 40
1.0
 10
20.46894384429314
 20
-58.91312271641929
 30
0.0
 10
20.75732719311262
 20
-58.91264493692975
 30
0.0
 10
21.08856820692503
 20
-58.8961355131509
 30
0.0
 10
21.44061999930323
 20
-58.85074119678112
 30
0.0
 10
21.78294960964897
 20
-58.80660047950254
 30
0.0
 10
22.1428730285177
 20
-58.73897174753921
 30
0.0
 10
22.57321205325868
 20
-58.643125016468
 30
0.0
 10
23.25873678054502
 20
-58.4904423630219
 30
0.0
 10
24.13588848067781
 20
-58.2637241565833
 30
0.0
 10
25.45710075724856
 20
-57.90935147401873
 30
0.0
 10
25.86533983223036
 20
-57.79985447743884
 30
0.0
 10
26.3155832118457
 20
-57.67818152405018
 30
0.0
 10
26.81444748143753
 20
-57.54283536505162
 30
0.0
  0
SPLINE
  5
89
330
70
100
AcDbEntity
  8
sinclair sign final v1_Sketch1
100
AcDbSpline
210
0.0
220
0.0
230
1.0
 70
    12
 71
     3
 72
     8
 73
     4
 74
     0
 42
0.000000001
 43
0.0000000001
 40
0.0
 40
0.0
 40
0.0
 40
0.0
 40
1.0
 40
1.0
 40
1.0
 40
1.0
 10
110.9934456641529
 20
-22.34128513136916
 30
0.0
 41
1.0
 10
110.9934456641529
 20
-23.36129481879286
 30
0.0
 41
1.0
 10
110.9215639688824
 20
-23.39732150784543
 30
0.0
 41
1.0
 10
109.499423485503
 20
-23.09008172217421
 30
0.0
 41
1.0
  0
SPLINE
  5
8A
330
70
100
AcDbEntity
  8
sinclair sign final v1_Sketch1
100
AcDbSpline
210
0.0
220
0.0
230
1.0
 70
    12
 71
     3
 72
     8
 73
     4
 74
     0
 42
0.000000001
 43
0.0000000001
 40
0.0
 40
0.0
 40
0.0
 40
0.0
 40
1.0
 40
1.0
 40
1.0
 40
1.0
 10
81.95856294272891
 20
-1.513227237616159
 30
0.0
 41
1.0
 10
85.60123013328064
 20
-2.792203312788578
 30
0.0
 41
1.0
 10
87.87622226594436
 20
-3.601298730288126
 30
0.0
 41
1.0
 10
89.61576997397889
 20
-4.236502327356912
 30
0.0
 41
1.0
  0
LINE
  5
8B
330
70
100
AcDbEntity
  8
sinclair sign final v1_Sketch1
100
AcDbLine
 10
80.73966059897891
 20
-36.41279940501263
 30
0.0
 11
79.80204341147892
 21
-36.0605768090825
 31
0.0
  0
SPLINE
  5
8C
330
70
100
AcDbEntity
  8
sinclair sign final v1_Sketch1
100
AcDbSpline
210
0.0
220
0.0
230
1.0
 70
    12
 71
     3
 72
     8
 73
     4
 74
     0
 42
0.000000001
 43
0.0000000001
 40
0.0
 40
0.0
 40
0.0
 40
0.0
 40
1.0
 40
1.0
 40
1.0
 40
1.0
 10
68.49153725324625
 20
-21.10358923998886
 30
0.0
 41
1.0
 10
68.48775808484906
 20
-31.31866258016638
 30
0.0
 41
1.0
 10
69.15583274509066
 20
-40.34800842300464
 30
0.0
 41
1.0
 10
70.68715755008216
 20
-50.77842926541375
 30
0.0
 41
1.0
  0
SPLINE
  5
8D
330
70
100
AcDbEntity
  8
sinclair sign final v1_Sketch1
100
AcDbSpline
210
0.0
220
0.0
230
1.0
 70
     8
 71
     3
 72
    26
 73
    22
 74
     0
 42
0.000000001
 43
0.0000000001
 40
0.0
 40
0.0
 40
0.0
 40
0.0
 40
0.010271390303569
 40
0.010271390303569
 40
0.010271390303569
 40
0.0268770812259717
 40
0.0268770812259717
 40
0.0268770812259717
 40
0.055653231897417
 40
0.055653231897417
 40
0.055653231897417
 40
0.1093799230452695
 40
0.1093799230452695
 40
0.1093799230452695
 40
0.2183800116144112
 40
0.2183800116144112
 40
0.2183800116144112
 40
0.4608117725260838
 40
0.4608117725260838
 40
0.4608117725260838
 40
0.9999984847754028
 40
0.9999984847754028
 40
0.9999984847754028
 40
0.9999984847754028
 10
66.89874586368516
 20
-20.55254760175946
 30
0.0
 10
66.91825944178882
 20
-20.43685000423784
 30
0.0
 10
66.92307492573879
 20
-20.36626141502383
 30
0.0
 10
66.92651205370925
 20
-20.30994820880132
 30
0.0
 10
66.93206883648656
 20
-20.21890700894976
 30
0.0
 10
66.93118359065898
 20
-20.16793320427716
 30
0.0
 10
66.93046732122471
 20
-20.12682052936777
 30
0.0
 10
66.92922609150063
 20
-20.05557600643724
 30
0.0
 10
66.92633252712157
 20
-20.01839237899348
 30
0.0
 10
66.92400811573671
 20
-19.98700574929777
 30
0.0
 10
66.91966830899881
 20
-19.92840514704605
 30
0.0
 10
66.91594626275762
 20
-19.89622705587451
 30
0.0
 10
66.9124103062752
 20
-19.86509814099521
 30
0.0
 10
66.90523659872828
 20
-19.80194415912117
 30
0.0
 10
66.89834813404016
 20
-19.7513550645766
 30
0.0
 10
66.89010376398936
 20
-19.69243019039693
 30
0.0
 10
66.87176710779702
 20
-19.56137285644059
 30
0.0
 10
66.84718382940187
 20
-19.39959805884942
 30
0.0
 10
66.81599642177848
 20
-19.20095364214393
 30
0.0
 10
66.74663325039865
 20
-18.75915332048911
 30
0.0
 10
66.64576187763417
 20
-18.14574127537886
 30
0.0
 10
66.53171988768725
 20
-17.4758979840773
 30
0.0
  0
LINE
  5
8E
330
70
100
AcDbEntity
  8
sinclair sign final v1_Sketch1
100
AcDbLine
 10
88.81564965027184
 20
-8.116049855139696
 30
0.0
 11
91.55307055507648
 21
-8.879891935750491
 31
0.0
  0
SPLINE
  5
8F
330
70
100
AcDbEntity
  8
sinclair sign final v1_Sketch1
100
AcDbSpline
210
0.0
220
0.0
230
1.0
 70
    12
 71
     3
 72
     8
 73
     4
 74
     0
 42
0.000000001
 43
0.0000000001
 40
0.0
 40
0.0
 40
0.0
 40
0.0
 40
1.0
 40
1.0
 40
1.0
 40
1.0
 10
110.8506131760929
 20
-12.64865601006561
 30
0.0
 41
1.0
 10
110.9575982882831
 20
-12.64865601006561
 30
0.0
 41
1.0
 10
110.9955401947354
 20
-12.81266652957018
 30
0.0
 41
1.0
 10
110.9693795459126
 20
-13.16206017390306
 30
0.0
 41
1.0
  0
SPLINE
  5
90
330
70
100
AcDbEntity
  8
sinclair sign final v1_Sketch1
100
AcDbSpline
210
0.0
220
0.0
230
1.0
 70
    12
 71
     3
 72
     8
 73
     4
 74
     0
 42
0.000000001
 43
0.0000000001
 40
0.0
 40
0.0
 40
0.0
 40
0.0
 40
1.0
 40
1.0
 40
1.0
 40
1.0
 10
100.4608143999432
 20
-21.41760095969252
 30
0.0
 41
1.0
 10
100.11422872375
 20
-20.71358306733184
 30
0.0
 41
1.0
 10
100.0553262507771
 20
-20.4483865002733
 30
0.0
 41
1.0
 10
100.0133326294278
 20
-19.4027846249681
 30
0.0
 41
1.0
  0
SPLINE
  5
91
330
70
100
AcDbEntity
  8
sinclair sign final v1_Sketch1
100
AcDbSpline
210
0.0
220
0.0
230
1.0
 70
     8
 71
     3
 72
    20
 73
    16
 74
     0
 42
0.000000001
 43
0.0000000001
 40
0.0000001479803807
 40
0.0000001479803807
 40
0.0000001479803807
 40
0.0000001479803807
 40
0.2870649832717668
 40
0.2870649832717668
 40
0.2870649832717668
 40
0.570798204576322
 40
0.570798204576322
 40
0.570798204576322
 40
0.8482705178469791
 40
0.8482705178469791
 40
0.8482705178469791
 40
1.0
 40
1.0
 40
1.0
 40
1.000000431698865
 40
1.000000431698865
 40
1.000000431698865
 40
1.000000431698865
 10
16.25210783055606
 20
-57.42723857421871
 30
0.0
 10
16.6031831222219
 20
-57.69497219180394
 30
0.0
 10
16.95495141190373
 20
-57.93772895277239
 30
0.0
 10
17.3370927810278
 20
-58.15064193485858
 30
0.0
 10
17.71479909794832
 20
-58.36108389374061
 30
0.0
 10
18.12456314799321
 20
-58.53952463826042
 30
0.0
 10
18.54966425253585
 20
-58.66469013455066
 30
0.0
 10
18.96538500003602
 20
-58.78709370660207
 30
0.0
 10
19.38909675980278
 20
-58.85727246472209
 30
0.0
 10
19.80032785238595
 20
-58.88925015636942
 30
0.0
 10
20.0252003089831
 20
-58.90673643648476
 30
0.0
 10
20.24720328999892
 20
-58.91348997934144
 30
0.0
 10
20.46894238137212
 20
-58.9131227188427
 30
0.0
 10
20.4689428740089
 20
-58.91312271802676
 30
0.0
 10
20.46894336412628
 20
-58.91312271721499
 30
0.0
 10
20.46894384429315
 20
-58.91312271641972
 30
0.0
  0
SPLINE
  5
92
330
70
100
AcDbEntity
  8
sinclair sign final v1_Sketch1
100
AcDbSpline
210
0.0
220
0.0
230
1.0
 70
    12
 71
     3
 72
     8
 73
     4
 74
     0
 42
0.000000001
 43
0.0000000001
 40
0.0
 40
0.0
 40
0.0
 40
0.0
 40
1.0
 40
1.0
 40
1.0
 40
1.0
 10
81.81179891775597
 20
-19.39648958769852
 30
0.0
 41
1.0
 10
81.91099725960246
 20
-19.61879978266769
 30
0.0
 41
1.0
 10
82.60764614318361
 20
-19.92013367882782
 30
0.0
 41
1.0
 10
85.30474150823106
 20
-20.90735576001222
 30
0.0
 41
1.0
  0
SPLINE
  5
93
330
70
100
AcDbEntity
  8
sinclair sign final v1_Sketch1
100
AcDbSpline
210
0.0
220
0.0
230
1.0
 70
     8
 71
     3
 72
     8
 73
     4
 74
     0
 42
0.000000001
 43
0.0000000001
 40
0.0
 40
0.0
 40
0.0
 40
0.0
 40
1.0
 40
1.0
 40
1.0
 40
1.0
 10
46.23519878948426
 20
-52.341333552605
 30
0.0
 10
47.99162463979087
 20
-51.881135082131
 30
0.0
 10
51.00088492247614
 20
-51.08876559528285
 30
0.0
 10
52.92867508963897
 20
-50.578874996189
 30
0.0
  0
CIRCLE
  5
94
330
70
100
AcDbEntity
  8
sinclair sign final v1_Sketch1
100
AcDbCircle
 10
20.56997383415729
 20
-51.44942334301112
 30
0.0
 40
0.381
  0
LINE
  5
95
330
70
100
AcDbEntity
  8
sinclair sign final v1_Sketch1
100
AcDbLine
 10
90.75946951340187
 20
-7.536269299898709
 30
0.0
 11
90.98918112826146
 21
-7.905796468813004
 31
0.0
  0
SPLINE
  5
96
330
70
100
AcDbEntity
  8
sinclair sign final v1_Sketch1
100
AcDbSpline
210
0.0
220
0.0
230
1.0
 70
     8
 71
     3
 72
     8
 73
     4
 74
     0
 42
0.000000001
 43
0.0000000001
 40
0.0
 40
0.0
 40
0.0
 40
0.0
 40
0.9999997254711983
 40
0.9999997254711983
 40
0.9999997254711983
 40
0.9999997254711983
 10
66.53171988767971
 20
-17.47589798407537
 30
0.0
 10
66.32421234779204
 20
-16.25705206305549
 30
0.0
 10
65.99278214523508
 20
-14.26656391811821
 30
0.0
 10
65.79853145214514
 20
-13.07254494953292
 30
0.0
  0
CIRCLE
  5
97
330
70
100
AcDbEntity
  8
sinclair sign final v1_Sketch1
100
AcDbCircle
 10
43.20830989450235
 20
-33.63297113667455
 30
0.0
 40
0.381
  0
ARC
  5
98
330
70
100
AcDbEntity
  8
sinclair sign final v1_Sketch1
100
AcDbCircle
 10
60.08141661133695
 20
6.052139616025053
 30
0.0
 40
2.286000000000005
100
AcDbArc
 50
48.22097511954964
 51
48.22274892527417
  0
SPLINE
  5
99
330
70
100
AcDbEntity
  8
sinclair sign final v1_Sketch1
100
AcDbSpline
210
0.0
220
0.0
230
1.0
 70
    12
 71
     3
 72
     8
 73
     4
 74
     0
 42
0.000000001
 43
0.0000000001
 40
0.0
 40
0.0
 40
0.0
 40
0.0
 40
1.0
 40
1.0
 40
1.0
 40
1.0
 10
90.45286113904465
 20
-19.29479230681473
 30
0.0
 41
1.0
 10
91.43617457436072
 20
-20.321726535235
 30
0.0
 41
1.0
 10
91.89988800309647
 20
-22.39252291956955
 30
0.0
 41
1.0
 10
91.38613665841567
 20
-23.46251520291382
 30
0.0
 41
1.0
  0
SPLINE
  5
9A
330
70
100
AcDbEntity
  8
sinclair sign final v1_Sketch1
100
AcDbSpline
210
0.0
220
0.0
230
1.0
 70
    12
 71
     3
 72
     8
 73
     4
 74
     0
 42
0.000000001
 43
0.0000000001
 40
0.0
 40
0.0
 40
0.0
 40
0.0
 40
1.0
 40
1.0
 40
1.0
 40
1.0
 10
70.65753367696754
 20
9.854148859586102
 30
0.0
 41
1.0
 10
69.1331939788615
 20
-0.5452260035616069
 30
0.0
 41
1.0
 10
68.4957725733971
 20
-9.655640480909907
 30
0.0
 41
1.0
 10
68.49153725324625
 20
-21.10358923998886
 30
0.0
 41
1.0
  0
SPLINE
  5
9B
330
70
100
AcDbEntity
  8
sinclair sign final v1_Sketch1
100
AcDbSpline
210
0.0
220
0.0
230
1.0
 70
    12
 71
     3
 72
     8
 73
     4
 74
     0
 42
0.000000001
 43
0.0000000001
 40
0.0
 40
0.0
 40
0.0
 40
0.0
 40
1.0
 40
1.0
 40
1.0
 40
1.0
 10
88.9572480327939
 20
-21.95478510371262
 30
0.0
 41
1.0
 10
89.54113944576731
 20
-21.57220325985961
 30
0.0
 41
1.0
 10
89.26904504393091
 20
-21.20007499304826
 30
0.0
 41
1.0
 10
88.09506446765412
 20
-20.77561779824311
 30
0.0
 41
1.0
  0
SPLINE
  5
9C
330
70
100
AcDbEntity
  8
sinclair sign final v1_Sketch1
100
AcDbSpline
210
0.0
220
0.0
230
1.0
 70
     8
 71
     3
 72
    17
 73
    13
 74
     0
 42
0.000000001
 43
0.0000000001
 40
0.0
 40
0.0
 40
0.0
 40
0.0
 40
0.5
 40
0.5
 40
0.5
 40
0.8256106240246172
 40
0.8256106240246172
 40
0.8256106240246172
 40
1.0
 40
1.0
 40
1.0
 40
1.000006710030171
 40
1.000006710030171
 40
1.000006710030171
 40
1.000006710030171
 10
40.66916067276966
 20
-53.83284618208533
 30
0.0
 10
41.02118403333509
 20
-53.74109644115183
 30
0.0
 10
41.40231166998806
 20
-53.63968042488917
 30
0.0
 10
41.73807286414899
 20
-53.54879569492548
 30
0.0
 10
41.95672768805697
 20
-53.48960962764991
 30
0.0
 10
42.15551906135383
 20
-53.43507089505252
 30
0.0
 10
42.31766184885375
 20
-53.38961877622533
 30
0.0
 10
42.40450170432754
 20
-53.36527569263346
 30
0.0
 10
42.48034445886334
 20
-53.34370152049452
 30
0.0
 10
42.54812742459704
 20
-53.32384056242407
 30
0.0
 10
42.54812950071695
 20
-53.32383995410411
 30
0.0
 10
42.54813157685577
 20
-53.32383934577864
 30
0.0
 10
42.54813365266328
 20
-53.32383873755021
 30
0.0
  0
SPLINE
  5
9D
330
70
100
AcDbEntity
  8
sinclair sign final v1_Sketch1
100
AcDbSpline
210
0.0
220
0.0
230
1.0
 70
    12
 71
     3
 72
     8
 73
     4
 74
     0
 42
0.000000001
 43
0.0000000001
 40
0.0
 40
0.0
 40
0.0
 40
0.0
 40
1.0
 40
1.0
 40
1.0
 40
1.0
 10
86.15826844333161
 20
-46.02783551541377
 30
0.0
 41
1.0
 10
86.18188437102785
 20
-46.02783551541377
 30
0.0
 41
1.0
 10
86.53349081634035
 20
-46.14309955540703
 30
0.0
 41
1.0
 10
86.93961609958163
 20
-46.28397867432642
 30
0.0
 41
1.0
  0
SPLINE
  5
9E
330
70
100
AcDbEntity
  8
sinclair sign final v1_Sketch1
100
AcDbSpline
210
0.0
220
0.0
230
1.0
 70
    12
 71
     3
 72
     8
 73
     4
 74
     0
 42
0.000000001
 43
0.0000000001
 40
0.0
 40
0.0
 40
0.0
 40
0.0
 40
1.0
 40
1.0
 40
1.0
 40
1.0
 10
91.50256432651032
 20
-10.47108434811648
 30
0.0
 41
1.0
 10
91.21421919058313
 20
-11.13547402707155
 30
0.0
 41
1.0
 10
90.14193208001605
 20
-11.65823681298312
 30
0.0
 41
1.0
 10
89.47036987374771
 20
-11.46182020464954
 30
0.0
 41
1.0
  0
SPLINE
  5
9F
330
70
100
AcDbEntity
  8
sinclair sign final v1_Sketch1
100
AcDbSpline
210
0.0
220
0.0
230
1.0
 70
     8
 71
     3
 72
    20
 73
    16
 74
     0
 42
0.000000001
 43
0.0000000001
 40
0.0
 40
0.0
 40
0.0
 40
0.0
 40
0.3920870970889713
 40
0.3920870970889713
 40
0.3920870970889713
 40
0.6479143959731053
 40
0.6479143959731053
 40
0.6479143959731053
 40
0.8557723112894612
 40
0.8557723112894612
 40
0.8557723112894612
 40
1.0
 40
1.0
 40
1.0
 40
1.000008426191201
 40
1.000008426191201
 40
1.000008426191201
 40
1.000008426191201
 10
24.4089228668568
 20
17.47080511618374
 30
0.0
 10
23.47710181687027
 20
17.70998421972027
 30
0.0
 10
22.82216358814729
 20
17.87318755040459
 30
0.0
 10
22.28352153054689
 20
17.98807335785014
 30
0.0
 10
21.93207068280315
 20
18.06303355423796
 30
0.0
 10
21.62644742729466
 20
18.11850495987311
 30
0.0
 10
21.3212504632838
 20
18.15358057534134
 30
0.0
 10
21.07328003566768
 20
18.18207927091241
 30
0.0
 10
20.82394345941105
 20
18.19531342337076
 30
0.0
 10
20.58808910698157
 20
18.19116757926953
 30
0.0
 10
20.42443535306293
 20
18.1882908761545
 30
0.0
 10
20.26959792343461
 20
18.17747071647551
 30
0.0
 10
20.13040736342656
 20
18.16345706194061
 30
0.0
 10
20.13040209180262
 20
18.16345653119545
 30
0.0
 10
20.13039682014732
 20
18.16345600044712
 30
0.0
 10
20.13039154873322
 20
18.16345546972309
 30
0.0
  0
SPLINE
  5
A0
330
70
100
AcDbEntity
  8
sinclair sign final v1_Sketch1
100
AcDbSpline
210
0.0
220
0.0
230
1.0
 70
     8
 71
     3
 72
    20
 73
    16
 74
     0
 42
0.000000001
 43
0.0000000001
 40
0.0000000665634882
 40
0.0000000665634882
 40
0.0000000665634882
 40
0.0000000665634882
 40
0.2736535636884425
 40
0.2736535636884425
 40
0.2736535636884425
 40
0.5000412356384888
 40
0.5000412356384888
 40
0.5000412356384888
 40
0.7287497412182731
 40
0.7287497412182731
 40
0.7287497412182731
 40
0.9497252856263456
 40
0.9497252856263456
 40
0.9497252856263456
 40
1.0
 40
1.0
 40
1.0
 40
1.0
 10
13.46406231591318
 20
-51.90144440946719
 30
0.0
 10
13.563299152946
 20
-52.57738424535769
 30
0.0
 10
13.67197708868436
 20
-53.17449603332796
 30
0.0
 10
13.82144434873956
 20
-53.74078155268406
 30
0.0
 10
13.94509540890196
 20
-54.20925742356802
 30
0.0
 10
14.09841619428933
 20
-54.65890822549068
 30
0.0
 10
14.30329790109257
 20
-55.09166618266888
 30
0.0
 10
14.5102799711849
 20
-55.52886059706185
 30
0.0
 10
14.77266998460406
 20
-55.94535048752076
 30
0.0
 10
15.07481613691902
 20
-56.31302484131781
 30
0.0
 10
15.36674629635646
 20
-56.6682676001703
 30
0.0
 10
15.69045347781159
 20
-56.97564469990813
 30
0.0
 10
16.02321171130676
 20
-57.24689322033615
 30
0.0
 10
16.09891839273734
 20
-57.30860566876714
 30
0.0
 10
16.17522374099534
 20
-57.36860600965961
 30
0.0
 10
16.25210783055611
 20
-57.42723857421864
 30
0.0
  0
SPLINE
  5
A1
330
70
100
AcDbEntity
  8
sinclair sign final v1_Sketch1
100
AcDbSpline
210
0.0
220
0.0
230
1.0
 70
     8
 71
     3
 72
    26
 73
    22
 74
     0
 42
0.000000001
 43
0.0000000001
 40
-0.0000026460300296
 40
-0.0000026460300296
 40
-0.0000026460300296
 40
-0.0000026460300296
 40
0.0
 40
0.0
 40
0.0
 40
0.1309331472872193
 40
0.1309331472872193
 40
0.1309331472872193
 40
0.3660090965195514
 40
0.3660090965195514
 40
0.3660090965195514
 40
0.6830045482597758
 40
0.6830045482597758
 40
0.6830045482597758
 40
0.8415022741298876
 40
0.8415022741298876
 40
0.8415022741298876
 40
0.9207511370649438
 40
0.9207511370649438
 40
0.9207511370649438
 40
0.9784348183576744
 40
0.9784348183576744
 40
0.9784348183576744
 40
0.9784348183576744
 10
14.61696242168322
 20
14.47271581545803
 30
0.0
 10
14.61696177075687
 20
14.47271453195946
 30
0.0
 10
14.61696112121892
 20
14.47271325119852
 30
0.0
 10
14.61696047306937
 20
14.47271197317525
 30
0.0
 10
14.54550392030976
 20
14.33181372263392
 30
0.0
 10
14.49179802619241
 20
14.20887373910575
 30
0.0
 10
14.43978695961945
 20
14.08330741574896
 30
0.0
 10
14.34640685611973
 20
13.85786700385724
 30
0.0
 10
14.26243589847312
 20
13.62774020376999
 30
0.0
 10
14.18168961315712
 20
13.39035408388688
 30
0.0
 10
14.07280478136691
 20
13.07024341091101
 30
0.0
 10
13.97283814676432
 20
12.74450545702822
 30
0.0
 10
13.89082948775074
 20
12.43521709980715
 30
0.0
 10
13.84982515824395
 20
12.2805729211966
 30
0.0
 10
13.81332793952716
 20
12.1318339494054
 30
0.0
 10
13.78112796044864
 20
11.96941502943314
 30
0.0
 10
13.76502797090937
 20
11.88820556944701
 30
0.0
 10
13.74982188039839
 20
11.80381627834301
 30
0.0
 10
13.73626652641875
 20
11.70101584272726
 30
0.0
 10
13.72639985212447
 20
11.62618943708316
 30
0.0
 10
13.71691218631024
 20
11.54260493025553
 30
0.0
 10
13.71219468000212
 20
11.42763683847777
 30
0.0
  0
SPLINE
  5
A2
330
70
100
AcDbEntity
  8
sinclair sign final v1_Sketch1
100
AcDbSpline
210
0.0
220
0.0
230
1.0
 70
    12
 71
     3
 72
     8
 73
     4
 74
     0
 42
0.000000001
 43
0.0000000001
 40
0.0
 40
0.0
 40
0.0
 40
0.0
 40
1.0
 40
1.0
 40
1.0
 40
1.0
 10
108.3989212548588
 20
-13.26873625699098
 30
0.0
 41
1.0
 10
108.828910452113
 20
-13.06531880417879
 30
0.0
 41
1.0
 10
109.2369776589726
 20
-12.89829429713305
 30
0.0
 41
1.0
 10
109.3057347266529
 20
-12.89756941405354
 30
0.0
 41
1.0
  0
SPLINE
  5
A3
330
70
100
AcDbEntity
  8
sinclair sign final v1_Sketch1
100
AcDbSpline
210
0.0
220
0.0
230
1.0
 70
    12
 71
     3
 72
     8
 73
     4
 74
     0
 42
0.000000001
 43
0.0000000001
 40
0.0
 40
0.0
 40
0.0
 40
0.0
 40
1.0
 40
1.0
 40
1.0
 40
1.0
 10
110.9693795459126
 20
-13.16206017390306
 30
0.0
 41
1.0
 10
110.9329331877087
 20
-13.64877719489152
 30
0.0
 41
1.0
 10
110.9016945421551
 20
-13.68521592274721
 30
0.0
 41
1.0
 10
110.3683675391529
 20
-13.8630259269815
 30
0.0
 41
1.0
  0
LINE
  5
A4
330
70
100
AcDbEntity
  8
sinclair sign final v1_Sketch1
100
AcDbLine
 10
87.17796910165299
 20
-20.44403720179609
 30
0.0
 11
87.14248607491006
 21
-19.10917264119202
 31
0.0
  0
SPLINE
  5
A5
330
70
100
AcDbEntity
  8
sinclair sign final v1_Sketch1
100
AcDbSpline
210
0.0
220
0.0
230
1.0
 70
    12
 71
     3
 72
     8
 73
     4
 74
     0
 42
0.000000001
 43
0.0000000001
 40
0.0
 40
0.0
 40
0.0
 40
0.0
 40
1.0
 40
1.0
 40
1.0
 40
1.0
 10
108.5492772662495
 20
-31.66054414669087
 30
0.0
 41
1.0
 10
107.6593268639896
 20
-31.46138252059034
 30
0.0
 41
1.0
 10
107.3592100083683
 20
-31.63631016079
 30
0.0
 41
1.0
 10
107.0170155975674
 20
-32.55364015999845
 30
0.0
 41
1.0
  0
LINE
  5
A6
330
70
100
AcDbEntity
  8
sinclair sign final v1_Sketch1
100
AcDbLine
 10
109.0583245012615
 20
-20.85455756560379
 30
0.0
 11
110.2485939633701
 21
-21.44149921027235
 31
0.0
  0
SPLINE
  5
A7
330
70
100
AcDbEntity
  8
sinclair sign final v1_Sketch1
100
AcDbSpline
210
0.0
220
0.0
230
1.0
 70
    12
 71
     3
 72
     8
 73
     4
 74
     0
 42
0.000000001
 43
0.0000000001
 40
0.0
 40
0.0
 40
0.0
 40
0.0
 40
1.0
 40
1.0
 40
1.0
 40
1.0
 10
79.95831198893539
 20
-30.96146118203214
 30
0.0
 41
1.0
 10
79.76868352912418
 20
-30.88582154027037
 30
0.0
 41
1.0
 10
79.7395346451854
 20
-30.69275846997312
 30
0.0
 41
1.0
 10
79.7395346451854
 20
-29.51239701500944
 30
0.0
 41
1.0
  0
SPLINE
  5
A8
330
70
100
AcDbEntity
  8
sinclair sign final v1_Sketch1
100
AcDbSpline
210
0.0
220
0.0
230
1.0
 70
    12
 71
     3
 72
     8
 73
     4
 74
     0
 42
0.000000001
 43
0.0000000001
 40
0.0
 40
0.0
 40
0.0
 40
0.0
 40
1.0
 40
1.0
 40
1.0
 40
1.0
 10
89.02194575522889
 20
-7.05680874005375
 30
0.0
 41
1.0
 10
88.90161897920121
 20
-6.922671033773991
 30
0.0
 41
1.0
 10
88.4093699557637
 20
-6.666981880579561
 30
0.0
 41
1.0
 10
87.9280590364789
 20
-6.48861104575215
 30
0.0
 41
1.0
  0
SPLINE
  5
A9
330
70
100
AcDbEntity
  8
sinclair sign final v1_Sketch1
100
AcDbSpline
210
0.0
220
0.0
230
1.0
 70
    12
 71
     3
 72
     8
 73
     4
 74
     0
 42
0.000000001
 43
0.0000000001
 40
0.0
 40
0.0
 40
0.0
 40
0.0
 40
1.0
 40
1.0
 40
1.0
 40
1.0
 10
82.73492416642657
 20
-27.58961412516646
 30
0.0
 41
1.0
 10
82.17285364173404
 20
-27.7680078510385
 30
0.0
 41
1.0
 10
82.35024969957818
 20
-28.63961489621213
 30
0.0
 41
1.0
 10
83.04070274041643
 20
-29.09201824132018
 30
0.0
 41
1.0
  0
LINE
  5
AA
330
70
100
AcDbEntity
  8
sinclair sign final v1_Sketch1
100
AcDbLine
 10
89.24072309897887
 20
-7.457505030546759
 30
0.0
 11
90.98918112826146
 21
-7.905796468813004
 31
0.0
  0
SPLINE
  5
AB
330
70
100
AcDbEntity
  8
sinclair sign final v1_Sketch1
100
AcDbSpline
210
0.0
220
0.0
230
1.0
 70
    12
 71
     3
 72
     8
 73
     4
 74
     0
 42
0.000000001
 43
0.0000000001
 40
0.0
 40
0.0
 40
0.0
 40
0.0
 40
1.0
 40
1.0
 40
1.0
 40
1.0
 10
80.6396915919637
 20
-16.07543394366318
 30
0.0
 41
1.0
 10
81.09202435635081
 20
-15.83912587491089
 30
0.0
 41
1.0
 10
82.15981337665072
 20
-15.86836536923461
 30
0.0
 41
1.0
 10
82.92743403647888
 20
-16.13808291760499
 30
0.0
 41
1.0
  0
LINE
  5
AC
330
70
100
AcDbEntity
  8
sinclair sign final v1_Sketch1
100
AcDbLine
 10
90.64714888022889
 20
-14.14549760237749
 30
0.0
 11
91.36598872397888
 21
-14.41684804526383
 31
0.0
  0
LINE
  5
AD
330
70
100
AcDbEntity
  8
sinclair sign final v1_Sketch1
100
AcDbLine
 10
89.61576997397889
 20
-4.236502327356912
 30
0.0
 11
91.30348091147888
 21
-4.852775030527697
 31
0.0
  0
SPLINE
  5
AE
330
70
100
AcDbEntity
  8
sinclair sign final v1_Sketch1
100
AcDbSpline
210
0.0
220
0.0
230
1.0
 70
    12
 71
     3
 72
     8
 73
     4
 74
     0
 42
0.000000001
 43
0.0000000001
 40
0.0
 40
0.0
 40
0.0
 40
0.0
 40
1.0
 40
1.0
 40
1.0
 40
1.0
 10
74.97152557919972
 20
-8.598150523100473
 30
0.0
 41
1.0
 10
75.05536498390189
 20
-8.548148851309406
 30
0.0
 41
1.0
 10
76.04541887806409
 20
-8.892079166327091
 30
0.0
 41
1.0
 10
82.48987934897892
 20
-11.20991951933916
 30
0.0
 41
1.0
  0
SPLINE
  5
AF
330
70
100
AcDbEntity
  8
sinclair sign final v1_Sketch1
100
AcDbSpline
210
0.0
220
0.0
230
1.0
 70
    12
 71
     3
 72
     8
 73
     4
 74
     0
 42
0.000000001
 43
0.0000000001
 40
0.0
 40
0.0
 40
0.0
 40
0.0
 40
1.0
 40
1.0
 40
1.0
 40
1.0
 10
85.30474150823106
 20
-20.90735576001222
 30
0.0
 41
1.0
 10
88.44373704408159
 20
-22.05632596245819
 30
0.0
 41
1.0
 10
88.69312543724527
 20
-22.12784521618896
 30
0.0
 41
1.0
 10
88.9572480327939
 20
-21.95478510371262
 30
0.0
 41
1.0
  0
SPLINE
  5
B0
330
70
100
AcDbEntity
  8
sinclair sign final v1_Sketch1
100
AcDbSpline
210
0.0
220
0.0
230
1.0
 70
    12
 71
     3
 72
     8
 73
     4
 74
     0
 42
0.000000001
 43
0.0000000001
 40
0.0
 40
0.0
 40
0.0
 40
0.0
 40
1.0
 40
1.0
 40
1.0
 40
1.0
 10
88.9402075576638
 20
-24.98196933213288
 30
0.0
 41
1.0
 10
87.98823577760209
 20
-24.8482055129152
 30
0.0
 41
1.0
 10
81.65860823200693
 20
-22.45561063853317
 30
0.0
 41
1.0
 10
81.1125423626756
 20
-22.02311868706757
 30
0.0
 41
1.0
  0
SPLINE
  5
B1
330
70
100
AcDbEntity
  8
sinclair sign final v1_Sketch1
100
AcDbSpline
210
0.0
220
0.0
230
1.0
 70
    12
 71
     3
 72
     8
 73
     4
 74
     0
 42
0.000000001
 43
0.0000000001
 40
0.0
 40
0.0
 40
0.0
 40
0.0
 40
1.0
 40
1.0
 40
1.0
 40
1.0
 10
110.8732333433483
 20
-15.10356030789431
 30
0.0
 41
1.0
 10
110.8694067237232
 20
-16.13540085021072
 30
0.0
 41
1.0
 10
110.8511625611637
 20
-16.4580653847795
 30
0.0
 41
1.0
 10
110.7933474128101
 20
-16.51588053313309
 30
0.0
 41
1.0
  0
SPLINE
  5
B2
330
70
100
AcDbEntity
  8
sinclair sign final v1_Sketch1
100
AcDbSpline
210
0.0
220
0.0
230
1.0
 70
    12
 71
     3
 72
     8
 73
     4
 74
     0
 42
0.000000001
 43
0.0000000001
 40
0.0
 40
0.0
 40
0.0
 40
0.0
 40
1.0
 40
1.0
 40
1.0
 40
1.0
 10
91.12781694267738
 20
-34.97128355995228
 30
0.0
 41
1.0
 10
91.06558382271279
 20
-34.93282088223509
 30
0.0
 41
1.0
 10
88.57620942686549
 20
-34.034509525929
 30
0.0
 41
1.0
 10
85.59587553642741
 20
-32.97503949276022
 30
0.0
 41
1.0
  0
SPLINE
  5
B3
330
70
100
AcDbEntity
  8
sinclair sign final v1_Sketch1
100
AcDbSpline
210
0.0
220
0.0
230
1.0
 70
    12
 71
     3
 72
     8
 73
     4
 74
     0
 42
0.000000001
 43
0.0000000001
 40
0.0
 40
0.0
 40
0.0
 40
0.0
 40
1.0
 40
1.0
 40
1.0
 40
1.0
 10
95.05394966147887
 20
-50.82978723159836
 30
0.0
 41
1.0
 10
95.74153559897888
 20
-50.65057801226187
 30
0.0
 41
1.0
 10
96.55726178906906
 20
-50.42977481106326
 30
0.0
 41
1.0
 10
96.86667622397889
 20
-50.33911387506531
 30
0.0
 41
1.0
  0
SPLINE
  5
B4
330
70
100
AcDbEntity
  8
sinclair sign final v1_Sketch1
100
AcDbSpline
210
0.0
220
0.0
230
1.0
 70
    12
 71
     3
 72
     8
 73
     4
 74
     0
 42
0.000000001
 43
0.0000000001
 40
0.0
 40
0.0
 40
0.0
 40
0.0
 40
1.0
 40
1.0
 40
1.0
 40
1.0
 10
80.47704022823323
 20
9.179389537419687
 30
0.0
 41
1.0
 10
79.79050346361152
 20
9.922493888463373
 30
0.0
 41
1.0
 10
79.61451997397891
 20
10.24254121359767
 30
0.0
 41
1.0
 10
79.61451997397891
 20
10.74799836977899
 30
0.0
 41
1.0
  0
LINE
  5
B5
330
70
100
AcDbEntity
  8
sinclair sign final v1_Sketch1
100
AcDbLine
 10
80.23465172575464
 20
-4.354463695440852
 30
0.0
 11
80.72738336871614
 21
-3.909309181128127
 31
0.0
  0
LINE
  5
B6
330
70
100
AcDbEntity
  8
sinclair sign final v1_Sketch1
100
AcDbLine
 10
79.48024015246382
 20
-41.10896397367527
 30
0.0
 11
79.48950339518539
 21
-42.12833080426266
 31
0.0
  0
SPLINE
  5
B7
330
70
100
AcDbEntity
  8
sinclair sign final v1_Sketch1
100
AcDbSpline
210
0.0
220
0.0
230
1.0
 70
    12
 71
     3
 72
     8
 73
     4
 74
     0
 42
0.000000001
 43
0.0000000001
 40
0.0
 40
0.0
 40
0.0
 40
0.0
 40
1.0
 40
1.0
 40
1.0
 40
1.0
 10
91.14298225973595
 20
-30.40079082623534
 30
0.0
 41
1.0
 10
91.09373980759135
 20
-30.40074122897199
 30
0.0
 41
1.0
 10
89.47825202344406
 20
-29.83447782794048
 30
0.0
 41
1.0
 10
87.5530121614789
 20
-29.14242813674024
 30
0.0
 41
1.0
  0
SPLINE
  5
B8
330
70
100
AcDbEntity
  8
sinclair sign final v1_Sketch1
100
AcDbSpline
210
0.0
220
0.0
230
1.0
 70
    12
 71
     3
 72
     8
 73
     4
 74
     0
 42
0.000000001
 43
0.0000000001
 40
0.0
 40
0.0
 40
0.0
 40
0.0
 40
1.0
 40
1.0
 40
1.0
 40
1.0
 10
79.91053551743974
 20
4.228445734586109
 30
0.0
 41
1.0
 10
79.94033011959544
 20
4.228445734586109
 30
0.0
 41
1.0
 10
82.51271698115814
 20
3.328331708516486
 30
0.0
 41
1.0
 10
85.62695012949456
 20
2.22819573458614
 30
0.0
 41
1.0
  0
SPLINE
  5
B9
330
70
100
AcDbEntity
  8
sinclair sign final v1_Sketch1
100
AcDbSpline
210
0.0
220
0.0
230
1.0
 70
    12
 71
     3
 72
     8
 73
     4
 74
     0
 42
0.000000001
 43
0.0000000001
 40
0.0
 40
0.0
 40
0.0
 40
0.0
 40
1.0
 40
1.0
 40
1.0
 40
1.0
 10
79.8917104946231
 20
2.824759248341941
 30
0.0
 41
1.0
 10
79.87226932118884
 20
3.596790249432906
 30
0.0
 41
1.0
 10
79.88074091528407
 20
4.228445734586109
 30
0.0
 41
1.0
 10
79.91053551743974
 20
4.228445734586109
 30
0.0
 41
1.0
  0
LINE
  5
BA
330
70
100
AcDbEntity
  8
sinclair sign final v1_Sketch1
100
AcDbLine
 10
91.36598872397888
 20
-14.41684804526383
 30
0.0
 11
91.36598872397888
 21
-15.78303518525178
 31
0.0
  0
SPLINE
  5
BB
330
70
100
AcDbEntity
  8
sinclair sign final v1_Sketch1
100
AcDbSpline
210
0.0
220
0.0
230
1.0
 70
    12
 71
     3
 72
     8
 73
     4
 74
     0
 42
0.000000001
 43
0.0000000001
 40
0.0
 40
0.0
 40
0.0
 40
0.0
 40
1.0
 40
1.0
 40
1.0
 40
1.0
 10
83.99006684897889
 20
-37.59331918970158
 30
0.0
 41
1.0
 10
82.7180324830865
 20
-37.13775688043646
 30
0.0
 41
1.0
 10
81.25535005210393
 20
-36.60652250042968
 30
0.0
 41
1.0
 10
80.73966059897891
 20
-36.41279940501263
 30
0.0
 41
1.0
  0
SPLINE
  5
BC
330
70
100
AcDbEntity
  8
sinclair sign final v1_Sketch1
100
AcDbSpline
210
0.0
220
0.0
230
1.0
 70
    12
 71
     3
 72
     8
 73
     4
 74
     0
 42
0.000000001
 43
0.0000000001
 40
0.0
 40
0.0
 40
0.0
 40
0.0
 40
1.0
 40
1.0
 40
1.0
 40
1.0
 10
109.4251191546772
 20
-15.13555435792024
 30
0.0
 41
1.0
 10
109.9302024237965
 20
-15.22991505900436
 30
0.0
 41
1.0
 10
110.0906343099926
 20
-15.20813423005161
 30
0.0
 41
1.0
 10
110.449287381873
 20
-14.99652559844072
 30
0.0
 41
1.0
  0
SPLINE
  5
BD
330
70
100
AcDbEntity
  8
sinclair sign final v1_Sketch1
100
AcDbSpline
210
0.0
220
0.0
230
1.0
 70
    12
 71
     3
 72
     8
 73
     4
 74
     0
 42
0.000000001
 43
0.0000000001
 40
0.0
 40
0.0
 40
0.0
 40
0.0
 40
1.0
 40
1.0
 40
1.0
 40
1.0
 10
110.9361035973881
 20
-30.44399004260113
 30
0.0
 41
1.0
 10
110.5573750793789
 20
-31.50619746318866
 30
0.0
 41
1.0
 10
109.7342665273998
 20
-31.92573308340125
 30
0.0
 41
1.0
 10
108.5492772662495
 20
-31.66054414669087
 30
0.0
 41
1.0
  0
SPLINE
  5
BE
330
70
100
AcDbEntity
  8
sinclair sign final v1_Sketch1
100
AcDbSpline
210
0.0
220
0.0
230
1.0
 70
    12
 71
     3
 72
     8
 73
     4
 74
     0
 42
0.000000001
 43
0.0000000001
 40
0.0
 40
0.0
 40
0.0
 40
0.0
 40
1.0
 40
1.0
 40
1.0
 40
1.0
 10
109.3057347266529
 20
-12.89756941405354
 30
0.0
 41
1.0
 10
109.3744917943333
 20
-12.89681782475524
 30
0.0
 41
1.0
 10
109.6777599837635
 20
-12.6999052437883
 30
0.0
 41
1.0
 10
109.9796585256909
 20
-12.45991553202683
 30
0.0
 41
1.0
  0
SPLINE
  5
BF
330
70
100
AcDbEntity
  8
sinclair sign final v1_Sketch1
100
AcDbSpline
210
0.0
220
0.0
230
1.0
 70
    12
 71
     3
 72
     8
 73
     4
 74
     0
 42
0.000000001
 43
0.0000000001
 40
0.0
 40
0.0
 40
0.0
 40
0.0
 40
1.0
 40
1.0
 40
1.0
 40
1.0
 10
83.04070274041643
 20
-29.09201824132018
 30
0.0
 41
1.0
 10
83.20422301004878
 20
-29.19915977564865
 30
0.0
 41
1.0
 10
85.01772786806574
 20
-29.89735571232847
 30
0.0
 41
1.0
 10
87.07071501968851
 20
-30.64356561509185
 30
0.0
 41
1.0
  0
SPLINE
  5
C0
330
70
100
AcDbEntity
  8
sinclair sign final v1_Sketch1
100
AcDbSpline
210
0.0
220
0.0
230
1.0
 70
    12
 71
     3
 72
     8
 73
     4
 74
     0
 42
0.000000001
 43
0.0000000001
 40
0.0
 40
0.0
 40
0.0
 40
0.0
 40
1.0
 40
1.0
 40
1.0
 40
1.0
 10
79.76669296203604
 20
-34.59095648399404
 30
0.0
 41
1.0
 10
79.7338080688571
 20
-33.22380028978398
 30
0.0
 41
1.0
 10
79.74688171671383
 20
-33.12748621955922
 30
0.0
 41
1.0
 10
79.95421639953605
 20
-33.2095582448583
 30
0.0
 41
1.0
  0
SPLINE
  5
C1
330
70
100
AcDbEntity
  8
sinclair sign final v1_Sketch1
100
AcDbSpline
210
0.0
220
0.0
230
1.0
 70
    12
 71
     3
 72
     8
 73
     4
 74
     0
 42
0.000000001
 43
0.0000000001
 40
0.0
 40
0.0
 40
0.0
 40
0.0
 40
1.0
 40
1.0
 40
1.0
 40
1.0
 10
79.7395346451854
 20
-29.51239701500944
 30
0.0
 41
1.0
 10
79.7395346451854
 20
-28.76340966549925
 30
0.0
 41
1.0
 10
79.76079184149256
 20
-28.15060114041381
 30
0.0
 41
1.0
 10
79.78677508471958
 20
-28.15060114041381
 30
0.0
 41
1.0
  0
SPLINE
  5
C2
330
70
100
AcDbEntity
  8
sinclair sign final v1_Sketch1
100
AcDbSpline
210
0.0
220
0.0
230
1.0
 70
    12
 71
     3
 72
     8
 73
     4
 74
     0
 42
0.000000001
 43
0.0000000001
 40
0.0
 40
0.0
 40
0.0
 40
0.0
 40
1.0
 40
1.0
 40
1.0
 40
1.0
 10
79.66678785918706
 20
-6.636788592730146
 30
0.0
 41
1.0
 10
79.40292755685796
 20
-5.567551713858216
 30
0.0
 41
1.0
 10
79.55110510383597
 20
-4.972006851587871
 30
0.0
 41
1.0
 10
80.23465172575464
 20
-4.354463695440852
 30
0.0
 41
1.0
  0
LINE
  5
C3
330
70
100
AcDbEntity
  8
sinclair sign final v1_Sketch1
100
AcDbLine
 10
91.0666825928544
 20
-7.653070855055434
 30
0.0
 11
90.75946951340187
 21
-7.536269299898709
 31
0.0
  0
LINE
  5
C4
330
70
100
AcDbEntity
  8
sinclair sign final v1_Sketch1
100
AcDbLine
 10
79.80204341147892
 20
-36.0605768090825
 30
0.0
 11
79.76669296203604
 21
-34.59095648399404
 31
0.0
  0
LINE
  5
C5
330
70
100
AcDbEntity
  8
sinclair sign final v1_Sketch1
100
AcDbLine
 10
83.55251216147889
 20
-16.35771486035401
 30
0.0
 11
83.58799518822184
 21
-17.69108768788391
 31
0.0
  0
SPLINE
  5
C6
330
70
100
AcDbEntity
  8
sinclair sign final v1_Sketch1
100
AcDbSpline
210
0.0
220
0.0
230
1.0
 70
    12
 71
     3
 72
     8
 73
     4
 74
     0
 42
0.000000001
 43
0.0000000001
 40
0.0
 40
0.0
 40
0.0
 40
0.0
 40
1.0
 40
1.0
 40
1.0
 40
1.0
 10
110.9934456641529
 20
-12.18609667149599
 30
0.0
 41
1.0
 10
110.9934456641529
 20
-12.2754823855501
 30
0.0
 41
1.0
 10
110.9259361584042
 20
-12.41612496367511
 30
0.0
 41
1.0
 10
110.8434253880833
 20
-12.49863573399597
 30
0.0
 41
1.0
  0
SPLINE
  5
C7
330
70
100
AcDbEntity
  8
sinclair sign final v1_Sketch1
100
AcDbSpline
210
0.0
220
0.0
230
1.0
 70
    12
 71
     3
 72
     8
 73
     4
 74
     0
 42
0.000000001
 43
0.0000000001
 40
0.0
 40
0.0
 40
0.0
 40
0.0
 40
1.0
 40
1.0
 40
1.0
 40
1.0
 10
110.3683675391529
 20
-13.8630259269815
 30
0.0
 41
1.0
 10
109.8500685069416
 20
-14.03582279244477
 30
0.0
 41
1.0
 10
108.6662352435444
 20
-14.86368123618179
 30
0.0
 41
1.0
 10
108.7778405315731
 20
-14.97528652421052
 30
0.0
 41
1.0
  0
SPLINE
  5
C8
330
70
100
AcDbEntity
  8
sinclair sign final v1_Sketch1
100
AcDbSpline
210
0.0
220
0.0
230
1.0
 70
    12
 71
     3
 72
     8
 73
     4
 74
     0
 42
0.000000001
 43
0.0000000001
 40
0.0
 40
0.0
 40
0.0
 40
0.0
 40
1.0
 40
1.0
 40
1.0
 40
1.0
 10
108.6354353430126
 20
-24.42725446311049
 30
0.0
 41
1.0
 10
110.1239331495617
 20
-26.10221508875899
 30
0.0
 41
1.0
 10
110.576492916808
 20
-26.8216195782762
 30
0.0
 41
1.0
 10
110.8743893411015
 20
-27.98639223185589
 30
0.0
 41
1.0
  0
LINE
  5
C9
330
70
100
AcDbEntity
  8
sinclair sign final v1_Sketch1
100
AcDbLine
 10
107.6212895781849
 20
-17.86731821003968
 30
0.0
 11
108.7592491881703
 21
-17.9563376673799
 31
0.0
  0
LINE
  5
CA
330
70
100
AcDbEntity
  8
sinclair sign final v1_Sketch1
100
AcDbLine
 10
91.33868924568643
 20
-6.311323720369911
 30
0.0
 11
91.37389567230689
 21
-7.769872410212133
 31
0.0
  0
SPLINE
  5
CB
330
70
100
AcDbEntity
  8
sinclair sign final v1_Sketch1
100
AcDbSpline
210
0.0
220
0.0
230
1.0
 70
    12
 71
     3
 72
     8
 73
     4
 74
     0
 42
0.000000001
 43
0.0000000001
 40
0.0
 40
0.0
 40
0.0
 40
0.0
 40
1.0
 40
1.0
 40
1.0
 40
1.0
 10
83.58799518822184
 20
-17.69108768788391
 30
0.0
 41
1.0
 10
83.62757761953821
 20
-19.17848672429138
 30
0.0
 41
1.0
 10
83.64381690810672
 20
-19.15585511151366
 30
0.0
 41
1.0
 10
82.76050490878573
 20
-18.84420498457964
 30
0.0
 41
1.0
  0
LINE
  5
CC
330
70
100
AcDbEntity
  8
sinclair sign final v1_Sketch1
100
AcDbLine
 10
80.58339106772891
 20
6.127585990514142
 30
0.0
 11
79.86455122397891
 21
6.376663446988437
 31
0.0
  0
SPLINE
  5
CD
330
70
100
AcDbEntity
  8
sinclair sign final v1_Sketch1
100
AcDbSpline
210
0.0
220
0.0
230
1.0
 70
    12
 71
     3
 72
     8
 73
     4
 74
     0
 42
0.000000001
 43
0.0000000001
 40
0.0
 40
0.0
 40
0.0
 40
0.0
 40
1.0
 40
1.0
 40
1.0
 40
1.0
 10
108.7778405315731
 20
-14.97528652421052
 30
0.0
 41
1.0
 10
108.80445137094
 20
-15.00189736357743
 30
0.0
 41
1.0
 10
109.0957246529911
 20
-15.07401559964235
 30
0.0
 41
1.0
 10
109.4251191546772
 20
-15.13555435792024
 30
0.0
 41
1.0
  0
SPLINE
  5
CE
330
70
100
AcDbEntity
  8
sinclair sign final v1_Sketch1
100
AcDbSpline
210
0.0
220
0.0
230
1.0
 70
    12
 71
     3
 72
     8
 73
     4
 74
     0
 42
0.000000001
 43
0.0000000001
 40
0.0
 40
0.0
 40
0.0
 40
0.0
 40
1.0
 40
1.0
 40
1.0
 40
1.0
 10
74.87521150897496
 20
-9.990906535540208
 30
0.0
 41
1.0
 10
74.88422485779278
 20
-9.251106125269499
 30
0.0
 41
1.0
 10
74.92756714318743
 20
-8.624364584360678
 30
0.0
 41
1.0
 10
74.97152557919972
 20
-8.598150523100473
 30
0.0
 41
1.0
  0
LINE
  5
CF
330
70
100
AcDbEntity
  8
sinclair sign final v1_Sketch1
100
AcDbLine
 10
78.36436563156597
 20
-38.63623709002544
 30
0.0
 11
79.30198281906597
 21
-38.98261483923008
 31
0.0
  0
SPLINE
  5
D0
330
70
100
AcDbEntity
  8
sinclair sign final v1_Sketch1
100
AcDbSpline
210
0.0
220
0.0
230
1.0
 70
    12
 71
     3
 72
     8
 73
     4
 74
     0
 42
0.000000001
 43
0.0000000001
 40
0.0
 40
0.0
 40
0.0
 40
0.0
 40
1.0
 40
1.0
 40
1.0
 40
1.0
 10
100.6171449739788
 20
-49.3390174888711
 30
0.0
 41
1.0
 10
102.370488351569
 20
-48.87962665239379
 30
0.0
 41
1.0
 10
105.3802410495136
 20
-48.08712819603491
 30
0.0
 41
1.0
 10
107.3054809114788
 20
-47.57791213956879
 30
0.0
 41
1.0
  0
LINE
  5
D1
330
70
100
AcDbEntity
  8
sinclair sign final v1_Sketch1
100
AcDbLine
 10
91.36598872397888
 20
-2.635273756418804
 30
0.0
 11
89.39699263022887
 21
-1.946955305491074
 31
0.0
  0
SPLINE
  5
D2
330
70
100
AcDbEntity
  8
sinclair sign final v1_Sketch1
100
AcDbSpline
210
0.0
220
0.0
230
1.0
 70
    12
 71
     3
 72
     8
 73
     4
 74
     0
 42
0.000000001
 43
0.0000000001
 40
0.0
 40
0.0
 40
0.0
 40
0.0
 40
1.0
 40
1.0
 40
1.0
 40
1.0
 10
107.8680550391529
 20
-20.16172194853837
 30
0.0
 41
1.0
 10
107.8680550391529
 20
-20.21996439639146
 30
0.0
 41
1.0
 10
108.4036749617909
 20
-20.53174042407089
 30
0.0
 41
1.0
 10
109.0583245012615
 20
-20.85455756560379
 30
0.0
 41
1.0
  0
SPLINE
  5
D3
330
70
100
AcDbEntity
  8
sinclair sign final v1_Sketch1
100
AcDbSpline
210
0.0
220
0.0
230
1.0
 70
    12
 71
     3
 72
     8
 73
     4
 74
     0
 42
0.000000001
 43
0.0000000001
 40
0.0
 40
0.0
 40
0.0
 40
0.0
 40
1.0
 40
1.0
 40
1.0
 40
1.0
 10
107.2620070025776
 20
-30.86172490063719
 30
0.0
 41
1.0
 10
107.4862247845982
 20
-30.69849649182371
 30
0.0
 41
1.0
 10
107.850131351218
 20
-30.60756181708387
 30
0.0
 41
1.0
 10
108.3859725539539
 20
-30.58087085906079
 30
0.0
 41
1.0
  0
LINE
  5
D4
330
70
100
AcDbEntity
  8
sinclair sign final v1_Sketch1
100
AcDbLine
 10
108.7592491881703
 20
-17.9563376673799
 30
0.0
 11
109.8972087981556
 21
-18.04535712472015
 31
0.0
  0
SPLINE
  5
D5
330
70
100
AcDbEntity
  8
sinclair sign final v1_Sketch1
100
AcDbSpline
210
0.0
220
0.0
230
1.0
 70
    12
 71
     3
 72
     8
 73
     4
 74
     0
 42
0.000000001
 43
0.0000000001
 40
0.0
 40
0.0
 40
0.0
 40
0.0
 40
1.0
 40
1.0
 40
1.0
 40
1.0
 10
107.4930043489788
 20
-22.94518904009873
 30
0.0
 41
1.0
 10
107.4930043489788
 20
-23.05327673760467
 30
0.0
 41
1.0
 10
108.0070990593289
 20
-23.72020350733809
 30
0.0
 41
1.0
 10
108.6354353430126
 20
-24.42725446311049
 30
0.0
 41
1.0
  0
SPLINE
  5
D6
330
70
100
AcDbEntity
  8
sinclair sign final v1_Sketch1
100
AcDbSpline
210
0.0
220
0.0
230
1.0
 70
    12
 71
     3
 72
     8
 73
     4
 74
     0
 42
0.000000001
 43
0.0000000001
 40
0.0
 40
0.0
 40
0.0
 40
0.0
 40
1.0
 40
1.0
 40
1.0
 40
1.0
 10
91.20532411216247
 20
-17.14922614041383
 30
0.0
 41
1.0
 10
91.11695895718083
 20
-17.14922614041383
 30
0.0
 41
1.0
 10
89.89336776445854
 20
-16.7345319761377
 30
0.0
 41
1.0
 10
88.48623426841248
 20
-16.22767846623475
 30
0.0
 41
1.0
  0
SPLINE
  5
D7
330
70
100
AcDbEntity
  8
sinclair sign final v1_Sketch1
100
AcDbSpline
210
0.0
220
0.0
230
1.0
 70
    12
 71
     3
 72
     8
 73
     4
 74
     0
 42
0.000000001
 43
0.0000000001
 40
0.0
 40
0.0
 40
0.0
 40
0.0
 40
1.0
 40
1.0
 40
1.0
 40
1.0
 10
110.8434253880833
 20
-12.49863573399597
 30
0.0
 41
1.0
 10
110.7267459184979
 20
-12.61531520358142
 30
0.0
 41
1.0
 10
110.7283406612728
 20
-12.64865601006561
 30
0.0
 41
1.0
 10
110.8506131760929
 20
-12.64865601006561
 30
0.0
 41
1.0
  0
SPLINE
  5
D8
330
70
100
AcDbEntity
  8
sinclair sign final v1_Sketch1
100
AcDbSpline
210
0.0
220
0.0
230
1.0
 70
    12
 71
     3
 72
     8
 73
     4
 74
     0
 42
0.000000001
 43
0.0000000001
 40
0.0
 40
0.0
 40
0.0
 40
0.0
 40
1.0
 40
1.0
 40
1.0
 40
1.0
 10
112.7436605989788
 20
-46.14517882529306
 30
0.0
 41
1.0
 10
115.5061022660587
 20
-45.42256386676834
 30
0.0
 41
1.0
 10
115.4938021447514
 20
-45.42718213501977
 30
0.0
 41
1.0
 10
115.4952557260845
 20
-45.11177787676859
 30
0.0
 41
1.0
  0
SPLINE
  5
D9
330
70
100
AcDbEntity
  8
sinclair sign final v1_Sketch1
100
AcDbSpline
210
0.0
220
0.0
230
1.0
 70
    12
 71
     3
 72
     8
 73
     4
 74
     0
 42
0.000000001
 43
0.0000000001
 40
0.0
 40
0.0
 40
0.0
 40
0.0
 40
1.0
 40
1.0
 40
1.0
 40
1.0
 10
80.69679234896652
 20
8.773622880544062
 30
0.0
 41
1.0
 10
80.8450700442647
 20
8.72119475802361
 30
0.0
 41
1.0
 10
80.76674738131513
 20
8.865812747563717
 30
0.0
 41
1.0
 10
80.47704022823323
 20
9.179389537419687
 30
0.0
 41
1.0
  0
SPLINE
  5
DA
330
70
100
AcDbEntity
  8
sinclair sign final v1_Sketch1
100
AcDbSpline
210
0.0
220
0.0
230
1.0
 70
    12
 71
     3
 72
     8
 73
     4
 74
     0
 42
0.000000001
 43
0.0000000001
 40
0.0
 40
0.0
 40
0.0
 40
0.0
 40
1.0
 40
1.0
 40
1.0
 40
1.0
 10
88.60267338202943
 20
-26.66959633580262
 30
0.0
 41
1.0
 10
89.95059919117441
 20
-27.15512683764511
 30
0.0
 41
1.0
 10
91.10970440362441
 20
-27.58853061572128
 30
0.0
 41
1.0
 10
91.17846337889185
 20
-27.6327141470056
 30
0.0
 41
1.0
  0
LINE
  5
DB
330
70
100
AcDbEntity
  8
sinclair sign final v1_Sketch1
100
AcDbLine
 10
91.37389567230689
 20
-7.769872410212133
 30
0.0
 11
91.0666825928544
 21
-7.653070855055434
 31
0.0
  0
SPLINE
  5
DC
330
70
100
AcDbEntity
  8
sinclair sign final v1_Sketch1
100
AcDbSpline
210
0.0
220
0.0
230
1.0
 70
    12
 71
     3
 72
     8
 73
     4
 74
     0
 42
0.000000001
 43
0.0000000001
 40
0.0
 40
0.0
 40
0.0
 40
0.0
 40
0.3298529793863748
 40
0.3298529793863748
 40
0.3298529793863748
 40
0.3298529793863748
 10
88.55434084890831
 20
-8.273116765413847
 30
0.0
 41
1.0
 10
88.61856944365575
 20
-8.273116765413847
 30
0.0
 41
1.0
 10
88.71510649144942
 20
-8.209550898451631
 30
0.0
 41
1.0
 10
88.81564965027184
 20
-8.116049855139696
 30
0.0
 41
1.0
  0
SPLINE
  5
DD
330
70
100
AcDbEntity
  8
sinclair sign final v1_Sketch1
100
AcDbSpline
210
0.0
220
0.0
230
1.0
 70
    12
 71
     3
 72
     8
 73
     4
 74
     0
 42
0.000000001
 43
0.0000000001
 40
0.0
 40
0.0
 40
0.0
 40
0.0
 40
1.0
 40
1.0
 40
1.0
 40
1.0
 10
85.62695012949456
 20
2.22819573458614
 30
0.0
 41
1.0
 10
88.74118327783097
 20
1.128059760655742
 30
0.0
 41
1.0
 10
91.30647200797545
 20
0.2279457345861226
 30
0.0
 41
1.0
 10
91.32758899663437
 20
0.2279457345861226
 30
0.0
 41
1.0
  0
SPLINE
  5
DE
330
70
100
AcDbEntity
  8
sinclair sign final v1_Sketch1
100
AcDbSpline
210
0.0
220
0.0
230
1.0
 70
    12
 71
     3
 72
     8
 73
     4
 74
     0
 42
0.000000001
 43
0.0000000001
 40
0.0
 40
0.0
 40
0.0
 40
0.0
 40
1.0
 40
1.0
 40
1.0
 40
1.0
 10
109.3983175566052
 20
-30.26976630202345
 30
0.0
 41
1.0
 10
109.6656620666836
 20
-29.93960876551679
 30
0.0
 41
1.0
 10
109.6776531588886
 20
-29.53485694495253
 30
0.0
 41
1.0
 10
109.4371445834492
 20
-28.95923492184691
 30
0.0
 41
1.0
  0
SPLINE
  5
DF
330
70
100
AcDbEntity
  8
sinclair sign final v1_Sketch1
100
AcDbSpline
210
0.0
220
0.0
230
1.0
 70
    12
 71
     3
 72
     8
 73
     4
 74
     0
 42
0.000000001
 43
0.0000000001
 40
0.0
 40
0.0
 40
0.0
 40
0.0
 40
1.0
 40
1.0
 40
1.0
 40
1.0
 10
110.7933474128101
 20
-16.51588053313309
 30
0.0
 41
1.0
 10
110.7444025442455
 20
-16.56482540169767
 30
0.0
 41
1.0
 10
109.3668881523464
 20
-16.63196483555848
 30
0.0
 41
1.0
 10
108.0837382767056
 20
-16.64795041504912
 30
0.0
 41
1.0
  0
SPLINE
  5
E0
330
70
100
AcDbEntity
  8
sinclair sign final v1_Sketch1
100
AcDbSpline
210
0.0
220
0.0
230
1.0
 70
    12
 71
     3
 72
     8
 73
     4
 74
     0
 42
0.000000001
 43
0.0000000001
 40
0.0
 40
0.0
 40
0.0
 40
0.0
 40
1.0
 40
1.0
 40
1.0
 40
1.0
 10
87.14248607491006
 20
-19.10917264119202
 30
0.0
 41
1.0
 10
87.10152445815555
 20
-17.56822000590377
 30
0.0
 41
1.0
 10
87.04516479872216
 20
-17.61788594237382
 30
0.0
 41
1.0
 10
88.29918963526239
 20
-18.08989928237014
 30
0.0
 41
1.0
  0
SPLINE
  5
E1
330
70
100
AcDbEntity
  8
sinclair sign final v1_Sketch1
100
AcDbSpline
210
0.0
220
0.0
230
1.0
 70
    12
 71
     3
 72
     8
 73
     4
 74
     0
 42
0.000000001
 43
0.0000000001
 40
0.0
 40
0.0
 40
0.0
 40
0.0
 40
1.0
 40
1.0
 40
1.0
 40
1.0
 10
83.88101582001198
 20
-24.96845598546081
 30
0.0
 41
1.0
 10
85.1300027191495
 20
-25.41855115023665
 30
0.0
 41
1.0
 10
87.25474757288447
 20
-26.18406583396013
 30
0.0
 41
1.0
 10
88.60267338202943
 20
-26.66959633580262
 30
0.0
 41
1.0
  0
LINE
  5
E2
330
70
100
AcDbEntity
  8
sinclair sign final v1_Sketch1
100
AcDbLine
 10
91.30348091147888
 20
-4.852775030527697
 30
0.0
 11
91.33868924568643
 21
-6.311323720369911
 31
0.0
  0
SPLINE
  5
E3
330
70
100
AcDbEntity
  8
sinclair sign final v1_Sketch1
100
AcDbSpline
210
0.0
220
0.0
230
1.0
 70
    12
 71
     3
 72
     8
 73
     4
 74
     0
 42
0.000000001
 43
0.0000000001
 40
0.0
 40
0.0
 40
0.0
 40
0.0
 40
1.0
 40
1.0
 40
1.0
 40
1.0
 10
81.96874564240923
 20
-18.89137198201231
 30
0.0
 41
1.0
 10
81.74023388193599
 20
-19.07641174117141
 30
0.0
 41
1.0
 10
81.71098294208993
 20
-19.17055116215759
 30
0.0
 41
1.0
 10
81.81179891775597
 20
-19.39648958769852
 30
0.0
 41
1.0
  0
SPLINE
  5
E4
330
70
100
AcDbEntity
  8
sinclair sign final v1_Sketch1
100
AcDbSpline
210
0.0
220
0.0
230
1.0
 70
    12
 71
     3
 72
     8
 73
     4
 74
     0
 42
0.000000001
 43
0.0000000001
 40
0.0
 40
0.0
 40
0.0
 40
0.0
 40
1.0
 40
1.0
 40
1.0
 40
1.0
 10
91.36598872397888
 20
-15.78303518525178
 30
0.0
 41
1.0
 10
91.36598872397888
 20
-16.81257899275832
 30
0.0
 41
1.0
 10
91.3263986623143
 20
-17.14922614041383
 30
0.0
 41
1.0
 10
91.20532411216247
 20
-17.14922614041383
 30
0.0
 41
1.0
  0
SPLINE
  5
E5
330
70
100
AcDbEntity
  8
sinclair sign final v1_Sketch1
100
AcDbSpline
210
0.0
220
0.0
230
1.0
 70
    12
 71
     3
 72
     8
 73
     4
 74
     0
 42
0.000000001
 43
0.0000000001
 40
0.0
 40
0.0
 40
0.0
 40
0.0
 40
1.0
 40
1.0
 40
1.0
 40
1.0
 10
74.60832195840828
 20
-42.93810150757839
 30
0.0
 41
1.0
 10
74.21090576385015
 20
-41.02375969043779
 30
0.0
 41
1.0
 10
74.93272144340031
 20
-38.99286430445722
 30
0.0
 41
1.0
 10
76.2038306295728
 20
-38.44899406782199
 30
0.0
 41
1.0
  0
SPLINE
  5
E6
330
70
100
AcDbEntity
  8
sinclair sign final v1_Sketch1
100
AcDbSpline
210
0.0
220
0.0
230
1.0
 70
    12
 71
     3
 72
     8
 73
     4
 74
     0
 42
0.000000001
 43
0.0000000001
 40
0.0
 40
0.0
 40
0.0
 40
0.0
 40
1.0
 40
1.0
 40
1.0
 40
1.0
 10
88.17809028647888
 20
-13.25020977154786
 30
0.0
 41
1.0
 10
89.14071021746147
 20
-13.59337705174503
 30
0.0
 41
1.0
 10
90.25178620313155
 20
-13.99625562182482
 30
0.0
 41
1.0
 10
90.64714888022889
 20
-14.14549760237749
 30
0.0
 41
1.0
  0
LINE
  5
E7
330
70
100
AcDbEntity
  8
sinclair sign final v1_Sketch1
100
AcDbLine
 10
110.8990811478947
 20
-18.64940219489151
 30
0.0
 11
110.8475801126812
 21
-19.2119725073915
 31
0.0
  0
LINE
  5
E8
330
70
100
AcDbEntity
  8
sinclair sign final v1_Sketch1
100
AcDbLine
 10
91.24097309897889
 20
-37.30451432529502
 30
0.0
 11
91.24097309897889
 21
-38.72830868664792
 31
0.0
  0
LINE
  5
E9
330
70
100
AcDbEntity
  8
sinclair sign final v1_Sketch1
100
AcDbLine
 10
79.30198281906597
 20
-38.98261483923008
 30
0.0
 11
79.38647843371383
 21
-39.53610503736546
 31
0.0
  0
SPLINE
  5
EA
330
70
100
AcDbEntity
  8
sinclair sign final v1_Sketch1
100
AcDbSpline
210
0.0
220
0.0
230
1.0
 70
    12
 71
     3
 72
     8
 73
     4
 74
     0
 42
0.000000001
 43
0.0000000001
 40
0.0
 40
0.0
 40
0.0
 40
0.0
 40
1.0
 40
1.0
 40
1.0
 40
1.0
 10
87.07071501968851
 20
-30.64356561509185
 30
0.0
 41
1.0
 10
89.12370217131126
 20
-31.38977361026816
 30
0.0
 41
1.0
 10
90.90186707161414
 20
-32.04025507203154
 30
0.0
 41
1.0
 10
91.02219575522887
 20
-32.08907976261191
 30
0.0
 41
1.0
  0
SPLINE
  5
EB
330
70
100
AcDbEntity
  8
sinclair sign final v1_Sketch1
100
AcDbSpline
210
0.0
220
0.0
230
1.0
 70
    12
 71
     3
 72
     8
 73
     4
 74
     0
 42
0.000000001
 43
0.0000000001
 40
0.0
 40
0.0
 40
0.0
 40
0.0
 40
1.0
 40
1.0
 40
1.0
 40
1.0
 10
91.74103559897886
 20
12.73009577139794
 30
0.0
 41
1.0
 10
90.12520826433648
 20
13.14645335158289
 30
0.0
 41
1.0
 10
87.17171412371149
 20
13.90436820849356
 30
0.0
 41
1.0
 10
85.17771528647889
 20
14.41435016116079
 30
0.0
 41
1.0
  0
LINE
  5
EC
330
70
100
AcDbEntity
  8
sinclair sign final v1_Sketch1
100
AcDbLine
 10
110.4492873818729
 20
-14.99652559844072
 30
0.0
 11
110.874557208762
 21
-14.74560922804885
 31
0.0
  0
SPLINE
  5
ED
330
70
100
AcDbEntity
  8
sinclair sign final v1_Sketch1
100
AcDbSpline
210
0.0
220
0.0
230
1.0
 70
    12
 71
     3
 72
     8
 73
     4
 74
     0
 42
0.000000001
 43
0.0000000001
 40
0.0
 40
0.0
 40
0.0
 40
0.0
 40
1.0
 40
1.0
 40
1.0
 40
1.0
 10
101.6845162327145
 20
-14.62326422492081
 30
0.0
 41
1.0
 10
102.8209383275364
 20
-13.11766299286898
 30
0.0
 41
1.0
 10
102.8867806022022
 20
-12.3208562511545
 30
0.0
 41
1.0
 10
101.9580184337948
 20
-11.31326877060946
 30
0.0
 41
1.0
  0
LINE
  5
EE
330
70
100
AcDbEntity
  8
sinclair sign final v1_Sketch1
100
AcDbLine
 10
107.6171234080647
 20
-13.6385906800371
 30
0.0
 11
108.3989212548588
 21
-13.26873625699098
 31
0.0
  0
LINE
  5
EF
330
70
100
AcDbEntity
  8
sinclair sign final v1_Sketch1
100
AcDbLine
 10
79.86455122397891
 20
-0.7780012210947092
 30
0.0
 11
81.95856294272891
 21
-1.513227237616159
 31
0.0
  0
SPLINE
  5
F0
330
70
100
AcDbEntity
  8
sinclair sign final v1_Sketch1
100
AcDbSpline
210
0.0
220
0.0
230
1.0
 70
    12
 71
     3
 72
     8
 73
     4
 74
     0
 42
0.000000001
 43
0.0000000001
 40
0.0
 40
0.0
 40
0.0
 40
0.0
 40
1.0
 40
1.0
 40
1.0
 40
1.0
 10
85.17771528647889
 20
14.41435016116079
 30
0.0
 41
1.0
 10
83.1837164492463
 20
14.92433211382807
 30
0.0
 41
1.0
 10
80.31460728322022
 20
15.65927199229181
 30
0.0
 41
1.0
 10
78.8019184114789
 20
16.04754226073201
 30
0.0
 41
1.0
  0
SPLINE
  5
F1
330
70
100
AcDbEntity
  8
sinclair sign final v1_Sketch1
100
AcDbSpline
210
0.0
220
0.0
230
1.0
 70
    12
 71
     3
 72
     8
 73
     4
 74
     0
 42
0.000000001
 43
0.0000000001
 40
0.0
 40
0.0
 40
0.0
 40
0.0
 40
1.0
 40
1.0
 40
1.0
 40
1.0
 10
97.73675338433731
 20
-7.197230038080777
 30
0.0
 41
1.0
 10
97.90375500033844
 20
-7.636474847708331
 30
0.0
 41
1.0
 10
98.59997849200713
 20
-7.95580873528536
 30
0.0
 41
1.0
 10
100.3242960250233
 20
-8.384031506929966
 30
0.0
 41
1.0
  0
LINE
  5
F2
330
70
100
AcDbEntity
  8
sinclair sign final v1_Sketch1
100
AcDbLine
 10
74.8588224748229
 20
-11.33599957791384
 30
0.0
 11
74.87521150897496
 21
-9.990906535540208
 31
0.0
  0
SPLINE
  5
F3
330
70
100
AcDbEntity
  8
sinclair sign final v1_Sketch1
100
AcDbSpline
210
0.0
220
0.0
230
1.0
 70
    12
 71
     3
 72
     8
 73
     4
 74
     0
 42
0.000000001
 43
0.0000000001
 40
0.0
 40
0.0
 40
0.0
 40
0.0
 40
1.0
 40
1.0
 40
1.0
 40
1.0
 10
119.2394866664265
 20
-17.06860769644792
 30
0.0
 41
1.0
 10
119.0304723532055
 20
-15.84091137639101
 30
0.0
 41
1.0
 10
118.6992923500393
 20
-13.85193521586473
 30
0.0
 41
1.0
 10
118.5035357668255
 20
-12.64865982523974
 30
0.0
 41
1.0
  0
SPLINE
  5
F4
330
70
100
AcDbEntity
  8
sinclair sign final v1_Sketch1
100
AcDbSpline
210
0.0
220
0.0
230
1.0
 70
    12
 71
     3
 72
     8
 73
     4
 74
     0
 42
0.000000001
 43
0.0000000001
 40
0.0
 40
0.0
 40
0.0
 40
0.0
 40
1.0
 40
1.0
 40
1.0
 40
1.0
 10
97.92931285165298
 20
-5.946947887335396
 30
0.0
 41
1.0
 10
98.19255986474502
 20
-5.840424411211599
 30
0.0
 41
1.0
 10
98.16255352042665
 20
-6.05687831393299
 30
0.0
 41
1.0
 10
97.86680503915301
 20
-6.397878575239736
 30
0.0
 41
1.0
  0
SPLINE
  5
F5
330
70
100
AcDbEntity
  8
sinclair sign final v1_Sketch1
100
AcDbSpline
210
0.0
220
0.0
230
1.0
 70
    12
 71
     3
 72
     8
 73
     4
 74
     0
 42
0.000000001
 43
0.0000000001
 40
0.0
 40
0.0
 40
0.0
 40
0.0
 40
1.0
 40
1.0
 40
1.0
 40
1.0
 10
91.02219575522887
 20
-32.08907976261191
 30
0.0
 41
1.0
 10
91.21265115402687
 20
-32.16635992923786
 30
0.0
 41
1.0
 10
91.24097309897889
 20
-32.36319048396161
 30
0.0
 41
1.0
 10
91.24097309897889
 20
-33.60953537503292
 30
0.0
 41
1.0
  0
SPLINE
  5
F6
330
70
100
AcDbEntity
  8
sinclair sign final v1_Sketch1
100
AcDbSpline
210
0.0
220
0.0
230
1.0
 70
    12
 71
     3
 72
     8
 73
     4
 74
     0
 42
0.000000001
 43
0.0000000001
 40
0.0
 40
0.0
 40
0.0
 40
0.0
 40
1.0
 40
1.0
 40
1.0
 40
1.0
 10
85.59587553642741
 20
-32.97503949276022
 30
0.0
 41
1.0
 10
82.61554355357636
 20
-31.91556755200438
 30
0.0
 41
1.0
 10
80.07863971875659
 20
-31.00945797983221
 30
0.0
 41
1.0
 10
79.95831198893539
 20
-30.96146118203214
 30
0.0
 41
1.0
  0
SPLINE
  5
F7
330
70
100
AcDbEntity
  8
sinclair sign final v1_Sketch1
100
AcDbSpline
210
0.0
220
0.0
230
1.0
 70
    12
 71
     3
 72
     8
 73
     4
 74
     0
 42
0.000000001
 43
0.0000000001
 40
0.0
 40
0.0
 40
0.0
 40
0.0
 40
1.0
 40
1.0
 40
1.0
 40
1.0
 10
82.69085127519122
 20
-4.64766364041384
 30
0.0
 41
1.0
 10
82.42604767106524
 20
-4.64766364041384
 30
0.0
 41
1.0
 10
81.98981684897891
 20
-5.144292483721367
 30
0.0
 41
1.0
 10
81.98981684897891
 20
-5.445759910975091
 30
0.0
 41
1.0
  0
SPLINE
  5
F8
330
70
100
AcDbEntity
  8
sinclair sign final v1_Sketch1
100
AcDbSpline
210
0.0
220
0.0
230
1.0
 70
    12
 71
     3
 72
     8
 73
     4
 74
     0
 42
0.000000001
 43
0.0000000001
 40
0.0
 40
0.0
 40
0.0
 40
0.0
 40
1.0
 40
1.0
 40
1.0
 40
1.0
 10
116.1744788019512
 20
0.7905198622602398
 30
0.0
 41
1.0
 10
115.8577850148533
 20
2.647002656545042
 30
0.0
 41
1.0
 10
115.4986359703396
 20
4.745920689191212
 30
0.0
 41
1.0
 10
115.3763749010418
 20
5.45479529818473
 30
0.0
 41
1.0
  0
LINE
  5
F9
330
70
100
AcDbEntity
  8
sinclair sign final v1_Sketch1
100
AcDbLine
 10
82.92743403647888
 20
-16.13808291760499
 30
0.0
 11
83.55251216147889
 21
-16.35771486035401
 31
0.0
  0
SPLINE
  5
FA
330
70
100
AcDbEntity
  8
sinclair sign final v1_Sketch1
100
AcDbSpline
210
0.0
220
0.0
230
1.0
 70
    12
 71
     3
 72
     8
 73
     4
 74
     0
 42
0.000000001
 43
0.0000000001
 40
0.0
 40
0.0
 40
0.0
 40
0.0
 40
1.0
 40
1.0
 40
1.0
 40
1.0
 10
89.24072309897887
 20
-7.457505030546759
 30
0.0
 41
1.0
 10
89.24072309897887
 20
-7.371255389605143
 30
0.0
 41
1.0
 10
89.14227253125657
 20
-7.190942631159392
 30
0.0
 41
1.0
 10
89.02194575522889
 20
-7.05680874005375
 30
0.0
 41
1.0
  0
SPLINE
  5
FB
330
70
100
AcDbEntity
  8
sinclair sign final v1_Sketch1
100
AcDbSpline
210
0.0
220
0.0
230
1.0
 70
    12
 71
     3
 72
     8
 73
     4
 74
     0
 42
0.000000001
 43
0.0000000001
 40
0.0
 40
0.0
 40
0.0
 40
0.0
 40
1.0
 40
1.0
 40
1.0
 40
1.0
 10
82.7856335530137
 20
10.97094188364923
 30
0.0
 41
1.0
 10
82.84515980695237
 20
10.91836115416467
 30
0.0
 41
1.0
 10
82.80296779654969
 20
10.74557191904963
 30
0.0
 41
1.0
 10
82.69187183426371
 20
10.58695987090049
 30
0.0
 41
1.0
  0
SPLINE
  5
FC
330
70
100
AcDbEntity
  8
sinclair sign final v1_Sketch1
100
AcDbSpline
210
0.0
220
0.0
230
1.0
 70
    12
 71
     3
 72
     8
 73
     4
 74
     0
 42
0.000000001
 43
0.0000000001
 40
0.0
 40
0.0
 40
0.0
 40
0.0
 40
1.0
 40
1.0
 40
1.0
 40
1.0
 10
117.0582104704235
 20
-4.210105137739748
 30
0.0
 41
1.0
 10
116.888854892001
 20
-3.316244182024567
 30
0.0
 41
1.0
 10
116.4911725890491
 20
-1.065962932024578
 30
0.0
 41
1.0
 10
116.1744788019512
 20
0.7905198622602398
 30
0.0
 41
1.0
  0
SPLINE
  5
FD
330
70
100
AcDbEntity
  8
sinclair sign final v1_Sketch1
100
AcDbSpline
210
0.0
220
0.0
230
1.0
 70
    12
 71
     3
 72
     8
 73
     4
 74
     0
 42
0.000000001
 43
0.0000000001
 40
0.0
 40
0.0
 40
0.0
 40
0.0
 40
1.0
 40
1.0
 40
1.0
 40
1.0
 10
79.78677508471958
 20
-28.15060114041381
 30
0.0
 41
1.0
 10
79.81275737415305
 20
-28.15060114041381
 30
0.0
 41
1.0
 10
80.03597748814575
 20
-28.23498516121917
 30
0.0
 41
1.0
 10
80.28282211397639
 20
-28.33812457791381
 30
0.0
 41
1.0
  0
SPLINE
  5
FE
330
70
100
AcDbEntity
  8
sinclair sign final v1_Sketch1
100
AcDbSpline
210
0.0
220
0.0
230
1.0
 70
    12
 71
     3
 72
     8
 73
     4
 74
     0
 42
0.000000001
 43
0.0000000001
 40
0.0
 40
0.0
 40
0.0
 40
0.0
 40
1.0
 40
1.0
 40
1.0
 40
1.0
 10
79.5065152565097
 20
-17.38665968552644
 30
0.0
 41
1.0
 10
79.67231223128788
 20
-16.89058022728974
 30
0.0
 41
1.0
 10
80.16035788665764
 20
-16.32585052624758
 30
0.0
 41
1.0
 10
80.6396915919637
 20
-16.07543394366318
 30
0.0
 41
1.0
  0
SPLINE
  5
FF
330
70
100
AcDbEntity
  8
sinclair sign final v1_Sketch1
100
AcDbSpline
210
0.0
220
0.0
230
1.0
 70
    12
 71
     3
 72
     8
 73
     4
 74
     0
 42
0.000000001
 43
0.0000000001
 40
0.0
 40
0.0
 40
0.0
 40
0.0
 40
1.0
 40
1.0
 40
1.0
 40
1.0
 10
107.0170155975674
 20
-32.55364015999845
 30
0.0
 41
1.0
 10
106.7195159513806
 20
-33.35115461650899
 30
0.0
 41
1.0
 10
106.445113369212
 20
-33.4217467829328
 30
0.0
 41
1.0
 10
106.3949361994122
 20
-32.7136714529138
 30
0.0
 41
1.0
  0
SPLINE
  5
100
330
70
100
AcDbEntity
  8
sinclair sign final v1_Sketch1
100
AcDbSpline
210
0.0
220
0.0
230
1.0
 70
    12
 71
     3
 72
     8
 73
     4
 74
     0
 42
0.000000001
 43
0.0000000001
 40
0.0
 40
0.0
 40
0.0
 40
0.0
 40
1.0
 40
1.0
 40
1.0
 40
1.0
 10
99.39603364442335
 20
-9.741844339762305
 30
0.0
 41
1.0
 10
97.17094398902405
 20
-8.643470976267431
 30
0.0
 41
1.0
 10
96.45388964675415
 20
-8.052847688589668
 30
0.0
 41
1.0
 10
96.29093593047606
 20
-7.184231739912593
 30
0.0
 41
1.0
  0
SPLINE
  5
101
330
70
100
AcDbEntity
  8
sinclair sign final v1_Sketch1
100
AcDbSpline
210
0.0
220
0.0
230
1.0
 70
    12
 71
     3
 72
     8
 73
     4
 74
     0
 42
0.000000001
 43
0.0000000001
 40
0.0
 40
0.0
 40
0.0
 40
0.0
 40
1.0
 40
1.0
 40
1.0
 40
1.0
 10
81.98981684897891
 20
-5.445759910975091
 30
0.0
 41
1.0
 10
81.98981684897891
 20
-5.60432236186086
 30
0.0
 41
1.0
 10
82.08831510637748
 20
-5.823191269789317
 30
0.0
 41
1.0
 10
82.20869911001672
 20
-5.932137381468372
 30
0.0
 41
1.0
  0
SPLINE
  5
102
330
70
100
AcDbEntity
  8
sinclair sign final v1_Sketch1
100
AcDbSpline
210
0.0
220
0.0
230
1.0
 70
    12
 71
     3
 72
     8
 73
     4
 74
     0
 42
0.000000001
 43
0.0000000001
 40
0.0
 40
0.0
 40
0.0
 40
0.0
 40
1.0
 40
1.0
 40
1.0
 40
1.0
 10
108.0837382767056
 20
-16.64795041504912
 30
0.0
 41
1.0
 10
107.9811329843853
 20
-16.64922468319945
 30
0.0
 41
1.0
 10
107.8313721401547
 20
-16.99759967604691
 30
0.0
 41
1.0
 10
107.7004697015141
 20
-17.53952226630264
 30
0.0
 41
1.0
  0
LINE
  5
103
330
70
100
AcDbEntity
  8
sinclair sign final v1_Sketch1
100
AcDbLine
 10
79.86455122397891
 20
-2.187654639635661
 30
0.0
 11
79.86455122397891
 21
-0.7780012210947092
 31
0.0
  0
LINE
  5
104
330
70
100
AcDbEntity
  8
sinclair sign final v1_Sketch1
100
AcDbLine
 10
79.92705903647891
 20
1.421072762097726
 30
0.0
 11
79.8917104946231
 21
2.824759248341941
 31
0.0
  0
LINE
  5
105
330
70
100
AcDbEntity
  8
sinclair sign final v1_Sketch1
100
AcDbLine
 10
79.86455122397891
 20
9.006142481412283
 30
0.0
 11
80.16547594271651
 21
8.930617294873592
 31
0.0
  0
SPLINE
  5
106
330
70
100
AcDbEntity
  8
sinclair sign final v1_Sketch1
100
AcDbSpline
210
0.0
220
0.0
230
1.0
 70
    12
 71
     3
 72
     8
 73
     4
 74
     0
 42
0.000000001
 43
0.0000000001
 40
0.0
 40
0.0
 40
0.0
 40
0.0
 40
1.0
 40
1.0
 40
1.0
 40
1.0
 10
80.86467717777244
 20
-8.330569472227651
 30
0.0
 41
1.0
 10
80.25936642359248
 20
-8.020399632845499
 30
0.0
 41
1.0
 10
79.87363324593059
 20
-7.474986158285719
 30
0.0
 41
1.0
 10
79.66678785918706
 20
-6.636788592730146
 30
0.0
 41
1.0
  0
SPLINE
  5
107
330
70
100
AcDbEntity
  8
sinclair sign final v1_Sketch1
100
AcDbSpline
210
0.0
220
0.0
230
1.0
 70
    12
 71
     3
 72
     8
 73
     4
 74
     0
 42
0.000000001
 43
0.0000000001
 40
0.0
 40
0.0
 40
0.0
 40
0.0
 40
1.0
 40
1.0
 40
1.0
 40
1.0
 10
91.32758899663437
 20
0.2279457345861226
 30
0.0
 41
1.0
 10
91.34870980046738
 20
0.2279457345861226
 30
0.0
 41
1.0
 10
91.36598872397888
 20
-0.4162769340616258
 30
0.0
 41
1.0
 10
91.36598872397888
 20
-1.203664010916323
 30
0.0
 41
1.0
  0
SPLINE
  5
108
330
70
100
AcDbEntity
  8
sinclair sign final v1_Sketch1
100
AcDbSpline
210
0.0
220
0.0
230
1.0
 70
    12
 71
     3
 72
     8
 73
     4
 74
     0
 42
0.000000001
 43
0.0000000001
 40
0.0
 40
0.0
 40
0.0
 40
0.0
 40
1.0
 40
1.0
 40
1.0
 40
1.0
 10
91.24097309897889
 20
-38.72830868664792
 30
0.0
 41
1.0
 10
91.24097309897889
 20
-39.51139606228878
 30
0.0
 41
1.0
 10
91.19878108857619
 20
-40.15216218319942
 30
0.0
 41
1.0
 10
91.1472113802289
 20
-40.15223848668147
 30
0.0
 41
1.0
  0
SPLINE
  5
109
330
70
100
AcDbEntity
  8
sinclair sign final v1_Sketch1
100
AcDbSpline
210
0.0
220
0.0
230
1.0
 70
    12
 71
     3
 72
     8
 73
     4
 74
     0
 42
0.000000001
 43
0.0000000001
 40
0.0
 40
0.0
 40
0.0
 40
0.0
 40
1.0
 40
1.0
 40
1.0
 40
1.0
 10
91.38613665841567
 20
-23.46251520291382
 30
0.0
 41
1.0
 10
90.89377127216804
 20
-24.4879729589563
 30
0.0
 41
1.0
 10
89.88489044760219
 20
-25.11471068469099
 30
0.0
 41
1.0
 10
88.9402075576638
 20
-24.98196933213288
 30
0.0
 41
1.0
  0
SPLINE
  5
10A
330
70
100
AcDbEntity
  8
sinclair sign final v1_Sketch1
100
AcDbSpline
210
0.0
220
0.0
230
1.0
 70
    12
 71
     3
 72
     8
 73
     4
 74
     0
 42
0.000000001
 43
0.0000000001
 40
0.0
 40
0.0
 40
0.0
 40
0.0
 40
1.0
 40
1.0
 40
1.0
 40
1.0
 10
100.3242960250233
 20
-8.384031506929966
 30
0.0
 41
1.0
 10
102.9900421044682
 20
-9.046055777941305
 30
0.0
 41
1.0
 10
104.0217529308651
 20
-9.507916939650137
 30
0.0
 41
1.0
 10
105.2218998787258
 20
-10.57650905409869
 30
0.0
 41
1.0
  0
LINE
  5
10B
330
70
100
AcDbEntity
  8
sinclair sign final v1_Sketch1
100
AcDbLine
 10
88.09506446765412
 20
-20.77561779824311
 30
0.0
 11
87.17796910165299
 21
-20.44403720179609
 31
0.0
  0
SPLINE
  5
10C
330
70
100
AcDbEntity
  8
sinclair sign final v1_Sketch1
100
AcDbSpline
210
0.0
220
0.0
230
1.0
 70
    12
 71
     3
 72
     8
 73
     4
 74
     0
 42
0.000000001
 43
0.0000000001
 40
0.0
 40
0.0
 40
0.0
 40
0.0
 40
1.0
 40
1.0
 40
1.0
 40
1.0
 10
83.80090288661468
 20
8.005284967984561
 30
0.0
 41
1.0
 10
84.10817700885287
 20
7.814030290212043
 30
0.0
 41
1.0
 10
85.93602310632219
 20
7.097387986745223
 30
0.0
 41
1.0
 10
87.86278522275436
 20
6.41273973330437
 30
0.0
 41
1.0
  0
SPLINE
  5
10D
330
70
100
AcDbEntity
  8
sinclair sign final v1_Sketch1
100
AcDbSpline
210
0.0
220
0.0
230
1.0
 70
    12
 71
     3
 72
     8
 73
     4
 74
     0
 42
0.000000001
 43
0.0000000001
 40
0.0
 40
0.0
 40
0.0
 40
0.0
 40
1.0
 40
1.0
 40
1.0
 40
1.0
 10
80.16547594271651
 20
8.930617294873592
 30
0.0
 41
1.0
 10
80.33098391805641
 20
8.889077679242463
 30
0.0
 41
1.0
 10
80.57007611011021
 20
8.818428285207136
 30
0.0
 41
1.0
 10
80.69679234896652
 20
8.773622880544062
 30
0.0
 41
1.0
  0
SPLINE
  5
10E
330
70
100
AcDbEntity
  8
sinclair sign final v1_Sketch1
100
AcDbSpline
210
0.0
220
0.0
230
1.0
 70
    12
 71
     3
 72
     8
 73
     4
 74
     0
 42
0.000000001
 43
0.0000000001
 40
0.0
 40
0.0
 40
0.0
 40
0.0
 40
1.0
 40
1.0
 40
1.0
 40
1.0
 10
78.8019184114789
 20
16.04754226073201
 30
0.0
 41
1.0
 10
76.44746669398299
 20
16.65188109930928
 30
0.0
 41
1.0
 10
75.94637695835581
 20
16.74290352305352
 30
0.0
 41
1.0
 10
75.32074372552386
 20
16.67991499861656
 30
0.0
 41
1.0
  0
SPLINE
  5
10F
330
70
100
AcDbEntity
  8
sinclair sign final v1_Sketch1
100
AcDbSpline
210
0.0
220
0.0
230
1.0
 70
    12
 71
     3
 72
     8
 73
     4
 74
     0
 42
0.000000001
 43
0.0000000001
 40
0.0
 40
0.0
 40
0.0
 40
0.0
 40
1.0
 40
1.0
 40
1.0
 40
1.0
 10
119.6059226934765
 20
-19.381400574122
 30
0.0
 41
1.0
 10
119.6134004347179
 20
-19.33706443587357
 30
0.0
 41
1.0
 10
119.4485047948215
 20
-18.29630783167892
 30
0.0
 41
1.0
 10
119.2394866664265
 20
-17.06860769644792
 30
0.0
 41
1.0
  0
LINE
  5
110
330
70
100
AcDbEntity
  8
sinclair sign final v1_Sketch1
100
AcDbLine
 10
80.72738336871614
 20
-3.909309181128127
 30
0.0
 11
80.29596825014106
 21
-3.753306712065314
 31
0.0
  0
SPLINE
  5
111
330
70
100
AcDbEntity
  8
sinclair sign final v1_Sketch1
100
AcDbSpline
210
0.0
220
0.0
230
1.0
 70
    12
 71
     3
 72
     8
 73
     4
 74
     0
 42
0.000000001
 43
0.0000000001
 40
0.0
 40
0.0
 40
0.0
 40
0.0
 40
1.0
 40
1.0
 40
1.0
 40
1.0
 10
79.61451997397891
 20
10.74799836977899
 30
0.0
 41
1.0
 10
79.61451997397891
 20
11.27191333826957
 30
0.0
 41
1.0
 10
80.05611016188613
 20
11.7293832345861
 30
0.0
 41
1.0
 10
80.56184487198343
 20
11.7293832345861
 30
0.0
 41
1.0
  0
SPLINE
  5
112
330
70
100
AcDbEntity
  8
sinclair sign final v1_Sketch1
100
AcDbSpline
210
0.0
220
0.0
230
1.0
 70
    12
 71
     3
 72
     8
 73
     4
 74
     0
 42
0.000000001
 43
0.0000000001
 40
0.0
 40
0.0
 40
0.0
 40
0.0
 40
1.0
 40
1.0
 40
1.0
 40
1.0
 10
88.6781527864789
 20
-39.28699324432424
 30
0.0
 41
1.0
 10
87.37173988674632
 20
-38.81103501430562
 30
0.0
 41
1.0
 10
85.2621012148713
 20
-38.04888149896672
 30
0.0
 41
1.0
 10
83.99006684897889
 20
-37.59331918970158
 30
0.0
 41
1.0
  0
LINE
  5
113
330
70
100
AcDbEntity
  8
sinclair sign final v1_Sketch1
100
AcDbLine
 10
79.86455122397891
 20
6.376663446988437
 30
0.0
 11
79.86455122397891
 21
7.691402964200362
 31
0.0
  0
SPLINE
  5
114
330
70
100
AcDbEntity
  8
sinclair sign final v1_Sketch1
100
AcDbSpline
210
0.0
220
0.0
230
1.0
 70
    12
 71
     3
 72
     8
 73
     4
 74
     0
 42
0.000000001
 43
0.0000000001
 40
0.0
 40
0.0
 40
0.0
 40
0.0
 40
1.0
 40
1.0
 40
1.0
 40
1.0
 10
80.45056387375344
 20
-27.9943316091638
 30
0.0
 41
1.0
 10
79.25247139714709
 20
-26.51686728611998
 30
0.0
 41
1.0
 10
79.09599298511499
 20
-25.18340289441162
 30
0.0
 41
1.0
 10
80.03652687321654
 20
-24.46602044716889
 30
0.0
 41
1.0
  0
LINE
  5
115
330
70
100
AcDbEntity
  8
sinclair sign final v1_Sketch1
100
AcDbLine
 10
107.4355211207722
 20
-13.20395078555163
 30
0.0
 11
107.6171234080647
 21
-13.6385906800371
 31
0.0
  0
SPLINE
  5
116
330
70
100
AcDbEntity
  8
sinclair sign final v1_Sketch1
100
AcDbSpline
210
0.0
220
0.0
230
1.0
 70
    12
 71
     3
 72
     8
 73
     4
 74
     0
 42
0.000000001
 43
0.0000000001
 40
0.0
 40
0.0
 40
0.0
 40
0.0
 40
1.0
 40
1.0
 40
1.0
 40
1.0
 10
79.95421639953605
 20
-33.2095582448583
 30
0.0
 41
1.0
 10
80.43406133817187
 20
-33.39949859515242
 30
0.0
 41
1.0
 10
81.56929691384782
 20
-33.81324468866399
 30
0.0
 41
1.0
 10
85.11520747397891
 20
-35.09052110377363
 30
0.0
 41
1.0
  0
SPLINE
  5
117
330
70
100
AcDbEntity
  8
sinclair sign final v1_Sketch1
100
AcDbSpline
210
0.0
220
0.0
230
1.0
 70
    12
 71
     3
 72
     8
 73
     4
 74
     0
 42
0.000000001
 43
0.0000000001
 40
0.3051771051065963
 40
0.3051771051065963
 40
0.3051771051065963
 40
0.3051771051065963
 40
1.0
 40
1.0
 40
1.0
 40
1.0
 10
91.43841048974641
 20
-8.847897519962074
 30
0.0
 41
1.0
 10
91.61363318329941
 20
-9.443706328469076
 30
0.0
 41
1.0
 10
91.65593970660863
 20
-10.11768357212315
 30
0.0
 41
1.0
 10
91.50256432651032
 20
-10.47108434811648
 30
0.0
 41
1.0
  0
LINE
  5
118
330
70
100
AcDbEntity
  8
sinclair sign final v1_Sketch1
100
AcDbLine
 10
109.8972087981556
 20
-18.04535712472015
 30
0.0
 11
110.2950093715046
 21
-17.65979562989287
 31
0.0
  0
SPLINE
  5
119
330
70
100
AcDbEntity
  8
sinclair sign final v1_Sketch1
100
AcDbSpline
210
0.0
220
0.0
230
1.0
 70
    12
 71
     3
 72
     8
 73
     4
 74
     0
 42
0.000000001
 43
0.0000000001
 40
0.0
 40
0.0
 40
0.0
 40
0.0
 40
1.0
 40
1.0
 40
1.0
 40
1.0
 10
80.28282211397639
 20
-28.33812457791381
 30
0.0
 41
1.0
 10
80.92126097868435
 20
-28.60488155118041
 30
0.0
 41
1.0
 10
80.93042788825981
 20
-28.5860918187242
 30
0.0
 41
1.0
 10
80.45056387375344
 20
-27.9943316091638
 30
0.0
 41
1.0
  0
SPLINE
  5
11A
330
70
100
AcDbEntity
  8
sinclair sign final v1_Sketch1
100
AcDbSpline
210
0.0
220
0.0
230
1.0
 70
    12
 71
     3
 72
     8
 73
     4
 74
     0
 42
0.000000001
 43
0.0000000001
 40
0.0
 40
0.0
 40
0.0
 40
0.0
 40
1.0
 40
1.0
 40
1.0
 40
1.0
 10
110.2950093715046
 20
-17.65979562989287
 30
0.0
 41
1.0
 10
110.7645695545528
 20
-17.20467969599776
 30
0.0
 41
1.0
 10
110.9245092832897
 20
-17.17129310742432
 30
0.0
 41
1.0
 10
110.8257344257687
 20
-17.54901060429626
 30
0.0
 41
1.0
  0
SPLINE
  5
11B
330
70
100
AcDbEntity
  8
sinclair sign final v1_Sketch1
100
AcDbSpline
210
0.0
220
0.0
230
1.0
 70
    12
 71
     3
 72
     8
 73
     4
 74
     0
 42
0.000000001
 43
0.0000000001
 40
0.0
 40
0.0
 40
0.0
 40
0.0
 40
1.0
 40
1.0
 40
1.0
 40
1.0
 10
100.0133326294278
 20
-19.4027846249681
 30
0.0
 41
1.0
 10
99.93420210336196
 20
-17.43268213072828
 30
0.0
 41
1.0
 10
100.2537267496441
 20
-16.51885255375917
 30
0.0
 41
1.0
 10
101.6845162327145
 20
-14.62326422492081
 30
0.0
 41
1.0
  0
LINE
  5
11C
330
70
100
AcDbEntity
  8
sinclair sign final v1_Sketch1
100
AcDbLine
 10
107.7004697015141
 20
-17.53952226630264
 30
0.0
 11
107.6212895781849
 21
-17.86731821003968
 31
0.0
  0
LINE
  5
11D
330
70
100
AcDbEntity
  8
sinclair sign final v1_Sketch1
100
AcDbLine
 10
91.36598872397888
 20
-1.203664010916323
 30
0.0
 11
91.36598872397888
 21
-2.635273756418804
 31
0.0
  0
SPLINE
  5
11E
330
70
100
AcDbEntity
  8
sinclair sign final v1_Sketch1
100
AcDbSpline
210
0.0
220
0.0
230
1.0
 70
    12
 71
     3
 72
     8
 73
     4
 74
     0
 42
0.000000001
 43
0.0000000001
 40
0.0
 40
0.0
 40
0.0
 40
0.0
 40
1.0
 40
1.0
 40
1.0
 40
1.0
 10
82.20869911001672
 20
-5.932137381468372
 30
0.0
 41
1.0
 10
82.42746691583148
 20
-6.130122026358228
 30
0.0
 41
1.0
 10
88.23644337438095
 20
-8.273116765413847
 30
0.0
 41
1.0
 10
88.55434084890831
 20
-8.273116765413847
 30
0.0
 41
1.0
  0
SPLINE
  5
11F
330
70
100
AcDbEntity
  8
sinclair sign final v1_Sketch1
100
AcDbSpline
210
0.0
220
0.0
230
1.0
 70
    12
 71
     3
 72
     8
 73
     4
 74
     0
 42
0.000000001
 43
0.0000000001
 40
0.0
 40
0.0
 40
0.0
 40
0.0
 40
1.0
 40
1.0
 40
1.0
 40
1.0
 10
91.36598872397888
 20
3.747192042912836
 30
0.0
 41
1.0
 10
91.36598872397888
 20
2.44506549128474
 30
0.0
 41
1.0
 10
91.34772357796178
 20
2.333555582608584
 30
0.0
 41
1.0
 10
91.14721138022886
 20
2.411476698483832
 30
0.0
 41
1.0
  0
SPLINE
  5
120
330
70
100
AcDbEntity
  8
sinclair sign final v1_Sketch1
100
AcDbSpline
210
0.0
220
0.0
230
1.0
 70
    12
 71
     3
 72
     8
 73
     4
 74
     0
 42
0.000000001
 43
0.0000000001
 40
0.0
 40
0.0
 40
0.0
 40
0.0
 40
1.0
 40
1.0
 40
1.0
 40
1.0
 10
82.48987934897892
 20
-11.20991951933916
 30
0.0
 41
1.0
 10
84.65577467058649
 20
-11.98891321316773
 30
0.0
 41
1.0
 10
87.21547035549631
 20
-12.90704249135074
 30
0.0
 41
1.0
 10
88.17809028647888
 20
-13.25020977154786
 30
0.0
 41
1.0
  0
SPLINE
  5
121
330
70
100
AcDbEntity
  8
sinclair sign final v1_Sketch1
100
AcDbSpline
210
0.0
220
0.0
230
1.0
 70
    12
 71
     3
 72
     8
 73
     4
 74
     0
 42
0.000000001
 43
0.0000000001
 40
0.0
 40
0.0
 40
0.0
 40
0.0
 40
1.0
 40
1.0
 40
1.0
 40
1.0
 10
91.26799788473595
 20
-29.0569644216638
 30
0.0
 41
1.0
 10
91.24848136161316
 20
-29.79612006751113
 30
0.0
 41
1.0
 10
91.19222471188058
 20
-30.40084042349866
 30
0.0
 41
1.0
 10
91.14298225973595
 20
-30.40079082623534
 30
0.0
 41
1.0
  0
SPLINE
  5
122
330
70
100
AcDbEntity
  8
sinclair sign final v1_Sketch1
100
AcDbSpline
210
0.0
220
0.0
230
1.0
 70
    12
 71
     3
 72
     8
 73
     4
 74
     0
 42
0.000000001
 43
0.0000000001
 40
0.0
 40
0.0
 40
0.0
 40
0.0
 40
1.0
 40
1.0
 40
1.0
 40
1.0
 10
85.11520747397891
 20
-35.09052110377363
 30
0.0
 41
1.0
 10
87.14358675263872
 20
-35.82116509619764
 30
0.0
 41
1.0
 10
89.35167408464897
 20
-36.61821410146764
 30
0.0
 41
1.0
 10
90.02207075522887
 20
-36.8617404796224
 30
0.0
 41
1.0
  0
LINE
  5
123
330
70
100
AcDbEntity
  8
sinclair sign final v1_Sketch1
100
AcDbLine
 10
76.14278498254768
 20
-11.79229058543262
 30
0.0
 11
74.8588224748229
 21
-11.33599957791384
 31
0.0
  0
SPLINE
  5
124
330
70
100
AcDbEntity
  8
sinclair sign final v1_Sketch1
100
AcDbSpline
210
0.0
220
0.0
230
1.0
 70
    12
 71
     3
 72
     8
 73
     4
 74
     0
 42
0.000000001
 43
0.0000000001
 40
0.0
 40
0.0
 40
0.0
 40
0.0
 40
1.0
 40
1.0
 40
1.0
 40
1.0
 10
81.17721528647891
 20
-54.54563327661561
 30
0.0
 41
1.0
 10
85.93048919628612
 20
-53.25603003397988
 30
0.0
 41
1.0
 10
92.70191962574472
 20
-51.44280940643358
 30
0.0
 41
1.0
 10
95.05394966147887
 20
-50.82978723159836
 30
0.0
 41
1.0
  0
SPLINE
  5
125
330
70
100
AcDbEntity
  8
sinclair sign final v1_Sketch1
100
AcDbSpline
210
0.0
220
0.0
230
1.0
 70
    12
 71
     3
 72
     8
 73
     4
 74
     0
 42
0.000000001
 43
0.0000000001
 40
0.0
 40
0.0
 40
0.0
 40
0.0
 40
1.0
 40
1.0
 40
1.0
 40
1.0
 10
109.9796585256909
 20
-12.45991553202683
 30
0.0
 41
1.0
 10
110.538524304137
 20
-12.01565758362825
 30
0.0
 41
1.0
 10
110.9934456641529
 20
-11.89278608647402
 30
0.0
 41
1.0
 10
110.9934456641529
 20
-12.18609667149599
 30
0.0
 41
1.0
  0
SPLINE
  5
126
330
70
100
AcDbEntity
  8
sinclair sign final v1_Sketch1
100
AcDbSpline
210
0.0
220
0.0
230
1.0
 70
    12
 71
     3
 72
     8
 73
     4
 74
     0
 42
0.000000001
 43
0.0000000001
 40
0.0
 40
0.0
 40
0.0
 40
0.0
 40
1.0
 40
1.0
 40
1.0
 40
1.0
 10
77.96947508226387
 20
-43.13357386032154
 30
0.0
 41
1.0
 10
78.41909048889629
 20
-43.55311138812113
 30
0.0
 41
1.0
 10
79.39034702025406
 20
-43.90399104276704
 30
0.0
 41
1.0
 10
80.09982061158172
 20
-43.90318985620547
 30
0.0
 41
1.0
  0
SPLINE
  5
127
330
70
100
AcDbEntity
  8
sinclair sign final v1_Sketch1
100
AcDbSpline
210
0.0
220
0.0
230
1.0
 70
    12
 71
     3
 72
     8
 73
     4
 74
     0
 42
0.000000001
 43
0.0000000001
 40
0.0
 40
0.0
 40
0.0
 40
0.0
 40
1.0
 40
1.0
 40
1.0
 40
1.0
 10
75.42649653647893
 20
-55.83616646793887
 30
0.0
 41
1.0
 10
76.30188537298194
 20
-55.83471622488308
 30
0.0
 41
1.0
 10
77.0191199822282
 20
-55.67376022914454
 30
0.0
 41
1.0
 10
81.17721528647891
 20
-54.54563327661561
 30
0.0
 41
1.0
  0
SPLINE
  5
128
330
70
100
AcDbEntity
  8
sinclair sign final v1_Sketch1
100
AcDbSpline
210
0.0
220
0.0
230
1.0
 70
    12
 71
     3
 72
     8
 73
     4
 74
     0
 42
0.000000001
 43
0.0000000001
 40
0.0
 40
0.0
 40
0.0
 40
0.0
 40
1.0
 40
1.0
 40
1.0
 40
1.0
 10
87.9280590364789
 20
-6.48861104575215
 30
0.0
 41
1.0
 10
85.42488706348887
 20
-5.560936201963991
 30
0.0
 41
1.0
 10
82.82676685260287
 20
-4.64766364041384
 30
0.0
 41
1.0
 10
82.69085127519122
 20
-4.64766364041384
 30
0.0
 41
1.0
  0
SPLINE
  5
129
330
70
100
AcDbEntity
  8
sinclair sign final v1_Sketch1
100
AcDbSpline
210
0.0
220
0.0
230
1.0
 70
    12
 71
     3
 72
     8
 73
     4
 74
     0
 42
0.000000001
 43
0.0000000001
 40
0.0
 40
0.0
 40
0.0
 40
0.0
 40
1.0
 40
1.0
 40
1.0
 40
1.0
 10
91.14721138022886
 20
2.411476698483832
 30
0.0
 41
1.0
 10
90.9365336510991
 20
2.493350334729571
 30
0.0
 41
1.0
 10
82.05433525823107
 20
5.617901621426939
 30
0.0
 41
1.0
 10
80.58339106772891
 20
6.127585990514142
 30
0.0
 41
1.0
  0
SPLINE
  5
12A
330
70
100
AcDbEntity
  8
sinclair sign final v1_Sketch1
100
AcDbSpline
210
0.0
220
0.0
230
1.0
 70
    12
 71
     3
 72
     8
 73
     4
 74
     0
 42
0.000000001
 43
0.0000000001
 40
0.0
 40
0.0
 40
0.0
 40
0.0
 40
1.0
 40
1.0
 40
1.0
 40
1.0
 10
89.47036987374771
 20
-11.46182020464954
 30
0.0
 41
1.0
 10
88.85319488190162
 20
-11.28131287232454
 30
0.0
 41
1.0
 10
81.16124496768467
 20
-8.482535487089712
 30
0.0
 41
1.0
 10
80.86467717777244
 20
-8.330569472227651
 30
0.0
 41
1.0
  0
LINE
  5
12B
330
70
100
AcDbEntity
  8
sinclair sign final v1_Sketch1
100
AcDbLine
 10
79.86455122397891
 20
-3.597308058176635
 30
0.0
 11
79.86455122397891
 21
-2.187654639635661
 31
0.0
  0
SPLINE
  5
12C
330
70
100
AcDbEntity
  8
sinclair sign final v1_Sketch1
100
AcDbSpline
210
0.0
220
0.0
230
1.0
 70
    12
 71
     3
 72
     8
 73
     4
 74
     0
 42
0.000000001
 43
0.0000000001
 40
0.0
 40
0.0
 40
0.0
 40
0.0
 40
1.0
 40
1.0
 40
1.0
 40
1.0
 10
86.93961609958163
 20
-46.28397867432642
 30
0.0
 41
1.0
 10
87.8896268801545
 20
-46.61352387538959
 30
0.0
 41
1.0
 10
88.40563680790415
 20
-46.53483781710672
 30
0.0
 41
1.0
 10
88.61539126490105
 20
-46.02844403568314
 30
0.0
 41
1.0
  0
LINE
  5
12D
330
70
100
AcDbEntity
  8
sinclair sign final v1_Sketch1
100
AcDbLine
 10
110.9934456641529
 20
-20.72788615504316
 30
0.0
 11
110.9934456641529
 21
-21.05339680949264
 31
0.0
  0
SPLINE
  5
12E
330
70
100
AcDbEntity
  8
sinclair sign final v1_Sketch1
100
AcDbSpline
210
0.0
220
0.0
230
1.0
 70
    12
 71
     3
 72
     8
 73
     4
 74
     0
 42
0.000000001
 43
0.0000000001
 40
0.0
 40
0.0
 40
0.0
 40
0.0
 40
1.0
 40
1.0
 40
1.0
 40
1.0
 10
105.4302465364788
 20
-25.64786218968443
 30
0.0
 41
1.0
 10
104.5363855807636
 20
-25.14891372052244
 30
0.0
 41
1.0
 10
103.4764157597874
 20
-24.51782288113646
 30
0.0
 41
1.0
 10
103.0747580454205
 20
-24.24543852606828
 30
0.0
 41
1.0
  0
SPLINE
  5
12F
330
70
100
AcDbEntity
  8
sinclair sign final v1_Sketch1
100
AcDbSpline
210
0.0
220
0.0
230
1.0
 70
    12
 71
     3
 72
     8
 73
     4
 74
     0
 42
0.000000001
 43
0.0000000001
 40
0.0
 40
0.0
 40
0.0
 40
0.0
 40
1.0
 40
1.0
 40
1.0
 40
1.0
 10
108.2743558204029
 20
-19.97848295155577
 30
0.0
 41
1.0
 10
108.0508896276806
 20
-20.02102214280183
 30
0.0
 41
1.0
 10
107.8680550391529
 20
-20.10347950068528
 30
0.0
 41
1.0
 10
107.8680550391529
 20
-20.16172194853837
 30
0.0
 41
1.0
  0
SPLINE
  5
130
330
70
100
AcDbEntity
  8
sinclair sign final v1_Sketch1
100
AcDbSpline
210
0.0
220
0.0
230
1.0
 70
    12
 71
     3
 72
     8
 73
     4
 74
     0
 42
0.000000001
 43
0.0000000001
 40
0.0
 40
0.0
 40
0.0
 40
0.0
 40
1.0
 40
1.0
 40
1.0
 40
1.0
 10
86.19600051520816
 20
-48.44458997980165
 30
0.0
 41
1.0
 10
86.10953722451677
 20
-47.42174180284548
 30
0.0
 41
1.0
 10
86.0877754714345
 20
-46.02783551541377
 30
0.0
 41
1.0
 10
86.15826844333161
 20
-46.02783551541377
 30
0.0
 41
1.0
  0
SPLINE
  5
131
330
70
100
AcDbEntity
  8
sinclair sign final v1_Sketch1
100
AcDbSpline
210
0.0
220
0.0
230
1.0
 70
    12
 71
     3
 72
     8
 73
     4
 74
     0
 42
0.000000001
 43
0.0000000001
 40
0.0
 40
0.0
 40
0.0
 40
0.0
 40
1.0
 40
1.0
 40
1.0
 40
1.0
 10
80.56184487198343
 20
11.7293832345861
 30
0.0
 41
1.0
 10
80.8622822022294
 20
11.7293832345861
 30
0.0
 41
1.0
 10
82.59665271900642
 20
11.13786338099418
 30
0.0
 41
1.0
 10
82.7856335530137
 20
10.97094188364923
 30
0.0
 41
1.0
  0
SPLINE
  5
132
330
70
100
AcDbEntity
  8
sinclair sign final v1_Sketch1
100
AcDbSpline
210
0.0
220
0.0
230
1.0
 70
    12
 71
     3
 72
     8
 73
     4
 74
     0
 42
0.000000001
 43
0.0000000001
 40
0.0
 40
0.0
 40
0.0
 40
0.0
 40
1.0
 40
1.0
 40
1.0
 40
1.0
 10
115.0427570016239
 20
6.84309900244655
 30
0.0
 41
1.0
 10
114.9815272724483
 20
6.897800968732227
 30
0.0
 41
1.0
 10
110.3746129791592
 20
8.074423553075167
 30
0.0
 41
1.0
 10
104.8051684114788
 20
9.457813313092588
 30
0.0
 41
1.0
  0
SPLINE
  5
133
330
70
100
AcDbEntity
  8
sinclair sign final v1_Sketch1
100
AcDbSpline
210
0.0
220
0.0
230
1.0
 70
    12
 71
     3
 72
     8
 73
     4
 74
     0
 42
0.000000001
 43
0.0000000001
 40
0.0
 40
0.0
 40
0.0
 40
0.0
 40
1.0
 40
1.0
 40
1.0
 40
1.0
 10
108.3859725539539
 20
-30.58087085906079
 30
0.0
 41
1.0
 10
109.0193563129757
 20
-30.54931936923078
 30
0.0
 41
1.0
 10
109.2225028884266
 20
-30.48689167538694
 30
0.0
 41
1.0
 10
109.3983175566052
 20
-30.26976630202345
 30
0.0
 41
1.0
  0
SPLINE
  5
134
330
70
100
AcDbEntity
  8
sinclair sign final v1_Sketch1
100
AcDbSpline
210
0.0
220
0.0
230
1.0
 70
    12
 71
     3
 72
     8
 73
     4
 74
     0
 42
0.000000001
 43
0.0000000001
 40
0.0
 40
0.0
 40
0.0
 40
0.0
 40
1.0
 40
1.0
 40
1.0
 40
1.0
 10
82.76050490878573
 20
-18.84420498457964
 30
0.0
 41
1.0
 10
82.29343794201366
 20
-18.6794161695581
 30
0.0
 41
1.0
 10
82.22550495193948
 20
-18.68346025410706
 30
0.0
 41
1.0
 10
81.96874564240923
 20
-18.89137198201231
 30
0.0
 41
1.0
  0
SPLINE
  5
135
330
70
100
AcDbEntity
  8
sinclair sign final v1_Sketch1
100
AcDbSpline
210
0.0
220
0.0
230
1.0
 70
    12
 71
     3
 72
     8
 73
     4
 74
     0
 42
0.000000001
 43
0.0000000001
 40
0.0
 40
0.0
 40
0.0
 40
0.0
 40
1.0
 40
1.0
 40
1.0
 40
1.0
 10
89.39699263022887
 20
-1.946955305491074
 30
0.0
 41
1.0
 10
88.31404401563156
 20
-1.568383209620118
 30
0.0
 41
1.0
 10
85.74028559897891
 20
-0.655702000055908
 30
0.0
 41
1.0
 10
83.67752778647888
 20
0.081214138593091
 30
0.0
 41
1.0
  0
LINE
  5
136
330
70
100
AcDbEntity
  8
sinclair sign final v1_Sketch1
100
AcDbLine
 10
110.874557208762
 20
-14.74560922804885
 30
0.0
 11
110.8732333433483
 21
-15.10356030789431
 31
0.0
  0
SPLINE
  5
137
330
70
100
AcDbEntity
  8
sinclair sign final v1_Sketch1
100
AcDbSpline
210
0.0
220
0.0
230
1.0
 70
    12
 71
     3
 72
     8
 73
     4
 74
     0
 42
0.000000001
 43
0.0000000001
 40
0.0
 40
0.0
 40
0.0
 40
0.0
 40
1.0
 40
1.0
 40
1.0
 40
1.0
 10
88.61539126490105
 20
-46.02844403568314
 30
0.0
 41
1.0
 10
88.74574813364494
 20
-45.71373223153162
 30
0.0
 41
1.0
 10
88.73326106880655
 20
-45.60071151391078
 30
0.0
 41
1.0
 10
88.52959372209062
 20
-45.25198361745881
 30
0.0
 41
1.0
  0
SPLINE
  5
138
330
70
100
AcDbEntity
  8
sinclair sign final v1_Sketch1
100
AcDbSpline
210
0.0
220
0.0
230
1.0
 70
    12
 71
     3
 72
     8
 73
     4
 74
     0
 42
0.000000001
 43
0.0000000001
 40
0.0
 40
0.0
 40
0.0
 40
0.0
 40
1.0
 40
1.0
 40
1.0
 40
1.0
 10
85.03133277891626
 20
-43.96283247295428
 30
0.0
 41
1.0
 10
84.88584492968071
 20
-44.06473577323961
 30
0.0
 41
1.0
 10
84.19141075466624
 20
-44.83826995292711
 30
0.0
 41
1.0
 10
83.48814445160378
 20
-45.68179731670428
 30
0.0
 41
1.0
  0
SPLINE
  5
139
330
70
100
AcDbEntity
  8
sinclair sign final v1_Sketch1
100
AcDbSpline
210
0.0
220
0.0
230
1.0
 70
    12
 71
     3
 72
     8
 73
     4
 74
     0
 42
0.000000001
 43
0.0000000001
 40
0.0
 40
0.0
 40
0.0
 40
0.0
 40
1.0
 40
1.0
 40
1.0
 40
1.0
 10
115.3763749010418
 20
5.45479529818473
 30
0.0
 41
1.0
 10
115.254113831744
 20
6.163662276830081
 30
0.0
 41
1.0
 10
115.1039829156254
 20
6.788397036160808
 30
0.0
 41
1.0
 10
115.0427570016239
 20
6.84309900244655
 30
0.0
 41
1.0
  0
SPLINE
  5
13A
330
70
100
AcDbEntity
  8
sinclair sign final v1_Sketch1
100
AcDbSpline
210
0.0
220
0.0
230
1.0
 70
    12
 71
     3
 72
     8
 73
     4
 74
     0
 42
0.000000001
 43
0.0000000001
 40
0.0
 40
0.0
 40
0.0
 40
0.0
 40
1.0
 40
1.0
 40
1.0
 40
1.0
 10
97.52130668757905
 20
-5.942308635626409
 30
0.0
 41
1.0
 10
97.2862251973008
 20
-6.210812958632097
 30
0.0
 41
1.0
 10
97.27748654101835
 20
-6.210713764105384
 30
0.0
 41
1.0
 10
97.92931285165298
 20
-5.946947887335396
 30
0.0
 41
1.0
  0
SPLINE
  5
13B
330
70
100
AcDbEntity
  8
sinclair sign final v1_Sketch1
100
AcDbSpline
210
0.0
220
0.0
230
1.0
 70
    12
 71
     3
 72
     8
 73
     4
 74
     0
 42
0.000000001
 43
0.0000000001
 40
0.0
 40
0.0
 40
0.0
 40
0.0
 40
1.0
 40
1.0
 40
1.0
 40
1.0
 10
96.86667622397889
 20
-50.33911387506531
 30
0.0
 41
1.0
 10
97.17609065888872
 20
-50.24845103148029
 30
0.0
 41
1.0
 10
98.8638015963887
 20
-49.79840832534839
 30
0.0
 41
1.0
 10
100.6171449739788
 20
-49.3390174888711
 30
0.0
 41
1.0
  0
LINE
  5
13C
330
70
100
AcDbEntity
  8
sinclair sign final v1_Sketch1
100
AcDbLine
 10
86.97734817145814
 20
-49.6637345871072
 30
0.0
 11
86.27666664885035
 21
-49.39888138571785
 31
0.0
  0
LINE
  5
13D
330
70
100
AcDbEntity
  8
sinclair sign final v1_Sketch1
100
AcDbLine
 10
87.86278522275436
 20
6.41273973330437
 30
0.0
 11
91.36598872397888
 21
5.167924727048291
 31
0.0
  0
SPLINE
  5
13E
330
70
100
AcDbEntity
  8
sinclair sign final v1_Sketch1
100
AcDbSpline
210
0.0
220
0.0
230
1.0
 70
    12
 71
     3
 72
     8
 73
     4
 74
     0
 42
0.000000001
 43
0.0000000001
 40
0.0
 40
0.0
 40
0.0
 40
0.0
 40
1.0
 40
1.0
 40
1.0
 40
1.0
 10
91.24097309897889
 20
-33.60953537503292
 30
0.0
 41
1.0
 10
91.24097309897889
 20
-34.4321098026376
 30
0.0
 41
1.0
 10
91.19283132456294
 20
-35.0114649736028
 30
0.0
 41
1.0
 10
91.12781694267738
 20
-34.97128355995228
 30
0.0
 41
1.0
  0
SPLINE
  5
13F
330
70
100
AcDbEntity
  8
sinclair sign final v1_Sketch1
100
AcDbSpline
210
0.0
220
0.0
230
1.0
 70
    12
 71
     3
 72
     8
 73
     4
 74
     0
 42
0.000000001
 43
0.0000000001
 40
0.0
 40
0.0
 40
0.0
 40
0.0
 40
1.0
 40
1.0
 40
1.0
 40
1.0
 10
110.8371761329029
 20
-21.5148917144876
 30
0.0
 41
1.0
 10
110.945233309016
 20
-21.52171706095746
 30
0.0
 41
1.0
 10
110.9934456641529
 20
-21.77667370072418
 30
0.0
 41
1.0
 10
110.9934456641529
 20
-22.34128513136916
 30
0.0
 41
1.0
  0
SPLINE
  5
140
330
70
100
AcDbEntity
  8
sinclair sign final v1_Sketch1
100
AcDbSpline
210
0.0
220
0.0
230
1.0
 70
    12
 71
     3
 72
     8
 73
     4
 74
     0
 42
0.000000001
 43
0.0000000001
 40
0.0
 40
0.0
 40
0.0
 40
0.0
 40
1.0
 40
1.0
 40
1.0
 40
1.0
 10
97.5900637552594
 20
-5.54606465331134
 30
0.0
 41
1.0
 10
97.70446938107957
 20
-5.660470279131481
 30
0.0
 41
1.0
 10
97.68875086377608
 20
-5.751057773028001
 30
0.0
 41
1.0
 10
97.52130668757905
 20
-5.942308635626409
 30
0.0
 41
1.0
  0
SPLINE
  5
141
330
70
100
AcDbEntity
  8
sinclair sign final v1_Sketch1
100
AcDbSpline
210
0.0
220
0.0
230
1.0
 70
    12
 71
     3
 72
     8
 73
     4
 74
     0
 42
0.000000001
 43
0.0000000001
 40
0.0
 40
0.0
 40
0.0
 40
0.0
 40
1.0
 40
1.0
 40
1.0
 40
1.0
 10
96.29093593047606
 20
-7.184231739912593
 30
0.0
 41
1.0
 10
96.08949092267501
 20
-6.110431912813744
 30
0.0
 41
1.0
 10
97.00278637526976
 20
-4.958787273321711
 30
0.0
 41
1.0
 10
97.5900637552594
 20
-5.54606465331134
 30
0.0
 41
1.0
  0
SPLINE
  5
142
330
70
100
AcDbEntity
  8
sinclair sign final v1_Sketch1
100
AcDbSpline
210
0.0
220
0.0
230
1.0
 70
    12
 71
     3
 72
     8
 73
     4
 74
     0
 42
0.000000001
 43
0.0000000001
 40
0.0
 40
0.0
 40
0.0
 40
0.0
 40
1.0
 40
1.0
 40
1.0
 40
1.0
 10
97.86680503915301
 20
-6.397878575239736
 30
0.0
 41
1.0
 10
97.5803388764714
 20
-6.728173458014087
 30
0.0
 41
1.0
 10
97.57376914666641
 20
-6.768557075892053
 30
0.0
 41
1.0
 10
97.73675338433731
 20
-7.197230038080777
 30
0.0
 41
1.0
  0
LINE
  5
143
330
70
100
AcDbEntity
  8
sinclair sign final v1_Sketch1
100
AcDbLine
 10
90.02207075522887
 20
-36.8617404796224
 30
0.0
 11
91.24097309897889
 21
-37.30451432529502
 31
0.0
  0
SPLINE
  5
144
330
70
100
AcDbEntity
  8
sinclair sign final v1_Sketch1
100
AcDbSpline
210
0.0
220
0.0
230
1.0
 70
    12
 71
     3
 72
     8
 73
     4
 74
     0
 42
0.000000001
 43
0.0000000001
 40
0.0
 40
0.0
 40
0.0
 40
0.0
 40
1.0
 40
1.0
 40
1.0
 40
1.0
 10
79.38647843371383
 20
-39.53610503736546
 30
0.0
 41
1.0
 10
79.43295011566632
 20
-39.84052350178768
 30
0.0
 41
1.0
 10
79.47514307986252
 20
-40.5483107861619
 30
0.0
 41
1.0
 10
79.48024015246382
 20
-41.10896397367527
 30
0.0
 41
1.0
  0
SPLINE
  5
145
330
70
100
AcDbEntity
  8
sinclair sign final v1_Sketch1
100
AcDbSpline
210
0.0
220
0.0
230
1.0
 70
    12
 71
     3
 72
     8
 73
     4
 74
     0
 42
0.000000001
 43
0.0000000001
 40
0.0
 40
0.0
 40
0.0
 40
0.0
 40
1.0
 40
1.0
 40
1.0
 40
1.0
 10
91.17846337889185
 20
-27.6327141470056
 30
0.0
 41
1.0
 10
91.25283829043857
 20
-27.68050683299116
 30
0.0
 41
1.0
 10
91.2891053354596
 20
-28.25742983046583
 30
0.0
 41
1.0
 10
91.26799788473595
 20
-29.0569644216638
 30
0.0
 41
1.0
  0
SPLINE
  5
146
330
70
100
AcDbEntity
  8
sinclair sign final v1_Sketch1
100
AcDbSpline
210
0.0
220
0.0
230
1.0
 70
    12
 71
     3
 72
     8
 73
     4
 74
     0
 42
0.000000001
 43
0.0000000001
 40
0.0
 40
0.0
 40
0.0
 40
0.0
 40
1.0
 40
1.0
 40
1.0
 40
1.0
 10
91.13779553054323
 20
-47.97701654866743
 30
0.0
 41
1.0
 10
90.53047322581759
 20
-49.73390708437968
 30
0.0
 41
1.0
 10
88.90567260168543
 20
-50.39262932220506
 30
0.0
 41
1.0
 10
86.97734817145814
 20
-49.6637345871072
 30
0.0
 41
1.0
  0
LINE
  5
147
330
70
100
AcDbEntity
  8
sinclair sign final v1_Sketch1
100
AcDbLine
 10
79.86455122397891
 20
7.691402964200362
 30
0.0
 11
79.86455122397891
 21
9.006142481412283
 31
0.0
  0
SPLINE
  5
148
330
70
100
AcDbEntity
  8
sinclair sign final v1_Sketch1
100
AcDbSpline
210
0.0
220
0.0
230
1.0
 70
    12
 71
     3
 72
     8
 73
     4
 74
     0
 42
0.000000001
 43
0.0000000001
 40
0.0
 40
0.0
 40
0.0
 40
0.0
 40
1.0
 40
1.0
 40
1.0
 40
1.0
 10
101.9580184337948
 20
-11.31326877060946
 30
0.0
 41
1.0
 10
101.5514315144871
 20
-10.87217360154208
 30
0.0
 41
1.0
 10
100.9972049877499
 20
-10.53223395863589
 30
0.0
 41
1.0
 10
99.39603364442335
 20
-9.741844339762305
 30
0.0
 41
1.0
  0
LINE
  5
149
330
70
100
AcDbEntity
  8
sinclair sign final v1_Sketch1
100
AcDbLine
 10
110.6210198137615
 20
-21.08469268265776
 30
0.0
 11
110.9934456641529
 21
-20.72788615504316
 31
0.0
  0
SPLINE
  5
14A
330
70
100
AcDbEntity
  8
sinclair sign final v1_Sketch1
100
AcDbSpline
210
0.0
220
0.0
230
1.0
 70
    12
 71
     3
 72
     8
 73
     4
 74
     0
 42
0.000000001
 43
0.0000000001
 40
0.0
 40
0.0
 40
0.0
 40
0.0
 40
1.0
 40
1.0
 40
1.0
 40
1.0
 10
103.0747580454205
 20
-24.24543852606828
 30
0.0
 41
1.0
 10
101.9975817892407
 20
-23.51495095578246
 30
0.0
 41
1.0
 10
100.9187878992413
 20
-22.34787775221876
 30
0.0
 41
1.0
 10
100.4608143999432
 20
-21.41760095969252
 30
0.0
 41
1.0
  0
SPLINE
  5
14B
330
70
100
AcDbEntity
  8
sinclair sign final v1_Sketch1
100
AcDbSpline
210
0.0
220
0.0
230
1.0
 70
    12
 71
     3
 72
     8
 73
     4
 74
     0
 42
0.000000001
 43
0.0000000001
 40
0.0
 40
0.0
 40
0.0
 40
0.0
 40
1.0
 40
1.0
 40
1.0
 40
1.0
 10
110.8257344257687
 20
-17.54901060429626
 30
0.0
 41
1.0
 10
110.7862130372379
 20
-17.70014109602981
 30
0.0
 41
1.0
 10
110.798135456309
 20
-17.88297568455748
 30
0.0
 41
1.0
 10
110.8522308099125
 20
-17.95531138554627
 30
0.0
 41
1.0
  0
SPLINE
  5
14C
330
70
100
AcDbEntity
  8
sinclair sign final v1_Sketch1
100
AcDbSpline
210
0.0
220
0.0
230
1.0
 70
    12
 71
     3
 72
     8
 73
     4
 74
     0
 42
0.000000001
 43
0.0000000001
 40
0.0
 40
0.0
 40
0.0
 40
0.0
 40
1.0
 40
1.0
 40
1.0
 40
1.0
 10
90.68961558316699
 20
-43.47286683121729
 30
0.0
 41
1.0
 10
91.36488613866315
 20
-44.62512952891397
 30
0.0
 41
1.0
 10
91.57310689567076
 20
-46.71772581807184
 30
0.0
 41
1.0
 10
91.13779553054323
 20
-47.97701654866743
 30
0.0
 41
1.0
  0
SPLINE
  5
14D
330
70
100
AcDbEntity
  8
sinclair sign final v1_Sketch1
100
AcDbSpline
210
0.0
220
0.0
230
1.0
 70
    12
 71
     3
 72
     8
 73
     4
 74
     0
 42
0.000000001
 43
0.0000000001
 40
0.0
 40
0.0
 40
0.0
 40
0.0
 40
1.0
 40
1.0
 40
1.0
 40
1.0
 10
118.5035357668255
 20
-12.64865982523974
 30
0.0
 41
1.0
 10
117.9124355823849
 20
-9.015278768454171
 30
0.0
 41
1.0
 10
117.3833014557217
 20
-5.925930093203161
 30
0.0
 41
1.0
 10
117.0582104704235
 20
-4.210105137739748
 30
0.0
 41
1.0
  0
SPLINE
  5
14E
330
70
100
AcDbEntity
  8
sinclair sign final v1_Sketch1
100
AcDbSpline
210
0.0
220
0.0
230
1.0
 70
    12
 71
     3
 72
     8
 73
     4
 74
     0
 42
0.000000001
 43
0.0000000001
 40
0.0
 40
0.0
 40
0.0
 40
0.0
 40
1.0
 40
1.0
 40
1.0
 40
1.0
 10
106.3949361994122
 20
-32.7136714529138
 30
0.0
 41
1.0
 10
106.3524542357777
 20
-32.11418742338231
 30
0.0
 41
1.0
 10
106.7717533151959
 20
-31.21862490001729
 30
0.0
 41
1.0
 10
107.2620070025776
 20
-30.86172490063719
 30
0.0
 41
1.0
  0
SPLINE
  5
14F
330
70
100
AcDbEntity
  8
sinclair sign final v1_Sketch1
100
AcDbSpline
210
0.0
220
0.0
230
1.0
 70
    12
 71
     3
 72
     8
 73
     4
 74
     0
 42
0.000000001
 43
0.0000000001
 40
0.0
 40
0.0
 40
0.0
 40
0.0
 40
1.0
 40
1.0
 40
1.0
 40
1.0
 10
80.09982061158172
 20
-43.90318985620547
 30
0.0
 41
1.0
 10
80.70543276451578
 20
-43.90256416765261
 30
0.0
 41
1.0
 10
80.58145963583937
 20
-44.00491575089502
 30
0.0
 41
1.0
 10
82.41422826169481
 20
-41.9913240870576
 30
0.0
 41
1.0
  0
SPLINE
  5
150
330
70
100
AcDbEntity
  8
sinclair sign final v1_Sketch1
100
AcDbSpline
210
0.0
220
0.0
230
1.0
 70
    12
 71
     3
 72
     8
 73
     4
 74
     0
 42
0.000000001
 43
0.0000000001
 40
0.0
 40
0.0
 40
0.0
 40
0.0
 40
1.0
 40
1.0
 40
1.0
 40
1.0
 10
105.2218998787258
 20
-10.57650905409869
 30
0.0
 41
1.0
 10
106.1520545856808
 20
-11.40470704833087
 30
0.0
 41
1.0
 10
107.2068701064442
 20
-12.65671365777072
 30
0.0
 41
1.0
 10
107.4355211207722
 20
-13.20395078555163
 30
0.0
 41
1.0
  0
SPLINE
  5
151
330
70
100
AcDbEntity
  8
sinclair sign final v1_Sketch1
100
AcDbSpline
210
0.0
220
0.0
230
1.0
 70
    12
 71
     3
 72
     8
 73
     4
 74
     0
 42
0.000000001
 43
0.0000000001
 40
0.0
 40
0.0
 40
0.0
 40
0.0
 40
1.0
 40
1.0
 40
1.0
 40
1.0
 10
110.8522308099125
 20
-17.95531138554627
 30
0.0
 41
1.0
 10
110.9063261635159
 20
-18.02764708653502
 30
0.0
 41
1.0
 10
110.9274088156078
 20
-18.33998775998168
 30
0.0
 41
1.0
 10
110.8990811478947
 20
-18.64940219489151
 30
0.0
 41
1.0
  0
LINE
  5
152
330
70
100
AcDbEntity
  8
sinclair sign final v1_Sketch1
100
AcDbLine
 10
83.67752778647888
 20
0.081214138593091
 30
0.0
 11
79.92705903647891
 21
1.421072762097726
 31
0.0
  0
SPLINE
  5
153
330
70
100
AcDbEntity
  8
sinclair sign final v1_Sketch1
100
AcDbSpline
210
0.0
220
0.0
230
1.0
 70
    12
 71
     3
 72
     8
 73
     4
 74
     0
 42
0.000000001
 43
0.0000000001
 40
0.0
 40
0.0
 40
0.0
 40
0.0
 40
1.0
 40
1.0
 40
1.0
 40
1.0
 10
109.499423485503
 20
-23.09008172217421
 30
0.0
 41
1.0
 10
107.8738731796597
 20
-22.73891020670943
 30
0.0
 41
1.0
 10
107.4930043489788
 20
-22.71140280142838
 30
0.0
 41
1.0
 10
107.4930043489788
 20
-22.94518904009873
 30
0.0
 41
1.0
  0
SPLINE
  5
154
330
70
100
AcDbEntity
  8
sinclair sign final v1_Sketch1
100
AcDbSpline
210
0.0
220
0.0
230
1.0
 70
    12
 71
     3
 72
     8
 73
     4
 74
     0
 42
0.000000001
 43
0.0000000001
 40
0.0
 40
0.0
 40
0.0
 40
0.0
 40
1.0
 40
1.0
 40
1.0
 40
1.0
 10
115.4952557260845
 20
-45.11177787676859
 30
0.0
 41
1.0
 10
115.4960073153828
 20
-44.96240236512231
 30
0.0
 41
1.0
 10
115.7213582041119
 20
-43.43376129666373
 30
0.0
 41
1.0
 10
115.9961690099094
 20
-41.71479645291376
 30
0.0
 41
1.0
  0
SPLINE
  5
155
330
70
100
AcDbEntity
  8
sinclair sign final v1_Sketch1
100
AcDbSpline
210
0.0
220
0.0
230
1.0
 70
    12
 71
     3
 72
     8
 73
     4
 74
     0
 42
0.000000001
 43
0.0000000001
 40
0.0
 40
0.0
 40
0.0
 40
0.0
 40
1.0
 40
1.0
 40
1.0
 40
1.0
 10
83.48814445160378
 20
-45.68179731670428
 30
0.0
 41
1.0
 10
82.78487814854136
 20
-46.52532468048142
 30
0.0
 41
1.0
 10
82.03435328386772
 20
-47.31393261304903
 30
0.0
 41
1.0
 10
81.82031438635339
 20
-47.43426034287025
 30
0.0
 41
1.0
  0
LINE
  5
156
330
70
100
AcDbEntity
  8
sinclair sign final v1_Sketch1
100
AcDbLine
 10
86.27666664885035
 20
-49.39888138571785
 30
0.0
 11
86.19600051520816
 21
-48.44458997980165
 31
0.0
  0
SPLINE
  5
157
330
70
100
AcDbEntity
  8
sinclair sign final v1_Sketch1
100
AcDbSpline
210
0.0
220
0.0
230
1.0
 70
    12
 71
     3
 72
     8
 73
     4
 74
     0
 42
0.000000001
 43
0.0000000001
 40
0.0
 40
0.0
 40
0.0
 40
0.0
 40
1.0
 40
1.0
 40
1.0
 40
1.0
 10
115.9961690099094
 20
-41.71479645291376
 30
0.0
 41
1.0
 10
116.270979815707
 20
-39.99583160916378
 30
0.0
 41
1.0
 10
116.8045013925884
 20
-36.6485390128236
 30
0.0
 41
1.0
 10
117.1817648837421
 20
-34.27636676541379
 30
0.0
 41
1.0
  0
SPLINE
  5
158
330
70
100
AcDbEntity
  8
sinclair sign final v1_Sketch1
100
AcDbSpline
210
0.0
220
0.0
230
1.0
 70
    12
 71
     3
 72
     8
 73
     4
 74
     0
 42
0.000000001
 43
0.0000000001
 40
0.0
 40
0.0
 40
0.0
 40
0.0
 40
1.0
 40
1.0
 40
1.0
 40
1.0
 10
78.86308423648826
 20
-41.89031162992525
 30
0.0
 41
1.0
 10
78.10484032081119
 20
-41.60220112720538
 30
0.0
 41
1.0
 10
78.05907253848069
 20
-41.60039273468068
 30
0.0
 41
1.0
 10
77.81072282646649
 20
-41.84874340048838
 30
0.0
 41
1.0
  0
SPLINE
  5
159
330
70
100
AcDbEntity
  8
sinclair sign final v1_Sketch1
100
AcDbSpline
210
0.0
220
0.0
230
1.0
 70
    12
 71
     3
 72
     8
 73
     4
 74
     0
 42
0.000000001
 43
0.0000000001
 40
0.0
 40
0.0
 40
0.0
 40
0.0
 40
1.0
 40
1.0
 40
1.0
 40
1.0
 10
110.9934456641529
 20
-21.05339680949264
 30
0.0
 41
1.0
 10
110.9934456641529
 20
-21.23242766943984
 30
0.0
 41
1.0
 10
110.9231243750904
 20
-21.40728091374451
 30
0.0
 41
1.0
 10
110.8371761329029
 20
-21.44196466151289
 30
0.0
 41
1.0
  0
SPLINE
  5
15A
330
70
100
AcDbEntity
  8
sinclair sign final v1_Sketch1
100
AcDbSpline
210
0.0
220
0.0
230
1.0
 70
    12
 71
     3
 72
     8
 73
     4
 74
     0
 42
0.000000001
 43
0.0000000001
 40
0.0
 40
0.0
 40
0.0
 40
0.0
 40
1.0
 40
1.0
 40
1.0
 40
1.0
 10
80.03652687321654
 20
-24.46602044716889
 30
0.0
 41
1.0
 10
80.70545374797339
 20
-23.95580576888137
 30
0.0
 41
1.0
 10
81.27895834945192
 20
-24.03075486413057
 30
0.0
 41
1.0
 10
83.88101582001198
 20
-24.96845598546081
 30
0.0
 41
1.0
  0
SPLINE
  5
15B
330
70
100
AcDbEntity
  8
sinclair sign final v1_Sketch1
100
AcDbSpline
210
0.0
220
0.0
230
1.0
 70
    12
 71
     3
 72
     8
 73
     4
 74
     0
 42
0.000000001
 43
0.0000000001
 40
0.0
 40
0.0
 40
0.0
 40
0.0
 40
1.0
 40
1.0
 40
1.0
 40
1.0
 10
88.52959372209062
 20
-45.25198361745881
 30
0.0
 41
1.0
 10
87.86805588577738
 20
-44.1192736870389
 30
0.0
 41
1.0
 10
85.86292818568697
 20
-43.3803603047471
 30
0.0
 41
1.0
 10
85.03133277891626
 20
-43.96283247295428
 30
0.0
 41
1.0
  0
SPLINE
  5
15C
330
70
100
AcDbEntity
  8
sinclair sign final v1_Sketch1
100
AcDbSpline
210
0.0
220
0.0
230
1.0
 70
    12
 71
     3
 72
     8
 73
     4
 74
     0
 42
0.000000001
 43
0.0000000001
 40
0.0
 40
0.0
 40
0.0
 40
0.0
 40
1.0
 40
1.0
 40
1.0
 40
1.0
 10
87.5530121614789
 20
-29.14242813674024
 30
0.0
 41
1.0
 10
82.81546439932338
 20
-27.43946031800321
 30
0.0
 41
1.0
 10
83.01023476003161
 20
-27.50223137751632
 30
0.0
 41
1.0
 10
82.73492416642657
 20
-27.58961412516646
 30
0.0
 41
1.0
  0
SPLINE
  5
15D
330
70
100
AcDbEntity
  8
sinclair sign final v1_Sketch1
100
AcDbSpline
210
0.0
220
0.0
230
1.0
 70
    12
 71
     3
 72
     8
 73
     4
 74
     0
 42
0.000000001
 43
0.0000000001
 40
0.0
 40
0.0
 40
0.0
 40
0.0
 40
1.0
 40
1.0
 40
1.0
 40
1.0
 10
88.48623426841248
 20
-16.22767846623475
 30
0.0
 41
1.0
 10
82.93322928594102
 20
-14.22748187867219
 30
0.0
 41
1.0
 10
77.36354531608573
 20
-12.22611784783419
 30
0.0
 41
1.0
 10
76.14278498254768
 20
-11.79229058543262
 30
0.0
 41
1.0
  0
SPLINE
  5
15E
330
70
100
AcDbEntity
  8
sinclair sign final v1_Sketch1
100
AcDbSpline
210
0.0
220
0.0
230
1.0
 70
    12
 71
     3
 72
     8
 73
     4
 74
     0
 42
0.000000001
 43
0.0000000001
 40
0.0
 40
0.0
 40
0.0
 40
0.0
 40
1.0
 40
1.0
 40
1.0
 40
1.0
 10
110.8743893411015
 20
-27.98639223185589
 30
0.0
 41
1.0
 10
111.1583031523083
 20
-29.09648962536862
 30
0.0
 41
1.0
 10
111.1752959377621
 20
-29.77313745871597
 30
0.0
 41
1.0
 10
110.9361035973881
 20
-30.44399004260113
 30
0.0
 41
1.0
  0
SPLINE
  5
15F
330
70
100
AcDbEntity
  8
sinclair sign final v1_Sketch1
100
AcDbSpline
210
0.0
220
0.0
230
1.0
 70
    12
 71
     3
 72
     8
 73
     4
 74
     0
 42
0.000000001
 43
0.0000000001
 40
0.0
 40
0.0
 40
0.0
 40
0.0
 40
1.0
 40
1.0
 40
1.0
 40
1.0
 10
78.85729184840672
 20
-47.10886223605679
 30
0.0
 41
1.0
 10
77.16305028663629
 20
-46.46607502666522
 30
0.0
 41
1.0
 10
76.71172186683171
 20
-46.24285109749844
 30
0.0
 41
1.0
 10
76.07978692017548
 20
-45.73512772790002
 30
0.0
 41
1.0
  0
SPLINE
  5
160
330
70
100
AcDbEntity
  8
sinclair sign final v1_Sketch1
100
AcDbSpline
210
0.0
220
0.0
230
1.0
 70
    12
 71
     3
 72
     8
 73
     4
 74
     0
 42
0.000000001
 43
0.0000000001
 40
0.0
 40
0.0
 40
0.0
 40
0.0
 40
1.0
 40
1.0
 40
1.0
 40
1.0
 10
109.4371445834492
 20
-28.95923492184691
 30
0.0
 41
1.0
 10
108.9758595130299
 20
-27.85522273102811
 30
0.0
 41
1.0
 10
108.1250031998013
 20
-27.15205943766646
 30
0.0
 41
1.0
 10
105.4302465364788
 20
-25.64786218968443
 30
0.0
 41
1.0
  0
LINE
  5
161
330
70
100
AcDbEntity
  8
sinclair sign final v1_Sketch1
100
AcDbLine
 10
91.36598872397888
 20
5.167924727048291
 30
0.0
 11
91.36598872397888
 21
3.747192042912836
 31
0.0
  0
SPLINE
  5
162
330
70
100
AcDbEntity
  8
sinclair sign final v1_Sketch1
100
AcDbSpline
210
0.0
220
0.0
230
1.0
 70
    12
 71
     3
 72
     8
 73
     4
 74
     0
 42
0.000000001
 43
0.0000000001
 40
0.0
 40
0.0
 40
0.0
 40
0.0
 40
1.0
 40
1.0
 40
1.0
 40
1.0
 10
76.07978692017548
 20
-45.73512772790002
 30
0.0
 41
1.0
 10
75.51634102521889
 20
-45.28242870679905
 30
0.0
 41
1.0
 10
74.82035884331219
 20
-43.95947511974385
 30
0.0
 41
1.0
 10
74.60832195840828
 20
-42.93810150757839
 30
0.0
 41
1.0
  0
SPLINE
  5
163
330
70
100
AcDbEntity
  8
sinclair sign final v1_Sketch1
100
AcDbSpline
210
0.0
220
0.0
230
1.0
 70
    12
 71
     3
 72
     8
 73
     4
 74
     0
 42
0.000000001
 43
0.0000000001
 40
0.0
 40
0.0
 40
0.0
 40
0.0
 40
1.0
 40
1.0
 40
1.0
 40
1.0
 10
82.41422826169481
 20
-41.9913240870576
 30
0.0
 41
1.0
 10
84.0372185857152
 20
-40.20820899835636
 30
0.0
 41
1.0
 10
84.73246730040065
 20
-40.04888160506297
 30
0.0
 41
1.0
 10
87.13632266114702
 20
-40.90919573489236
 30
0.0
 41
1.0
  0
SPLINE
  5
164
330
70
100
AcDbEntity
  8
sinclair sign final v1_Sketch1
100
AcDbSpline
210
0.0
220
0.0
230
1.0
 70
    12
 71
     3
 72
     8
 73
     4
 74
     0
 42
0.000000001
 43
0.0000000001
 40
0.0
 40
0.0
 40
0.0
 40
0.0
 40
1.0
 40
1.0
 40
1.0
 40
1.0
 10
82.69187183426371
 20
10.58695987090049
 30
0.0
 41
1.0
 10
82.18508890508166
 20
9.863427363004083
 30
0.0
 41
1.0
 10
82.68492058704842
 20
8.699898456181866
 30
0.0
 41
1.0
 10
83.80090288661468
 20
8.005284967984561
 30
0.0
 41
1.0
  0
LINE
  5
165
330
70
100
AcDbEntity
  8
sinclair sign final v1_Sketch1
100
AcDbLine
 10
80.29596825014106
 20
-3.753306712065314
 30
0.0
 11
79.86455122397891
 21
-3.597308058176635
 31
0.0
  0
SPLINE
  5
166
330
70
100
AcDbEntity
  8
sinclair sign final v1_Sketch1
100
AcDbSpline
210
0.0
220
0.0
230
1.0
 70
    12
 71
     3
 72
     8
 73
     4
 74
     0
 42
0.000000001
 43
0.0000000001
 40
0.0
 40
0.0
 40
0.0
 40
0.0
 40
1.0
 40
1.0
 40
1.0
 40
1.0
 10
76.2038306295728
 20
-38.44899406782199
 30
0.0
 41
1.0
 10
76.78603668938631
 20
-38.19988418236782
 30
0.0
 41
1.0
 10
77.30492230461591
 20
-38.24485363951732
 30
0.0
 41
1.0
 10
78.36436563156597
 20
-38.63623709002544
 30
0.0
 41
1.0
  0
CIRCLE
  5
167
330
70
100
AcDbEntity
  8
sinclair sign final v1_Sketch1
100
AcDbCircle
 10
17.95471479469503
 20
-17.85315190731924
 30
0.0
 40
0.381
  0
SPLINE
  5
168
330
70
100
AcDbEntity
  8
sinclair sign final v1_Sketch1
100
AcDbSpline
210
0.0
220
0.0
230
1.0
 70
     8
 71
     3
 72
    14
 73
    10
 74
     0
 42
0.000000001
 43
0.0000000001
 40
0.1733635869880961
 40
0.1733635869880961
 40
0.1733635869880961
 40
0.1733635869880961
 40
0.2277822657628359
 40
0.2277822657628359
 40
0.2277822657628359
 40
0.5076036780318225
 40
0.5076036780318225
 40
0.5076036780318225
 40
1.0
 40
1.0
 40
1.0
 40
1.0
 10
13.71219468000215
 20
11.42763683847776
 30
0.0
 10
13.7106245601679
 20
11.41311348425932
 30
0.0
 10
13.70860226477935
 20
11.39506919154475
 30
0.0
 10
13.70614661435548
 20
11.37387816617671
 30
0.0
 10
13.69351963433469
 20
11.26491369332618
 30
0.0
 10
13.67032695086975
 20
11.08173704919679
 30
0.0
 10
13.64057716671264
 20
10.85887537518489
 30
0.0
 10
13.5882270474722
 20
10.46671000191588
 30
0.0
 10
13.51497561895967
 20
9.94468735417524
 30
0.0
 10
13.43436266171113
 20
9.394728647245631
 30
0.0
  0
SPLINE
  5
169
330
70
100
AcDbEntity
  8
sinclair sign final v1_Sketch1
100
AcDbSpline
210
0.0
220
0.0
230
1.0
 70
    12
 71
     3
 72
     8
 73
     4
 74
     0
 42
0.000000001
 43
0.0000000001
 40
0.0
 40
0.0
 40
0.0
 40
0.0
 40
1.0
 40
1.0
 40
1.0
 40
1.0
 10
110.8371761329029
 20
-21.44196466151289
 30
0.0
 41
1.0
 10
110.7121605079029
 20
-21.49240889349989
 30
0.0
 41
1.0
 10
110.7121605079029
 20
-21.50699430409485
 30
0.0
 41
1.0
 10
110.8371761329029
 20
-21.5148917144876
 30
0.0
 41
1.0
  0
SPLINE
  5
16A
330
70
100
AcDbEntity
  8
sinclair sign final v1_Sketch1
100
AcDbSpline
210
0.0
220
0.0
230
1.0
 70
    12
 71
     3
 72
     8
 73
     4
 74
     0
 42
0.000000001
 43
0.0000000001
 40
0.0
 40
0.0
 40
0.0
 40
0.0
 40
1.0
 40
1.0
 40
1.0
 40
1.0
 10
77.81072282646649
 20
-41.84874340048838
 30
0.0
 41
1.0
 10
77.49279292295925
 20
-42.16667330399562
 30
0.0
 41
1.0
 10
77.56571043799869
 20
-42.75681969491055
 30
0.0
 41
1.0
 10
77.96947508226387
 20
-43.13357386032154
 30
0.0
 41
1.0
  0
LINE
  5
16B
330
70
100
AcDbEntity
  8
sinclair sign final v1_Sketch1
100
AcDbLine
 10
110.2485939633701
 20
-21.44149921027235
 30
0.0
 11
110.6210198137615
 21
-21.08469268265776
 31
0.0
  0
SPLINE
  5
16C
330
70
100
AcDbEntity
  8
sinclair sign final v1_Sketch1
100
AcDbSpline
210
0.0
220
0.0
230
1.0
 70
     8
 71
     3
 72
     8
 73
     4
 74
     0
 42
0.000000001
 43
0.0000000001
 40
0.0
 40
0.0
 40
0.0
 40
0.0
 40
0.9999994565694132
 40
0.9999994565694132
 40
0.9999994565694132
 40
0.9999994565694132
 10
63.29216368787868
 20
-42.86663586042357
 30
0.0
 10
63.56719404922994
 20
-41.14629767810725
 30
0.0
 10
64.1006719271092
 20
-37.79927745456114
 30
0.0
 10
64.47805129061052
 20
-35.4263766284836
 30
0.0
  0
SPLINE
  5
16D
330
70
100
AcDbEntity
  8
sinclair sign final v1_Sketch1
100
AcDbSpline
210
0.0
220
0.0
230
1.0
 70
    12
 71
     3
 72
     8
 73
     4
 74
     0
 42
0.000000001
 43
0.0000000001
 40
0.0
 40
0.0
 40
0.0
 40
0.0
 40
1.0
 40
1.0
 40
1.0
 40
1.0
 10
71.61709717659705
 20
14.2296957345861
 30
0.0
 41
1.0
 10
71.371620767579
 20
13.745664596166
 30
0.0
 41
1.0
 10
70.95322302304261
 20
12.39798486575066
 30
0.0
 41
1.0
 10
70.95729286001675
 20
12.10443010958609
 30
0.0
 41
1.0
  0
SPLINE
  5
16E
330
70
100
AcDbEntity
  8
sinclair sign final v1_Sketch1
100
AcDbSpline
210
0.0
220
0.0
230
1.0
 70
     8
 71
     3
 72
    14
 73
    10
 74
     0
 42
0.000000001
 43
0.0000000001
 40
0.0000000235330098
 40
0.0000000235330098
 40
0.0000000235330098
 40
0.0000000235330098
 40
0.538039535494336
 40
0.538039535494336
 40
0.538039535494336
 40
0.9245435008481168
 40
0.9245435008481168
 40
0.9245435008481168
 40
1.0
 40
1.0
 40
1.0
 40
1.0
 10
26.81444748143754
 20
-57.54283536505166
 30
0.0
 10
29.36818650069758
 20
-56.84998446276922
 30
0.0
 10
32.50829044067876
 20
-56.00496865530026
 30
0.0
 10
35.22900892175869
 20
-55.27711448492454
 30
0.0
 10
37.18345363849596
 20
-54.75425600186631
 30
0.0
 10
38.92257311815543
 20
-54.29157278168561
 30
0.0
 10
40.06889207713117
 20
-53.99009770561588
 30
0.0
 10
40.29268594034956
 20
-53.93124124912143
 30
0.0
 10
40.49382651887639
 20
-53.87854446089537
 30
0.0
 10
40.66916062183415
 20
-53.83284619536093
 30
0.0
  0
SPLINE
  5
16F
330
70
100
AcDbEntity
  8
sinclair sign final v1_Sketch1
100
AcDbSpline
210
0.0
220
0.0
230
1.0
 70
     8
 71
     3
 72
    17
 73
    13
 74
     0
 42
0.000000001
 43
0.0000000001
 40
0.0
 40
0.0
 40
0.0
 40
0.0
 40
0.5
 40
0.5
 40
0.5
 40
0.8392833650294527
 40
0.8392833650294527
 40
0.8392833650294527
 40
1.0
 40
1.0
 40
1.0
 40
1.000001010893116
 40
1.000001010893116
 40
1.000001010893116
 40
1.000001010893116
 10
50.39490316218632
 20
10.88543730102913
 30
0.0
 10
47.61171499294532
 20
11.57675493664534
 30
0.0
 10
44.75075506579274
 20
12.29045595244649
 30
0.0
 10
42.38458905228081
 20
12.88312837501243
 30
0.0
 10
40.77898751771551
 20
13.28529616278909
 30
0.0
 10
39.40085611369433
 20
13.63182832366073
 30
0.0
 10
38.43129707040461
 20
13.87735038654137
 30
0.0
 10
37.97202236700361
 20
13.99365281638133
 30
0.0
 10
37.6039789527521
 20
14.08740951647923
 30
0.0
 10
37.35011676024551
 20
14.15282454131714
 30
0.0
 10
37.35011512685148
 20
14.15282496220892
 30
0.0
 10
37.35011349344897
 20
14.15282538310288
 30
0.0
 10
37.35011185873556
 20
14.15282580433465
 30
0.0
  0
CIRCLE
  5
170
330
70
100
AcDbEntity
  8
sinclair sign final v1_Sketch1
100
AcDbCircle
 10
57.26532723161194
 20
-42.86810461977561
 30
0.0
 40
0.381
  0
SPLINE
  5
171
330
70
100
AcDbEntity
  8
sinclair sign final v1_Sketch1
100
AcDbSpline
210
0.0
220
0.0
230
1.0
 70
     8
 71
     3
 72
    17
 73
    13
 74
     0
 42
0.000000001
 43
0.0000000001
 40
-0.0000067084435238
 40
-0.0000067084435238
 40
-0.0000067084435238
 40
-0.0000067084435238
 40
0.0
 40
0.0
 40
0.0
 40
0.1090844111493347
 40
0.1090844111493347
 40
0.1090844111493347
 40
0.4001318271123115
 40
0.4001318271123115
 40
0.4001318271123115
 40
1.0
 40
1.0
 40
1.0
 40
1.0
 10
42.54813365307479
 20
-53.32383873742962
 30
0.0
 10
42.54813572870175
 20
-53.32383812924132
 30
0.0
 10
42.54813780438518
 20
-53.32383752103646
 30
0.0
 10
42.54813988006804
 20
-53.32383691283177
 30
0.0
 10
42.56077093722514
 20
-53.32013583288804
 30
0.0
 10
42.60562294934059
 20
-53.30735767989358
 30
0.0
 10
42.66511845782469
 20
-53.29085462560129
 30
0.0
 10
42.82385804144857
 20
-53.24682293256047
 30
0.0
 10
43.09965707855334
 20
-53.17207251878111
 30
0.0
 10
43.44647351233612
 20
-53.07912098324372
 30
0.0
 10
44.16128535758939
 20
-52.88754165722419
 30
0.0
 10
45.18712804178388
 20
-52.61593697805334
 30
0.0
 10
46.23519878948427
 20
-52.34133355260498
 30
0.0
  0
SPLINE
  5
172
330
70
100
AcDbEntity
  8
sinclair sign final v1_Sketch1
100
AcDbSpline
210
0.0
220
0.0
230
1.0
 70
     8
 71
     3
 72
    14
 73
    10
 74
     0
 42
0.000000001
 43
0.0000000001
 40
0.0
 40
0.0
 40
0.0
 40
0.0
 40
0.7894878830431403
 40
0.7894878830431403
 40
0.7894878830431403
 40
1.0
 40
1.0
 40
1.0
 40
1.000000955555895
 40
1.000000955555895
 40
1.000000955555895
 40
1.000000955555895
 10
63.46658556147527
 20
0.3839716398396593
 30
0.0
 10
63.21644329989182
 20
1.850324387105649
 30
0.0
 10
62.93993822117258
 20
3.467205194648573
 30
0.0
 10
62.77421420105365
 20
4.433141386522437
 30
0.0
 10
62.73002490435239
 20
4.690702366195506
 30
0.0
 10
62.69372510529322
 20
4.901907090914034
 30
0.0
 10
62.66777435123028
 20
5.052370609228721
 30
0.0
 10
62.66777423447877
 20
5.052371286158714
 30
0.0
 10
62.66777411770814
 20
5.052371963199503
 30
0.0
 10
62.66777400102917
 20
5.052372639708804
 30
0.0
  0
SPLINE
  5
173
330
70
100
AcDbEntity
  8
sinclair sign final v1_Sketch1
100
AcDbSpline
210
0.0
220
0.0
230
1.0
 70
    12
 71
     3
 72
     8
 73
     4
 74
     0
 42
0.000000001
 43
0.0000000001
 40
0.0
 40
0.0
 40
0.0
 40
0.0
 40
1.0
 40
1.0
 40
1.0
 40
1.0
 10
81.82031438635339
 20
-47.43426034287025
 30
0.0
 41
1.0
 10
81.18527961073867
 20
-47.79125762918996
 30
0.0
 41
1.0
 10
80.44028674851409
 20
-47.70944217434929
 30
0.0
 41
1.0
 10
78.85729184840672
 20
-47.10886223605679
 30
0.0
 41
1.0
  0
CIRCLE
  5
174
330
70
100
AcDbEntity
  8
sinclair sign final v1_Sketch1
100
AcDbCircle
 10
55.54906348696484
 20
2.817201725830521
 30
0.0
 40
0.381
  0
SPLINE
  5
175
330
70
100
AcDbEntity
  8
sinclair sign final v1_Sketch1
100
AcDbSpline
210
0.0
220
0.0
230
1.0
 70
     8
 71
     3
 72
    32
 73
    28
 74
     0
 42
0.000000001
 43
0.0000000001
 40
0.0
 40
0.0
 40
0.0
 40
0.0
 40
0.25
 40
0.25
 40
0.25
 40
0.4375
 40
0.4375
 40
0.4375
 40
0.5646577767259405
 40
0.5646577767259405
 40
0.5646577767259405
 40
0.6618105586884833
 40
0.6618105586884833
 40
0.6618105586884833
 40
0.7316122316962105
 40
0.7316122316962105
 40
0.7316122316962105
 40
0.7967154623415036
 40
0.7967154623415036
 40
0.7967154623415036
 40
0.8636942655265521
 40
0.8636942655265521
 40
0.8636942655265521
 40
0.9386655773247092
 40
0.9386655773247092
 40
0.9386655773247092
 40
0.944632537979937
 40
0.944632537979937
 40
0.944632537979937
 40
0.944632537979937
 10
58.3608392065717
 20
-49.14772401585873
 30
0.0
 10
59.0512746907214
 20
-48.96711603608182
 30
0.0
 10
59.57123466777908
 20
-48.83131528638532
 30
0.0
 10
59.98146196770216
 20
-48.71893168527279
 30
0.0
 10
60.28913244264447
 20
-48.63464398443838
 30
0.0
 10
60.5334065636406
 20
-48.56480133566015
 30
0.0
 10
60.76506936132672
 20
-48.48829780505724
 30
0.0
 10
60.92217723494741
 20
-48.43641503778711
 30
0.0
 10
61.07365559755603
 20
-48.38290141492866
 30
0.0
 10
61.25507706395243
 20
-48.30050463620165
 30
0.0
 10
61.39368911444559
 20
-48.23755074943045
 30
0.0
 10
61.55258636962578
 20
-48.15815019016085
 30
0.0
 10
61.74415084313597
 20
-48.0234572581291
 30
0.0
 10
61.8817847890688
 20
-47.92668399226672
 30
0.0
 10
62.03736125335385
 20
-47.7984818401408
 30
0.0
 10
62.18956567216364
 20
-47.62743800095637
 30
0.0
 10
62.33152501147504
 20
-47.46790734741963
 30
0.0
 10
62.46719520614057
 20
-47.26951716119049
 30
0.0
 10
62.56731816548929
 20
-47.06352137602809
 30
0.0
 10
62.67032558804043
 20
-46.85159101535957
 30
0.0
 10
62.7341111310725
 20
-46.63749867420447
 30
0.0
 10
62.76865342158107
 20
-46.46474673267362
 30
0.0
 10
62.80731760649917
 20
-46.27138048758761
 30
0.0
 10
62.8143752515254
 20
-46.12989872907928
 30
0.0
 10
62.81762852502613
 20
-46.04105752742335
 30
0.0
 10
62.81788745280148
 20
-46.03398666335375
 30
0.0
 10
62.8181099293454
 20
-46.02722773874782
 30
0.0
 10
62.81830305348824
 20
-46.02077777368154
 30
0.0
  0
SPLINE
  5
176
330
70
100
AcDbEntity
  8
sinclair sign final v1_Sketch1
100
AcDbSpline
210
0.0
220
0.0
230
1.0
 70
     8
 71
     3
 72
    17
 73
    13
 74
     0
 42
0.000000001
 43
0.0000000001
 40
0.0
 40
0.0
 40
0.0
 40
0.0
 40
0.4078471149368357
 40
0.4078471149368357
 40
0.4078471149368357
 40
0.7162376793680993
 40
0.7162376793680993
 40
0.7162376793680993
 40
0.9417647219066399
 40
0.9417647219066399
 40
0.9417647219066399
 40
0.9999957011783184
 40
0.9999957011783184
 40
0.9999957011783184
 40
0.9999957011783184
 10
64.47805129060722
 20
-35.42637662848303
 30
0.0
 10
64.68100257754632
 20
-34.15026562540611
 30
0.0
 10
65.0664046608196
 20
-31.764811141788
 30
0.0
 10
65.47363634114303
 20
-29.25723006397953
 30
0.0
 10
65.78156154926587
 20
-27.36114127084862
 30
0.0
 10
66.10216035427727
 20
-25.39400219349572
 30
0.0
 10
66.36650068917758
 20
-23.7793526954416
 30
0.0
 10
66.55981365276865
 20
-22.59855416256804
 30
0.0
 10
66.7231548965698
 20
-21.605587421117
 30
0.0
 10
66.82893675312286
 20
-20.96982319226421
 30
0.0
 10
66.856249580121
 20
-20.80566915904812
 30
0.0
 10
66.87972160997606
 20
-20.66535174747109
 30
0.0
 10
66.89874586382625
 20
-20.5525476017856
 30
0.0
  0
CIRCLE
  5
177
330
70
100
AcDbEntity
  8
sinclair sign final v1_Sketch1
100
AcDbCircle
 10
20.87459207454918
 20
9.414787029928453
 30
0.0
 40
0.381
  0
SPLINE
  5
178
330
70
100
AcDbEntity
  8
sinclair sign final v1_Sketch1
100
AcDbSpline
210
0.0
220
0.0
230
1.0
 70
     8
 71
     3
 72
     8
 73
     4
 74
     0
 42
0.000000001
 43
0.0000000001
 40
0.0
 40
0.0
 40
0.0
 40
0.0
 40
0.999998323045483
 40
0.999998323045483
 40
0.999998323045483
 40
0.999998323045483
 10
30.7828062273224
 20
15.83810329493546
 30
0.0
 10
28.78960380028549
 20
16.34788155900515
 30
0.0
 10
25.92024931765039
 20
17.08288455291977
 30
0.0
 10
24.40892286687454
 20
17.47080511619313
 30
0.0
  0
SPLINE
  5
179
330
70
100
AcDbEntity
  8
sinclair sign final v1_Sketch1
100
AcDbSpline
210
0.0
220
0.0
230
1.0
 70
    12
 71
     3
 72
     8
 73
     4
 74
     0
 42
0.000000001
 43
0.0000000001
 40
0.0
 40
0.0
 40
0.0
 40
0.0
 40
1.0
 40
1.0
 40
1.0
 40
1.0
 10
72.59967380641454
 20
-54.8185403105359
 30
0.0
 41
1.0
 10
73.61945362959855
 20
-55.59623493758246
 30
0.0
 41
1.0
 10
74.29117416559212
 20
-55.83804687187479
 30
0.0
 41
1.0
 10
75.42649653647893
 20
-55.83616646793887
 30
0.0
 41
1.0
  0
CIRCLE
  5
17A
330
70
100
AcDbEntity
  8
sinclair sign final v1_Sketch1
100
AcDbCircle
 10
61.35326744614534
 20
-20.50795289108723
 30
0.0
 40
0.381
  0
SPLINE
  5
17B
330
70
100
AcDbEntity
  8
sinclair sign final v1_Sketch1
100
AcDbSpline
210
0.0
220
0.0
230
1.0
 70
     8
 71
     3
 72
    32
 73
    28
 74
     0
 42
0.000000001
 43
0.0000000001
 40
0.0
 40
0.0
 40
0.0
 40
0.0
 40
0.0038470854085962
 40
0.0038470854085962
 40
0.0038470854085962
 40
0.0095271294636385
 40
0.0095271294636385
 40
0.0095271294636385
 40
0.0186645624210398
 40
0.0186645624210398
 40
0.0186645624210398
 40
0.0344111852879814
 40
0.0344111852879814
 40
0.0344111852879814
 40
0.0636415317294235
 40
0.0636415317294235
 40
0.0636415317294235
 40
0.1226598907729176
 40
0.1226598907729176
 40
0.1226598907729176
 40
0.2538836218421827
 40
0.2538836218421827
 40
0.2538836218421827
 40
0.5848004323704595
 40
0.5848004323704595
 40
0.5848004323704595
 40
0.9999998289021291
 40
0.9999998289021291
 40
0.9999998289021291
 40
0.9999998289021291
 10
61.6044330931054
 20
7.756902589655586
 30
0.0
 10
61.4874793191214
 20
7.861387804396788
 30
0.0
 10
61.40445527626425
 20
7.918116898215498
 30
0.0
 10
61.33780171303023
 20
7.96201145658574
 30
0.0
 10
61.23939080311154
 20
8.026819746197004
 30
0.0
 10
61.17609682867931
 20
8.060045661233925
 30
0.0
 10
61.12533756994234
 20
8.086194904751383
 30
0.0
 10
61.04368163220982
 20
8.12826094459405
 30
0.0
 10
60.99577386711853
 20
8.148387044338821
 30
0.0
 10
60.95693635196678
 20
8.164665479293031
 30
0.0
 10
60.89000730230531
 20
8.192718257057086
 30
0.0
 10
60.85308545210171
 20
8.205678986903219
 30
0.0
 10
60.82148896172472
 20
8.216856554210098
 30
0.0
 10
60.76283661652936
 20
8.237605394613115
 30
0.0
 10
60.72746322842785
 20
8.248571066341266
 30
0.0
 10
60.6921457012265
 20
8.259516793596889
 30
0.0
 10
60.62083684742713
 20
8.281617074291762
 30
0.0
 10
60.55684263148879
 20
8.299983301016201
 30
0.0
 10
60.48009840955597
 20
8.321599669635677
 30
0.0
 10
60.3094623006697
 20
8.369662350272502
 30
0.0
 10
60.08542017573343
 20
8.430036000054865
 30
0.0
 10
59.7987446660272
 20
8.505831689627422
 30
0.0
 10
59.07581334441677
 20
8.696971414437577
 30
0.0
 10
57.96723738203954
 20
8.982140632769588
 30
0.0
 10
56.58923131190707
 20
9.331889440941466
 30
0.0
 10
54.86025511446761
 20
9.770717235331279
 30
0.0
 10
52.71068912630615
 20
10.31022112358024
 30
0.0
 10
50.39490316218691
 20
10.88543730103093
 30
0.0
  0
SPLINE
  5
17C
330
70
100
AcDbEntity
  8
sinclair sign final v1_Sketch1
100
AcDbSpline
210
0.0
220
0.0
230
1.0
 70
     8
 71
     3
 72
     8
 73
     4
 74
     0
 42
0.000000001
 43
0.0000000001
 40
0.0
 40
0.0
 40
0.0
 40
0.0
 40
1.0
 40
1.0
 40
1.0
 40
1.0
 10
11.24419701940212
 20
-21.89370289793862
 30
0.0
 10
11.24038079238134
 20
-32.20894551296897
 30
0.0
 10
11.91907634613433
 20
-41.3779723100904
 30
0.0
 10
13.46406231591323
 20
-51.90144440946719
 30
0.0
  0
SPLINE
  5
17D
330
70
100
AcDbEntity
  8
sinclair sign final v1_Sketch1
100
AcDbSpline
210
0.0
220
0.0
230
1.0
 70
     8
 71
     3
 72
    32
 73
    28
 74
     0
 42
0.000000001
 43
0.0000000001
 40
-0.0000009539023473
 40
-0.0000009539023473
 40
-0.0000009539023473
 40
-0.0000009539023473
 40
0.0
 40
0.0
 40
0.0
 40
0.4246456135376259
 40
0.4246456135376259
 40
0.4246456135376259
 40
0.6496287426231752
 40
0.6496287426231752
 40
0.6496287426231752
 40
0.7846664148913979
 40
0.7846664148913979
 40
0.7846664148913979
 40
0.8713356187794323
 40
0.8713356187794323
 40
0.8713356187794323
 40
0.9300866496709538
 40
0.9300866496709538
 40
0.9300866496709538
 40
0.9650433248354769
 40
0.9650433248354769
 40
0.9650433248354769
 40
0.9950117185562742
 40
0.9950117185562742
 40
0.9950117185562742
 40
1.0
 40
1.0
 40
1.0
 40
1.0
 10
62.66777400086386
 20
5.052372640667327
 30
0.0
 10
62.66777388399908
 20
5.052373318246762
 30
0.0
 10
62.66777376721609
 20
5.052373995351947
 30
0.0
 10
62.66777365037157
 20
5.052374672813894
 30
0.0
 10
62.60946986068786
 20
5.390418757280433
 30
0.0
 10
62.54636915575364
 20
5.708710325917432
 30
0.0
 10
62.48237047219774
 20
5.990484845576804
 30
0.0
 10
62.44846308301312
 20
6.139772889791873
 30
0.0
 10
62.41471849493072
 20
6.277895460219286
 30
0.0
 10
62.37665814903725
 20
6.415405753280242
 30
0.0
 10
62.35381385606263
 20
6.497941141437331
 30
0.0
 10
62.32997717257774
 20
6.579426180704546
 30
0.0
 10
62.29722008552132
 20
6.676084567203917
 30
0.0
 10
62.27619609562887
 20
6.738121369721988
 30
0.0
 10
62.2523125215477
 20
6.805614518030902
 30
0.0
 10
62.21309484134557
 20
6.897892087915202
 30
0.0
 10
62.18651009108032
 20
6.960444899244477
 30
0.0
 10
62.15414125422579
 20
7.033732879382083
 30
0.0
 10
62.09554787477808
 20
7.139583519183267
 30
0.0
 10
62.06068500171756
 20
7.202564310759815
 30
0.0
 10
62.016910693859
 20
7.277329251413978
 30
0.0
 10
61.94663215456235
 20
7.375450516204968
 30
0.0
 10
61.88638229024165
 20
7.459569977847107
 30
0.0
 10
61.80821459955179
 20
7.561668220304566
 30
0.0
 10
61.67575411772837
 20
7.690432494435977
 30
0.0
 10
61.65370588352327
 20
7.711865489652486
 30
0.0
 10
61.63005262549422
 20
7.734012956566378
 30
0.0
 10
61.60448586968419
 20
7.756855438171837
 30
0.0
  0
SPLINE
  5
17E
330
70
100
AcDbEntity
  8
sinclair sign final v1_Sketch1
100
AcDbSpline
210
0.0
220
0.0
230
1.0
 70
    12
 71
     3
 72
     8
 73
     4
 74
     0
 42
0.000000001
 43
0.0000000001
 40
0.0
 40
0.0
 40
0.0
 40
0.0
 40
1.0
 40
1.0
 40
1.0
 40
1.0
 10
109.76411644958
 20
-19.55655521718078
 30
0.0
 41
1.0
 10
109.168212960944
 20
-19.74607780591062
 30
0.0
 41
1.0
 10
108.4978181979511
 20
-19.93594376030976
 30
0.0
 41
1.0
 10
108.2743558204029
 20
-19.97848295155577
 30
0.0
 41
1.0
  0
SPLINE
  5
17F
330
70
100
AcDbEntity
  8
sinclair sign final v1_Sketch1
100
AcDbSpline
210
0.0
220
0.0
230
1.0
 70
     8
 71
     3
 72
    11
 73
     7
 74
     0
 42
0.000000001
 43
0.0000000001
 40
-0.0000010108662061
 40
-0.0000010108662061
 40
-0.0000010108662061
 40
-0.0000010108662061
 40
0.0
 40
0.0
 40
0.0
 40
1.0
 40
1.0
 40
1.0
 40
1.0
 10
37.35011186011846
 20
14.15282580397831
 30
0.0
 10
37.35011022428816
 20
14.15282622549015
 30
0.0
 10
37.35010859063193
 20
14.15282664644178
 30
0.0
 10
37.35010695688519
 20
14.15282706741673
 30
0.0
 10
35.73160279906276
 20
14.56987439680813
 30
0.0
 10
32.7785661338382
 20
15.32767093400566
 30
0.0
 10
30.78280622732235
 20
15.83810329493547
 30
0.0
  0
SPLINE
  5
180
330
70
100
AcDbEntity
  8
sinclair sign final v1_Sketch1
100
AcDbSpline
210
0.0
220
0.0
230
1.0
 70
    12
 71
     3
 72
     8
 73
     4
 74
     0
 42
0.000000001
 43
0.0000000001
 40
0.0
 40
0.0
 40
0.0
 40
0.0
 40
1.0
 40
1.0
 40
1.0
 40
1.0
 10
75.32074372552386
 20
16.67991499861656
 30
0.0
 41
1.0
 10
73.91400414620392
 20
16.53826521452839
 30
0.0
 41
1.0
 10
72.2192885490512
 20
15.4170923705953
 30
0.0
 41
1.0
 10
71.61709717659705
 20
14.2296957345861
 30
0.0
 41
1.0
  0
SPLINE
  5
181
330
70
100
AcDbEntity
  8
sinclair sign final v1_Sketch1
100
AcDbSpline
210
0.0
220
0.0
230
1.0
 70
     8
 71
     3
 72
    20
 73
    16
 74
     0
 42
0.000000001
 43
0.0000000001
 40
-0.0000037468577828
 40
-0.0000037468577828
 40
-0.0000037468577828
 40
-0.0000037468577828
 40
0.0
 40
0.0
 40
0.0
 40
0.2458506776201919
 40
0.2458506776201919
 40
0.2458506776201919
 40
0.5536275512471245
 40
0.5536275512471245
 40
0.5536275512471245
 40
0.8000894073287765
 40
0.8000894073287765
 40
0.8000894073287765
 40
1.0
 40
1.0
 40
1.0
 40
1.0
 10
20.13039154924284
 20
18.1634554697744
 30
0.0
 10
20.13038627789817
 20
18.16345493898329
 30
0.0
 10
20.13038100723528
 20
18.16345440826085
 30
0.0
 10
20.13037573671925
 20
18.16345387755321
 30
0.0
 10
19.53516332508342
 20
18.10351974984807
 30
0.0
 10
18.98441112062635
 20
17.95374461353018
 30
0.0
 10
18.46362809045433
 20
17.75178727466149
 30
0.0
 10
17.81166741897745
 20
17.49895983092733
 30
0.0
 10
17.20598318486538
 20
17.16224920638981
 30
0.0
 10
16.64875600082312
 20
16.7574002732579
 30
0.0
 10
16.20253908913704
 20
16.43320496151622
 30
0.0
 10
15.78778231762554
 20
16.06532463937791
 30
0.0
 10
15.41645191749729
 20
15.64093317710947
 30
0.0
 10
15.11525772239277
 20
15.29669999597744
 30
0.0
 10
14.84129979444424
 20
14.91506264061535
 30
0.0
 10
14.61696263755956
 20
14.47271624111258
 30
0.0
  0
SPLINE
  5
182
330
70
100
AcDbEntity
  8
sinclair sign final v1_Sketch1
100
AcDbSpline
210
0.0
220
0.0
230
1.0
 70
     8
 71
     3
 72
    11
 73
     7
 74
     0
 42
0.000000001
 43
0.0000000001
 40
0.0
 40
0.0
 40
0.0
 40
0.0
 40
0.3500988471752174
 40
0.3500988471752174
 40
0.3500988471752174
 40
1.0
 40
1.0
 40
1.0
 40
1.0
 10
64.34291233500809
 20
-4.575517594514976
 30
0.0
 10
64.28669620655313
 20
-4.278808134009302
 30
0.0
 10
64.19988282653858
 20
-3.802483722590616
 30
0.0
 10
64.09861645185404
 20
-3.236182589774744
 30
0.0
 10
63.91063201779807
 20
-2.184937314240257
 30
0.0
 10
63.6712011953617
 20
-0.8155005924159956
 30
0.0
 10
63.46658556147527
 20
0.3839716398396522
 30
0.0
  0
LINE
  5
183
330
70
100
AcDbEntity
  8
sinclair sign final v1_Sketch1
100
AcDbLine
 10
79.48950339518539
 20
-42.12833080426266
 30
0.0
 11
78.86308423648826
 21
-41.89031162992525
 31
0.0
  0
SPLINE
  5
184
330
70
100
AcDbEntity
  8
sinclair sign final v1_Sketch1
100
AcDbSpline
210
0.0
220
0.0
230
1.0
 70
     8
 71
     3
 72
    11
 73
     7
 74
     0
 42
0.000000001
 43
0.0000000001
 40
0.0
 40
0.0
 40
0.0
 40
0.0
 40
0.8547696561197406
 40
0.8547696561197406
 40
0.8547696561197406
 40
1.0
 40
1.0
 40
1.0
 40
1.0
 10
13.43436263492729
 20
9.394728464520566
 30
0.0
 10
12.11898972222924
 20
0.4209701736531346
 30
0.0
 10
11.45415296817561
 20
-7.648096653220795
 30
0.0
 10
11.28724834729472
 20
-17.00280038073086
 30
0.0
 10
11.25889027993449
 20
-18.59221903816377
 30
0.0
 10
11.24481665161522
 20
-20.21885481741087
 30
0.0
 10
11.24419701940486
 20
-21.89370289051426
 30
0.0
  0
SPLINE
  5
185
330
70
100
AcDbEntity
  8
sinclair sign final v1_Sketch1
100
AcDbSpline
210
0.0
220
0.0
230
1.0
 70
    12
 71
     3
 72
     8
 73
     4
 74
     0
 42
0.000000001
 43
0.0000000001
 40
0.0
 40
0.0
 40
0.0
 40
0.0
 40
1.0
 40
1.0
 40
1.0
 40
1.0
 10
107.3054809114788
 20
-47.57791213956879
 30
0.0
 41
1.0
 10
109.230720773444
 20
-47.06869512930917
 30
0.0
 41
1.0
 10
111.6779031588886
 20
-46.42396504250572
 30
0.0
 41
1.0
 10
112.7436605989788
 20
-46.14517882529306
 30
0.0
 41
1.0
  0
CIRCLE
  5
186
330
70
100
AcDbEntity
  8
sinclair sign final v1_Sketch1
100
AcDbCircle
 10
38.54987973046024
 20
-12.87435251094297
 30
0.0
 40
0.381
  0
SPLINE
  5
187
330
70
100
AcDbEntity
  8
sinclair sign final v1_Sketch1
100
AcDbSpline
210
0.0
220
0.0
230
1.0
 70
    12
 71
     3
 72
     8
 73
     4
 74
     0
 42
0.000000001
 43
0.0000000001
 40
0.0
 40
0.0
 40
0.0
 40
0.0
 40
1.0
 40
1.0
 40
1.0
 40
1.0
 10
70.68715755008216
 20
-50.77842926541375
 30
0.0
 41
1.0
 10
71.02325245128625
 20
-53.06769968715715
 30
0.0
 41
1.0
 10
71.42970345501655
 20
-53.92630938795613
 30
0.0
 41
1.0
 10
72.59967380641454
 20
-54.8185403105359
 30
0.0
 41
1.0
  0
SPLINE
  5
188
330
70
100
AcDbEntity
  8
sinclair sign final v1_Sketch1
100
AcDbSpline
210
0.0
220
0.0
230
1.0
 70
    12
 71
     3
 72
     8
 73
     4
 74
     0
 42
0.000000001
 43
0.0000000001
 40
0.0
 40
0.0
 40
0.0
 40
0.0
 40
1.0
 40
1.0
 40
1.0
 40
1.0
 10
70.95729286001675
 20
12.10443010958609
 30
0.0
 41
1.0
 10
70.95872307340854
 20
12.00129069289148
 30
0.0
 41
1.0
 10
70.8238313933467
 20
10.98866718253076
 30
0.0
 41
1.0
 10
70.65753367696754
 20
9.854148859586102
 30
0.0
 41
1.0
  0
ENDSEC
  0
SECTION
  2
OBJECTS
  0
DICTIONARY
  5
C
330
0
100
AcDbDictionary
281
     1
  3
ACAD_COLOR
350
63
  3
ACAD_DETAILVIEWSTYLE
350
6A
  3
ACAD_GROUP
350
D
  3
ACAD_LAYOUT
350
62
  3
ACAD_MATERIAL
350
10
  3
ACAD_MLEADERSTYLE
350
66
  3
ACAD_MLINESTYLE
350
5F
  3
ACAD_PLOTSETTINGS
350
61
  3
ACAD_PLOTSTYLENAME
350
E
  3
ACAD_SCALELIST
350
42
  3
ACAD_SECTIONVIEWSTYLE
350
68
  3
ACAD_TABLESTYLE
350
64
  3
ACAD_VISUALSTYLE
350
29
  3
ACDB_RECOMPOSE_DATA
350
191
  3
AcDbVariableDictionary
350
189
  0
DICTIONARY
  5
63
102
{ACAD_REACTORS
330
C
102
}
330
C
100
AcDbDictionary
281
     1
  0
DICTIONARY
  5
6A
102
{ACAD_REACTORS
330
C
102
}
330
C
100
AcDbDictionary
281
     1
  3
Imperial24
350
6B
  0
DICTIONARY
  5
D
102
{ACAD_REACTORS
330
C
102
}
330
C
100
AcDbDictionary
281
     1
  0
DICTIONARY
  5
62
102
{ACAD_REACTORS
330
C
102
}
330
C
100
AcDbDictionary
281
     1
  3
Layout1
350
6F
  3
Layout2
350
77
  3
Model
350
73
  0
DICTIONARY
  5
10
102
{ACAD_REACTORS
330
C
102
}
330
C
100
AcDbDictionary
281
     1
  3
ByBlock
350
19
  3
ByLayer
350
11
  3
Global
350
21
  0
DICTIONARY
  5
66
102
{ACAD_REACTORS
330
C
102
}
330
C
100
AcDbDictionary
281
     1
  3
Standard
350
67
  0
DICTIONARY
  5
5F
102
{ACAD_REACTORS
330
C
102
}
330
C
100
AcDbDictionary
281
     1
  3
Standard
350
60
  0
DICTIONARY
  5
61
102
{ACAD_REACTORS
330
C
102
}
330
C
100
AcDbDictionary
281
     1
  0
ACDBDICTIONARYWDFLT
  5
E
102
{ACAD_REACTORS
330
C
102
}
330
C
100
AcDbDictionary
281
     1
  3
Normal
350
F
100
AcDbDictionaryWithDefault
340
F
  0
DICTIONARY
  5
42
102
{ACAD_REACTORS
330
C
102
}
330
C
100
AcDbDictionary
281
     1
  3
A0
350
43
  3
A1
350
44
  3
A2
350
45
  3
A3
350
46
  3
A4
350
47
  3
A5
350
48
  3
A6
350
49
  3
A7
350
4A
  3
A8
350
4B
  3
A9
350
4C
  3
B0
350
4D
  3
B1
350
4E
  3
B2
350
4F
  3
B3
350
50
  3
B4
350
51
  3
B5
350
52
  3
B6
350
53
  0
DICTIONARY
  5
68
102
{ACAD_REACTORS
330
C
102
}
330
C
100
AcDbDictionary
281
     1
  3
Imperial24
350
69
  0
DICTIONARY
  5
64
102
{ACAD_REACTORS
330
C
102
}
330
C
100
AcDbDictionary
281
     1
  3
Standard
350
65
  0
DICTIONARY
  5
29
102
{ACAD_REACTORS
330
C
102
}
330
C
100
AcDbDictionary
281
     1
  3
2dWireframe
350
2F
  3
Basic
350
2E
  3
Brighten
350
35
  3
ColorChange
350
39
  3
Conceptual
350
32
  3
Dim
350
34
  3
EdgeColorOff
350
41
  3
Facepattern
350
38
  3
Flat
350
2A
  3
FlatWithEdges
350
2B
  3
Gouraud
350
2C
  3
GouraudWithEdges
350
2D
  3
Hidden
350
31
  3
JitterOff
350
3F
  3
Linepattern
350
37
  3
OverhangOff
350
40
  3
Realistic
350
33
  3
Shaded
350
3E
  3
Shaded with edges
350
3D
  3
Shades of Gray
350
3A
  3
Sketchy
350
3B
  3
Thicken
350
36
  3
Wireframe
350
30
  3
X-Ray
350
3C
  0
XRECORD
  5
191
102
{ACAD_REACTORS
330
C
102
}
330
C
100
AcDbXrecord
280
     1
 90
        1
330
65
  0
DICTIONARY
  5
189
102
{ACAD_REACTORS
330
C
102
}
330
C
100
AcDbDictionary
281
     1
  3
CANNOSCALE
350
18E
  3
CMLEADERSTYLE
350
18B
  3
CTABLESTYLE
350
18A
  3
CVIEWDETAILSTYLE
350
18C
  3
CVIEWSECTIONSTYLE
350
18D
  0
ACDBDETAILVIEWSTYLE
  5
6B
102
{ACAD_XDICTIONARY
360
194
102
}
102
{ACAD_REACTORS
330
6A
102
}
330
6A
100
AcDbModelDocViewStyle
 70
     0
  3
Imperial24
290
     0
100
AcDbDetailViewStyle
 70
     0
 71
     0
 90
        3
 71
     1
340
55
 62
   256
 40
0.24
340
0
 62
   256
 40
0.24
300

 40
0.36
280
     3
 71
     2
340
5D
 90
       25
 62
   256
 71
     3
340
55
 62
   256
 40
0.24
 90
        1
 40
0.75
 90
        1
300
%<\AcVar ViewType \f "%tc1">% %<\AcVar ViewDetailId>%\PSCALE %<\AcVar ViewScale \f "%sn">%
 71
     4
340
5D
 90
       25
 62
   256
340
5D
 90
       25
 62
   256
280
     0
  0
LAYOUT
  5
6F
102
{ACAD_REACTORS
330
62
102
}
330
62
100
AcDbPlotSettings
  1

  2

  4

  6

 40
0.0
 41
0.0
 42
0.0
 43
0.0
 44
0.0
 45
0.0
 46
0.0
 47
0.0
 48
0.0
 49
0.0
140
0.0
141
0.0
142
1.0
143
1.0
 70
   688
 72
     0
 73
     0
 74
     5
  7

 75
    16
147
1.0
 76
     0
 77
     2
 78
   300
148
0.0
149
0.0
100
AcDbLayout
  1
Layout1
 70
     1
 71
     1
 10
0.0
 20
0.0
 11
12.0
 21
9.0
 12
0.0
 22
0.0
 32
0.0
 14
0.0
 24
0.0
 34
0.0
 15
0.0
 25
0.0
 35
0.0
146
0.0
 13
0.0
 23
0.0
 33
0.0
 16
1.0
 26
0.0
 36
0.0
 17
0.0
 27
1.0
 37
0.0
 76
     0
330
6C
  0
LAYOUT
  5
77
102
{ACAD_REACTORS
330
62
102
}
330
62
100
AcDbPlotSettings
  1

  2

  4

  6

 40
0.0
 41
0.0
 42
0.0
 43
0.0
 44
0.0
 45
0.0
 46
0.0
 47
0.0
 48
0.0
 49
0.0
140
0.0
141
0.0
142
1.0
143
1.0
 70
   688
 72
     0
 73
     0
 74
     5
  7

 75
    16
147
1.0
 76
     0
 77
     2
 78
   300
148
0.0
149
0.0
100
AcDbLayout
  1
Layout2
 70
     1
 71
     2
 10
0.0
 20
0.0
 11
12.0
 21
9.0
 12
0.0
 22
0.0
 32
0.0
 14
0.0
 24
0.0
 34
0.0
 15
0.0
 25
0.0
 35
0.0
146
0.0
 13
0.0
 23
0.0
 33
0.0
 16
1.0
 26
0.0
 36
0.0
 17
0.0
 27
1.0
 37
0.0
 76
     0
330
74
  0
LAYOUT
  5
73
102
{ACAD_REACTORS
330
62
102
}
330
62
100
AcDbPlotSettings
  1

  2

  4

  6

 40
0.0
 41
0.0
 42
0.0
 43
0.0
 44
0.0
 45
0.0
 46
0.0
 47
0.0
 48
0.0
 49
0.0
140
0.0
141
0.0
142
1.0
143
1.0
 70
  1712
 72
     0
 73
     0
 74
     0
  7

 75
     0
147
1.0
 76
     0
 77
     2
 78
   300
148
0.0
149
0.0
100
AcDbLayout
  1
Model
 70
     1
 71
     0
 10
0.0
 20
0.0
 11
12.0
 21
9.0
 12
0.0
 22
0.0
 32
0.0
 14
0.0
 24
0.0
 34
0.0
 15
0.0
 25
0.0
 35
0.0
146
0.0
 13
0.0
 23
0.0
 33
0.0
 16
1.0
 26
0.0
 36
0.0
 17
0.0
 27
1.0
 37
0.0
 76
     0
330
70
  0
MATERIAL
  5
19
102
{ACAD_XDICTIONARY
360
1A
102
}
102
{ACAD_REACTORS
330
10
102
}
330
10
100
AcDbMaterial
  1
ByBlock
 72
     0
 43
0.0208333333333333
 43
0.0
 43
0.0
 43
0.0
 43
0.0
 43
0.0208333333333333
 43
0.0
 43
0.0
 43
0.0
 43
0.0
 43
1.0
 43
0.0
 43
0.0
 43
0.0
 43
0.0
 43
1.0
 77
     0
 47
0.0208333333333333
 47
0.0
 47
0.0
 47
0.0
 47
0.0
 47
0.0208333333333333
 47
0.0
 47
0.0
 47
0.0
 47
0.0
 47
1.0
 47
0.0
 47
0.0
 47
0.0
 47
0.0
 47
1.0
171
     0
 49
0.0208333333333333
 49
0.0
 49
0.0
 49
0.0
 49
0.0
 49
0.0208333333333333
 49
0.0
 49
0.0
 49
0.0
 49
0.0
 49
1.0
 49
0.0
 49
0.0
 49
0.0
 49
0.0
 49
1.0
175
     0
142
0.0208333333333333
142
0.0
142
0.0
142
0.0
142
0.0
142
0.0208333333333333
142
0.0
142
0.0
142
0.0
142
0.0
142
1.0
142
0.0
142
0.0
142
0.0
142
0.0
142
1.0
179
     0
144
0.0208333333333333
144
0.0
144
0.0
144
0.0
144
0.0
144
0.0208333333333333
144
0.0
144
0.0
144
0.0
144
0.0
144
1.0
144
0.0
144
0.0
144
0.0
144
0.0
144
1.0
147
0.0208333333333333
147
0.0
147
0.0
147
0.0
147
0.0
147
0.0208333333333333
147
0.0
147
0.0
147
0.0
147
0.0
147
1.0
147
0.0
147
0.0
147
0.0
147
0.0
147
1.0
  0
MATERIAL
  5
11
102
{ACAD_XDICTIONARY
360
12
102
}
102
{ACAD_REACTORS
330
10
102
}
330
10
100
AcDbMaterial
  1
ByLayer
 72
     0
 43
0.0208333333333333
 43
0.0
 43
0.0
 43
0.0
 43
0.0
 43
0.0208333333333333
 43
0.0
 43
0.0
 43
0.0
 43
0.0
 43
1.0
 43
0.0
 43
0.0
 43
0.0
 43
0.0
 43
1.0
 77
     0
 47
0.0208333333333333
 47
0.0
 47
0.0
 47
0.0
 47
0.0
 47
0.0208333333333333
 47
0.0
 47
0.0
 47
0.0
 47
0.0
 47
1.0
 47
0.0
 47
0.0
 47
0.0
 47
0.0
 47
1.0
171
     0
 49
0.0208333333333333
 49
0.0
 49
0.0
 49
0.0
 49
0.0
 49
0.0208333333333333
 49
0.0
 49
0.0
 49
0.0
 49
0.0
 49
1.0
 49
0.0
 49
0.0
 49
0.0
 49
0.0
 49
1.0
175
     0
142
0.0208333333333333
142
0.0
142
0.0
142
0.0
142
0.0
142
0.0208333333333333
142
0.0
142
0.0
142
0.0
142
0.0
142
1.0
142
0.0
142
0.0
142
0.0
142
0.0
142
1.0
179
     0
144
0.0208333333333333
144
0.0
144
0.0
144
0.0
144
0.0
144
0.0208333333333333
144
0.0
144
0.0
144
0.0
144
0.0
144
1.0
144
0.0
144
0.0
144
0.0
144
0.0
144
1.0
147
0.0208333333333333
147
0.0
147
0.0
147
0.0
147
0.0
147
0.0208333333333333
147
0.0
147
0.0
147
0.0
147
0.0
147
1.0
147
0.0
147
0.0
147
0.0
147
0.0
147
1.0
  0
MATERIAL
  5
21
102
{ACAD_XDICTIONARY
360
22
102
}
102
{ACAD_REACTORS
330
10
102
}
330
10
100
AcDbMaterial
  1
Global
 72
     0
 43
0.0208333333333333
 43
0.0
 43
0.0
 43
0.0
 43
0.0
 43
0.0208333333333333
 43
0.0
 43
0.0
 43
0.0
 43
0.0
 43
1.0
 43
0.0
 43
0.0
 43
0.0
 43
0.0
 43
1.0
 77
     0
 47
0.0208333333333333
 47
0.0
 47
0.0
 47
0.0
 47
0.0
 47
0.0208333333333333
 47
0.0
 47
0.0
 47
0.0
 47
0.0
 47
1.0
 47
0.0
 47
0.0
 47
0.0
 47
0.0
 47
1.0
171
     0
 49
0.0208333333333333
 49
0.0
 49
0.0
 49
0.0
 49
0.0
 49
0.0208333333333333
 49
0.0
 49
0.0
 49
0.0
 49
0.0
 49
1.0
 49
0.0
 49
0.0
 49
0.0
 49
0.0
 49
1.0
175
     0
142
0.0208333333333333
142
0.0
142
0.0
142
0.0
142
0.0
142
0.0208333333333333
142
0.0
142
0.0
142
0.0
142
0.0
142
1.0
142
0.0
142
0.0
142
0.0
142
0.0
142
1.0
179
     0
144
0.0208333333333333
144
0.0
144
0.0
144
0.0
144
0.0
144
0.0208333333333333
144
0.0
144
0.0
144
0.0
144
0.0
144
1.0
144
0.0
144
0.0
144
0.0
144
0.0
144
1.0
147
0.0208333333333333
147
0.0
147
0.0
147
0.0
147
0.0
147
0.0208333333333333
147
0.0
147
0.0
147
0.0
147
0.0
147
1.0
147
0.0
147
0.0
147
0.0
147
0.0
147
1.0
  0
MLEADERSTYLE
  5
67
102
{ACAD_REACTORS
330
66
102
}
330
66
100
AcDbMLeaderStyle
179
     2
170
     2
171
     1
172
     0
 90
        2
 40
0.0
 41
0.0
173
     1
 91
-1056964608
340
5B
 92
       -2
290
     1
 42
0.09
291
     1
 43
0.36
  3
Standard
 44
0.18
300

342
55
174
     1
178
     6
175
     1
176
     0
 93
-1056964608
 45
0.18
292
     0
297
     0
 46
0.18
 94
-1056964608
 47
1.0
 49
1.0
140
1.0
293
     1
141
0.0
294
     1
177
     0
142
1.0
295
     0
296
     0
143
0.125
271
     0
272
     9
273
     9
298
     1
  0
MLINESTYLE
  5
60
102
{ACAD_REACTORS
330
5F
102
}
330
5F
100
AcDbMlineStyle
  2
STANDARD
 70
     0
  3

 62
   256
 51
90.0
 52
90.0
 71
     2
 49
0.5
 62
   256
  6
BYLAYER
 49
-0.5
 62
   256
  6
BYLAYER
  0
ACDBPLACEHOLDER
  5
F
102
{ACAD_REACTORS
330
E
102
}
330
E
  0
SCALE
  5
43
102
{ACAD_REACTORS
330
42
102
}
330
42
100
AcDbScale
 70
     0
300
1:1
140
1.0
141
1.0
290
     1
  0
SCALE
  5
44
102
{ACAD_REACTORS
330
42
102
}
330
42
100
AcDbScale
 70
     0
300
1/128" = 1'-0"
140
0.0078125
141
12.0
290
     0
  0
SCALE
  5
45
102
{ACAD_REACTORS
330
42
102
}
330
42
100
AcDbScale
 70
     0
300
1/64" = 1'-0"
140
0.015625
141
12.0
290
     0
  0
SCALE
  5
46
102
{ACAD_REACTORS
330
42
102
}
330
42
100
AcDbScale
 70
     0
300
1/32" = 1'-0"
140
0.03125
141
12.0
290
     0
  0
SCALE
  5
47
102
{ACAD_REACTORS
330
42
102
}
330
42
100
AcDbScale
 70
     0
300
1/16" = 1'-0"
140
0.0625
141
12.0
290
     0
  0
SCALE
  5
48
102
{ACAD_REACTORS
330
42
102
}
330
42
100
AcDbScale
 70
     0
300
3/32" = 1'-0"
140
0.09375
141
12.0
290
     0
  0
SCALE
  5
49
102
{ACAD_REACTORS
330
42
102
}
330
42
100
AcDbScale
 70
     0
300
1/8" = 1'-0"
140
0.125
141
12.0
290
     0
  0
SCALE
  5
4A
102
{ACAD_REACTORS
330
42
102
}
330
42
100
AcDbScale
 70
     0
300
3/16" = 1'-0"
140
0.1875
141
12.0
290
     0
  0
SCALE
  5
4B
102
{ACAD_REACTORS
330
42
102
}
330
42
100
AcDbScale
 70
     0
300
1/4" = 1'-0"
140
0.25
141
12.0
290
     0
  0
SCALE
  5
4C
102
{ACAD_REACTORS
330
42
102
}
330
42
100
AcDbScale
 70
     0
300
3/8" = 1'-0"
140
0.375
141
12.0
290
     0
  0
SCALE
  5
4D
102
{ACAD_REACTORS
330
42
102
}
330
42
100
AcDbScale
 70
     0
300
1/2" = 1'-0"
140
0.5
141
12.0
290
     0
  0
SCALE
  5
4E
102
{ACAD_REACTORS
330
42
102
}
330
42
100
AcDbScale
 70
     0
300
3/4" = 1'-0"
140
0.75
141
12.0
290
     0
  0
SCALE
  5
4F
102
{ACAD_REACTORS
330
42
102
}
330
42
100
AcDbScale
 70
     0
300
1" = 1'-0"
140
1.0
141
12.0
290
     0
  0
SCALE
  5
50
102
{ACAD_REACTORS
330
42
102
}
330
42
100
AcDbScale
 70
     0
300
1-1/2" = 1'-0"
140
1.5
141
12.0
290
     0
  0
SCALE
  5
51
102
{ACAD_REACTORS
330
42
102
}
330
42
100
AcDbScale
 70
     0
300
3" = 1'-0"
140
3.0
141
12.0
290
     0
  0
SCALE
  5
52
102
{ACAD_REACTORS
330
42
102
}
330
42
100
AcDbScale
 70
     0
300
6" = 1'-0"
140
6.0
141
12.0
290
     0
  0
SCALE
  5
53
102
{ACAD_REACTORS
330
42
102
}
330
42
100
AcDbScale
 70
     0
300
1'-0" = 1'-0"
140
12.0
141
12.0
290
     0
  0
ACDBSECTIONVIEWSTYLE
  5
69
102
{ACAD_XDICTIONARY
360
192
102
}
102
{ACAD_REACTORS
330
68
102
}
330
68
100
AcDbModelDocViewStyle
 70
     0
  3
Imperial24
290
     0
100
AcDbSectionViewStyle
 70
     0
 71
     0
 90
       78
 71
     1
340
55
 62
   256
 40
0.24
340
0
340
0
 62
   256
 40
0.24
300
I, O, Q, S, X, Z
 40
0.48
 90
        3
 40
0.18
 90
        1
 71
     2
340
5D
 90
       25
 62
   256
340
5D
 90
       50
 62
   256
 40
0.24
 40
0.0
 40
0.24
 71
     3
340
55
 62
   256
 40
0.24
 90
        1
 40
0.75
 90
        1
300
%<\AcVar ViewType \f "%tc1">% %<\AcVar ViewSectionStartId>%-%<\AcVar ViewSectionEndId>%\PSCALE %<\AcVar ViewScale \f "%sn">%
 71
     4
 62
   256
 62
   257
300
ANSI31
 40
1.0
 90
        0
290
     0
290
     0
 90
        6
 40
0.0
 40
1.570796326794896
 40
0.2617993877991494
 40
1.308996938995747
 40
-0.2617993877991494
 40
1.832595714594046
  0
TABLESTYLE
  5
65
102
{ACAD_XDICTIONARY
360
18F
102
}
102
{ACAD_REACTORS
330
64
102
}
330
64
100
AcDbTableStyle
280
     0
  3
Standard
 70
     0
 71
     0
 40
0.06
 41
0.06
280
     0
281
     0
  7
Standard
140
0.18
170
     2
 62
     0
 63
     7
283
     0
 90
      512
 91
        0
  1

274
    -2
284
     1
 64
     0
275
    -2
285
     1
 65
     0
276
    -2
286
     1
 66
     0
277
    -2
287
     1
 67
     0
278
    -2
288
     1
 68
     0
279
    -2
289
     1
 69
     0
  7
Standard
140
0.25
170
     5
 62
     0
 63
     7
283
     0
 90
      512
 91
        0
  1

274
    -2
284
     1
 64
     0
275
    -2
285
     1
 65
     0
276
    -2
286
     1
 66
     0
277
    -2
287
     1
 67
     0
278
    -2
288
     1
 68
     0
279
    -2
289
     1
 69
     0
  7
Standard
140
0.18
170
     5
 62
     0
 63
     7
283
     0
 90
      512
 91
        0
  1

274
    -2
284
     1
 64
     0
275
    -2
285
     1
 65
     0
276
    -2
286
     1
 66
     0
277
    -2
287
     1
 67
     0
278
    -2
288
     1
 68
     0
279
    -2
289
     1
 69
     0
  0
VISUALSTYLE
  5
2F
102
{ACAD_REACTORS
330
29
102
}
330
29
100
AcDbVisualStyle
  2
2dWireframe
 70
     4
177
     3
291
     0
 70
    58
 90
        0
176
     1
 90
        2
176
     1
 90
        0
176
     1
 90
        0
176
     1
 40
0.6
176
     1
 40
30.0
176
     1
 62
     7
420
 16777215
176
     1
 90
        1
176
     1
 90
        4
176
     1
 62
     7
176
     1
 62
   257
176
     1
 90
        1
176
     1
 90
        1
176
     1
 40
1.0
176
     1
 90
        0
176
     1
 62
   257
176
     1
 40
1.0
176
     1
 90
        1
176
     1
 90
        6
176
     1
 90
        2
176
     1
 62
     7
176
     1
 90
        5
176
     1
 90
        0
176
     1
 90
        0
176
     1
290
     0
176
     1
 90
        1
176
     1
 40
0.0
176
     1
 90
        0
176
     1
290
     1
176
     1
290
     1
176
     1
290
     0
176
     1
290
     0
176
     1
290
     0
176
     1
290
     0
176
     1
290
     0
176
     1
290
     0
176
     1
290
     0
176
     1
 90
       50
176
     1
 40
0.0
176
     1
 40
1.0
176
     1
 90
        0
176
     1
 62
    18
420
        0
176
     1
 90
       50
176
     1
 90
        3
176
     1
 62
     5
420
      255
176
     1
290
     0
176
     1
 90
       50
176
     1
 90
       50
176
     1
 90
       50
176
     1
290
     0
176
     1
 90
       50
176
     1
 62
   256
176
     0
 40
1.0
176
     0
 90
        2
176
     1
  1
strokes_ogs.tif
176
     1
290
     0
176
     1
 40
1.0
176
     1
 40
1.0
176
     1
1001
ACAD
1000
AcDbSavedByObjectVersion
1070
     0
  0
VISUALSTYLE
  5
2E
102
{ACAD_REACTORS
330
29
102
}
330
29
100
AcDbVisualStyle
  2
Basic
 70
     7
177
     3
291
     1
 70
    58
 90
        1
176
     1
 90
        0
176
     1
 90
        1
176
     1
 90
        0
176
     1
 40
0.6
176
     1
 40
30.0
176
     1
 62
     7
420
 16777215
176
     1
 90
        0
176
     1
 90
        4
176
     1
 62
     7
176
     1
 62
   257
176
     1
 90
        1
176
     1
 90
        1
176
     1
 40
1.0
176
     1
 90
        8
176
     1
 62
     7
176
     1
 40
1.0
176
     1
 90
        1
176
     1
 90
        6
176
     1
 90
        2
176
     1
 62
     7
176
     1
 90
        5
176
     1
 90
        0
176
     1
 90
        0
176
     1
290
     0
176
     1
 90
        1
176
     1
 40
0.0
176
     1
 90
        0
176
     1
290
     0
176
     1
290
     1
176
     1
290
     1
176
     1
290
     0
176
     1
290
     0
176
     1
290
     0
176
     1
290
     0
176
     1
290
     0
176
     1
290
     0
176
     1
 90
       50
176
     1
 40
0.0
176
     1
 40
1.0
176
     1
 90
        0
176
     1
 62
    18
420
        0
176
     1
 90
       50
176
     1
 90
        3
176
     1
 62
     5
420
      255
176
     1
290
     0
176
     1
 90
       50
176
     1
 90
       50
176
     1
 90
       50
176
     1
290
     0
176
     1
 90
       50
176
     1
 62
   256
176
     0
 40
1.0
176
     0
 90
        2
176
     1
  1
strokes_ogs.tif
176
     1
290
     0
176
     1
 40
1.0
176
     1
 40
1.0
176
     1
1001
ACAD
1000
AcDbSavedByObjectVersion
1070
     0
  0
VISUALSTYLE
  5
35
102
{ACAD_REACTORS
330
29
102
}
330
29
100
AcDbVisualStyle
  2
Brighten
 70
    12
177
     3
291
     1
 70
    58
 90
        2
176
     1
 90
        2
176
     1
 90
        0
176
     1
 90
        0
176
     1
 40
0.6
176
     1
 40
30.0
176
     1
 62
     7
420
 16777215
176
     1
 90
        1
176
     1
 90
        4
176
     1
 62
     7
176
     1
 62
   257
176
     1
 90
        1
176
     1
 90
        1
176
     1
 40
1.0
176
     1
 90
        8
176
     1
 62
     7
176
     1
 40
1.0
176
     1
 90
        1
176
     1
 90
        6
176
     1
 90
        2
176
     1
 62
     7
176
     1
 90
        5
176
     1
 90
        0
176
     1
 90
        0
176
     1
290
     0
176
     1
 90
        1
176
     1
 40
50.0
176
     1
 90
        0
176
     1
290
     0
176
     1
290
     1
176
     1
290
     1
176
     1
290
     0
176
     1
290
     0
176
     1
290
     0
176
     1
290
     0
176
     1
290
     0
176
     1
290
     0
176
     1
 90
       50
176
     1
 40
0.0
176
     1
 40
1.0
176
     1
 90
        0
176
     1
 62
    18
420
        0
176
     1
 90
       50
176
     1
 90
        3
176
     1
 62
     5
420
      255
176
     1
290
     0
176
     1
 90
       50
176
     1
 90
       50
176
     1
 90
       50
176
     1
290
     0
176
     1
 90
       50
176
     1
 62
   256
176
     0
 40
1.0
176
     0
 90
        2
176
     1
  1
strokes_ogs.tif
176
     1
290
     0
176
     1
 40
1.0
176
     1
 40
1.0
176
     1
1001
ACAD
1000
AcDbSavedByObjectVersion
1070
     0
  0
VISUALSTYLE
  5
39
102
{ACAD_REACTORS
330
29
102
}
330
29
100
AcDbVisualStyle
  2
ColorChange
 70
    16
177
     3
291
     1
 70
    58
 90
        2
176
     1
 90
        2
176
     1
 90
        3
176
     1
 90
        0
176
     1
 40
0.6
176
     1
 40
30.0
176
     1
 62
     8
420
  8421504
176
     1
 90
        1
176
     1
 90
        4
176
     1
 62
     7
176
     1
 62
   257
176
     1
 90
        1
176
     1
 90
        1
176
     1
 40
1.0
176
     1
 90
        8
176
     1
 62
     8
420
  8421504
176
     1
 40
1.0
176
     1
 90
        1
176
     1
 90
        6
176
     1
 90
        2
176
     1
 62
     7
176
     1
 90
        5
176
     1
 90
        0
176
     1
 90
        0
176
     1
290
     0
176
     1
 90
        1
176
     1
 40
0.0
176
     1
 90
        0
176
     1
290
     0
176
     1
290
     1
176
     1
290
     1
176
     1
290
     0
176
     1
290
     0
176
     1
290
     0
176
     1
290
     0
176
     1
290
     0
176
     1
290
     0
176
     1
 90
       50
176
     1
 40
0.0
176
     1
 40
1.0
176
     1
 90
        0
176
     1
 62
    18
420
        0
176
     1
 90
       50
176
     1
 90
        3
176
     1
 62
     5
420
      255
176
     1
290
     0
176
     1
 90
       50
176
     1
 90
       50
176
     1
 90
       50
176
     1
290
     0
176
     1
 90
       50
176
     1
 62
   256
176
     0
 40
1.0
176
     0
 90
        2
176
     1
  1
strokes_ogs.tif
176
     1
290
     0
176
     1
 40
1.0
176
     1
 40
1.0
176
     1
1001
ACAD
1000
AcDbSavedByObjectVersion
1070
     0
  0
VISUALSTYLE
  5
32
102
{ACAD_REACTORS
330
29
102
}
330
29
100
AcDbVisualStyle
  2
Conceptual
 70
     9
177
     3
291
     0
 70
    58
 90
        3
176
     1
 90
        2
176
     1
 90
        0
176
     1
 90
        0
176
     1
 40
0.6
176
     1
 40
30.0
176
     1
 62
     7
420
 16777215
176
     1
 90
        2
176
     1
 90
        2
176
     1
 62
     7
176
     1
 62
   257
176
     1
 90
        1
176
     1
 90
        1
176
     1
 40
179.0
176
     1
 90
        8
176
     1
 62
     7
176
     1
 40
1.0
176
     1
 90
        1
176
     1
 90
        6
176
     1
 90
        2
176
     1
 62
     7
176
     1
 90
        3
176
     1
 90
        0
176
     1
 90
        0
176
     1
290
     0
176
     1
 90
        1
176
     1
 40
0.0
176
     1
 90
        0
176
     1
290
     0
176
     1
290
     1
176
     1
290
     1
176
     1
290
     0
176
     1
290
     0
176
     1
290
     0
176
     1
290
     0
176
     1
290
     0
176
     1
290
     0
176
     1
 90
       50
176
     1
 40
0.0
176
     1
 40
1.0
176
     1
 90
        0
176
     1
 62
    18
420
        0
176
     1
 90
       50
176
     1
 90
        3
176
     1
 62
     5
420
      255
176
     1
290
     0
176
     1
 90
       50
176
     1
 90
       50
176
     1
 90
       50
176
     1
290
     0
176
     1
 90
       50
176
     1
 62
   256
176
     0
 40
1.0
176
     0
 90
        2
176
     1
  1
strokes_ogs.tif
176
     1
290
     0
176
     1
 40
1.0
176
     1
 40
1.0
176
     1
1001
ACAD
1000
AcDbSavedByObjectVersion
1070
     0
  0
VISUALSTYLE
  5
34
102
{ACAD_REACTORS
330
29
102
}
330
29
100
AcDbVisualStyle
  2
Dim
 70
    11
177
     3
291
     1
 70
    58
 90
        2
176
     1
 90
        2
176
     1
 90
        0
176
     1
 90
        0
176
     1
 40
0.6
176
     1
 40
30.0
176
     1
 62
     7
420
 16777215
176
     1
 90
        1
176
     1
 90
        4
176
     1
 62
     7
176
     1
 62
   257
176
     1
 90
        1
176
     1
 90
        1
176
     1
 40
1.0
176
     1
 90
        8
176
     1
 62
     7
176
     1
 40
1.0
176
     1
 90
        1
176
     1
 90
        6
176
     1
 90
        2
176
     1
 62
     7
176
     1
 90
        5
176
     1
 90
        0
176
     1
 90
        0
176
     1
290
     0
176
     1
 90
        1
176
     1
 40
-50.0
176
     1
 90
        0
176
     1
290
     0
176
     1
290
     1
176
     1
290
     1
176
     1
290
     0
176
     1
290
     0
176
     1
290
     0
176
     1
290
     0
176
     1
290
     0
176
     1
290
     0
176
     1
 90
       50
176
     1
 40
0.0
176
     1
 40
1.0
176
     1
 90
        0
176
     1
 62
    18
420
        0
176
     1
 90
       50
176
     1
 90
        3
176
     1
 62
     5
420
      255
176
     1
290
     0
176
     1
 90
       50
176
     1
 90
       50
176
     1
 90
       50
176
     1
290
     0
176
     1
 90
       50
176
     1
 62
   256
176
     0
 40
1.0
176
     0
 90
        2
176
     1
  1
strokes_ogs.tif
176
     1
290
     0
176
     1
 40
1.0
176
     1
 40
1.0
176
     1
1001
ACAD
1000
AcDbSavedByObjectVersion
1070
     0
  0
VISUALSTYLE
  5
41
102
{ACAD_REACTORS
330
29
102
}
330
29
100
AcDbVisualStyle
  2
EdgeColorOff
 70
    22
177
     3
291
     1
 70
    58
 90
        2
176
     0
 90
        2
176
     0
 90
        0
176
     0
 90
        0
176
     0
 40
0.6
176
     0
 40
30.0
176
     0
 62
     7
420
 16777215
176
     0
 90
        1
176
     0
 90
        4
176
     0
 62
     7
176
     0
 62
   257
176
     0
 90
        1
176
     0
 90
        1
176
     0
 40
1.0
176
     0
 90
        8
176
     2
 62
     7
176
     0
 40
1.0
176
     0
 90
        1
176
     0
 90
        6
176
     0
 90
        2
176
     0
 62
     7
176
     0
 90
        5
176
     0
 90
        0
176
     0
 90
        0
176
     0
290
     0
176
     0
 90
        1
176
     0
 40
0.0
176
     0
 90
        0
176
     0
290
     0
176
     0
290
     1
176
     0
290
     1
176
     0
290
     0
176
     0
290
     0
176
     0
290
     0
176
     0
290
     0
176
     0
290
     0
176
     0
290
     0
176
     0
 90
       50
176
     0
 40
0.0
176
     0
 40
1.0
176
     0
 90
        0
176
     0
 62
    18
420
        0
176
     0
 90
       50
176
     0
 90
        3
176
     0
 62
     5
420
      255
176
     0
290
     0
176
     0
 90
       50
176
     0
 90
       50
176
     0
 90
       50
176
     0
290
     0
176
     0
 90
       50
176
     0
 62
   256
176
     0
 40
1.0
176
     0
 90
        2
176
     0
  1
strokes_ogs.tif
176
     0
290
     0
176
     0
 40
1.0
176
     0
 40
1.0
176
     0
1001
ACAD
1000
AcDbSavedByObjectVersion
1070
     0
  0
VISUALSTYLE
  5
38
102
{ACAD_REACTORS
330
29
102
}
330
29
100
AcDbVisualStyle
  2
Facepattern
 70
    15
177
     3
291
     1
 70
    58
 90
        2
176
     1
 90
        2
176
     1
 90
        0
176
     1
 90
        0
176
     1
 40
0.6
176
     1
 40
30.0
176
     1
 62
     7
420
 16777215
176
     1
 90
        1
176
     1
 90
        4
176
     1
 62
     7
176
     1
 62
   257
176
     1
 90
        1
176
     1
 90
        1
176
     1
 40
1.0
176
     1
 90
        8
176
     1
 62
     7
176
     1
 40
1.0
176
     1
 90
        1
176
     1
 90
        6
176
     1
 90
        2
176
     1
 62
     7
176
     1
 90
        5
176
     1
 90
        0
176
     1
 90
        0
176
     1
290
     0
176
     1
 90
        1
176
     1
 40
0.0
176
     1
 90
        0
176
     1
290
     0
176
     1
290
     1
176
     1
290
     1
176
     1
290
     0
176
     1
290
     0
176
     1
290
     0
176
     1
290
     0
176
     1
290
     0
176
     1
290
     0
176
     1
 90
       50
176
     1
 40
0.0
176
     1
 40
1.0
176
     1
 90
        0
176
     1
 62
    18
420
        0
176
     1
 90
       50
176
     1
 90
        3
176
     1
 62
     5
420
      255
176
     1
290
     0
176
     1
 90
       50
176
     1
 90
       50
176
     1
 90
       50
176
     1
290
     0
176
     1
 90
       50
176
     1
 62
   256
176
     0
 40
1.0
176
     0
 90
        2
176
     1
  1
strokes_ogs.tif
176
     1
290
     0
176
     1
 40
1.0
176
     1
 40
1.0
176
     1
1001
ACAD
1000
AcDbSavedByObjectVersion
1070
     0
  0
VISUALSTYLE
  5
2A
102
{ACAD_REACTORS
330
29
102
}
330
29
100
AcDbVisualStyle
  2
Flat
 70
     0
177
     3
291
     1
 70
    58
 90
        2
176
     1
 90
        1
176
     1
 90
        1
176
     1
 90
        2
176
     1
 40
0.6
176
     1
 40
30.0
176
     1
 62
     7
420
 16777215
176
     1
 90
        0
176
     1
 90
        0
176
     1
 62
     7
176
     1
 62
   257
176
     1
 90
        1
176
     1
 90
        1
176
     1
 40
1.0
176
     1
 90
        8
176
     1
 62
     7
176
     1
 40
1.0
176
     1
 90
        1
176
     1
 90
        6
176
     1
 90
        2
176
     1
 62
     7
176
     1
 90
        5
176
     1
 90
        0
176
     1
 90
        0
176
     1
290
     0
176
     1
 90
       13
176
     1
 40
0.0
176
     1
 90
        0
176
     1
290
     0
176
     1
290
     1
176
     1
290
     1
176
     1
290
     0
176
     1
290
     0
176
     1
290
     0
176
     1
290
     0
176
     1
290
     0
176
     1
290
     0
176
     1
 90
       50
176
     1
 40
0.0
176
     1
 40
1.0
176
     1
 90
        0
176
     1
 62
    18
420
        0
176
     1
 90
       50
176
     1
 90
        3
176
     1
 62
     5
420
      255
176
     1
290
     0
176
     1
 90
       50
176
     1
 90
       50
176
     1
 90
       50
176
     1
290
     0
176
     1
 90
       50
176
     1
 62
   256
176
     0
 40
1.0
176
     0
 90
        2
176
     1
  1
strokes_ogs.tif
176
     1
290
     0
176
     1
 40
1.0
176
     1
 40
1.0
176
     1
1001
ACAD
1000
AcDbSavedByObjectVersion
1070
     0
  0
VISUALSTYLE
  5
2B
102
{ACAD_REACTORS
330
29
102
}
330
29
100
AcDbVisualStyle
  2
FlatWithEdges
 70
     1
177
     3
291
     1
 70
    58
 90
        2
176
     1
 90
        1
176
     1
 90
        1
176
     1
 90
        2
176
     1
 40
0.6
176
     1
 40
30.0
176
     1
 62
     7
420
 16777215
176
     1
 90
        1
176
     1
 90
        0
176
     1
 62
     7
176
     1
 62
   257
176
     1
 90
        1
176
     1
 90
        1
176
     1
 40
1.0
176
     1
 90
        0
176
     1
 62
   257
176
     1
 40
1.0
176
     1
 90
        1
176
     1
 90
        6
176
     1
 90
        2
176
     1
 62
     7
176
     1
 90
        5
176
     1
 90
        0
176
     1
 90
        0
176
     1
290
     0
176
     1
 90
       13
176
     1
 40
0.0
176
     1
 90
        0
176
     1
290
     0
176
     1
290
     1
176
     1
290
     1
176
     1
290
     0
176
     1
290
     0
176
     1
290
     0
176
     1
290
     0
176
     1
290
     0
176
     1
290
     0
176
     1
 90
       50
176
     1
 40
0.0
176
     1
 40
1.0
176
     1
 90
        0
176
     1
 62
    18
420
        0
176
     1
 90
       50
176
     1
 90
        3
176
     1
 62
     5
420
      255
176
     1
290
     0
176
     1
 90
       50
176
     1
 90
       50
176
     1
 90
       50
176
     1
290
     0
176
     1
 90
       50
176
     1
 62
   256
176
     0
 40
1.0
176
     0
 90
        2
176
     1
  1
strokes_ogs.tif
176
     1
290
     0
176
     1
 40
1.0
176
     1
 40
1.0
176
     1
1001
ACAD
1000
AcDbSavedByObjectVersion
1070
     0
  0
VISUALSTYLE
  5
2C
102
{ACAD_REACTORS
330
29
102
}
330
29
100
AcDbVisualStyle
  2
Gouraud
 70
     2
177
     3
291
     1
 70
    58
 90
        2
176
     1
 90
        2
176
     1
 90
        1
176
     1
 90
        2
176
     1
 40
0.6
176
     1
 40
30.0
176
     1
 62
     7
420
 16777215
176
     1
 90
        0
176
     1
 90
        0
176
     1
 62
     7
176
     1
 62
   257
176
     1
 90
        1
176
     1
 90
        1
176
     1
 40
1.0
176
     1
 90
        0
176
     1
 62
     7
176
     1
 40
1.0
176
     1
 90
        1
176
     1
 90
        6
176
     1
 90
        2
176
     1
 62
     7
176
     1
 90
        5
176
     1
 90
        0
176
     1
 90
        0
176
     1
290
     0
176
     1
 90
       13
176
     1
 40
0.0
176
     1
 90
        0
176
     1
290
     0
176
     1
290
     1
176
     1
290
     1
176
     1
290
     0
176
     1
290
     0
176
     1
290
     0
176
     1
290
     0
176
     1
290
     0
176
     1
290
     0
176
     1
 90
       50
176
     1
 40
0.0
176
     1
 40
1.0
176
     1
 90
        0
176
     1
 62
    18
420
        0
176
     1
 90
       50
176
     1
 90
        3
176
     1
 62
     5
420
      255
176
     1
290
     0
176
     1
 90
       50
176
     1
 90
       50
176
     1
 90
       50
176
     1
290
     0
176
     1
 90
       50
176
     1
 62
   256
176
     0
 40
1.0
176
     0
 90
        2
176
     1
  1
strokes_ogs.tif
176
     1
290
     0
176
     1
 40
1.0
176
     1
 40
1.0
176
     1
1001
ACAD
1000
AcDbSavedByObjectVersion
1070
     0
  0
VISUALSTYLE
  5
2D
102
{ACAD_REACTORS
330
29
102
}
330
29
100
AcDbVisualStyle
  2
GouraudWithEdges
 70
     3
177
     3
291
     1
 70
    58
 90
        2
176
     1
 90
        2
176
     1
 90
        1
176
     1
 90
        2
176
     1
 40
0.6
176
     1
 40
30.0
176
     1
 62
     7
420
 16777215
176
     1
 90
        1
176
     1
 90
        0
176
     1
 62
     7
176
     1
 62
   257
176
     1
 90
        1
176
     1
 90
        1
176
     1
 40
1.0
176
     1
 90
        0
176
     1
 62
   257
176
     1
 40
1.0
176
     1
 90
        1
176
     1
 90
        6
176
     1
 90
        2
176
     1
 62
     7
176
     1
 90
        5
176
     1
 90
        0
176
     1
 90
        0
176
     1
290
     0
176
     1
 90
       13
176
     1
 40
0.0
176
     1
 90
        0
176
     1
290
     0
176
     1
290
     1
176
     1
290
     1
176
     1
290
     0
176
     1
290
     0
176
     1
290
     0
176
     1
290
     0
176
     1
290
     0
176
     1
290
     0
176
     1
 90
       50
176
     1
 40
0.0
176
     1
 40
1.0
176
     1
 90
        0
176
     1
 62
    18
420
        0
176
     1
 90
       50
176
     1
 90
        3
176
     1
 62
     5
420
      255
176
     1
290
     0
176
     1
 90
       50
176
     1
 90
       50
176
     1
 90
       50
176
     1
290
     0
176
     1
 90
       50
176
     1
 62
   256
176
     0
 40
1.0
176
     0
 90
        2
176
     1
  1
strokes_ogs.tif
176
     1
290
     0
176
     1
 40
1.0
176
     1
 40
1.0
176
     1
1001
ACAD
1000
AcDbSavedByObjectVersion
1070
     0
  0
VISUALSTYLE
  5
31
102
{ACAD_REACTORS
330
29
102
}
330
29
100
AcDbVisualStyle
  2
Hidden
 70
     6
177
     3
291
     0
 70
    58
 90
        1
176
     1
 90
        2
176
     1
 90
        2
176
     1
 90
        0
176
     1
 40
0.6
176
     1
 40
30.0
176
     1
 62
     7
420
 16777215
176
     1
 90
        2
176
     1
 90
        2
176
     1
 62
     7
176
     1
 62
   257
176
     1
 90
        2
176
     1
 90
        1
176
     1
 40
40.0
176
     1
 90
        0
176
     1
 62
   257
176
     1
 40
1.0
176
     1
 90
        1
176
     1
 90
        6
176
     1
 90
        2
176
     1
 62
     7
176
     1
 90
        3
176
     1
 90
        0
176
     1
 90
        0
176
     1
290
     0
176
     1
 90
        1
176
     1
 40
0.0
176
     1
 90
        0
176
     1
290
     0
176
     1
290
     1
176
     1
290
     1
176
     1
290
     0
176
     1
290
     0
176
     1
290
     0
176
     1
290
     0
176
     1
290
     0
176
     1
290
     0
176
     1
 90
       50
176
     1
 40
0.0
176
     1
 40
1.0
176
     1
 90
        0
176
     1
 62
    18
420
        0
176
     1
 90
       50
176
     1
 90
        3
176
     1
 62
     5
420
      255
176
     1
290
     0
176
     1
 90
       50
176
     1
 90
       50
176
     1
 90
       50
176
     1
290
     0
176
     1
 90
       50
176
     1
 62
   256
176
     0
 40
1.0
176
     0
 90
        2
176
     1
  1
strokes_ogs.tif
176
     1
290
     0
176
     1
 40
1.0
176
     1
 40
1.0
176
     1
1001
ACAD
1000
AcDbSavedByObjectVersion
1070
     0
  0
VISUALSTYLE
  5
3F
102
{ACAD_REACTORS
330
29
102
}
330
29
100
AcDbVisualStyle
  2
JitterOff
 70
    20
177
     3
291
     1
 70
    58
 90
        2
176
     0
 90
        2
176
     0
 90
        0
176
     0
 90
        0
176
     0
 40
0.6
176
     0
 40
30.0
176
     0
 62
     7
420
 16777215
176
     0
 90
        1
176
     0
 90
        4
176
     0
 62
     7
176
     0
 62
   257
176
     0
 90
        1
176
     0
 90
        1
176
     0
 40
1.0
176
     0
 90
       10
176
     2
 62
     7
176
     0
 40
1.0
176
     0
 90
        1
176
     0
 90
        6
176
     0
 90
        2
176
     0
 62
     7
176
     0
 90
        5
176
     0
 90
        0
176
     0
 90
        0
176
     0
290
     0
176
     0
 90
        1
176
     0
 40
0.0
176
     0
 90
        0
176
     0
290
     0
176
     0
290
     1
176
     0
290
     1
176
     0
290
     0
176
     0
290
     0
176
     0
290
     0
176
     0
290
     0
176
     0
290
     0
176
     0
290
     0
176
     0
 90
       50
176
     0
 40
0.0
176
     0
 40
1.0
176
     0
 90
        0
176
     0
 62
    18
420
        0
176
     0
 90
       50
176
     0
 90
        3
176
     0
 62
     5
420
      255
176
     0
290
     0
176
     0
 90
       50
176
     0
 90
       50
176
     0
 90
       50
176
     0
290
     0
176
     0
 90
       50
176
     0
 62
   256
176
     0
 40
1.0
176
     0
 90
        2
176
     0
  1
strokes_ogs.tif
176
     0
290
     0
176
     0
 40
1.0
176
     0
 40
1.0
176
     0
1001
ACAD
1000
AcDbSavedByObjectVersion
1070
     0
  0
VISUALSTYLE
  5
37
102
{ACAD_REACTORS
330
29
102
}
330
29
100
AcDbVisualStyle
  2
Linepattern
 70
    14
177
     3
291
     1
 70
    58
 90
        2
176
     1
 90
        2
176
     1
 90
        0
176
     1
 90
        0
176
     1
 40
0.6
176
     1
 40
30.0
176
     1
 62
     7
420
 16777215
176
     1
 90
        1
176
     1
 90
        4
176
     1
 62
     7
176
     1
 62
   257
176
     1
 90
        7
176
     1
 90
        7
176
     1
 40
1.0
176
     1
 90
        8
176
     1
 62
     7
176
     1
 40
1.0
176
     1
 90
        1
176
     1
 90
        6
176
     1
 90
        2
176
     1
 62
     7
176
     1
 90
        5
176
     1
 90
        0
176
     1
 90
        0
176
     1
290
     0
176
     1
 90
        1
176
     1
 40
0.0
176
     1
 90
        0
176
     1
290
     0
176
     1
290
     1
176
     1
290
     1
176
     1
290
     0
176
     1
290
     0
176
     1
290
     0
176
     1
290
     0
176
     1
290
     0
176
     1
290
     0
176
     1
 90
       50
176
     1
 40
0.0
176
     1
 40
1.0
176
     1
 90
        0
176
     1
 62
    18
420
        0
176
     1
 90
       50
176
     1
 90
        3
176
     1
 62
     5
420
      255
176
     1
290
     0
176
     1
 90
       50
176
     1
 90
       50
176
     1
 90
       50
176
     1
290
     0
176
     1
 90
       50
176
     1
 62
   256
176
     0
 40
1.0
176
     0
 90
        2
176
     1
  1
strokes_ogs.tif
176
     1
290
     0
176
     1
 40
1.0
176
     1
 40
1.0
176
     1
1001
ACAD
1000
AcDbSavedByObjectVersion
1070
     0
  0
VISUALSTYLE
  5
40
102
{ACAD_REACTORS
330
29
102
}
330
29
100
AcDbVisualStyle
  2
OverhangOff
 70
    21
177
     3
291
     1
 70
    58
 90
        2
176
     0
 90
        2
176
     0
 90
        0
176
     0
 90
        0
176
     0
 40
0.6
176
     0
 40
30.0
176
     0
 62
     7
420
 16777215
176
     0
 90
        1
176
     0
 90
        4
176
     0
 62
     7
176
     0
 62
   257
176
     0
 90
        1
176
     0
 90
        1
176
     0
 40
1.0
176
     0
 90
        9
176
     2
 62
     7
176
     0
 40
1.0
176
     0
 90
        1
176
     0
 90
        6
176
     0
 90
        2
176
     0
 62
     7
176
     0
 90
        5
176
     0
 90
        0
176
     0
 90
        0
176
     0
290
     0
176
     0
 90
        1
176
     0
 40
0.0
176
     0
 90
        0
176
     0
290
     0
176
     0
290
     1
176
     0
290
     1
176
     0
290
     0
176
     0
290
     0
176
     0
290
     0
176
     0
290
     0
176
     0
290
     0
176
     0
290
     0
176
     0
 90
       50
176
     0
 40
0.0
176
     0
 40
1.0
176
     0
 90
        0
176
     0
 62
    18
420
        0
176
     0
 90
       50
176
     0
 90
        3
176
     0
 62
     5
420
      255
176
     0
290
     0
176
     0
 90
       50
176
     0
 90
       50
176
     0
 90
       50
176
     0
290
     0
176
     0
 90
       50
176
     0
 62
   256
176
     0
 40
1.0
176
     0
 90
        2
176
     0
  1
strokes_ogs.tif
176
     0
290
     0
176
     0
 40
1.0
176
     0
 40
1.0
176
     0
1001
ACAD
1000
AcDbSavedByObjectVersion
1070
     0
  0
VISUALSTYLE
  5
33
102
{ACAD_REACTORS
330
29
102
}
330
29
100
AcDbVisualStyle
  2
Realistic
 70
     8
177
     3
291
     0
 70
    58
 90
        2
176
     1
 90
        3
176
     1
 90
        0
176
     1
 90
        2
176
     1
 40
0.6
176
     1
 40
30.0
176
     1
 62
     7
420
 16777215
176
     1
 90
        0
176
     1
 90
        0
176
     1
 62
     7
176
     1
 62
   257
176
     1
 90
        1
176
     1
 90
        1
176
     1
 40
1.0
176
     1
 90
        8
176
     1
 62
   257
176
     1
 40
1.0
176
     1
 90
        1
176
     1
 90
        6
176
     1
 90
        2
176
     1
 62
     7
176
     1
 90
        3
176
     1
 90
        0
176
     1
 90
        0
176
     1
290
     0
176
     1
 90
       13
176
     1
 40
0.0
176
     1
 90
        0
176
     1
290
     0
176
     1
290
     1
176
     1
290
     1
176
     1
290
     0
176
     1
290
     0
176
     1
290
     0
176
     1
290
     0
176
     1
290
     0
176
     1
290
     0
176
     1
 90
       50
176
     1
 40
0.0
176
     1
 40
1.0
176
     1
 90
        0
176
     1
 62
    18
420
        0
176
     1
 90
       50
176
     1
 90
        3
176
     1
 62
     5
420
      255
176
     1
290
     0
176
     1
 90
       50
176
     1
 90
       50
176
     1
 90
       50
176
     1
290
     0
176
     1
 90
       50
176
     1
 62
   256
176
     0
 40
1.0
176
     0
 90
        2
176
     1
  1
strokes_ogs.tif
176
     1
290
     0
176
     1
 40
1.0
176
     1
 40
1.0
176
     1
1001
ACAD
1000
AcDbSavedByObjectVersion
1070
     0
  0
VISUALSTYLE
  5
3E
102
{ACAD_REACTORS
330
29
102
}
330
29
100
AcDbVisualStyle
  2
Shaded
 70
    27
177
     3
291
     0
 70
    58
 90
        2
176
     1
 90
        2
176
     1
 90
        1
176
     1
 90
        2
176
     1
 40
0.6
176
     1
 40
30.0
176
     1
 62
     7
420
 16777215
176
     1
 90
        0
176
     1
 90
        4
176
     1
 62
     7
176
     1
 62
   257
176
     1
 90
        1
176
     1
 90
        1
176
     1
 40
1.0
176
     1
 90
        8
176
     1
 62
   257
176
     1
 40
1.0
176
     1
 90
        1
176
     1
 90
        6
176
     1
 90
        2
176
     1
 62
     8
420
  7895160
176
     1
 90
        3
176
     1
 90
        0
176
     1
 90
        0
176
     1
290
     0
176
     1
 90
        5
176
     1
 40
0.0
176
     1
 90
        0
176
     1
290
     0
176
     1
290
     1
176
     1
290
     1
176
     1
290
     0
176
     1
290
     0
176
     1
290
     0
176
     1
290
     0
176
     1
290
     0
176
     1
290
     0
176
     1
 90
       50
176
     1
 40
0.0
176
     1
 40
1.0
176
     1
 90
        0
176
     1
 62
    18
420
        0
176
     1
 90
       50
176
     1
 90
        3
176
     1
 62
     5
420
      255
176
     1
290
     0
176
     1
 90
       50
176
     1
 90
       50
176
     1
 90
       50
176
     1
290
     0
176
     1
 90
       50
176
     1
 62
   256
176
     0
 40
1.0
176
     0
 90
        2
176
     1
  1
strokes_ogs.tif
176
     1
290
     0
176
     1
 40
1.0
176
     1
 40
1.0
176
     1
1001
ACAD
1000
AcDbSavedByObjectVersion
1070
     0
  0
VISUALSTYLE
  5
3D
102
{ACAD_REACTORS
330
29
102
}
330
29
100
AcDbVisualStyle
  2
Shaded with edges
 70
    26
177
     3
291
     0
 70
    58
 90
        2
176
     1
 90
        2
176
     1
 90
        1
176
     1
 90
        2
176
     1
 40
0.6
176
     1
 40
30.0
176
     1
 62
     7
420
 16777215
176
     1
 90
        1
176
     1
 90
        2
176
     1
 62
     7
176
     1
 62
   257
176
     1
 90
        2
176
     1
 90
        1
176
     1
 40
1.0
176
     1
 90
        8
176
     1
 62
   257
176
     1
 40
1.0
176
     1
 90
        1
176
     1
 90
        6
176
     1
 90
        2
176
     1
 62
     7
176
     1
 90
        3
176
     1
 90
        0
176
     1
 90
        0
176
     1
290
     0
176
     1
 90
        5
176
     1
 40
0.0
176
     1
 90
        0
176
     1
290
     0
176
     1
290
     1
176
     1
290
     1
176
     1
290
     0
176
     1
290
     0
176
     1
290
     0
176
     1
290
     0
176
     1
290
     0
176
     1
290
     0
176
     1
 90
       50
176
     1
 40
0.0
176
     1
 40
1.0
176
     1
 90
        0
176
     1
 62
    18
420
        0
176
     1
 90
       50
176
     1
 90
        3
176
     1
 62
     5
420
      255
176
     1
290
     0
176
     1
 90
       50
176
     1
 90
       50
176
     1
 90
       50
176
     1
290
     0
176
     1
 90
       50
176
     1
 62
   256
176
     0
 40
1.0
176
     0
 90
        2
176
     1
  1
strokes_ogs.tif
176
     1
290
     0
176
     1
 40
1.0
176
     1
 40
1.0
176
     1
1001
ACAD
1000
AcDbSavedByObjectVersion
1070
     0
  0
VISUALSTYLE
  5
3A
102
{ACAD_REACTORS
330
29
102
}
330
29
100
AcDbVisualStyle
  2
Shades of Gray
 70
    23
177
     3
291
     0
 70
    58
 90
        2
176
     1
 90
        2
176
     1
 90
        3
176
     1
 90
        0
176
     1
 40
0.6
176
     1
 40
30.0
176
     1
 62
     7
420
 16777215
176
     1
 90
        2
176
     1
 90
        2
176
     1
 62
     7
176
     1
 62
     7
176
     1
 90
        1
176
     1
 90
        1
176
     1
 40
40.0
176
     1
 90
        8
176
     1
 62
     7
176
     1
 40
1.0
176
     1
 90
        1
176
     1
 90
        6
176
     1
 90
        2
176
     1
 62
     7
176
     1
 90
        3
176
     1
 90
        0
176
     1
 90
        0
176
     1
290
     0
176
     1
 90
        1
176
     1
 40
0.0
176
     1
 90
        0
176
     1
290
     0
176
     1
290
     1
176
     1
290
     1
176
     1
290
     0
176
     1
290
     0
176
     1
290
     0
176
     1
290
     0
176
     1
290
     0
176
     1
290
     0
176
     1
 90
       50
176
     1
 40
0.0
176
     1
 40
1.0
176
     1
 90
        0
176
     1
 62
    18
420
        0
176
     1
 90
       50
176
     1
 90
        3
176
     1
 62
     5
420
      255
176
     1
290
     0
176
     1
 90
       50
176
     1
 90
       50
176
     1
 90
       50
176
     1
290
     0
176
     1
 90
       50
176
     1
 62
   256
176
     0
 40
1.0
176
     0
 90
        2
176
     1
  1
strokes_ogs.tif
176
     1
290
     0
176
     1
 40
1.0
176
     1
 40
1.0
176
     1
1001
ACAD
1000
AcDbSavedByObjectVersion
1070
     0
  0
VISUALSTYLE
  5
3B
102
{ACAD_REACTORS
330
29
102
}
330
29
100
AcDbVisualStyle
  2
Sketchy
 70
    24
177
     3
291
     0
 70
    58
 90
        1
176
     1
 90
        2
176
     1
 90
        2
176
     1
 90
        0
176
     1
 40
0.6
176
     1
 40
30.0
176
     1
 62
     7
420
 16777215
176
     1
 90
        2
176
     1
 90
        2
176
     1
 62
     7
176
     1
 62
     7
176
     1
 90
        1
176
     1
 90
        1
176
     1
 40
40.0
176
     1
 90
       11
176
     1
 62
     7
176
     1
 40
1.0
176
     1
 90
        1
176
     1
 90
        6
176
     1
 90
        2
176
     1
 62
     7
176
     1
 90
        6
176
     1
 90
        0
176
     1
 90
        0
176
     1
290
     0
176
     1
 90
        1
176
     1
 40
0.0
176
     1
 90
        0
176
     1
290
     0
176
     1
290
     1
176
     1
290
     1
176
     1
290
     0
176
     1
290
     0
176
     1
290
     0
176
     1
290
     0
176
     1
290
     0
176
     1
290
     0
176
     1
 90
       50
176
     1
 40
0.0
176
     1
 40
1.0
176
     1
 90
        0
176
     1
 62
    18
420
        0
176
     1
 90
       50
176
     1
 90
        3
176
     1
 62
     5
420
      255
176
     1
290
     0
176
     1
 90
       50
176
     1
 90
       50
176
     1
 90
       50
176
     1
290
     0
176
     1
 90
       50
176
     1
 62
   256
176
     0
 40
1.0
176
     0
 90
        2
176
     1
  1
strokes_ogs.tif
176
     1
290
     0
176
     1
 40
1.0
176
     1
 40
1.0
176
     1
1001
ACAD
1000
AcDbSavedByObjectVersion
1070
     0
  0
VISUALSTYLE
  5
36
102
{ACAD_REACTORS
330
29
102
}
330
29
100
AcDbVisualStyle
  2
Thicken
 70
    13
177
     3
291
     1
 70
    58
 90
        2
176
     1
 90
        2
176
     1
 90
        0
176
     1
 90
        0
176
     1
 40
0.6
176
     1
 40
30.0
176
     1
 62
     7
420
 16777215
176
     1
 90
        1
176
     1
 90
        4
176
     1
 62
     7
176
     1
 62
   257
176
     1
 90
        1
176
     1
 90
        1
176
     1
 40
1.0
176
     1
 90
       12
176
     1
 62
     7
176
     1
 40
1.0
176
     1
 90
        1
176
     1
 90
        6
176
     1
 90
        2
176
     1
 62
     7
176
     1
 90
        5
176
     1
 90
        0
176
     1
 90
        0
176
     1
290
     0
176
     1
 90
        1
176
     1
 40
0.0
176
     1
 90
        0
176
     1
290
     0
176
     1
290
     1
176
     1
290
     1
176
     1
290
     0
176
     1
290
     0
176
     1
290
     0
176
     1
290
     0
176
     1
290
     0
176
     1
290
     0
176
     1
 90
       50
176
     1
 40
0.0
176
     1
 40
1.0
176
     1
 90
        0
176
     1
 62
    18
420
        0
176
     1
 90
       50
176
     1
 90
        3
176
     1
 62
     5
420
      255
176
     1
290
     0
176
     1
 90
       50
176
     1
 90
       50
176
     1
 90
       50
176
     1
290
     0
176
     1
 90
       50
176
     1
 62
   256
176
     0
 40
1.0
176
     0
 90
        2
176
     1
  1
strokes_ogs.tif
176
     1
290
     0
176
     1
 40
1.0
176
     1
 40
1.0
176
     1
1001
ACAD
1000
AcDbSavedByObjectVersion
1070
     0
  0
VISUALSTYLE
  5
30
102
{ACAD_REACTORS
330
29
102
}
330
29
100
AcDbVisualStyle
  2
Wireframe
 70
     5
177
     3
291
     0
 70
    58
 90
        0
176
     1
 90
        2
176
     1
 90
        0
176
     1
 90
        0
176
     1
 40
0.6
176
     1
 40
30.0
176
     1
 62
     7
420
 16777215
176
     1
 90
        1
176
     1
 90
        4
176
     1
 62
     7
176
     1
 62
   257
176
     1
 90
        1
176
     1
 90
        1
176
     1
 40
1.0
176
     1
 90
        0
176
     1
 62
   257
176
     1
 40
1.0
176
     1
 90
        1
176
     1
 90
        6
176
     1
 90
        2
176
     1
 62
     7
176
     1
 90
        3
176
     1
 90
        0
176
     1
 90
        0
176
     1
290
     0
176
     1
 90
        1
176
     1
 40
0.0
176
     1
 90
        0
176
     1
290
     0
176
     1
290
     1
176
     1
290
     1
176
     1
290
     0
176
     1
290
     0
176
     1
290
     0
176
     1
290
     0
176
     1
290
     0
176
     1
290
     0
176
     1
 90
       50
176
     1
 40
0.0
176
     1
 40
1.0
176
     1
 90
        0
176
     1
 62
    18
420
        0
176
     1
 90
       50
176
     1
 90
        3
176
     1
 62
     5
420
      255
176
     1
290
     0
176
     1
 90
       50
176
     1
 90
       50
176
     1
 90
       50
176
     1
290
     0
176
     1
 90
       50
176
     1
 62
   256
176
     0
 40
1.0
176
     0
 90
        2
176
     1
  1
strokes_ogs.tif
176
     1
290
     0
176
     1
 40
1.0
176
     1
 40
1.0
176
     1
1001
ACAD
1000
AcDbSavedByObjectVersion
1070
     0
  0
VISUALSTYLE
  5
3C
102
{ACAD_REACTORS
330
29
102
}
330
29
100
AcDbVisualStyle
  2
X-Ray
 70
    25
177
     3
291
     0
 70
    58
 90
        2
176
     1
 90
        2
176
     1
 90
        1
176
     1
 90
        1
176
     1
 40
0.5
176
     1
 40
30.0
176
     1
 62
     7
420
 16777215
176
     1
 90
        1
176
     1
 90
        0
176
     1
 62
     7
176
     1
 62
   257
176
     1
 90
        1
176
     1
 90
        1
176
     1
 40
1.0
176
     1
 90
        8
176
     1
 62
     7
176
     1
 40
1.0
176
     1
 90
        1
176
     1
 90
        6
176
     1
 90
        2
176
     1
 62
     7
176
     1
 90
        3
176
     1
 90
        0
176
     1
 90
        0
176
     1
290
     0
176
     1
 90
       13
176
     1
 40
0.0
176
     1
 90
        0
176
     1
290
     0
176
     1
290
     1
176
     1
290
     1
176
     1
290
     0
176
     1
290
     0
176
     1
290
     0
176
     1
290
     0
176
     1
290
     0
176
     1
290
     0
176
     1
 90
       50
176
     1
 40
0.0
176
     1
 40
1.0
176
     1
 90
        0
176
     1
 62
    18
420
        0
176
     1
 90
       50
176
     1
 90
        3
176
     1
 62
     5
420
      255
176
     1
290
     0
176
     1
 90
       50
176
     1
 90
       50
176
     1
 90
       50
176
     1
290
     0
176
     1
 90
       50
176
     1
 62
   256
176
     0
 40
1.0
176
     0
 90
        2
176
     1
  1
strokes_ogs.tif
176
     1
290
     0
176
     1
 40
1.0
176
     1
 40
1.0
176
     1
1001
ACAD
1000
AcDbSavedByObjectVersion
1070
     0
  0
DICTIONARYVAR
  5
18E
102
{ACAD_REACTORS
330
189
102
}
330
189
100
DictionaryVariables
280
     0
  1
1:1
  0
DICTIONARYVAR
  5
18B
102
{ACAD_REACTORS
330
189
102
}
330
189
100
DictionaryVariables
280
     0
  1
STANDARD
  0
DICTIONARYVAR
  5
18A
102
{ACAD_REACTORS
330
189
102
}
330
189
100
DictionaryVariables
280
     0
  1
STANDARD
  0
DICTIONARYVAR
  5
18C
102
{ACAD_REACTORS
330
189
102
}
330
189
100
DictionaryVariables
280
     0
  1
Imperial24
  0
DICTIONARYVAR
  5
18D
102
{ACAD_REACTORS
330
189
102
}
330
189
100
DictionaryVariables
280
     0
  1
Imperial24
  0
DICTIONARY
  5
194
330
6B
100
AcDbDictionary
280
     1
281
     1
  3
ACAD_XREC_ROUNDTRIP
360
195
  0
DICTIONARY
  5
1A
330
19
100
AcDbDictionary
280
     1
281
     1
  3
BUMPTILE
360
1C
  3
DIFFUSETILE
360
1B
  3
OPACITYTILE
360
1F
  3
REFLECTIONTILE
360
1E
  3
REFRACTIONTILE
360
20
  3
SPECULARTILE
360
1D
  0
DICTIONARY
  5
12
330
11
100
AcDbDictionary
280
     1
281
     1
  3
BUMPTILE
360
14
  3
DIFFUSETILE
360
13
  3
OPACITYTILE
360
17
  3
REFLECTIONTILE
360
16
  3
REFRACTIONTILE
360
18
  3
SPECULARTILE
360
15
  0
DICTIONARY
  5
22
330
21
100
AcDbDictionary
280
     1
281
     1
  3
BUMPTILE
360
24
  3
DIFFUSETILE
360
23
  3
OPACITYTILE
360
27
  3
REFLECTIONTILE
360
26
  3
REFRACTIONTILE
360
28
  3
SPECULARTILE
360
25
  0
DICTIONARY
  5
192
330
69
100
AcDbDictionary
280
     1
281
     1
  3
ACAD_XREC_ROUNDTRIP
360
193
  0
DICTIONARY
  5
18F
330
65
100
AcDbDictionary
280
     1
281
     1
  3
ACAD_ROUNDTRIP_2008_TABLESTYLE_CELLSTYLEMAP
360
190
  0
XRECORD
  5
195
102
{ACAD_REACTORS
330
194
102
}
330
194
100
AcDbXrecord
280
     1
102
DISPLAYNAME
  1
Imperial24
102
FLAGS
 90
        0
  0
XRECORD
  5
1C
102
{ACAD_REACTORS
330
1A
102
}
330
1A
100
AcDbXrecord
280
     1
270
     1
271
     1
  0
XRECORD
  5
1B
102
{ACAD_REACTORS
330
1A
102
}
330
1A
100
AcDbXrecord
280
     1
270
     1
271
     1
  0
XRECORD
  5
1F
102
{ACAD_REACTORS
330
1A
102
}
330
1A
100
AcDbXrecord
280
     1
270
     1
271
     1
  0
XRECORD
  5
1E
102
{ACAD_REACTORS
330
1A
102
}
330
1A
100
AcDbXrecord
280
     1
270
     1
271
     1
  0
XRECORD
  5
20
102
{ACAD_REACTORS
330
1A
102
}
330
1A
100
AcDbXrecord
280
     1
270
     1
271
     1
  0
XRECORD
  5
1D
102
{ACAD_REACTORS
330
1A
102
}
330
1A
100
AcDbXrecord
280
     1
270
     1
271
     1
  0
XRECORD
  5
14
102
{ACAD_REACTORS
330
12
102
}
330
12
100
AcDbXrecord
280
     1
270
     1
271
     1
  0
XRECORD
  5
13
102
{ACAD_REACTORS
330
12
102
}
330
12
100
AcDbXrecord
280
     1
270
     1
271
     1
  0
XRECORD
  5
17
102
{ACAD_REACTORS
330
12
102
}
330
12
100
AcDbXrecord
280
     1
270
     1
271
     1
  0
XRECORD
  5
16
102
{ACAD_REACTORS
330
12
102
}
330
12
100
AcDbXrecord
280
     1
270
     1
271
     1
  0
XRECORD
  5
18
102
{ACAD_REACTORS
330
12
102
}
330
12
100
AcDbXrecord
280
     1
270
     1
271
     1
  0
XRECORD
  5
15
102
{ACAD_REACTORS
330
12
102
}
330
12
100
AcDbXrecord
280
     1
270
     1
271
     1
  0
XRECORD
  5
24
102
{ACAD_REACTORS
330
22
102
}
330
22
100
AcDbXrecord
280
     1
270
     1
271
     1
  0
XRECORD
  5
23
102
{ACAD_REACTORS
330
22
102
}
330
22
100
AcDbXrecord
280
     1
270
     1
271
     1
  0
XRECORD
  5
27
102
{ACAD_REACTORS
330
22
102
}
330
22
100
AcDbXrecord
280
     1
270
     1
271
     1
  0
XRECORD
  5
26
102
{ACAD_REACTORS
330
22
102
}
330
22
100
AcDbXrecord
280
     1
270
     1
271
     1
  0
XRECORD
  5
28
102
{ACAD_REACTORS
330
22
102
}
330
22
100
AcDbXrecord
280
     1
270
     1
271
     1
  0
XRECORD
  5
25
102
{ACAD_REACTORS
330
22
102
}
330
22
100
AcDbXrecord
280
     1
270
     1
271
     1
  0
XRECORD
  5
193
102
{ACAD_REACTORS
330
192
102
}
330
192
100
AcDbXrecord
280
     1
102
DISPLAYNAME
  1
Imperial24
102
FLAGS
 90
        0
  0
CELLSTYLEMAP
  5
190
102
{ACAD_REACTORS
330
18F
102
}
330
18F
100
AcDbCellStyleMap
 90
        3
300
CELLSTYLE
  1
TABLEFORMAT_BEGIN
 90
        5
170
     1
 91
        0
 92
    32768
 62
   257
 93
        1
300
CONTENTFORMAT
  1
CONTENTFORMAT_BEGIN
 90
        0
 91
        0
 92
      512
 93
        0
300

 40
0.0
140
1.0
 94
        5
 62
     0
340
55
144
0.25
309
CONTENTFORMAT_END
171
     0
 94
        0
309
TABLEFORMAT_END
  1
CELLSTYLE_BEGIN
 90
        1
 91
        1
300
_TITLE
309
CELLSTYLE_END
300
CELLSTYLE
  1
TABLEFORMAT_BEGIN
 90
        5
170
     1
 91
        0
 92
        0
 62
   257
 93
        1
300
CONTENTFORMAT
  1
CONTENTFORMAT_BEGIN
 90
        0
 91
        0
 92
      512
 93
        0
300

 40
0.0
140
1.0
 94
        5
 62
     0
340
55
144
0.18
309
CONTENTFORMAT_END
171
     0
 94
        0
309
TABLEFORMAT_END
  1
CELLSTYLE_BEGIN
 90
        2
 91
        1
300
_HEADER
309
CELLSTYLE_END
300
CELLSTYLE
  1
TABLEFORMAT_BEGIN
 90
        5
170
     1
 91
        0
 92
        0
 62
   257
 93
        1
300
CONTENTFORMAT
  1
CONTENTFORMAT_BEGIN
 90
        0
 91
        0
 92
      512
 93
        0
300

 40
0.0
140
1.0
 94
        2
 62
     0
340
55
144
0.18
309
CONTENTFORMAT_END
171
     0
 94
        0
309
TABLEFORMAT_END
  1
CELLSTYLE_BEGIN
 90
        3
 91
        2
300
_DATA
309
CELLSTYLE_END
  0
ENDSEC
  0
EOF
