0
SECTION
2
HEADER
9
$INSUNITS
70
1
9
$ACADVER
1
AC1014
9
$HANDSEED
5
FFFF
0
ENDSEC
0
SECTION
2
TABLES
0
TABLE
2
VPORT
5
8
100
AcDbSymbolTable
0
ENDTAB
0
TABLE
2
LTYPE
5
5
100
AcDbSymbolTable
0
LTYPE
5
14
100
AcDbSymbolTableRecord
100
AcDbLinetypeTableRecord
2
BYBLOCK
70
0
0
LTYPE
5
15
100
AcDbSymbolTableRecord
100
AcDbLinetypeTableRecord
2
BYLAYER
70
0
0
ENDTAB
0
TABLE
2
LAYER
5
2
100
AcDbSymbolTable
70
2
0
LAYER
5
50
100
AcDbSymbolTableRecord
100
AcDbLayerTableRecord
2
0
70
0
6
CONTINUOUS
0
ENDTAB
0
TABLE
2
STYLE
5
3
100
AcDbSymbolTable
70
1
0
STYLE
5
11
100
AcDbSymbolTableRecord
100
AcDbTextStyleTableRecord
2
STANDARD
70
0
0
ENDTAB
0
TABLE
2
VIEW
5
6
100
AcDbSymbolTable
70
0
0
ENDTAB
0
TABLE
2
UCS
5
7
100
AcDbSymbolTable
70
0
0
ENDTAB
0
TABLE
2
APPID
5
9
100
AcDbSymbolTable
70
2
0
APPID
5
12
100
AcDbSymbolTableRecord
100
AcDbRegAppTableRecord
2
ACAD
70
0
0
ENDTAB
0
TABLE
2
DIMSTYLE
5
A
100
AcDbSymbolTable
70
1
0
ENDTAB
0
TABLE
2
BLOCK_RECORD
5
1
100
AcDbSymbolTable
70
1
0
BLOCK_RECORD
5
1F
100
AcDbSymbolTableRecord
100
AcDbBlockTableRecord
2
*MODEL_SPACE
0
BLOCK_RECORD
5
1B
100
AcDbSymbolTableRecord
100
AcDbBlockTableRecord
2
*PAPER_SPACE
0
ENDTAB
0
ENDSEC
0
SECTION
2
BLOCKS
0
BLOCK
5
20
100
AcDbEntity
100
AcDbBlockBegin
2
*MODEL_SPACE
0
ENDBLK
5
21
100
AcDbEntity
100
AcDbBlockEnd
0
BLOCK
5
1C
100
AcDbEntity
100
AcDbBlockBegin
2
*PAPER_SPACE
0
ENDBLK
5
1D
100
AcDbEntity
100
AcDbBlockEnd
0
ENDSEC
0
SECTION
2
ENTITIES
0
LWPOLYLINE
5
100
100
AcDbEntity
8
0
100
AcDbPolyline
90
4
70
1
43
0.0
10
-183.30363627589938
20
33.884695164840572
10
-184.67061053716182
20
33.810512560710862
42
-1.0000000105367122
10
-184.68743959947207
20
34.120624221115634
10
-183.32046533494184
20
34.19480682542163
42
-0.99999999999999989
0
CIRCLE
5
101
100
AcDbEntity
8
0
100
AcDbCircle
10
-185.43878970630527
20
34.5317659176877
30
0
40
0.078740157480315376
210
0
220
-0
230
1
0
CIRCLE
5
102
100
AcDbEntity
8
0
100
AcDbCircle
10
-161.33038113115188
20
22.169987660487397
30
0
40
0.07874015748031607
210
0
220
-0
230
1
0
CIRCLE
5
103
100
AcDbEntity
8
0
100
AcDbCircle
10
-161.33038113115188
20
28.075499471511019
30
0
40
0.078740157480310477
210
-0
220
0
230
1
0
CIRCLE
5
104
100
AcDbEntity
8
0
100
AcDbCircle
10
-161.33038113115188
20
25.122743565999208
30
0
40
0.078740157480321663
210
0
220
-0
230
1
0
CIRCLE
5
105
100
AcDbEntity
8
0
100
AcDbCircle
10
-161.33038113115188
20
33.981011282534645
30
0
40
0.078740157480318873
210
-0
220
0
230
1
0
CIRCLE
5
106
100
AcDbEntity
8
0
100
AcDbCircle
10
-161.33038113115188
20
31.02825537702283
30
0
40
0.07874015748031607
210
-0
220
0
230
1
0
CIRCLE
5
107
100
AcDbEntity
8
0
100
AcDbCircle
10
-179.67065160136491
20
22.441977088960844
30
0
40
0.078740157480317471
210
-0
220
0
230
1
0
CIRCLE
5
108
100
AcDbEntity
8
0
100
AcDbCircle
10
-176.81730983566743
20
22.287132679196262
30
0
40
0.078740157480317471
210
0
220
-0
230
1
0
CIRCLE
5
109
100
AcDbEntity
8
0
100
AcDbCircle
10
-182.52399336706239
20
22.596821498725436
30
0
40
0.078740157480310477
210
0
220
-0
230
1
0
CIRCLE
5
110
100
AcDbEntity
8
0
100
AcDbCircle
10
-168.25728453857496
20
21.822599449902487
30
0
40
0.078740157480310477
210
-0
220
0
230
1
0
CIRCLE
5
111
100
AcDbEntity
8
0
100
AcDbCircle
10
-174.02542264351536
20
35.151143556746057
30
0
40
0.07874015748031607
210
0
220
-0
230
1
0
CIRCLE
5
112
100
AcDbEntity
8
0
100
AcDbCircle
10
-171.11062630427247
20
21.977443859667076
30
0
40
0.078740157480307688
210
0
220
-0
230
1
0
CIRCLE
5
113
100
AcDbEntity
8
0
100
AcDbCircle
10
-156.90537204933048
20
36.080210015333599
30
0
40
0.078740157480316778
210
-0
220
0
230
1
0
CIRCLE
5
114
100
AcDbEntity
8
0
100
AcDbCircle
10
-153.9905757100876
20
21.048377401079534
30
0
40
0.078740157480307688
210
-0
220
0
230
1
0
LWPOLYLINE
5
115
100
AcDbEntity
8
0
100
AcDbPolyline
90
4
70
1
43
0.0
10
-157.48620632865874
20
35.596773682538092
10
-156.1192320608609
20
35.670956287021426
42
-0.99999998946328783
10
-156.10240300508605
20
35.360844626262853
10
-157.46937727288267
20
35.286662021777836
42
-0.99999998946328783
0
LWPOLYLINE
5
116
100
AcDbEntity
8
0
100
AcDbPolyline
90
4
70
1
43
0.0
10
-167.43625020125825
20
34.745782350670233
10
-168.80322446905484
20
34.671599746185059
42
-0.99999998946328783
10
-168.82005352483097
20
34.981711406945379
10
-167.45307926030071
20
35.055894011251382
42
-0.99999999999999989
0
LWPOLYLINE
5
117
100
AcDbEntity
8
0
100
AcDbPolyline
90
4
70
1
43
0.0
10
-180.15390072100323
20
34.366649131352702
10
-178.78692645647294
20
34.440831735658726
42
-0.99999999999999989
10
-178.77009739743048
20
34.130720075077619
10
-180.13707166522696
20
34.056537470592318
42
-0.99999998946328783
0
LWPOLYLINE
5
118
100
AcDbEntity
8
0
100
AcDbPolyline
90
4
70
1
43
0.0
10
-159.75297576789319
20
35.473761227419544
42
0.99999999999999989
10
-159.73614670884956
20
35.163649566836568
10
-158.36917244432047
20
35.237832171144319
42
0.99999998946328783
10
-158.38600150336291
20
35.547943831725568
0
LWPOLYLINE
5
119
100
AcDbEntity
8
0
100
AcDbPolyline
90
4
70
1
43
0.0
10
-165.16948076202382
20
34.86879480578876
10
-166.53645502982135
20
34.794612201304517
42
-0.99999998946328783
10
-166.55328408559654
20
35.104723862063921
10
-165.18630982106623
20
35.178906466369959
42
-0.99999999999999989
0
LWPOLYLINE
5
120
100
AcDbEntity
8
0
100
AcDbPolyline
90
4
70
1
43
0.0
10
-175.62036184253429
20
34.612674041589784
42
0.99999999999999989
10
-175.6035327834916
20
34.302562381007704
10
-174.2365585189616
20
34.376744985314652
42
0.99999998946328783
10
-174.25338757800407
20
34.686856645895794
0
LWPOLYLINE
5
121
100
AcDbEntity
8
0
100
AcDbPolyline
90
4
70
1
43
0.0
10
-176.50332795819605
20
34.253732530196139
42
0.99999999999999989
10
-176.52015701723852
20
34.563844190777253
10
-177.88713128176877
20
34.489661586471236
42
0.99999999999999989
10
-177.87030222272605
20
34.179549925889155
0
LWPOLYLINE
5
122
100
AcDbEntity
8
0
100
AcDbPolyline
90
4
70
1
43
0.0
10
-182.42067016023864
20
34.243636676233102
42
0.99999999999999989
10
-182.40384110119493
20
33.933525015652087
10
-181.03686683666493
20
34.007707619959099
42
0.99999999999999989
10
-181.05369589570739
20
34.317819280540199
0
LWPOLYLINE
5
123
100
AcDbEntity
8
0
100
AcDbPolyline
90
4
70
1
43
0.0
10
-162.90271132278934
20
34.991807260907279
42
0.99999998946328783
10
-162.91954037952129
20
35.301918921613876
10
-164.28651464636206
20
35.227736317182462
42
0.99999999999999989
10
-164.26968558731937
20
34.917624656600381
0
LWPOLYLINE
5
124
100
AcDbEntity
8
0
100
AcDbPolyline
90
4
70
1
43
0.0
10
-171.96978907972715
20
34.499757440433186
10
-173.33676334098965
20
34.425574836303539
42
-1.0000000105367122
10
-173.35359240329984
20
34.735686496708297
10
-171.98661813550203
20
34.809869101191623
42
-0.99999998946328783
0
LWPOLYLINE
5
125
100
AcDbEntity
8
0
100
AcDbPolyline
90
10
70
1
43
0.0
10
-162.08069318682715
20
22.592020074374542
10
-183.31047419711913
20
25.010233687593143
42
-0.18290512081904906
10
-184.0622160966283
20
25.397715282702276
42
-0.18323779048570324
10
-184.36800066363369
20
26.184688544419028
10
-184.36800066363369
20
29.966310398603017
42
-0.1832377904856835
10
-184.06221609662828
20
30.753283660319774
42
-0.18290512081904309
10
-183.31047419711913
20
31.140765255428892
10
-162.08069318682715
20
33.558978868647465
42
-0.44560953827502769
10
-161.64534176107315
20
33.16748744559272
10
-161.64534176107313
20
22.983511497429326
42
-0.44560953827505179
0
LWPOLYLINE
5
126
100
AcDbEntity
8
0
100
AcDbPolyline
90
4
70
1
43
0.0
10
-171.08682296406539
20
34.858698951826845
42
0.99999999999999989
10
-171.0699939050227
20
34.548587291244765
10
-169.70301964049267
20
34.622769895551713
42
0.99999999999999989
10
-169.71984869953513
20
34.932881556132877
0
LWPOLYLINE
5
127
100
AcDbEntity
8
0
100
AcDbPolyline
90
4
70
1
43
0.0
10
-160.63594188355489
20
35.114819716025806
10
-162.00291614808398
20
35.040637111718013
42
-0.99999999999999989
10
-162.01974520712761
20
35.350748772300996
10
-160.65277094259733
20
35.424931376607027
42
-0.99999999999999989
0
LWPOLYLINE
5
128
100
AcDbEntity
8
0
100
AcDbPolyline
90
4
70
1
43
0.0
10
-155.21943688942511
20
35.71978613765576
42
0.99999999999999989
10
-155.20260783038157
20
35.409674477074539
10
-154.53460509125759
20
35.44592547620357
42
0.99999999999999989
10
-154.55143415030037
20
35.756037136784826
0
CIRCLE
5
129
100
AcDbEntity
8
0
100
AcDbCircle
10
-159.69725924148253
20
21.358066220608716
30
0
40
0.07874015748031328
210
0
220
-0
230
1
0
CIRCLE
5
130
100
AcDbEntity
8
0
100
AcDbCircle
10
-159.75871381502796
20
35.925365605569013
30
0
40
0.07874015748031607
210
0
220
-0
230
1
0
CIRCLE
5
131
100
AcDbEntity
8
0
100
AcDbCircle
10
-187.02738710773488
20
32.504633329778741
30
0
40
0.07874015748031607
210
-0
220
0
230
1
0
CIRCLE
5
132
100
AcDbEntity
8
0
100
AcDbCircle
10
-168.3187391121204
20
35.460832376275235
30
0
40
0.07874015748031607
210
-0
220
0
230
1
0
CIRCLE
5
133
100
AcDbEntity
8
0
100
AcDbCircle
10
-179.73210617491031
20
34.841454737216864
30
0
40
0.078740157480314668
210
-0
220
0
230
1
0
CIRCLE
5
134
100
AcDbEntity
8
0
100
AcDbCircle
10
-176.87876440921283
20
34.996299146981457
30
0
40
0.078740157480313627
210
0
220
-0
230
1
0
CIRCLE
5
135
100
AcDbEntity
8
0
100
AcDbCircle
10
-187.02738710773491
20
26.599121518755119
30
0
40
0.078740157480314668
210
-0
220
0
230
1
0
CIRCLE
5
136
100
AcDbEntity
8
0
100
AcDbCircle
10
-182.58544794060779
20
34.686610327452279
30
0
40
0.078740157480313974
210
-0
220
0
230
1
0
CIRCLE
5
137
100
AcDbEntity
8
0
100
AcDbCircle
10
-171.17208087781785
20
35.305987966510642
30
0
40
0.07874015748031292
210
0
220
-0
230
1
0
CIRCLE
5
138
100
AcDbEntity
8
0
100
AcDbCircle
10
-187.02738710773491
20
23.646365613243312
30
0
40
0.07874015748031607
210
0
220
-0
230
1
0
CIRCLE
5
139
100
AcDbEntity
8
0
100
AcDbCircle
10
-165.46539734642292
20
35.615676786039835
30
0
40
0.078740157480315376
210
0
220
-0
230
1
0
CIRCLE
5
140
100
AcDbEntity
8
0
100
AcDbCircle
10
-187.02738710773491
20
29.55187742426693
30
0
40
0.078740157480315376
210
-0
220
0
230
1
0
CIRCLE
5
141
100
AcDbEntity
8
0
100
AcDbCircle
10
-156.84391747578505
20
21.20322181084412
30
0
40
0.07874015748031607
210
-0
220
0
230
1
0
CIRCLE
5
142
100
AcDbEntity
8
0
100
AcDbCircle
10
-185.37733513275987
20
22.751665908490047
30
0
40
0.07874015748031607
210
0
220
-0
230
1
0
CIRCLE
5
143
100
AcDbEntity
8
0
100
AcDbCircle
10
-162.55060100718003
20
21.512910630373309
30
0
40
0.07874015748031607
210
0
220
-0
230
1
0
CIRCLE
5
144
100
AcDbEntity
8
0
100
AcDbCircle
10
-173.96396806996992
20
22.13228826943168
30
0
40
0.07874015748031328
210
-0
220
0
230
1
0
CIRCLE
5
145
100
AcDbEntity
8
0
100
AcDbCircle
10
-162.61205558072544
20
35.77052119580442
30
0
40
0.07874015748031607
210
0
220
-0
230
1
0
CIRCLE
5
146
100
AcDbEntity
8
0
100
AcDbCircle
10
-154.052030283633
20
36.235054425098198
30
0
40
0.078740157480310477
210
-0
220
0
230
1
0
CIRCLE
5
147
100
AcDbEntity
8
0
100
AcDbCircle
10
-165.40394277287749
20
21.667755040137894
30
0
40
0.07874015748031607
210
0
220
-0
230
1
0
LWPOLYLINE
5
148
100
AcDbEntity
8
0
100
AcDbPolyline
90
36
70
1
43
0.0
10
-153.82639911068156
20
20.724043841481034
42
0.43018327329529515
10
-153.66038525124901
20
20.881292778580285
10
-153.66038525124901
20
21.416449545787497
42
0.18131200946189185
10
-153.74259456799089
20
21.625711025770993
42
0.18098515517847238
10
-153.94239230898617
20
21.729637507607737
10
-159.40808895172097
20
22.307682625582004
42
-0.38349944922646972
10
-160.46423939886844
20
23.482156894746335
10
-160.46423939886841
20
32.668842048275692
42
-0.38349944922646523
10
-159.40808895172097
20
33.843316317440035
10
-153.94239230898617
20
34.421361435414305
42
0.18098515517838085
10
-153.74259456799095
20
34.525287917251035
42
0.18131200946176287
10
-153.66038525124895
20
34.734549397234545
10
-153.66038525124864
20
35.371514848533536
42
0.051704166095728671
10
-153.66381337955099
20
35.404060137119295
42
0.051666326144259665
10
-153.67385070399351
20
35.435233216889358
42
0.08307556461853656
10
-153.70282207052401
20
35.47899768256967
42
0.08301176736230792
10
-153.74448857412995
20
35.510978124713404
42
-0.56608159983572481
10
-153.75891794649695
20
35.776870389671885
42
0.083012467582843183
10
-153.72095661416498
20
35.81317226316861
42
0.083077492045113221
10
-153.69689178027207
20
35.859814674962188
42
0.051665200824207204
10
-153.69028688727971
20
35.891891086529334
42
0.051703639799577421
10
-153.69040080269292
20
35.924616033696715
10
-153.73992132866613
20
36.37953352625739
42
0.18627387921508518
10
-153.79546265090198
20
36.481421511259789
42
0.18593058223433273
10
-153.9052162996789
20
36.519717346130356
10
-185.49956935464991
20
34.805163201406238
42
0.43018327329533207
10
-185.64759129359666
20
34.630872251173628
10
-185.59861746473865
20
34.180976960533407
42
0.25795896030500792
10
-185.51092129374479
20
34.056391134972934
42
-0.64750072399872893
10
-185.51969954249748
20
33.773149343375572
10
-187.09853921095387
20
33.123085745424319
42
0.30392484019686755
10
-187.34234773765613
20
32.759035446450298
10
-187.34234773765613
20
23.391963496571758
42
0.30392484019689042
10
-187.09853921095387
20
23.027913197597723
10
-185.7664731903871
20
22.479454954914871
42
0.084290555549511939
10
-185.63791479086768
20
22.45038291114076
0
LWPOLYLINE
5
149
100
AcDbEntity
8
0
100
AcDbPolyline
90
4
70
1
43
0.0
10
-157.69925304189096
20
37.603820133357011
10
-156.33227877736093
20
37.678002737664031
42
-0.99999999999999989
10
-156.31544971831823
20
37.367891077081943
10
-157.68242398284846
20
37.293708472775954
42
-0.99999999999999989
0
CIRCLE
5
150
100
AcDbEntity
8
0
100
AcDbCircle
10
-155.56409961148503
20
36.956749380509883
30
0
40
0.07874015748031539
210
-0
220
0
230
1
0
CIRCLE
5
151
100
AcDbEntity
8
0
100
AcDbCircle
10
-179.67250818663845
20
49.318527637710176
30
0
40
0.078740157480316084
210
-0
220
0
230
1
0
CIRCLE
5
152
100
AcDbEntity
8
0
100
AcDbCircle
10
-179.67250818663845
20
43.413015826686546
30
0
40
0.078740157480310491
210
0
220
-0
230
1
0
CIRCLE
5
153
100
AcDbEntity
8
0
100
AcDbCircle
10
-179.67250818663845
20
46.365771732198354
30
0
40
0.078740157480321676
210
-0
220
0
230
1
0
CIRCLE
5
154
100
AcDbEntity
8
0
100
AcDbCircle
10
-179.67250818663842
20
37.507504015662917
30
0
40
0.078740157480318887
210
0
220
-0
230
1
0
CIRCLE
5
155
100
AcDbEntity
8
0
100
AcDbCircle
10
-179.67250818663845
20
40.460259921174725
30
0
40
0.078740157480316084
210
0
220
-0
230
1
0
CIRCLE
5
156
100
AcDbEntity
8
0
100
AcDbCircle
10
-161.33223771642542
20
49.046538209236729
30
0
40
0.078740157480317485
210
0
220
-0
230
1
0
CIRCLE
5
157
100
AcDbEntity
8
0
100
AcDbCircle
10
-164.18557948212293
20
49.201382619001315
30
0
40
0.078740157480317485
210
-0
220
0
230
1
0
CIRCLE
5
158
100
AcDbEntity
8
0
100
AcDbCircle
10
-158.47889595072795
20
48.891693799472137
30
0
40
0.078740157480310491
210
-0
220
0
230
1
0
CIRCLE
5
159
100
AcDbEntity
8
0
100
AcDbCircle
10
-172.74560477921537
20
49.665915848295079
30
0
40
0.078740157480310491
210
-0
220
0
230
1
0
CIRCLE
5
160
100
AcDbEntity
8
0
100
AcDbCircle
10
-166.97746667427498
20
36.337371741451527
30
0
40
0.078740157480316084
210
-0
220
0
230
1
0
CIRCLE
5
161
100
AcDbEntity
8
0
100
AcDbCircle
10
-169.89226301351789
20
49.511071438530493
30
0
40
0.078740157480307688
210
-0
220
0
230
1
0
CIRCLE
5
162
100
AcDbEntity
8
0
100
AcDbCircle
10
-184.09751726845985
20
35.408305282863957
30
0
40
0.078740157480316778
210
-0
220
0
230
1
0
CIRCLE
5
163
100
AcDbEntity
8
0
100
AcDbCircle
10
-187.01231360770274
20
50.440137897118028
30
0
40
0.078740157480307688
210
0
220
-0
230
1
0
LWPOLYLINE
5
164
100
AcDbEntity
8
0
100
AcDbPolyline
90
4
70
1
43
0.0
10
-183.51668298913162
20
35.89174161565947
10
-184.88365725692944
20
35.817559011176137
42
-0.99999998946328783
10
-184.90048631270432
20
36.127670671934716
10
-183.5335120481752
20
36.201853276242403
42
-0.99999999999999989
0
LWPOLYLINE
5
165
100
AcDbEntity
8
0
100
AcDbPolyline
90
4
70
1
43
0.0
10
-173.56663911653209
20
36.742732947527337
10
-172.19966485200302
20
36.816915551835194
42
-0.99999999999999989
10
-172.18283579295937
20
36.506803891252197
10
-173.54981006075715
20
36.432621286768857
42
-0.99999998946328783
0
LWPOLYLINE
5
166
100
AcDbEntity
8
0
100
AcDbPolyline
90
4
70
1
43
0.0
10
-160.84898859678714
20
37.121866166844882
10
-162.21596286131739
20
37.047683562538857
42
-0.99999999999999989
10
-162.23279192035986
20
37.357795223119965
10
-160.86581765583091
20
37.431977827427922
42
-0.99999999999999989
0
LWPOLYLINE
5
167
100
AcDbEntity
8
0
100
AcDbPolyline
90
4
70
1
43
0.0
10
-181.24991354989714
20
36.014754070778018
42
0.99999999999999989
10
-181.26674260894083
20
36.324865731360973
10
-182.63371687346987
20
36.250683127053243
42
0.99999998946328783
10
-182.61688781442743
20
35.940571466471994
0
LWPOLYLINE
5
168
100
AcDbEntity
8
0
100
AcDbPolyline
90
4
70
1
43
0.0
10
-175.83340855576651
20
36.61972049240881
10
-174.46643429123654
20
36.693903096715722
42
-0.99999999999999989
10
-174.44960523219379
20
36.383791436133642
10
-175.81657949672413
20
36.309608831827624
42
-0.99999999999999989
0
LWPOLYLINE
5
169
100
AcDbEntity
8
0
100
AcDbPolyline
90
4
70
1
43
0.0
10
-165.38252747525601
20
36.875841256607792
42
0.99999999999999989
10
-165.3993565342987
20
37.185952917189873
10
-166.76633079882873
20
37.111770312882918
42
0.99999998946328783
10
-166.74950173978627
20
36.801658652301782
0
LWPOLYLINE
5
170
100
AcDbEntity
8
0
100
AcDbPolyline
90
4
70
1
43
0.0
10
-164.49956135959431
20
37.234782768001445
42
0.99999999999999989
10
-164.48273230055185
20
36.92467110742033
10
-163.11575803602156
20
36.998853711726341
42
0.99999999999999989
10
-163.13258709506431
20
37.308965372308421
0
LWPOLYLINE
5
171
100
AcDbEntity
8
0
100
AcDbPolyline
90
4
70
1
43
0.0
10
-158.58221915755166
20
37.244878621964467
42
0.99999999999999989
10
-158.59904821659541
20
37.554990282545496
10
-159.96602248112541
20
37.480807678238477
42
0.99999999999999989
10
-159.94919342208294
20
37.170696017657377
0
LWPOLYLINE
5
172
100
AcDbEntity
8
0
100
AcDbPolyline
90
4
70
1
43
0.0
10
-178.10017799500099
20
36.496708037290297
42
0.99999998946328783
10
-178.08334893826901
20
36.186596376583708
10
-176.71637467142827
20
36.260778981015115
42
0.99999999999999989
10
-176.73320373047096
20
36.570890641597195
0
LWPOLYLINE
5
173
100
AcDbEntity
8
0
100
AcDbPolyline
90
4
70
1
43
0.0
10
-169.03310023806318
20
36.988757857764391
10
-167.66612597680069
20
37.06294046189403
42
-1.0000000105367122
10
-167.64929691449046
20
36.752828801489272
10
-169.01627117902072
20
36.678646197183255
42
-0.99999999999999989
0
LWPOLYLINE
5
174
100
AcDbEntity
8
0
100
AcDbPolyline
90
10
70
1
43
0.0
10
-178.92219613096319
20
48.896495223823024
10
-157.6924151206712
20
46.478281610604448
42
-0.18290512081904034
10
-156.94067322116206
20
46.090800015495311
42
-0.18323779048570749
10
-156.63488865415664
20
45.303826753778544
10
-156.63488865415667
20
41.522204899594563
42
-0.18323779048568395
10
-156.94067322116209
20
40.735231637877796
42
-0.18290512081906937
10
-157.6924151206712
20
40.347750042768673
10
-178.92219613096321
20
37.92953642955009
42
-0.44560953827501171
10
-179.35754755671718
20
38.321027852604836
10
-179.35754755671718
20
48.505003800768236
42
-0.44560953827503674
0
LWPOLYLINE
5
175
100
AcDbEntity
8
0
100
AcDbPolyline
90
4
70
1
43
0.0
10
-169.91606635372489
20
36.629816346370731
42
0.99999998946328783
10
-169.93289541276761
20
36.939928006952812
10
-171.29986967729764
20
36.865745402645864
42
0.99999999999999989
10
-171.28304061825517
20
36.5556337420647
0
LWPOLYLINE
5
176
100
AcDbEntity
8
0
100
AcDbPolyline
90
4
70
1
43
0.0
10
-180.36694743423541
20
36.373695582171756
10
-178.99997316643879
20
36.447878186656872
42
-0.99999998946328783
10
-178.98314411066272
20
36.137766525896559
10
-180.35011837519301
20
36.063583921590556
42
-0.99999999999999989
0
LWPOLYLINE
5
177
100
AcDbEntity
8
0
100
AcDbPolyline
90
4
70
1
43
0.0
10
-185.78345242836522
20
35.768729160541803
42
0.99999999999999989
10
-185.80028148740877
20
36.078840821123023
10
-186.4682842265328
20
36.042589821993992
42
0.99999999999999989
10
-186.45145516749
20
35.732478161412729
0
CIRCLE
5
178
100
AcDbEntity
8
0
100
AcDbCircle
10
-181.30563007630781
20
50.130449077588857
30
0
40
0.07874015748031328
210
-0
220
0
230
1
0
CIRCLE
5
179
100
AcDbEntity
8
0
100
AcDbCircle
10
-181.24417550276237
20
35.563149692628549
30
0
40
0.078740157480316084
210
-0
220
0
230
1
0
CIRCLE
5
180
100
AcDbEntity
8
0
100
AcDbCircle
10
-153.97550221005545
20
38.983881968418828
30
0
40
0.078740157480316084
210
0
220
-0
230
1
0
CIRCLE
5
181
100
AcDbEntity
8
0
100
AcDbCircle
10
-172.68415020566994
20
36.027682921922334
30
0
40
0.078740157480316084
210
0
220
-0
230
1
0
CIRCLE
5
182
100
AcDbEntity
8
0
100
AcDbCircle
10
-161.27078314288002
20
36.647060560980712
30
0
40
0.078740157480314682
210
0
220
-0
230
1
0
CIRCLE
5
183
100
AcDbEntity
8
0
100
AcDbCircle
10
-164.1241249085775
20
36.49221615121612
30
0
40
0.078740157480313641
210
0
220
-0
230
1
0
CIRCLE
5
184
100
AcDbEntity
8
0
100
AcDbCircle
10
-153.97550221005545
20
44.889393779442457
30
0
40
0.078740157480314682
210
0
220
-0
230
1
0
CIRCLE
5
185
100
AcDbEntity
8
0
100
AcDbCircle
10
-158.41744137718254
20
36.801904970745298
30
0
40
0.078740157480313988
210
0
220
-0
230
1
0
CIRCLE
5
186
100
AcDbEntity
8
0
100
AcDbCircle
10
-169.83080843997246
20
36.182527331686927
30
0
40
0.078740157480312933
210
0
220
-0
230
1
0
CIRCLE
5
187
100
AcDbEntity
8
0
100
AcDbCircle
10
-153.97550221005545
20
47.842149684954272
30
0
40
0.078740157480316084
210
0
220
-0
230
1
0
CIRCLE
5
188
100
AcDbEntity
8
0
100
AcDbCircle
10
-175.53749197136742
20
35.872838512157742
30
0
40
0.07874015748031539
210
-0
220
0
230
1
0
CIRCLE
5
189
100
AcDbEntity
8
0
100
AcDbCircle
10
-153.97550221005545
20
41.93663787393065
30
0
40
0.07874015748031539
210
0
220
-0
230
1
0
CIRCLE
5
190
100
AcDbEntity
8
0
100
AcDbCircle
10
-184.15897184200526
20
50.285293487353449
30
0
40
0.078740157480316084
210
0
220
-0
230
1
0
CIRCLE
5
191
100
AcDbEntity
8
0
100
AcDbCircle
10
-155.62555418503047
20
48.73684938970753
30
0
40
0.078740157480316084
210
-0
220
0
230
1
0
CIRCLE
5
192
100
AcDbEntity
8
0
100
AcDbCircle
10
-178.45228831061033
20
49.975604667824257
30
0
40
0.078740157480316084
210
-0
220
0
230
1
0
CIRCLE
5
193
100
AcDbEntity
8
0
100
AcDbCircle
10
-167.03892124782038
20
49.356227028765893
30
0
40
0.07874015748031328
210
0
220
-0
230
1
0
CIRCLE
5
194
100
AcDbEntity
8
0
100
AcDbCircle
10
-178.3908337370649
20
35.717994102393142
30
0
40
0.078740157480316084
210
-0
220
0
230
1
0
CIRCLE
5
195
100
AcDbEntity
8
0
100
AcDbCircle
10
-186.95085903415733
20
35.253460873099364
30
0
40
0.078740157480310491
210
0
220
-0
230
1
0
CIRCLE
5
196
100
AcDbEntity
8
0
100
AcDbCircle
10
-175.59894654491282
20
49.820760258059678
30
0
40
0.078740157480316084
210
-0
220
0
230
1
0
LWPOLYLINE
5
197
100
AcDbEntity
8
0
100
AcDbPolyline
90
36
70
1
43
0.0
10
-187.17649020710877
20
50.764471456716528
42
0.43018327329529016
10
-187.34250406654135
20
50.607222519617281
10
-187.34250406654135
20
50.072065752410076
42
0.18131200946190063
10
-187.26029474979941
20
49.862804272426565
42
0.18098515517847621
10
-187.06049700880413
20
49.758877790589828
10
-181.59480036606939
20
49.180832672615558
42
-0.3834994492264745
10
-180.53864991892189
20
48.00635840345123
10
-180.53864991892192
20
38.81967324992187
42
-0.38349944922646523
10
-181.59480036606936
20
37.645198980757527
10
-187.06049700880413
20
37.067153862783265
42
0.18098515517838193
10
-187.26029474979939
20
36.96322738094652
42
0.1813120094617694
10
-187.34250406654135
20
36.75396590096301
10
-187.34250406654169
20
36.117000449664026
42
0.051704166095719983
10
-187.33907593823935
20
36.084455161078267
42
0.051666326144259665
10
-187.32903861379683
20
36.053282081308211
42
0.083075564618552616
10
-187.3000672472663
20
36.009517615627885
42
0.08301176736230792
10
-187.25840074366039
20
35.977537173484158
42
-0.56608159983541539
10
-187.24397137129336
20
35.711644908525692
42
0.083012467582929794
10
-187.28193270362536
20
35.675343035028931
42
0.083077492045077833
10
-187.30599753751824
20
35.628700623235368
42
0.051665200824198926
10
-187.31260243051062
20
35.596624211668228
42
0.051703639799577421
10
-187.31248851509741
20
35.563899264500847
10
-187.26296798912421
20
35.108981771940172
42
0.18627387921509408
10
-187.20742666688832
20
35.007093786937773
42
0.18593058223429379
10
-187.09767301811144
20
34.968797952067213
10
-155.5033199631404
20
36.683352096791332
42
0.43018327329533257
10
-155.35529802419367
20
36.857643047023956
10
-155.40427185305168
20
37.307538337664162
42
0.25795896030500792
10
-155.49196802404552
20
37.43212416322465
42
-0.6475007239987296
10
-155.48318977529286
20
37.715365954822005
10
-153.90435010683643
20
38.36542955277325
42
0.30392484019686511
10
-153.66054158013418
20
38.729479851747271
10
-153.66054158013418
20
48.096551801625822
42
0.30392484019688581
10
-153.90435010683646
20
48.46060210059985
10
-155.23641612740323
20
49.009060343282712
42
0.084290555549511176
10
-155.36497452692265
20
49.038132387056812
0
LWPOLYLINE
5
198
100
AcDbEntity
8
0
100
AcDbPolyline
90
4
70
1
43
0.0
10
-152.50927727779572
20
34.267473811321452
42
0.99999999999999989
10
-152.50927727779577
20
33.956905848940899
10
-151.64439580020476
20
33.956905848940856
42
0.99999999999999989
10
-151.64439580020473
20
34.267473811321409
0
CIRCLE
5
199
100
AcDbEntity
8
0
100
AcDbCircle
10
-152.97396915512013
20
22.040594403532982
30
0
40
0.078740157480295087
210
0
220
-0
230
1
0
CIRCLE
5
200
100
AcDbEntity
8
0
100
AcDbCircle
10
-142.20722744571839
20
29.854580207422941
30
0
40
0.078740157480299292
210
0
220
-0
230
1
0
CIRCLE
5
201
100
AcDbEntity
8
0
100
AcDbCircle
10
-150.02121324960831
20
34.715810105801062
30
0
40
0.078740157480310477
210
-0
220
0
230
1
0
LWPOLYLINE
5
202
100
AcDbEntity
8
0
100
AcDbPolyline
90
4
70
1
43
0.0
10
-150.74327665672183
20
22.799498660393077
42
0.99999999999999989
10
-150.7432766567218
20
22.488930698012528
10
-149.87839517913088
20
22.488930698012503
42
0.99999999999999989
10
-149.87839517913085
20
22.799498660392988
0
LWPOLYLINE
5
203
100
AcDbEntity
8
0
100
AcDbPolyline
90
4
70
1
43
0.0
10
-154.43410685350682
20
29.711762136945453
42
0.99999999999999989
10
-154.12353889112626
20
29.711762136945463
10
-154.12353889112623
20
30.576643614536426
42
0.99999999999999989
10
-154.43410685350676
20
30.576643614536447
0
LWPOLYLINE
5
204
100
AcDbEntity
8
0
100
AcDbPolyline
90
4
70
1
43
0.0
10
-142.65556374019801
20
27.044642372388616
42
0.99999999999999989
10
-142.96613170257851
20
27.044642372388594
10
-142.96613170257854
20
26.179760894797599
42
0.99999999999999989
10
-142.65556374019798
20
26.179760894797599
0
CIRCLE
5
205
100
AcDbEntity
8
0
100
AcDbCircle
10
-150.02121324960828
20
22.040594403533003
30
0
40
0.078740157480300693
210
-0
220
0
230
1
0
CIRCLE
5
206
100
AcDbEntity
8
0
100
AcDbCircle
10
-145.59207939134058
20
25.425446349155234
30
0
40
0.59055118110237337
210
-0
220
0
230
1
0
CIRCLE
5
207
100
AcDbEntity
8
0
100
AcDbCircle
10
-154.88244314798644
20
26.90182430191113
30
0
40
0.078740157480299292
210
0
220
-0
230
1
0
LWPOLYLINE
5
208
100
AcDbEntity
8
0
100
AcDbPolyline
90
4
70
1
43
0.0
10
-142.65556374019801
20
28.810642993462526
42
0.99999999999999989
10
-142.96613170257851
20
28.810642993462526
10
-142.96613170257854
20
27.945761515871531
42
0.99999999999999989
10
-142.65556374019798
20
27.945761515871531
0
CIRCLE
5
209
100
AcDbEntity
8
0
100
AcDbCircle
10
-154.88244314798646
20
29.854580207422941
30
0
40
0.07874015748029789
210
0
220
-0
230
1
0
LWPOLYLINE
5
210
100
AcDbEntity
8
0
100
AcDbPolyline
90
4
70
1
43
0.0
10
-148.11239455805691
20
33.95690584894087
10
-148.97727603564789
20
33.95690584894087
42
-0.99999999999999989
10
-148.97727603564789
20
34.267473811321445
10
-148.11239455805685
20
34.267473811321409
42
-0.99999999999999989
0
CIRCLE
5
211
100
AcDbEntity
8
0
100
AcDbCircle
10
-152.9739691551201
20
34.715810105801054
30
0
40
0.078740157480299292
210
0
220
-0
230
1
0
LWPOLYLINE
5
212
100
AcDbEntity
8
0
100
AcDbPolyline
90
4
70
1
43
0.0
10
-154.43410685350679
20
27.945761515871531
42
0.99999999999999989
10
-154.12353889112623
20
27.94576151587151
10
-154.12353889112623
20
28.810642993462547
42
0.99999999999999989
10
-154.43410685350676
20
28.810642993462547
0
LWPOLYLINE
5
213
100
AcDbEntity
8
0
100
AcDbPolyline
90
4
70
1
43
0.0
10
-146.34639393698296
20
33.95690584894087
10
-147.21127541457395
20
33.956905848940913
42
-0.99999999999999989
10
-147.21127541457395
20
34.267473811321445
10
-146.34639393698299
20
34.267473811321445
42
-0.99999999999999989
0
LWPOLYLINE
5
214
100
AcDbEntity
8
0
100
AcDbPolyline
90
4
70
1
43
0.0
10
-154.43410685350685
20
26.179760894797599
42
0.99999999999999989
10
-154.12353889112629
20
26.179760894797578
10
-154.12353889112623
20
27.044642372388616
42
0.99999999999999989
10
-154.43410685350676
20
27.044642372388616
0
LWPOLYLINE
5
215
100
AcDbEntity
8
0
100
AcDbPolyline
90
4
70
1
43
0.0
10
-148.11239455805691
20
22.48893069801257
10
-148.97727603564789
20
22.488930698012528
42
-0.99999999999999989
10
-148.97727603564792
20
22.799498660393102
10
-148.11239455805691
20
22.799498660392988
42
-0.99999999999999989
0
CIRCLE
5
216
100
AcDbEntity
8
0
100
AcDbCircle
10
-145.59207939134058
20
31.330958160178856
30
0
40
0.59055118110236215
210
0
220
-0
230
1
0
LWPOLYLINE
5
217
100
AcDbEntity
8
0
100
AcDbPolyline
90
4
70
1
43
0.0
10
-149.87839517913082
20
33.956905848940877
10
-150.74327665672183
20
33.956905848940934
42
-0.99999999999999989
10
-150.74327665672183
20
34.267473811321487
10
-149.87839517913082
20
34.26747381132143
42
-0.99999999999999989
0
LWPOLYLINE
5
218
100
AcDbEntity
8
0
100
AcDbPolyline
90
4
70
1
43
0.0
10
-142.65556374019801
20
32.342644235610386
10
-142.65556374019798
20
31.47776275801936
42
-0.99999999999999989
10
-142.96613170257854
20
31.47776275801936
10
-142.96613170257856
20
32.342644235610386
42
-0.99999999999999989
0
LWPOLYLINE
5
219
100
AcDbEntity
8
0
100
AcDbPolyline
90
4
70
1
43
0.0
10
-145.4452747935
20
34.26747381132143
42
0.99999999999999989
10
-145.44527479350006
20
33.956905848940899
10
-144.58039331590905
20
33.95690584894087
42
0.99999999999999989
10
-144.58039331590902
20
34.267473811321409
0
LWPOLYLINE
5
220
100
AcDbEntity
8
0
100
AcDbPolyline
90
4
70
1
43
0.0
10
-142.96613170257856
20
24.413760273723657
42
0.99999999999999989
10
-142.65556374019803
20
24.413760273723668
10
-142.65556374019801
20
25.278641751314641
42
0.99999999999999989
10
-142.96613170257851
20
25.278641751314641
0
LWPOLYLINE
5
221
100
AcDbEntity
8
0
100
AcDbPolyline
90
4
70
1
43
0.0
10
-154.12353889112623
20
32.3426442356104
42
0.99999999999999989
10
-154.43410685350679
20
32.3426442356104
10
-154.43410685350682
20
31.477762758019374
42
0.99999999999999989
10
-154.12353889112626
20
31.477762758019395
0
LWPOLYLINE
5
222
100
AcDbEntity
8
0
100
AcDbPolyline
90
4
70
1
43
0.0
10
-154.43410685350685
20
24.413760273723703
10
-154.43410685350679
20
25.278641751314698
42
-0.99999999999999989
10
-154.12353889112623
20
25.278641751314673
10
-154.12353889112623
20
24.413760273723717
42
-0.99999999999999989
0
LWPOLYLINE
5
223
100
AcDbEntity
8
0
100
AcDbPolyline
90
4
70
1
43
0.0
10
-144.58039331590911
20
22.488930698012503
10
-145.4452747935
20
22.488930698012499
42
-0.99999999999999989
10
-145.4452747935
20
22.799498660393105
10
-144.58039331590911
20
22.799498660392988
42
-0.99999999999999989
0
LWPOLYLINE
5
224
100
AcDbEntity
8
0
100
AcDbPolyline
90
4
70
1
43
0.0
10
-152.50927727779577
20
22.799498660393123
10
-151.64439580020476
20
22.799498660392988
42
-0.99999999999999989
10
-151.64439580020476
20
22.48893069801257
10
-152.50927727779572
20
22.488930698012549
42
-0.99999999999999989
0
CIRCLE
5
225
100
AcDbEntity
8
0
100
AcDbCircle
10
-151.49759120236422
20
31.330958160178856
30
0
40
0.59055118110235094
210
0
220
-0
230
1
0
LWPOLYLINE
5
226
100
AcDbEntity
8
0
100
AcDbPolyline
90
4
70
1
43
0.0
10
-146.34639393698296
20
22.488930698012528
42
0.99999999999999989
10
-146.34639393698296
20
22.799498660392942
10
-147.21127541457398
20
22.799498660393105
42
0.99999999999999989
10
-147.21127541457395
20
22.488930698012549
0
CIRCLE
5
227
100
AcDbEntity
8
0
100
AcDbCircle
10
-151.49759120236422
20
25.425446349155223
30
0
40
0.59055118110237614
210
-0
220
0
230
1
0
CIRCLE
5
228
100
AcDbEntity
8
0
100
AcDbCircle
10
-142.20722744571839
20
32.807336112934749
30
0
40
0.078740157480307688
210
0
220
-0
230
1
0
CIRCLE
5
229
100
AcDbEntity
8
0
100
AcDbCircle
10
-142.20722744571836
20
26.901824301911152
30
0
40
0.078740157480299292
210
-0
220
0
230
1
0
CIRCLE
5
230
100
AcDbEntity
8
0
100
AcDbCircle
10
-154.88244314798644
20
23.949068396399319
30
0
40
0.078740157480299292
210
0
220
-0
230
1
0
CIRCLE
5
231
100
AcDbEntity
8
0
100
AcDbCircle
10
-147.06845734409649
20
34.715810105801062
30
0
40
0.078740157480310477
210
-0
220
0
230
1
0
LWPOLYLINE
5
232
100
AcDbEntity
8
0
100
AcDbPolyline
90
4
70
1
43
0.0
10
-142.96613170257854
20
29.711762136945428
42
0.99999999999999989
10
-142.65556374019798
20
29.711762136945453
10
-142.65556374019803
20
30.576643614536458
42
0.99999999999999989
10
-142.96613170257851
20
30.576643614536458
0
CIRCLE
5
233
100
AcDbEntity
8
0
100
AcDbCircle
10
-144.11570143858469
20
22.040594403533003
30
0
40
0.078740157480299292
210
-0
220
0
230
1
0
CIRCLE
5
234
100
AcDbEntity
8
0
100
AcDbCircle
10
-147.06845734409652
20
22.040594403532982
30
0
40
0.078740157480299292
210
0
220
-0
230
1
0
CIRCLE
5
235
100
AcDbEntity
8
0
100
AcDbCircle
10
-144.11570143858469
20
34.715810105801054
30
0
40
0.078740157480307688
210
0
220
-0
230
1
0
CIRCLE
5
236
100
AcDbEntity
8
0
100
AcDbCircle
10
-142.20722744571836
20
23.94906839639934
30
0
40
0.078740157480299292
210
-0
220
0
230
1
0
CIRCLE
5
237
100
AcDbEntity
8
0
100
AcDbCircle
10
-154.88244314798644
20
32.807336112934763
30
0
40
0.078740157480306286
210
-0
220
0
230
1
0
LWPOLYLINE
5
238
100
AcDbEntity
8
0
100
AcDbPolyline
90
48
70
1
43
0.0
10
-141.91781111589569
20
23.670121445201374
10
-141.91781111589569
20
33.086283064132672
42
0.41421356237303258
10
-142.07529143085628
20
33.243763379093295
10
-142.54062289768279
20
33.243763379093295
42
0.26686185220895725
10
-142.67668411333625
20
33.165576160900095
42
-0.57792786830665255
10
-142.94577499772794
20
33.166901523053653
42
0.24797568507277809
10
-143.06991597662986
20
33.245920346422743
42
-0.36769346940251835
10
-143.67711720509669
20
33.853121574889506
42
0.24797568507287016
10
-143.75613602846573
20
33.977262553791476
42
-0.57792786830668208
10
-143.75746139061928
20
34.246353438183107
42
0.26686185220902064
10
-143.67927417242612
20
34.382414653836584
10
-143.67927417242609
20
34.847746120663146
42
0.41421356237303258
10
-143.83675448738674
20
35.005226435623783
10
-153.25291610631805
20
35.005226435623769
42
0.41421356237309503
10
-153.41039642127868
20
34.847746120663146
10
-153.41039642127868
20
34.382414653836697
42
0.26686185220905978
10
-153.33220920308551
20
34.246353438183142
42
-0.57792786830675369
10
-153.33353456523903
20
33.977262553791491
42
0.24797568507291382
10
-153.4125533886081
20
33.853121574889549
42
-0.36769346940252823
10
-154.01975461707494
20
33.245920346422743
42
0.2479756850728741
10
-154.14389559597686
20
33.16690152305366
42
-0.5779278683066148
10
-154.41298648036846
20
33.16557616090013
42
0.26686185220910402
10
-154.54904769602197
20
33.243763379093295
10
-155.01437916284851
20
33.243763379093302
42
0.41421356237300139
10
-155.17185947780914
20
33.086283064132687
10
-155.17185947780916
20
23.670121445201364
42
0.41421356237311585
10
-155.01437916284851
20
23.512641130240731
10
-154.54904769602203
20
23.512641130240741
42
0.26686185220900904
10
-154.41298648036852
20
23.590828348433927
42
-0.57792786830669773
10
-154.14389559597686
20
23.589502986280372
42
0.24797568507290993
10
-154.01975461707491
20
23.510484162911297
42
-0.36769346940258224
10
-153.41255338860813
20
22.903282934444533
42
0.24797568507288636
10
-153.33353456523906
20
22.77914195554251
42
-0.57792786830644127
10
-153.33220920308548
20
22.510051071150855
42
0.2668618522091103
10
-153.4103964212787
20
22.373989855497353
10
-153.4103964212787
20
21.908658388670943
42
0.41421356237311585
10
-153.25291610631808
20
21.75117807371031
10
-143.83675448738674
20
21.751178073710307
42
0.41421356237309503
10
-143.67927417242612
20
21.908658388670933
10
-143.67927417242612
20
22.373989855497282
42
0.26686185220918784
10
-143.75746139061937
20
22.51005107115077
42
-0.57792786830655207
10
-143.75613602846576
20
22.779141955542517
42
0.24797568507284889
10
-143.67711720509669
20
22.903282934444523
42
-0.36769346940257419
10
-143.06991597662989
20
23.51048416291129
42
0.24797568507292164
10
-142.94577499772797
20
23.589502986280412
42
-0.5779278683064637
10
-142.67668411333631
20
23.590828348433927
42
0.26686185220903502
10
-142.54062289768279
20
23.512641130240734
10
-142.07529143085628
20
23.512641130240741
42
0.41421356237303258
0
LWPOLYLINE
5
239
100
AcDbEntity
8
0
100
AcDbPolyline
90
4
70
1
43
0.0
10
-152.36205481316955
20
48.798546165527817
42
0.99999999999999989
10
-152.67262277555005
20
48.79854616552786
10
-152.67262277555011
20
47.343296665649987
42
0.99999999999999989
10
-152.36205481316955
20
47.343296665649987
0
LWPOLYLINE
5
240
100
AcDbEntity
8
0
100
AcDbPolyline
90
4
70
1
43
0.0
10
-150.74779319983901
20
50.723375741238833
42
0.99999999999999989
10
-150.74779319983901
20
50.412807778858323
10
-149.29254369996119
20
50.412807778858294
42
0.99999999999999989
10
-149.29254369996119
20
50.723375741238932
0
LWPOLYLINE
5
241
100
AcDbEntity
8
0
100
AcDbPolyline
90
4
70
1
43
0.0
10
-141.32231862639605
20
50.723375741238819
42
0.99999999999999989
10
-141.32231862639603
20
50.412807778858294
10
-139.86706912651823
20
50.412807778858259
42
0.99999999999999989
10
-139.86706912651823
20
50.723375741238819
0
LWPOLYLINE
5
242
100
AcDbEntity
8
0
100
AcDbPolyline
90
4
70
1
43
0.0
10
-150.74779319983904
20
36.303560478876548
42
0.99999999999999989
10
-150.74779319983898
20
35.99299251649601
10
-149.29254369996119
20
35.992992516495974
42
0.99999999999999989
10
-149.29254369996121
20
36.303560478876541
0
LWPOLYLINE
5
243
100
AcDbEntity
8
0
100
AcDbPolyline
90
4
70
1
43
0.0
10
-139.86706912651823
20
35.992992516496024
42
0.99999999999999989
10
-139.8670691265182
20
36.303560478876562
10
-141.32231862639605
20
36.303560478876548
42
0.99999999999999989
10
-141.32231862639605
20
35.992992516495953
0
LWPOLYLINE
5
244
100
AcDbEntity
8
0
100
AcDbPolyline
90
4
70
1
43
0.0
10
-152.36205481316955
20
41.729440235445566
10
-152.36205481316952
20
40.274190735567807
42
-0.99999999999999989
10
-152.67262277555011
20
40.274190735567778
10
-152.67262277555008
20
41.729440235445551
42
-0.99999999999999989
0
LWPOLYLINE
5
245
100
AcDbEntity
8
0
100
AcDbPolyline
90
4
70
1
43
0.0
10
-143.67868726975678
20
36.303560478876548
10
-142.22343776987896
20
36.303560478876562
42
-0.99999999999999989
10
-142.22343776987896
20
35.992992516495967
10
-143.67868726975675
20
35.992992516495953
42
-0.99999999999999989
0
LWPOLYLINE
5
246
100
AcDbEntity
8
0
100
AcDbPolyline
90
4
70
1
43
0.0
10
-146.03505591311753
20
50.72337574123889
42
0.99999999999999989
10
-146.03505591311753
20
50.412807778858316
10
-144.57980641323971
20
50.412807778858316
42
0.99999999999999989
10
-144.57980641323971
20
50.72337574123889
0
LWPOLYLINE
5
247
100
AcDbEntity
8
0
100
AcDbPolyline
90
4
70
1
43
0.0
10
-144.57980641323971
20
35.992992516495946
42
0.99999999999999989
10
-144.57980641323974
20
36.303560478876534
10
-146.03505591311753
20
36.303560478876506
42
0.99999999999999989
10
-146.03505591311753
20
35.992992516495939
0
LWPOLYLINE
5
248
100
AcDbEntity
8
0
100
AcDbPolyline
90
4
70
1
43
0.0
10
-138.25280751318778
20
40.274190735567778
42
0.99999999999999989
10
-137.94223955080719
20
40.274190735567828
10
-137.94223955080722
20
41.729440235445573
42
0.99999999999999989
10
-138.25280751318775
20
41.729440235445573
0
LWPOLYLINE
5
249
100
AcDbEntity
8
0
100
AcDbPolyline
90
4
70
1
43
0.0
10
-143.67868726975684
20
50.72337574123889
42
0.99999999999999989
10
-143.67868726975669
20
50.412807778858294
10
-142.22343776987893
20
50.412807778858316
42
0.99999999999999989
10
-142.22343776987896
20
50.723375741238847
0
LWPOLYLINE
5
250
100
AcDbEntity
8
0
100
AcDbPolyline
90
6
70
1
43
0.0
10
-146.28179090103413
20
43.079795632337259
42
0.41421356237317158
10
-146.2817909010341
20
43.636572625397569
10
-150.95220780374132
20
48.306989528104779
42
0.66817863791935572
10
-151.62429708767303
20
48.028601031574674
10
-151.62429708767306
20
38.687767226160183
42
0.66817863791928134
10
-150.95220780374137
20
38.409378729630063
0
CIRCLE
5
251
100
AcDbEntity
8
0
100
AcDbCircle
10
-153.1209590700297
20
43.358184128867414
30
0
40
0.078740157480299305
210
0
220
-0
230
1
0
LWPOLYLINE
5
252
100
AcDbEntity
8
0
100
AcDbPolyline
90
6
70
1
43
0.0
10
-140.35862576394123
20
49.00296076943016
10
-145.02904266664848
20
44.332543866722901
42
-0.41421356237308626
10
-145.58581965970876
20
44.332543866722887
10
-150.25623656241598
20
49.002960769430132
42
-0.66817863791930621
10
-149.97784806588584
20
49.675050053361829
10
-140.6370142604714
20
49.675050053361836
42
-0.66817863791926257
0
LWPOLYLINE
5
253
100
AcDbEntity
8
0
100
AcDbPolyline
90
4
70
1
43
0.0
10
-137.94223955080719
20
44.08580887880634
42
0.99999999999999989
10
-138.25280751318778
20
44.085808878806297
10
-138.25280751318778
20
42.630559378928538
42
0.99999999999999989
10
-137.94223955080716
20
42.630559378928545
0
LWPOLYLINE
5
254
100
AcDbEntity
8
0
100
AcDbPolyline
90
6
70
1
43
0.0
10
-140.6370142604714
20
37.041318204372978
10
-149.97784806588584
20
37.041318204373013
42
-0.66817863791929166
10
-150.25623656241598
20
37.713407488304711
10
-145.58581965970873
20
42.383824391011963
42
-0.4142135623730715
10
-145.02904266664848
20
42.383824391011949
10
-140.35862576394123
20
37.713407488304718
42
-0.66817863791929533
0
CIRCLE
5
255
100
AcDbEntity
8
0
100
AcDbCircle
10
-137.49390325632754
20
43.358184128867428
30
0
40
0.078740157480299305
210
0
220
-0
230
1
0
CIRCLE
5
256
100
AcDbEntity
8
0
100
AcDbCircle
10
-145.30743116317859
20
51.171712035718492
30
0
40
0.078740157480321676
210
0
220
-0
230
1
0
CIRCLE
5
257
100
AcDbEntity
8
0
100
AcDbCircle
10
-137.49390325632754
20
46.310940034379236
30
0
40
0.078740157480299305
210
0
220
-0
230
1
0
CIRCLE
5
258
100
AcDbEntity
8
0
100
AcDbCircle
10
-153.12095907002967
20
49.263695939891058
30
0
40
0.078740157480299305
210
-0
220
0
230
1
0
LWPOLYLINE
5
259
100
AcDbEntity
8
0
100
AcDbPolyline
90
4
70
1
43
0.0
10
-148.39142455647828
20
50.72337574123889
10
-146.93617505660043
20
50.723375741238932
42
-0.99999999999999989
10
-146.93617505660043
20
50.412807778858294
10
-148.39142455647828
20
50.412807778858294
42
-0.99999999999999989
0
CIRCLE
5
260
100
AcDbEntity
8
0
100
AcDbCircle
10
-137.49390325632757
20
40.405428223355614
30
0
40
0.078740157480299305
210
0
220
-0
230
1
0
CIRCLE
5
261
100
AcDbEntity
8
0
100
AcDbCircle
10
-153.1209590700297
20
46.31094003437925
30
0
40
0.078740157480310491
210
-0
220
0
230
1
0
CIRCLE
5
262
100
AcDbEntity
8
0
100
AcDbCircle
10
-137.49390325632757
20
37.452672317843806
30
0
40
0.078740157480307688
210
0
220
-0
230
1
0
CIRCLE
5
263
100
AcDbEntity
8
0
100
AcDbCircle
10
-153.1209590700297
20
40.405428223355607
30
0
40
0.078740157480299305
210
0
220
-0
230
1
0
LWPOLYLINE
5
264
100
AcDbEntity
8
0
100
AcDbPolyline
90
4
70
1
43
0.0
10
-146.93617505660043
20
35.992992516495967
10
-148.39142455647823
20
35.992992516495967
42
-0.99999999999999989
10
-148.39142455647828
20
36.303560478876513
10
-146.93617505660049
20
36.30356047887657
42
-0.99999999999999989
0
CIRCLE
5
265
100
AcDbEntity
8
0
100
AcDbCircle
10
-139.40191935215498
20
35.544656222016378
30
0
40
0.078740157480327269
210
0
220
-0
230
1
0
LWPOLYLINE
5
266
100
AcDbEntity
8
0
100
AcDbPolyline
90
4
70
1
43
0.0
10
-152.67262277555008
20
44.986928022289248
42
0.99999999999999989
10
-152.36205481316955
20
44.986928022289248
10
-152.36205481316944
20
46.442177522167086
42
0.99999999999999989
10
-152.67262277555008
20
46.442177522167071
0
CIRCLE
5
267
100
AcDbEntity
8
0
100
AcDbCircle
10
-145.30743116317859
20
35.544656222016364
30
0
40
0.078740157480327269
210
0
220
-0
230
1
0
CIRCLE
5
268
100
AcDbEntity
8
0
100
AcDbCircle
10
-142.3546752576668
20
51.171712035718492
30
0
40
0.078740157480321676
210
0
220
-0
230
1
0
CIRCLE
5
269
100
AcDbEntity
8
0
100
AcDbCircle
10
-153.1209590700297
20
37.452672317843806
30
0
40
0.078740157480310491
210
-0
220
0
230
1
0
CIRCLE
5
270
100
AcDbEntity
8
0
100
AcDbCircle
10
-151.21294297420224
20
51.1717120357185
30
0
40
0.078740157480327269
210
0
220
-0
230
1
0
CIRCLE
5
271
100
AcDbEntity
8
0
100
AcDbCircle
10
-142.3546752576668
20
35.544656222016364
30
0
40
0.078740157480304898
210
-0
220
0
230
1
0
CIRCLE
5
272
100
AcDbEntity
8
0
100
AcDbCircle
10
-139.40191935215501
20
51.1717120357185
30
0
40
0.078740157480321676
210
-0
220
0
230
1
0
CIRCLE
5
273
100
AcDbEntity
8
0
100
AcDbCircle
10
-151.21294297420224
20
35.54465622201635
30
0
40
0.078740157480316084
210
0
220
-0
230
1
0
CIRCLE
5
274
100
AcDbEntity
8
0
100
AcDbCircle
10
-137.49390325632757
20
49.263695939891072
30
0
40
0.078740157480299305
210
-0
220
0
230
1
0
CIRCLE
5
275
100
AcDbEntity
8
0
100
AcDbCircle
10
-148.26018706869041
20
51.171712035718492
30
0
40
0.078740157480316084
210
-0
220
0
230
1
0
CIRCLE
5
276
100
AcDbEntity
8
0
100
AcDbCircle
10
-148.26018706869044
20
35.544656222016364
30
0
40
0.078740157480310491
210
0
220
-0
230
1
0
LWPOLYLINE
5
277
100
AcDbEntity
8
0
100
AcDbPolyline
90
4
70
1
43
0.0
10
-152.67262277555011
20
42.63055937892851
42
0.99999999999999989
10
-152.36205481316952
20
42.63055937892856
10
-152.36205481316952
20
44.085808878806318
42
0.99999999999999989
10
-152.67262277555008
20
44.085808878806318
0
LWPOLYLINE
5
278
100
AcDbEntity
8
0
100
AcDbPolyline
90
6
70
1
43
0.0
10
-139.66265452261592
20
38.409378729630085
10
-144.33307142532317
20
43.079795632337252
42
-0.41421356237309798
10
-144.33307142532314
20
43.636572625397591
10
-139.6626545226159
20
48.306989528104786
42
-0.66817863791933985
10
-138.99056523868418
20
48.028601031574652
10
-138.99056523868421
20
38.68776722616019
42
-0.66817863791925924
0
LWPOLYLINE
5
279
100
AcDbEntity
8
0
100
AcDbPolyline
90
4
70
1
43
0.0
10
-137.94223955080713
20
46.442177522167079
42
0.99999999999999989
10
-138.25280751318775
20
46.442177522167064
10
-138.25280751318775
20
44.986928022289284
42
0.99999999999999989
10
-137.94223955080713
20
44.986928022289291
0
LWPOLYLINE
5
280
100
AcDbEntity
8
0
100
AcDbPolyline
90
4
70
1
43
0.0
10
-138.25280751318778
20
37.917822092207061
10
-138.25280751318775
20
39.37307159208487
42
-0.99999999999999989
10
-137.94223955080713
20
39.37307159208487
10
-137.94223955080722
20
37.917822092207025
42
-0.99999999999999989
0
LWPOLYLINE
5
281
100
AcDbEntity
8
0
100
AcDbPolyline
90
4
70
1
43
0.0
10
-152.67262277555005
20
37.917822092207025
10
-152.67262277555008
20
39.37307159208482
42
-0.99999999999999989
10
-152.36205481316955
20
39.373071592084834
10
-152.36205481316949
20
37.917822092207054
42
-0.99999999999999989
0
LWPOLYLINE
5
282
100
AcDbEntity
8
0
100
AcDbPolyline
90
4
70
1
43
0.0
10
-137.94223955080722
20
48.798546165527824
42
0.99999999999999989
10
-138.25280751318778
20
48.798546165527817
10
-138.25280751318775
20
47.343296665649994
42
0.99999999999999989
10
-137.94223955080713
20
47.343296665649994
0
LWPOLYLINE
5
283
100
AcDbEntity
8
0
100
AcDbPolyline
90
48
70
1
43
0.0
10
-151.57072512512877
20
36.014112889634347
42
0.5779278683065926
10
-151.57205048728227
20
36.283203774025999
42
-0.24797568507292955
10
-151.65106931065134
20
36.407344752927855
42
0.36769346940253117
10
-152.25827053911823
20
37.014545981394662
42
-0.24797568507292225
10
-152.38241151802015
20
37.093564804763766
42
0.57792786830661269
10
-152.65150240241169
20
37.09489016691731
42
-0.26686185220903336
10
-152.78756361806524
20
37.016702948724117
10
-153.25289508489172
20
37.016702948724102
42
-0.41421356237311585
10
-153.4103753998524
20
37.17418326368476
10
-153.4103753998524
20
49.542184994050103
42
-0.41421356237304302
10
-153.25289508489178
20
49.69966530901074
10
-152.78756361806526
20
49.699665309010726
42
-0.26686185220907999
10
-152.65150240241175
20
49.621478090817533
42
0.57792786830657361
10
-152.38241151802012
20
49.622803452971105
42
-0.24797568507282419
10
-152.25827053911817
20
49.701822276340188
42
0.36769346940250852
10
-151.65106931065142
20
50.309023504806987
42
-0.24797568507287004
10
-151.5720504872823
20
50.433164483708886
42
0.57792786830662257
10
-151.57072512512875
20
50.702255368100495
42
-0.26686185220913539
10
-151.64891234332194
20
50.838316583754064
10
-151.64891234332194
20
51.303648050580563
42
-0.41421356237311585
10
-151.49143202836132
20
51.461128365541214
10
-139.12343029799595
20
51.461128365541249
42
-0.4142135623731783
10
-138.96594998303527
20
51.303648050580584
10
-138.9659499830353
20
50.838316583754022
42
-0.26686185220909842
10
-139.04413720122847
20
50.702255368100417
42
0.57792786830682419
10
-139.04281183907494
20
50.433164483708865
42
-0.24797568507286674
10
-138.96379301570585
20
50.309023504806959
42
0.36769346940257241
10
-138.35659178723904
20
49.701822276340195
42
-0.24797568507285839
10
-138.23245080833709
20
49.622803452971105
42
0.57792786830671317
10
-137.96335992394552
20
49.621478090817554
42
-0.2668618522089436
10
-137.82729870829201
20
49.699665309010747
10
-137.36196724146549
20
49.699665309010761
42
-0.41421356237311585
10
-137.20448692650484
20
49.542184994050103
10
-137.20448692650487
20
37.174183263684775
42
-0.41421356237312623
10
-137.36196724146549
20
37.016702948724124
10
-137.82729870829195
20
37.016702948724145
42
-0.26686185220901637
10
-137.96335992394552
20
37.094890166917288
42
0.57792786830659404
10
-138.23245080833715
20
37.093564804763766
42
-0.24797568507293558
10
-138.35659178723907
20
37.014545981394669
42
0.36769346940255365
10
-138.9637930157059
20
36.40734475292787
42
-0.24797568507295914
10
-139.04281183907497
20
36.2832037740259
42
0.57792786830658638
10
-139.04413720122847
20
36.014112889634326
42
-0.26686185220889508
10
-138.9659499830353
20
35.878051673980785
10
-138.96594998303527
20
35.412720207154301
42
-0.41421356237304302
10
-139.12343029799592
20
35.25523989219365
10
-151.49143202836126
20
35.255239892193636
42
-0.41421356237315748
10
-151.64891234332194
20
35.412720207154273
10
-151.64891234332194
20
35.878051673980757
42
-0.26686185220892883
0
LWPOLYLINE
5
284
100
AcDbEntity
8
0
100
AcDbPolyline
90
4
70
1
43
0.0
10
-130.29913923775712
20
53.922938843371782
10
-128.93216497322709
20
53.997121447678801
42
-0.99999999999999989
10
-128.9153359141844
20
53.68700978709672
10
-130.2823101787146
20
53.612827182790689
42
-0.99999999999999989
0
CIRCLE
5
285
100
AcDbEntity
8
0
100
AcDbCircle
10
-128.1639858073512
20
53.275868090524654
30
0
40
0.07874015748031539
210
-0
220
0
230
1
0
CIRCLE
5
286
100
AcDbEntity
8
0
100
AcDbCircle
10
-152.27239438250461
20
65.637646347724939
30
0
40
0.078740157480316084
210
-0
220
0
230
1
0
CIRCLE
5
287
100
AcDbEntity
8
0
100
AcDbCircle
10
-152.27239438250461
20
59.732134536701317
30
0
40
0.078740157480310491
210
0
220
-0
230
1
0
CIRCLE
5
288
100
AcDbEntity
8
0
100
AcDbCircle
10
-152.27239438250461
20
62.684890442213131
30
0
40
0.078740157480321676
210
-0
220
0
230
1
0
CIRCLE
5
289
100
AcDbEntity
8
0
100
AcDbCircle
10
-152.27239438250461
20
53.826622725677687
30
0
40
0.078740157480318887
210
0
220
-0
230
1
0
CIRCLE
5
290
100
AcDbEntity
8
0
100
AcDbCircle
10
-152.27239438250461
20
56.779378631189509
30
0
40
0.078740157480316084
210
0
220
-0
230
1
0
CIRCLE
5
291
100
AcDbEntity
8
0
100
AcDbCircle
10
-133.93212391229159
20
65.365656919251506
30
0
40
0.078740157480317485
210
0
220
-0
230
1
0
CIRCLE
5
292
100
AcDbEntity
8
0
100
AcDbCircle
10
-136.78546567798907
20
65.520501329016085
30
0
40
0.078740157480317485
210
-0
220
0
230
1
0
CIRCLE
5
293
100
AcDbEntity
8
0
100
AcDbCircle
10
-131.07878214659411
20
65.210812509486914
30
0
40
0.078740157480310491
210
-0
220
0
230
1
0
CIRCLE
5
294
100
AcDbEntity
8
0
100
AcDbCircle
10
-145.34549097508153
20
65.985034558309863
30
0
40
0.078740157480310491
210
-0
220
0
230
1
0
CIRCLE
5
295
100
AcDbEntity
8
0
100
AcDbCircle
10
-139.57735287014114
20
52.656490451466297
30
0
40
0.078740157480316084
210
-0
220
0
230
1
0
CIRCLE
5
296
100
AcDbEntity
8
0
100
AcDbCircle
10
-142.49214920938405
20
65.83019014854527
30
0
40
0.078740157480307688
210
-0
220
0
230
1
0
CIRCLE
5
297
100
AcDbEntity
8
0
100
AcDbCircle
10
-156.69740346432602
20
51.727423992878741
30
0
40
0.078740157480316778
210
-0
220
0
230
1
0
CIRCLE
5
298
100
AcDbEntity
8
0
100
AcDbCircle
10
-159.6121998035689
20
66.759256607132798
30
0
40
0.078740157480307688
210
0
220
-0
230
1
0
LWPOLYLINE
5
299
100
AcDbEntity
8
0
100
AcDbPolyline
90
4
70
1
43
0.0
10
-156.11656918499776
20
52.210860325674247
10
-157.4835434527956
20
52.136677721190914
42
-0.99999998946328783
10
-157.50037250857045
20
52.446789381949486
10
-156.13339824404136
20
52.520971986257194
42
-0.99999999999999989
0
LWPOLYLINE
5
300
100
AcDbEntity
8
0
100
AcDbPolyline
90
4
70
1
43
0.0
10
-146.16652531239822
20
53.061851657542114
10
-144.79955104786924
20
53.136034261849957
42
-0.99999999999999989
10
-144.78272198882553
20
52.82592260126696
10
-146.14969625662332
20
52.751739996783584
42
-0.99999998946328783
0
LWPOLYLINE
5
301
100
AcDbEntity
8
0
100
AcDbPolyline
90
4
70
1
43
0.0
10
-133.4488747926533
20
53.440984876859645
10
-134.81584905718356
20
53.36680227255362
42
-0.99999999999999989
10
-134.83267811622602
20
53.676913933134742
10
-133.46570385169704
20
53.751096537442706
42
-0.99999999999999989
0
LWPOLYLINE
5
302
100
AcDbEntity
8
0
100
AcDbPolyline
90
4
70
1
43
0.0
10
-153.84979974576331
20
52.333872780792788
42
0.99999999999999989
10
-153.86662880480699
20
52.643984441375743
10
-155.233603069336
20
52.56980183706802
42
0.99999999999999989
10
-155.21677401029359
20
52.259690176486778
0
LWPOLYLINE
5
303
100
AcDbEntity
8
0
100
AcDbPolyline
90
4
70
1
43
0.0
10
-148.43329475163267
20
52.93883920242358
10
-147.06632048710267
20
53.013021806730499
42
-0.99999999999999989
10
-147.04949142805998
20
52.702910146148419
10
-148.41646568932271
20
52.628727542019718
42
-1.0000000105367122
0
LWPOLYLINE
5
304
100
AcDbEntity
8
0
100
AcDbPolyline
90
4
70
1
43
0.0
10
-137.9824136711222
20
53.194959966622569
42
1.0000000105367122
10
-137.99924273247535
20
53.505071627079261
10
-139.36621699469492
20
53.430889022897688
42
0.99999999999999989
10
-139.34938793565243
20
53.120777362316559
0
LWPOLYLINE
5
305
100
AcDbEntity
8
0
100
AcDbPolyline
90
4
70
1
43
0.0
10
-137.09944755546047
20
53.553901478016208
42
0.99999999999999989
10
-137.08261849641798
20
53.243789817435093
10
-135.71564423188772
20
53.317972421741111
42
0.99999999999999989
10
-135.73247329093044
20
53.628084082323191
0
LWPOLYLINE
5
306
100
AcDbEntity
8
0
100
AcDbPolyline
90
4
70
1
43
0.0
10
-131.18210535341785
20
53.563997331979238
42
0.99999999999999989
10
-131.19893441246157
20
53.874108992560267
10
-132.56590867699157
20
53.799926388253247
42
1.0000000105367122
10
-132.54907961794908
20
53.489814727672155
0
LWPOLYLINE
5
307
100
AcDbEntity
8
0
100
AcDbPolyline
90
4
70
1
43
0.0
10
-150.70006419086715
20
52.81582674730506
42
0.99999998946328783
10
-150.6832351341352
20
52.505715086598464
10
-149.31626086729443
20
52.579897691029871
42
0.99999999999999989
10
-149.33308992633712
20
52.890009351611965
0
LWPOLYLINE
5
308
100
AcDbEntity
8
0
100
AcDbPolyline
90
4
70
1
43
0.0
10
-141.63298643392935
20
53.307876567779154
10
-140.26601216939935
20
53.38205917208613
42
-0.99999999999999989
10
-140.24918311035665
20
53.07194751150405
10
-141.61615737488688
20
52.997764907198039
42
-0.99999999999999989
0
LWPOLYLINE
5
309
100
AcDbEntity
8
0
100
AcDbPolyline
90
10
70
1
43
0.0
10
-151.52208232682935
20
65.215613933837801
10
-130.29230131653736
20
62.797400320619218
42
-0.18290512081901233
10
-129.54055941702825
20
62.409918725510067
42
-0.1832377904857232
10
-129.2347748500228
20
61.622945463793315
10
-129.2347748500228
20
57.841323609609333
42
-0.18323779048568006
10
-129.54055941702822
20
57.05435034789258
42
-0.18290512081905136
10
-130.29230131653739
20
56.666868752783444
10
-151.52208232682938
20
54.248655139564832
42
-0.44560953827493133
10
-151.95743375258334
20
54.64014656261962
10
-151.95743375258334
20
64.824122510783027
42
-0.44560953827502825
0
LWPOLYLINE
5
310
100
AcDbEntity
8
0
100
AcDbPolyline
90
4
70
1
43
0.0
10
-142.51595254959105
20
52.948935056385501
42
0.99999998946328783
10
-142.53278160863377
20
53.259046716967582
10
-143.8997558731638
20
53.184864112660634
42
0.99999999999999989
10
-143.88292681412136
20
52.87475245207947
0
LWPOLYLINE
5
311
100
AcDbEntity
8
0
100
AcDbPolyline
90
4
70
1
43
0.0
10
-152.96683363010158
20
52.69281429218654
10
-151.59985936557251
20
52.766996896494319
42
-0.99999999999999989
10
-151.58303030652888
20
52.456885235911344
10
-152.95000457105911
20
52.382702631605312
42
-0.99999999999999989
0
LWPOLYLINE
5
312
100
AcDbEntity
8
0
100
AcDbPolyline
90
4
70
1
43
0.0
10
-158.38333862423136
20
52.087847870556587
42
0.99999999999999989
10
-158.4001676832749
20
52.397959531137793
10
-159.06817042239894
20
52.361708532008777
42
0.99999998946328783
10
-159.05134136335616
20
52.051596871427513
0
CIRCLE
5
313
100
AcDbEntity
8
0
100
AcDbCircle
10
-153.90551627217397
20
66.449567787603627
30
0
40
0.07874015748031328
210
-0
220
0
230
1
0
CIRCLE
5
314
100
AcDbEntity
8
0
100
AcDbCircle
10
-153.84406169862854
20
51.882268402643327
30
0
40
0.078740157480316084
210
-0
220
0
230
1
0
CIRCLE
5
315
100
AcDbEntity
8
0
100
AcDbCircle
10
-126.5753884059216
20
55.303000678433612
30
0
40
0.078740157480316084
210
0
220
-0
230
1
0
CIRCLE
5
316
100
AcDbEntity
8
0
100
AcDbCircle
10
-145.2840364015361
20
52.346801631937097
30
0
40
0.078740157480316084
210
0
220
-0
230
1
0
CIRCLE
5
317
100
AcDbEntity
8
0
100
AcDbCircle
10
-133.87066933874618
20
52.96617927099549
30
0
40
0.078740157480314682
210
0
220
-0
230
1
0
CIRCLE
5
318
100
AcDbEntity
8
0
100
AcDbCircle
10
-136.72401110444366
20
52.81133486123089
30
0
40
0.078740157480313641
210
0
220
-0
230
1
0
CIRCLE
5
319
100
AcDbEntity
8
0
100
AcDbCircle
10
-126.5753884059216
20
61.208512489457235
30
0
40
0.078740157480314682
210
0
220
-0
230
1
0
CIRCLE
5
320
100
AcDbEntity
8
0
100
AcDbCircle
10
-131.01732757304868
20
53.121023680760068
30
0
40
0.078740157480313988
210
0
220
-0
230
1
0
CIRCLE
5
321
100
AcDbEntity
8
0
100
AcDbCircle
10
-142.43069463583862
20
52.501646041701704
30
0
40
0.078740157480312933
210
0
220
-0
230
1
0
CIRCLE
5
322
100
AcDbEntity
8
0
100
AcDbCircle
10
-126.5753884059216
20
64.161268394969042
30
0
40
0.078740157480316084
210
0
220
-0
230
1
0
CIRCLE
5
323
100
AcDbEntity
8
0
100
AcDbCircle
10
-148.13737816723358
20
52.191957222172512
30
0
40
0.07874015748031539
210
-0
220
0
230
1
0
CIRCLE
5
324
100
AcDbEntity
8
0
100
AcDbCircle
10
-126.5753884059216
20
58.255756583945427
30
0
40
0.07874015748031539
210
0
220
-0
230
1
0
CIRCLE
5
325
100
AcDbEntity
8
0
100
AcDbCircle
10
-156.75885803787145
20
66.604412197368219
30
0
40
0.078740157480316084
210
0
220
-0
230
1
0
CIRCLE
5
326
100
AcDbEntity
8
0
100
AcDbCircle
10
-128.22544038089663
20
65.055968099722307
30
0
40
0.078740157480316084
210
-0
220
0
230
1
0
CIRCLE
5
327
100
AcDbEntity
8
0
100
AcDbCircle
10
-151.05217450647649
20
66.294723377839034
30
0
40
0.078740157480316084
210
-0
220
0
230
1
0
CIRCLE
5
328
100
AcDbEntity
8
0
100
AcDbCircle
10
-139.63880744368657
20
65.675345738780678
30
0
40
0.07874015748031328
210
0
220
-0
230
1
0
CIRCLE
5
329
100
AcDbEntity
8
0
100
AcDbCircle
10
-150.99071993293106
20
52.037112812407919
30
0
40
0.078740157480316084
210
-0
220
0
230
1
0
CIRCLE
5
330
100
AcDbEntity
8
0
100
AcDbCircle
10
-159.55074523002349
20
51.572579583114134
30
0
40
0.078740157480310491
210
0
220
-0
230
1
0
CIRCLE
5
331
100
AcDbEntity
8
0
100
AcDbCircle
10
-148.19883274077901
20
66.139878968074456
30
0
40
0.078740157480316084
210
-0
220
0
230
1
0
LWPOLYLINE
5
332
100
AcDbEntity
8
0
100
AcDbPolyline
90
36
70
1
43
0.0
10
-159.77637640297496
20
67.083590166731298
42
0.43018327329529016
10
-159.94239026240751
20
66.926341229632058
10
-159.94239026240751
20
66.391184462424832
42
0.18131200946187728
10
-159.8601809456656
20
66.18192298244135
42
0.1809851551784738
10
-159.66038320467032
20
66.077996500604598
10
-154.19468656193553
20
65.499951382630343
42
-0.38349944922644846
10
-153.13853611478805
20
64.325477113466007
10
-153.13853611478805
20
55.138791959936647
42
-0.38349944922645929
10
-154.19468656193553
20
53.964317690772305
10
-159.66038320467032
20
53.386272572798035
42
0.18098515517836411
10
-159.86018094566552
20
53.28234609096129
42
0.18131200946178147
10
-159.94239026240751
20
53.07308461097778
10
-159.94239026240786
20
52.43611915967881
42
0.051704166095746025
10
-159.93896213410554
20
52.403573871093037
42
0.051666326144242963
10
-159.92892480966299
20
52.372400791322988
42
0.083075564618552783
10
-159.89995344313246
20
52.328636325642677
42
0.083011767362314359
10
-159.85828693952655
20
52.296655883498921
42
-0.56608159983551354
10
-159.84385756715952
20
52.030763618540462
42
0.083012467582914765
10
-159.88181889949152
20
51.994461745043715
42
0.083077492045077833
10
-159.9058837333844
20
51.947819333250152
42
0.051665200824233412
10
-159.91248862637676
20
51.915742921682991
42
0.051703639799563314
10
-159.91237471096358
20
51.883017974515624
10
-159.86285418499037
20
51.428100481954949
42
0.18627387921507629
10
-159.80731286275449
20
51.326212496952557
42
0.18593058223426964
10
-159.69755921397763
20
51.287916662081983
10
-128.10320615900656
20
53.002470806806116
42
0.43018327329533207
10
-127.95518422005982
20
53.176761757038726
10
-128.00415804891784
20
53.62665704767894
42
0.25795896030503496
10
-128.09185421991171
20
53.751242873239427
42
-0.64750072399871772
10
-128.08307597115902
20
54.034484664836789
10
-126.50423630270261
20
54.684548262788027
42
0.30392484019686899
10
-126.26042777600036
20
55.048598561762056
10
-126.26042777600034
20
64.415670511640599
42
0.30392484019688337
10
-126.50423630270264
20
64.77972081061462
10
-127.83630232326939
20
65.32817905329749
42
0.084290555549524554
10
-127.96486072278881
20
65.357251097071597
0
LWPOLYLINE
5
333
100
AcDbEntity
8
0
100
AcDbPolyline
90
4
70
1
43
0.0
10
-183.30363627589938
20
62.365820883805867
10
-184.67061053716191
20
62.291638279676171
42
-1.0000000105367122
10
-184.6874395994721
20
62.601749940080929
10
-183.32046533494184
20
62.675932544386917
42
-0.99999999999999989
0
CIRCLE
5
334
100
AcDbEntity
8
0
100
AcDbCircle
10
-185.4387897063053
20
63.012891636652995
30
0
40
0.078740157480315376
210
0
220
-0
230
1
0
CIRCLE
5
335
100
AcDbEntity
8
0
100
AcDbCircle
10
-161.33038113115188
20
50.651113379452696
30
0
40
0.07874015748031607
210
0
220
-0
230
1
0
CIRCLE
5
336
100
AcDbEntity
8
0
100
AcDbCircle
10
-161.33038113115188
20
56.556625190476318
30
0
40
0.078740157480310477
210
-0
220
0
230
1
0
CIRCLE
5
337
100
AcDbEntity
8
0
100
AcDbCircle
10
-161.33038113115188
20
53.60386928496451
30
0
40
0.078740157480321663
210
0
220
-0
230
1
0
CIRCLE
5
338
100
AcDbEntity
8
0
100
AcDbCircle
10
-161.33038113115191
20
62.462137001499954
30
0
40
0.078740157480318873
210
-0
220
0
230
1
0
CIRCLE
5
339
100
AcDbEntity
8
0
100
AcDbCircle
10
-161.33038113115188
20
59.509381095988132
30
0
40
0.07874015748031607
210
-0
220
0
230
1
0
CIRCLE
5
340
100
AcDbEntity
8
0
100
AcDbCircle
10
-179.67065160136491
20
50.923102807926149
30
0
40
0.078740157480317471
210
-0
220
0
230
1
0
CIRCLE
5
341
100
AcDbEntity
8
0
100
AcDbCircle
10
-176.81730983566743
20
50.768258398161564
30
0
40
0.078740157480317471
210
0
220
-0
230
1
0
CIRCLE
5
342
100
AcDbEntity
8
0
100
AcDbCircle
10
-182.52399336706239
20
51.077947217690742
30
0
40
0.078740157480310477
210
0
220
-0
230
1
0
CIRCLE
5
343
100
AcDbEntity
8
0
100
AcDbCircle
10
-168.25728453857499
20
50.303725168867786
30
0
40
0.078740157480310477
210
-0
220
0
230
1
0
CIRCLE
5
344
100
AcDbEntity
8
0
100
AcDbCircle
10
-174.02542264351536
20
63.632269275711351
30
0
40
0.07874015748031607
210
0
220
-0
230
1
0
CIRCLE
5
345
100
AcDbEntity
8
0
100
AcDbCircle
10
-171.11062630427247
20
50.458569578632371
30
0
40
0.078740157480307688
210
0
220
-0
230
1
0
CIRCLE
5
346
100
AcDbEntity
8
0
100
AcDbCircle
10
-156.90537204933048
20
64.561335734298893
30
0
40
0.078740157480316778
210
-0
220
0
230
1
0
CIRCLE
5
347
100
AcDbEntity
8
0
100
AcDbCircle
10
-153.9905757100876
20
49.529503120044836
30
0
40
0.078740157480307688
210
-0
220
0
230
1
0
LWPOLYLINE
5
348
100
AcDbEntity
8
0
100
AcDbPolyline
90
4
70
1
43
0.0
10
-157.48620632865874
20
64.077899401503402
10
-156.1192320608609
20
64.152082005986728
42
-0.99999998946328783
10
-156.10240300508605
20
63.841970345228155
10
-157.46937726961519
20
63.76778774092044
42
-0.99999999999999989
0
LWPOLYLINE
5
349
100
AcDbEntity
8
0
100
AcDbPolyline
90
4
70
1
43
0.0
10
-167.43625020125828
20
63.226908069635527
10
-168.80322446578728
20
63.152725465327677
42
-0.99999999999999989
10
-168.82005352483097
20
63.462837125910681
10
-167.45307925703318
20
63.537019730394007
42
-0.99999998946328783
0
LWPOLYLINE
5
350
100
AcDbEntity
8
0
100
AcDbPolyline
90
4
70
1
43
0.0
10
-180.15390072100323
20
62.847774850317997
10
-178.78692645647294
20
62.921957454624028
42
-0.99999999999999989
10
-178.77009739743048
20
62.611845794042907
10
-180.13707166195948
20
62.537663189734928
42
-0.99999999999999989
0
LWPOLYLINE
5
351
100
AcDbEntity
8
0
100
AcDbPolyline
90
4
70
1
43
0.0
10
-159.75297576789319
20
63.954886946384853
42
0.99999999999999989
10
-159.73614670884956
20
63.644775285801877
10
-158.3691724443205
20
63.718957890109621
42
0.99999999999999989
10
-158.38600150336293
20
64.029069550690863
0
LWPOLYLINE
5
352
100
AcDbEntity
8
0
100
AcDbPolyline
90
4
70
1
43
0.0
10
-165.16948076202382
20
63.349920524754054
10
-166.53645502655385
20
63.275737920447142
42
-0.99999999999999989
10
-166.55328408559654
20
63.585849581029223
10
-165.18630982433379
20
63.660032185157924
42
-1.0000000105367122
0
LWPOLYLINE
5
353
100
AcDbEntity
8
0
100
AcDbPolyline
90
4
70
1
43
0.0
10
-175.62036184253429
20
63.093799760555079
42
0.99999999999999989
10
-175.6035327834916
20
62.783688099972998
10
-174.2365585189616
20
62.857870704279954
42
0.99999999999999989
10
-174.25338757800407
20
63.167982364861089
0
LWPOLYLINE
5
354
100
AcDbEntity
8
0
100
AcDbPolyline
90
4
70
1
43
0.0
10
-176.50332795819605
20
62.734858249161427
42
0.99999999999999989
10
-176.52015701723852
20
63.044969909742548
10
-177.88713128176877
20
62.970787305436538
42
0.99999999999999989
10
-177.87030222272605
20
62.660675644854443
0
LWPOLYLINE
5
355
100
AcDbEntity
8
0
100
AcDbPolyline
90
4
70
1
43
0.0
10
-182.42067016023864
20
62.724762395198397
42
0.99999999999999989
10
-182.40384110119493
20
62.414650734617368
10
-181.03686683666493
20
62.488833338924401
42
0.99999999999999989
10
-181.05369589570739
20
62.798944999505494
0
LWPOLYLINE
5
356
100
AcDbEntity
8
0
100
AcDbPolyline
90
4
70
1
43
0.0
10
-162.90271132278937
20
63.472932979872581
42
0.99999998946328783
10
-162.91954037952132
20
63.783044640579178
10
-164.28651464636206
20
63.708862036147764
42
0.99999999999999989
10
-164.26968558731937
20
63.398750375565683
0
LWPOLYLINE
5
357
100
AcDbEntity
8
0
100
AcDbPolyline
90
4
70
1
43
0.0
10
-171.96978907972715
20
62.980883159398481
10
-173.33676334425721
20
62.906700555091518
42
-0.99999999999999989
10
-173.35359240329984
20
63.216812215673606
10
-171.98661813876959
20
63.290994819979623
42
-0.99999999999999989
0
LWPOLYLINE
5
358
100
AcDbEntity
8
0
100
AcDbPolyline
90
10
70
1
43
0.0
10
-162.08069318682715
20
51.07314579333984
10
-183.31047419711913
20
53.491359406558416
42
-0.18290512081902657
10
-184.06221609662825
20
53.878841001667581
42
-0.18323779048572389
10
-184.36800066363369
20
54.665814263384334
10
-184.36800066363372
20
58.447436117568316
42
-0.18323779048569017
10
-184.06221609662828
20
59.234409379285069
42
-0.18290512081905239
10
-183.31047419711913
20
59.621890974394184
10
-162.08069318682715
20
62.040104587612774
42
-0.44560953827500094
10
-161.64534176107315
20
61.648613164558022
10
-161.64534176107313
20
51.464637216394614
42
-0.44560953827504524
0
LWPOLYLINE
5
359
100
AcDbEntity
8
0
100
AcDbPolyline
90
4
70
1
43
0.0
10
-171.08682296406542
20
63.339824670792147
42
1.0000000105367122
10
-171.06999390271227
20
63.029713010335456
10
-169.7030196404927
20
63.103895614517015
42
0.99999999999999989
10
-169.71984869953516
20
63.414007275098179
0
LWPOLYLINE
5
360
100
AcDbEntity
8
0
100
AcDbPolyline
90
4
70
1
43
0.0
10
-160.63594188355489
20
63.595945434991101
10
-162.00291614808398
20
63.521762830683322
42
-0.99999999999999989
10
-162.01974520712761
20
63.831874491266298
10
-160.65277094259733
20
63.906057095572329
42
-0.99999999999999989
0
LWPOLYLINE
5
361
100
AcDbEntity
8
0
100
AcDbPolyline
90
4
70
1
43
0.0
10
-155.21943688942511
20
64.200911856621047
42
0.99999999999999989
10
-155.20260783038157
20
63.890800196039848
10
-154.53460509125762
20
63.92705119516885
42
0.99999999999999989
10
-154.55143415030037
20
64.237162855750128
0
CIRCLE
5
362
100
AcDbEntity
8
0
100
AcDbCircle
10
-159.69725924148256
20
49.839191939574015
30
0
40
0.07874015748031328
210
0
220
-0
230
1
0
CIRCLE
5
363
100
AcDbEntity
8
0
100
AcDbCircle
10
-159.75871381502799
20
64.406491324534315
30
0
40
0.07874015748031607
210
0
220
-0
230
1
0
CIRCLE
5
364
100
AcDbEntity
8
0
100
AcDbCircle
10
-187.02738710773491
20
60.985759048744043
30
0
40
0.07874015748031607
210
-0
220
0
230
1
0
CIRCLE
5
365
100
AcDbEntity
8
0
100
AcDbCircle
10
-168.3187391121204
20
63.941958095240544
30
0
40
0.07874015748031607
210
-0
220
0
230
1
0
CIRCLE
5
366
100
AcDbEntity
8
0
100
AcDbCircle
10
-179.73210617491031
20
63.322580456182166
30
0
40
0.078740157480314668
210
-0
220
0
230
1
0
CIRCLE
5
367
100
AcDbEntity
8
0
100
AcDbCircle
10
-176.87876440921283
20
63.477424865946759
30
0
40
0.078740157480313627
210
0
220
-0
230
1
0
CIRCLE
5
368
100
AcDbEntity
8
0
100
AcDbCircle
10
-187.02738710773491
20
55.080247237720421
30
0
40
0.078740157480314668
210
-0
220
0
230
1
0
CIRCLE
5
369
100
AcDbEntity
8
0
100
AcDbCircle
10
-182.58544794060782
20
63.167736046417581
30
0
40
0.078740157480313974
210
-0
220
0
230
1
0
CIRCLE
5
370
100
AcDbEntity
8
0
100
AcDbCircle
10
-171.17208087781788
20
63.787113685475944
30
0
40
0.07874015748031292
210
0
220
-0
230
1
0
CIRCLE
5
371
100
AcDbEntity
8
0
100
AcDbCircle
10
-187.02738710773491
20
52.127491332208599
30
0
40
0.07874015748031607
210
0
220
-0
230
1
0
CIRCLE
5
372
100
AcDbEntity
8
0
100
AcDbCircle
10
-165.46539734642292
20
64.09680250500513
30
0
40
0.078740157480315376
210
0
220
-0
230
1
0
CIRCLE
5
373
100
AcDbEntity
8
0
100
AcDbCircle
10
-187.02738710773491
20
58.033003143232236
30
0
40
0.078740157480315376
210
-0
220
0
230
1
0
CIRCLE
5
374
100
AcDbEntity
8
0
100
AcDbCircle
10
-156.84391747578508
20
49.684347529809422
30
0
40
0.07874015748031607
210
-0
220
0
230
1
0
CIRCLE
5
375
100
AcDbEntity
8
0
100
AcDbCircle
10
-185.3773351327599
20
51.232791627455349
30
0
40
0.07874015748031607
210
0
220
-0
230
1
0
CIRCLE
5
376
100
AcDbEntity
8
0
100
AcDbCircle
10
-162.55060100718003
20
49.994036349338607
30
0
40
0.07874015748031607
210
0
220
-0
230
1
0
CIRCLE
5
377
100
AcDbEntity
8
0
100
AcDbCircle
10
-173.96396806996995
20
50.613413988396978
30
0
40
0.07874015748031328
210
-0
220
0
230
1
0
CIRCLE
5
378
100
AcDbEntity
8
0
100
AcDbCircle
10
-162.61205558072544
20
64.251646914769722
30
0
40
0.07874015748031607
210
0
220
-0
230
1
0
CIRCLE
5
379
100
AcDbEntity
8
0
100
AcDbCircle
10
-154.052030283633
20
64.716180144063486
30
0
40
0.078740157480310477
210
-0
220
0
230
1
0
CIRCLE
5
380
100
AcDbEntity
8
0
100
AcDbCircle
10
-165.40394277287751
20
50.148880759103193
30
0
40
0.07874015748031607
210
0
220
-0
230
1
0
LWPOLYLINE
5
381
100
AcDbEntity
8
0
100
AcDbPolyline
90
36
70
1
43
0.0
10
-153.82639911068156
20
49.205169560446336
42
0.43018327329529016
10
-153.66038525124901
20
49.362418497545583
10
-153.66038525124901
20
49.897575264752795
42
0.18131200946187614
10
-153.74259456799089
20
50.106836744736285
42
0.18098515517848915
10
-153.9423923089862
20
50.210763226573036
10
-159.408088951721
20
50.788808344547299
42
-0.38349944922646628
10
-160.46423939886844
20
51.963282613711634
10
-160.46423939886844
20
61.149967767241002
42
-0.38349944922647172
10
-159.40808895172097
20
62.324442036405337
10
-153.9423923089862
20
62.902487154379592
42
0.18098515517838193
10
-153.74259456799098
20
63.006413636216337
42
0.1813120094617674
10
-153.66038525124898
20
63.215675116199847
10
-153.66038525124864
20
63.852640567498831
42
0.051704166095728803
10
-153.66381337955099
20
63.88518585608459
42
0.051666326144260206
10
-153.67385070399351
20
63.916358935854653
42
0.083075564618538281
10
-153.70282207052401
20
63.960123401534965
42
0.083011767362338507
10
-153.74448857413
20
63.992103843678692
42
-0.56608159983572026
10
-153.75891794649695
20
64.257996108637187
42
0.083012467582850233
10
-153.720956614165
20
64.294297982133912
42
0.08307749204513433
10
-153.69689178027207
20
64.340940393927482
42
0.05166520082420599
10
-153.69028688727974
20
64.373016805494643
42
0.051703639799580675
10
-153.69040080269292
20
64.405741752662024
10
-153.73992132866613
20
64.860659245222692
42
0.18627387921507629
10
-153.79546265090201
20
64.962547230225084
42
0.18593058223426964
10
-153.9052162996789
20
65.000843065095651
10
-185.49956935464991
20
63.28628892037154
42
0.43018327329537409
10
-185.64759129359669
20
63.111997970138923
10
-185.59861746473865
20
62.662102679498709
42
0.2579589603050309
10
-185.51092129374479
20
62.537516853938236
42
-0.64750072399872738
10
-185.51969954249748
20
62.254275062340852
10
-187.09853921095387
20
61.604211464389621
42
0.30392484019686899
10
-187.34234773765613
20
61.240161165415593
10
-187.34234773765616
20
51.873089215537064
42
0.30392484019689114
10
-187.09853921095387
20
51.509038916563021
10
-185.7664731903871
20
50.960580673880166
42
0.084290555549524554
10
-185.63791479086768
20
50.931508630106059
0
ENDSEC
0
SECTION
2
OBJECTS
0
DICTIONARY
5
C
100
AcDbDictionary
3
ACAD_GROUP
350
D
3
ACAD_MLINESTYLE
350
17
0
DICTIONARY
5
D
100
AcDbDictionary
0
DICTIONARY
5
1A
330
C
100
AcDbDictionary
0
DICTIONARY
5
17
100
AcDbDictionary
0
ENDSEC
0
EOF
