0
SECTION
2
HEADER
9
$INSUNITS
70
1
9
$ACADVER
1
AC1014
9
$HANDSEED
5
FFFF
0
ENDSEC
0
SECTION
2
TABLES
0
TABLE
2
VPORT
5
8
100
AcDbSymbolTable
0
ENDTAB
0
TABLE
2
LTYPE
5
5
100
AcDbSymbolTable
0
LTYPE
5
14
100
AcDbSymbolTableRecord
100
AcDbLinetypeTableRecord
2
BYBLOCK
70
0
0
LTYPE
5
15
100
AcDbSymbolTableRecord
100
AcDbLinetypeTableRecord
2
BYLAYER
70
0
0
ENDTAB
0
TABLE
2
LAYER
5
2
100
AcDbSymbolTable
70
2
0
LAYER
5
50
100
AcDbSymbolTableRecord
100
AcDbLayerTableRecord
2
0
70
0
6
CONTINUOUS
0
ENDTAB
0
TABLE
2
STYLE
5
3
100
AcDbSymbolTable
70
1
0
STYLE
5
11
100
AcDbSymbolTableRecord
100
AcDbTextStyleTableRecord
2
STANDARD
70
0
0
ENDTAB
0
TABLE
2
VIEW
5
6
100
AcDbSymbolTable
70
0
0
ENDTAB
0
TABLE
2
UCS
5
7
100
AcDbSymbolTable
70
0
0
ENDTAB
0
TABLE
2
APPID
5
9
100
AcDbSymbolTable
70
2
0
APPID
5
12
100
AcDbSymbolTableRecord
100
AcDbRegAppTableRecord
2
ACAD
70
0
0
ENDTAB
0
TABLE
2
DIMSTYLE
5
A
100
AcDbSymbolTable
70
1
0
ENDTAB
0
TABLE
2
BLOCK_RECORD
5
1
100
AcDbSymbolTable
70
1
0
BLOCK_RECORD
5
1F
100
AcDbSymbolTableRecord
100
AcDbBlockTableRecord
2
*MODEL_SPACE
0
BLOCK_RECORD
5
1B
100
AcDbSymbolTableRecord
100
AcDbBlockTableRecord
2
*PAPER_SPACE
0
ENDTAB
0
ENDSEC
0
SECTION
2
BLOCKS
0
BLOCK
5
20
100
AcDbEntity
100
AcDbBlockBegin
2
*MODEL_SPACE
0
ENDBLK
5
21
100
AcDbEntity
100
AcDbBlockEnd
0
BLOCK
5
1C
100
AcDbEntity
100
AcDbBlockBegin
2
*PAPER_SPACE
0
ENDBLK
5
1D
100
AcDbEntity
100
AcDbBlockEnd
0
ENDSEC
0
SECTION
2
ENTITIES
0
LWPOLYLINE
5
100
100
AcDbEntity
8
0
100
AcDbPolyline
90
5
70
1
43
0.0
10
0.74481782015102771
20
-2.9992204676350438
10
0.53303829259197133
20
-2.9992204676350411
42
0.99999999999999989
10
0.53303829259197422
20
-3.2496929085799238
10
0.74481782015102771
20
-3.2496929085799211
10
0.74481782015102771
20
-3.2492012506935759
42
0.99999999999999989
0
LWPOLYLINE
5
101
100
AcDbEntity
8
0
100
AcDbPolyline
90
5
70
1
43
0.0
10
0.74079419810378355
20
-1.5033976329893681
10
0.74079419810378355
20
-1.50290597510302
42
0.99999999999999989
10
0.74079419810378633
20
-1.2529251920444826
10
0.52901467054472717
20
-1.2529251920444853
42
0.99999999999999989
10
0.52901467054472717
20
-1.5033976329893681
0
LWPOLYLINE
5
102
100
AcDbEntity
8
0
100
AcDbPolyline
90
5
70
1
43
0.0
10
0.74559734771007857
20
-4.7614645621232228
42
-0.99999999999999989
10
0.74559734771008135
20
-5.0114453451817598
10
0.74559734771008135
20
-5.0119370030681081
10
0.53381782015102075
20
-5.0119370030681001
42
-0.99999999999999989
10
0.5338178201510263
20
-4.7614645621232228
0
LWPOLYLINE
5
103
100
AcDbEntity
8
0
100
AcDbPolyline
90
4
70
1
43
0.0
10
0.24999892251323361
20
-5.8749999951940879
10
0.24999892251323236
20
-0.37499999519408772
10
4.7499989225132309
20
-0.37499999519408356
10
4.7499989225132309
20
-5.8749999951940834
0
LWPOLYLINE
5
104
100
AcDbEntity
8
0
100
AcDbPolyline
90
5
70
1
43
0.0
10
5.4948193820743079
20
-2.9992204676350411
10
5.2830398545152519
20
-2.9992204676350385
42
0.99999999999999989
10
5.2830398545152546
20
-3.2496929085799211
10
5.4948193820743079
20
-3.2496929085799184
10
5.4948193820743079
20
-3.2492012506935728
42
0.99999999999999989
0
LWPOLYLINE
5
105
100
AcDbEntity
8
0
100
AcDbPolyline
90
5
70
1
43
0.0
10
5.490795760027062
20
-1.5033976329893655
10
5.490795760027062
20
-1.5029059751030172
42
0.99999999999999989
10
5.4907957600270656
20
-1.2529251920444797
10
5.2790162324680061
20
-1.2529251920444826
42
0.99999999999999989
10
5.2790162324680061
20
-1.5033976329893655
0
LWPOLYLINE
5
106
100
AcDbEntity
8
0
100
AcDbPolyline
90
5
70
1
43
0.0
10
5.4955989096333591
20
-4.7614645621232201
42
-0.99999999999999989
10
5.4955989096333617
20
-5.0114453451817571
10
5.4955989096333617
20
-5.0119370030681054
10
5.2838193820743014
20
-5.0119370030680965
42
-0.99999999999999989
10
5.2838193820743067
20
-4.7614645621232201
0
LWPOLYLINE
5
107
100
AcDbEntity
8
0
100
AcDbPolyline
90
4
70
1
43
0.0
10
5.000000484436514
20
-5.8749999951940852
10
5.0000004844365122
20
-0.37499999519408495
10
9.5000004844365105
20
-0.37499999519408073
10
9.5000004844365122
20
-5.8749999951940834
0
CIRCLE
5
108
100
AcDbEntity
8
0
100
AcDbCircle
10
17.960646023006888
20
-1.4972538264717645
30
0
40
0.099999999999999811
210
0
220
-0
230
1
0
LINE
5
109
100
AcDbEntity
8
0
100
AcDbLine
10
15.514943087776819
20
-0.9559978284530376
30
0
11
15.533051534817915
21
-0.29959634615680125
31
0
0
SPLINE
5
110
100
AcDbEntity
8
0
100
AcDbSpline
70
0
71
3
72
8
73
4
74
0
42
0.000000001
43
0.0000000001
44
0.0000000001
40
-1
40
-1
40
-1
40
-1
40
0
40
0
40
0
40
0
10
15.533051534817911
20
-0.29959634615680125
30
0
10
12.069646023006889
20
-0.73606485009380973
30
0
10
10.678590904896646
20
-0.94024988946388766
30
0
10
9.8535436608021634
20
-1.8108916217473514
30
0
0
LINE
5
111
100
AcDbEntity
8
0
100
AcDbLine
10
9.8535436608021634
20
-1.8108916217473514
30
0
11
16.020649960014762
21
-1.8101239052119216
31
0
0
LINE
5
112
100
AcDbEntity
8
0
100
AcDbLine
10
16.020649960014762
20
-1.8101239052119216
30
0
11
16.020642085999015
21
-1.6847538264717652
31
0
0
LINE
5
113
100
AcDbEntity
8
0
100
AcDbLine
10
16.020642085999015
20
-1.6847538264717652
30
0
11
16.578260196235231
21
-1.6847538264717652
31
0
0
LINE
5
114
100
AcDbEntity
8
0
100
AcDbLine
10
16.578260196235231
20
-1.6847538264717652
30
0
11
16.770460983636809
21
-1.5597538264717656
31
0
0
LINE
5
115
100
AcDbEntity
8
0
100
AcDbLine
10
16.770460983636809
20
-1.5597538264717656
30
0
11
16.770460983636813
21
-1.6847538264717652
31
0
0
LINE
5
116
100
AcDbEntity
8
0
100
AcDbLine
10
16.770460983636813
20
-1.6847538264717652
30
0
11
17.205346810408464
21
-1.6847538264717652
31
0
0
LINE
5
117
100
AcDbEntity
8
0
100
AcDbLine
10
17.205346810408464
20
-1.6847538264717652
30
0
11
17.397547597810036
21
-1.5597538264717656
31
0
0
LINE
5
118
100
AcDbEntity
8
0
100
AcDbLine
10
17.397547597810036
20
-1.5597538264717656
30
0
11
17.397547597810039
21
-1.6847538264717652
31
0
0
LINE
5
119
100
AcDbEntity
8
0
100
AcDbLine
10
17.397547597810039
20
-1.6847538264717652
30
0
11
18.010260196235237
21
-1.6847538264717652
31
0
0
ARC
5
120
100
AcDbEntity
8
0
100
AcDbCircle
10
18.010260196235233
20
-1.4972538264717645
30
0
40
0.1875000000000008
210
-0
220
0
230
1
100
AcDbArc
50
-89.999999999998934
51
90
0
LINE
5
121
100
AcDbEntity
8
0
100
AcDbLine
10
18.010260196235233
20
-1.3097538264717643
30
0
11
17.7115987789124
21
-1.3097538264717643
31
0
0
LINE
5
122
100
AcDbEntity
8
0
100
AcDbLine
10
17.7115987789124
20
-1.3097538264717643
30
0
11
17.711598778912403
21
-1.4343365036371181
31
0
0
LINE
5
123
100
AcDbEntity
8
0
100
AcDbLine
10
17.711598778912403
20
-1.4343365036371181
30
0
11
17.520035786786419
21
-1.3097538264717643
31
0
0
LINE
5
124
100
AcDbEntity
8
0
100
AcDbLine
10
17.520035786786419
20
-1.3097538264717643
30
0
11
17.10217751906988
21
-1.3097538264717643
31
0
0
LINE
5
125
100
AcDbEntity
8
0
100
AcDbLine
10
17.10217751906988
20
-1.3097538264717643
30
0
11
17.10217751906988
21
-1.4329624878890854
31
0
0
LINE
5
126
100
AcDbEntity
8
0
100
AcDbLine
10
17.10217751906988
20
-1.4329624878890854
30
0
11
16.912732637180117
21
-1.3097538264717643
31
0
0
LINE
5
127
100
AcDbEntity
8
0
100
AcDbLine
10
16.912732637180117
20
-1.3097538264717643
30
0
11
16.013358621432083
21
-1.3097538264717641
31
0
0
LINE
5
128
100
AcDbEntity
8
0
100
AcDbLine
10
16.013358621432083
20
-1.3097538264717641
30
0
11
16.013358621432083
21
-1.1872026453694
31
0
0
LINE
5
129
100
AcDbEntity
8
0
100
AcDbLine
10
16.013358621432083
20
-1.1872026453694
30
0
11
15.739857516498132
21
-1.1872026453694007
31
0
0
ARC
5
130
100
AcDbEntity
8
0
100
AcDbCircle
10
15.739857516498132
20
-0.96220264536940137
30
0
40
0.22500000000000026
210
0
220
0
230
1
100
AcDbArc
50
178.41975601065982
51
270
0
CIRCLE
5
131
100
AcDbEntity
8
0
100
AcDbCircle
10
9.987115542914923
20
-2.3735205664446979
30
0
40
0.099999999999999811
210
0
220
-0
230
1
0
LINE
5
132
100
AcDbEntity
8
0
100
AcDbLine
10
12.432676813610758
20
-2.9199156573498328
30
0
11
12.407347826379489
21
-3.8378748971533598
31
0
0
LINE
5
133
100
AcDbEntity
8
0
100
AcDbLine
10
12.407347826379489
20
-3.8378748971533598
30
0
11
18.011017117718065
21
-3.7230993066021782
31
0
0
SPLINE
5
134
100
AcDbEntity
8
0
100
AcDbSpline
70
0
71
3
72
55
73
51
74
0
42
0.000000001
43
0.0000000001
44
0.0000000001
40
0
40
0
40
0
40
0
40
3.0658907746645643e-05
40
6.1327415532497101e-05
40
0.00012266308227011408
40
0.00024532902096064947
40
0.00036798776775261242
40
0.0004906393239412065
40
0.00073592086943425066
40
0.00098117366820810918
40
0.001471593064884852
40
0.0019618976002959872
40
0.0024520873582260161
40
0.0029421624225125856
40
0.0039219687848258186
40
0.0049013173800937972
40
0.0058802088811662871
40
0.0078366231279734938
40
0.0097912170951679704
40
0.011743996199453282
40
0.013694965872631649
40
0.015644131561655842
40
0.019537071479461661
40
0.023422861194935564
40
0.027301544829171808
40
0.031173166746223373
40
0.038895392858058091
40
0.046589910431841193
40
0.054257083148235831
40
0.061897278592847702
40
0.069510868258664496
40
0.077098227546716414
40
0.092195679833631958
40
0.10719281106806676
40
0.12209276476442905
40
0.13689874633366955
40
0.15161402259639234
40
0.18078497522749046
40
0.20963378255010121
40
0.23818870530357936
40
0.26647888497745154
40
0.29453428804924719
40
0.32238563882608789
40
0.35006434113879986
40
0.40502409550212393
40
0.45968280502344711
40
0.51430611527866843
40
0.56916018614185337
40
0.62450784849618113
40
0.68060499581399403
40
0.68060499581399403
40
0.68060499581399403
40
0.68060499581399403
10
18.011017117718065
20
-3.7230993066021774
30
0
10
18.011020741892409
20
-3.7230975591064692
30
0
10
18.011028586833881
20
-3.7230954985806441
30
0
10
18.011043654444791
20
-3.7230898749989065
30
0
10
18.011070314011793
20
-3.7230807321439268
30
0
10
18.011108244855023
20
-3.7230673025690364
30
0
10
18.011153823197393
20
-3.723051339690338
30
0
10
18.011214564081314
20
-3.7230299967614271
30
0
10
18.011290487152678
20
-3.7230033274150864
30
0
10
18.011411933118012
20
-3.7229606271687952
30
0
10
18.011563698856239
20
-3.7229072178091251
30
0
10
18.011745758618243
20
-3.7228430610497325
30
0
10
18.01192774939631
20
-3.7227788444674834
30
0
10
18.01217028314035
20
-3.7226931519221824
30
0
10
18.012473277563011
20
-3.7225858857396901
30
0
10
18.01283663676206
20
-3.7224569103094005
30
0
10
18.013320634032258
20
-3.7222846619846304
30
0
10
18.013924939955416
20
-3.7220687495104179
30
0
10
18.014649169668019
20
-3.7218086303800519
30
0
10
18.015372292905376
20
-3.7215475474974959
30
0
10
18.016094309682011
20
-3.7212855008576851
30
0
10
18.017055080124795
20
-3.7209349820622495
30
0
10
18.018253284192475
20
-3.7204944262748278
30
0
10
18.019687366634656
20
-3.7199616603470824
30
0
10
18.021117023450731
20
-3.7194250392733714
30
0
10
18.023015610661918
20
-3.7187050569702715
30
0
10
18.025377838810467
20
-3.7177954564688935
30
0
10
18.028197378799685
20
-3.7166875255681289
30
0
10
18.030999216531473
20
-3.7155641733616576
30
0
10
18.033783350631637
20
-3.7144254003731514
30
0
10
18.036549783206006
20
-3.7132712056491473
30
0
10
18.04020852443999
20
-3.7117143695900077
30
0
10
18.044738189113325
20
-3.7097298482672216
30
0
10
18.050112230135205
20
-3.7072826709940192
30
0
10
18.055415466868283
20
-3.704773793563636
30
0
10
18.060647908125592
20
-3.7022032085912993
30
0
10
18.067509757817344
20
-3.6987038647957418
30
0
10
18.07591426128452
20
-3.694175331789125
30
0
10
18.085746129254666
20
-3.6884780094299408
30
0
10
18.095294815520969
20
-3.6825335538286015
30
0
10
18.104560232514768
20
-3.676341970031245
30
0
10
18.11354232337079
20
-3.6699032803202747
30
0
10
18.122241156786217
20
-3.6632173418851424
30
0
10
18.133434181645001
20
-3.653996131145631
30
0
10
18.146747446060903
20
-3.6418319755552395
30
0
10
18.161621818514813
20
-3.6262092231457057
30
0
10
18.175358121631
20
-3.6095943820711178
30
0
10
18.187955097733681
20
-3.5919887878224559
30
0
10
18.199411855892262
20
-3.5733948387253114
30
0
10
18.206234899873877
20
-3.5604443755329229
30
0
10
18.209454125592089
20
-3.5538237160509984
30
0
0
LINE
5
135
100
AcDbEntity
8
0
100
AcDbLine
10
18.209454125592085
20
-3.5538237160509993
30
0
11
18.378332078347984
21
-2.059796156995878
31
0
0
LINE
5
136
100
AcDbEntity
8
0
100
AcDbLine
10
18.378332078347984
20
-2.059796156995878
30
0
11
11.927111605907047
21
-2.0606504877045402
31
0
0
LINE
5
137
100
AcDbEntity
8
0
100
AcDbLine
10
11.927111605907047
20
-2.0606504877045402
30
0
11
11.927119479675536
21
-2.1860205664447139
31
0
0
LINE
5
138
100
AcDbEntity
8
0
100
AcDbLine
10
11.927119479675536
20
-2.1860205664447139
30
0
11
11.369501369686576
21
-2.1860205664446979
31
0
0
LINE
5
139
100
AcDbEntity
8
0
100
AcDbLine
10
11.369501369686576
20
-2.1860205664446979
30
0
11
11.177300582285
21
-2.3110205664446983
31
0
0
LINE
5
140
100
AcDbEntity
8
0
100
AcDbLine
10
11.177300582285
20
-2.3110205664446983
30
0
11
11.177300582285
21
-2.1860205664446979
31
0
0
LINE
5
141
100
AcDbEntity
8
0
100
AcDbLine
10
11.177300582285
20
-2.1860205664446979
30
0
11
10.742414755513346
21
-2.1860205664446979
31
0
0
LINE
5
142
100
AcDbEntity
8
0
100
AcDbLine
10
10.742414755513346
20
-2.1860205664446979
30
0
11
10.55021396811177
21
-2.3110205664446983
31
0
0
LINE
5
143
100
AcDbEntity
8
0
100
AcDbLine
10
10.55021396811177
20
-2.3110205664446983
30
0
11
10.550213968111771
21
-2.1860205664446979
31
0
0
LINE
5
144
100
AcDbEntity
8
0
100
AcDbLine
10
10.550213968111771
20
-2.1860205664446979
30
0
11
9.9375013696865739
21
-2.1860205664446983
31
0
0
ARC
5
145
100
AcDbEntity
8
0
100
AcDbCircle
10
9.9375013696865739
20
-2.3735205664446979
30
0
40
0.18749999999999939
210
0
220
-0
230
1
100
AcDbArc
50
90
51
270
0
LINE
5
146
100
AcDbEntity
8
0
100
AcDbLine
10
9.9375013696865739
20
-2.5610205664446974
30
0
11
10.236162787009413
21
-2.5610205664446966
31
0
0
LINE
5
147
100
AcDbEntity
8
0
100
AcDbLine
10
10.236162787009413
20
-2.5610205664446966
30
0
11
10.236162787009413
21
-2.4364378892793437
31
0
0
LINE
5
148
100
AcDbEntity
8
0
100
AcDbLine
10
10.236162787009413
20
-2.4364378892793437
30
0
11
10.427725779135395
21
-2.5610205664446966
31
0
0
LINE
5
149
100
AcDbEntity
8
0
100
AcDbLine
10
10.427725779135395
20
-2.5610205664446966
30
0
11
10.845584046851929
21
-2.5610205664446966
31
0
0
LINE
5
150
100
AcDbEntity
8
0
100
AcDbLine
10
10.845584046851929
20
-2.5610205664446966
30
0
11
10.845584046851929
21
-2.4378119050273743
31
0
0
LINE
5
151
100
AcDbEntity
8
0
100
AcDbLine
10
10.845584046851929
20
-2.4378119050273743
30
0
11
11.035028928741694
21
-2.5610205664446966
31
0
0
LINE
5
152
100
AcDbEntity
8
0
100
AcDbLine
10
11.035028928741694
20
-2.5610205664446966
30
0
11
11.934402944489724
21
-2.5610205664446966
31
0
0
LINE
5
153
100
AcDbEntity
8
0
100
AcDbLine
10
11.934402944489724
20
-2.5610205664446966
30
0
11
11.934402944489724
21
-2.6835717475470582
31
0
0
LINE
5
154
100
AcDbEntity
8
0
100
AcDbLine
10
11.934402944489724
20
-2.6835717475470582
30
0
11
12.202764319804064
21
-2.6835717475470586
31
0
0
ARC
5
155
100
AcDbEntity
8
0
100
AcDbCircle
10
12.202764319804064
20
-2.9135717475470613
30
0
40
0.23000000000000245
210
0
220
-0
230
1
100
AcDbArc
50
48.177993688396882
51
90
0
SPLINE
5
156
100
AcDbEntity
8
0
100
AcDbSpline
70
0
71
3
72
13
73
9
74
0
42
0.000000001
43
0.0000000001
44
0.0000000001
40
0.46841634881365413
40
0.46841634881365413
40
0.46841634881365413
40
0.46841634881365413
40
0.4851276454329469
40
0.52308852457350885
40
0.56091658708636538
40
0.59884721899788096
40
0.63711391303156717
40
0.67580317760588926
40
0.67580317760588926
40
0.67580317760588926
40
0.67580317760588926
10
12.356132631254034
20
-2.7421711610749493
30
0
10
12.357818974396324
20
-2.7435740986164858
30
0
10
12.363258857445123
20
-2.7482565489582327
30
0
10
12.37201153037698
20
-2.7566858380754775
30
0
10
12.381920866366025
20
-2.7678657816007965
30
0
10
12.39094037939015
20
-2.7798253399210098
30
0
10
12.3990594145394
20
-2.792547396806881
30
0
10
12.403833440860307
20
-2.8014575953814345
30
0
10
12.406067659176841
20
-2.8060182622484491
30
0
0
ARC
5
157
100
AcDbEntity
8
0
100
AcDbCircle
10
12.202764319804064
20
-2.9135717475470613
30
0
40
0.22999999999999707
210
0
220
0
230
1
100
AcDbArc
50
-1.5805450477105549
51
27.880165663498857
0
CIRCLE
5
158
100
AcDbEntity
8
0
100
AcDbCircle
10
9.9871149421751895
20
-4.4057107241172551
30
0
40
0.099999999999999811
210
0
220
-0
230
1
0
LINE
5
159
100
AcDbEntity
8
0
100
AcDbLine
10
12.432676212871028
20
-4.9521058150223896
30
0
11
12.407347225639757
21
-5.8700650548259166
31
0
0
LINE
5
160
100
AcDbEntity
8
0
100
AcDbLine
10
12.407347225639757
20
-5.8700650548259166
30
0
11
18.011016516978337
21
-5.7552894642747345
31
0
0
SPLINE
5
161
100
AcDbEntity
8
0
100
AcDbSpline
70
0
71
3
72
55
73
51
74
0
42
0.000000001
43
0.0000000001
44
0.0000000001
40
0
40
0
40
0
40
0
40
3.0658907746645643e-05
40
6.1327415532497101e-05
40
0.00012266308227011408
40
0.00024532902096064947
40
0.00036798776775261242
40
0.0004906393239412065
40
0.00073592086943425066
40
0.00098117366820810918
40
0.001471593064884852
40
0.0019618976002959872
40
0.0024520873582260161
40
0.0029421624225125856
40
0.0039219687848258186
40
0.0049013173800937972
40
0.0058802088811662871
40
0.0078366231279734938
40
0.0097912170951679704
40
0.011743996199453282
40
0.013694965872631649
40
0.015644131561655842
40
0.019537071479461661
40
0.023422861194935564
40
0.027301544829171808
40
0.031173166746223373
40
0.038895392858058091
40
0.046589910431841193
40
0.054257083148235831
40
0.061897278592847702
40
0.069510868258664496
40
0.077098227546716414
40
0.092195679833631958
40
0.10719281106806676
40
0.12209276476442905
40
0.13689874633366955
40
0.15161402259639234
40
0.18078497522749046
40
0.20963378255010121
40
0.23818870530357936
40
0.26647888497745154
40
0.29453428804924719
40
0.32238563882608789
40
0.35006434113879986
40
0.40502409550212393
40
0.45968280502344711
40
0.51430611527866843
40
0.56916018614185337
40
0.62450784849618113
40
0.68060499581399403
40
0.68060499581399403
40
0.68060499581399403
40
0.68060499581399403
10
18.011016516978337
20
-5.7552894642747345
30
0
10
18.011020141152684
20
-5.7552877167790264
30
0
10
18.011027986094156
20
-5.7552856562532018
30
0
10
18.011043053705066
20
-5.7552800326714637
30
0
10
18.011069713272061
20
-5.7552708898164839
30
0
10
18.011107644115292
20
-5.7552574602415936
30
0
10
18.011153222457661
20
-5.7552414973628956
30
0
10
18.011213963341586
20
-5.7552201544339843
30
0
10
18.01128988641295
20
-5.7551934850876441
30
0
10
18.011411332378284
20
-5.7551507848413523
30
0
10
18.011563098116508
20
-5.7550973754816823
30
0
10
18.011745157878519
20
-5.7550332187222901
30
0
10
18.011927148656579
20
-5.754969002140041
30
0
10
18.012169682400621
20
-5.7548833095947396
30
0
10
18.012472676823286
20
-5.7547760434122477
30
0
10
18.012836036022328
20
-5.7546470679819581
30
0
10
18.013320033292533
20
-5.7544748196571875
30
0
10
18.013924339215691
20
-5.7542589071829751
30
0
10
18.01464856892829
20
-5.7539987880526091
30
0
10
18.015371692165647
20
-5.7537377051700531
30
0
10
18.016093708942286
20
-5.7534756585302427
30
0
10
18.017054479385067
20
-5.7531251397348067
30
0
10
18.018252683452744
20
-5.752684583947385
30
0
10
18.019686765894921
20
-5.75215181801964
30
0
10
18.021116422711003
20
-5.751615196945929
30
0
10
18.02301500992219
20
-5.7508952146428287
30
0
10
18.025377238070742
20
-5.7499856141414512
30
0
10
18.028196778059961
20
-5.7488776832406865
30
0
10
18.030998615791738
20
-5.7477543310342147
30
0
10
18.033782749891909
20
-5.7466155580457086
30
0
10
18.036549182466274
20
-5.7454613633217049
30
0
10
18.040207923700265
20
-5.7439045272625648
30
0
10
18.044737588373589
20
-5.7419200059397788
30
0
10
18.050111629395477
20
-5.7394728286665764
30
0
10
18.055414866128555
20
-5.7369639512361932
30
0
10
18.060647307385867
20
-5.7343933662638564
30
0
10
18.067509157077613
20
-5.7308940224682994
30
0
10
18.075913660544792
20
-5.7263654894616822
30
0
10
18.085745528514934
20
-5.7206681671024979
30
0
10
18.095294214781237
20
-5.7147237115011587
30
0
10
18.104559631775039
20
-5.7085321277038021
30
0
10
18.113541722631066
20
-5.7020934379928319
30
0
10
18.122240556046481
20
-5.6954074995576995
30
0
10
18.133433580905269
20
-5.6861862888181882
30
0
10
18.146746845321179
20
-5.6740221332277967
30
0
10
18.161621217775078
20
-5.6583993808182633
30
0
10
18.175357520891268
20
-5.641784539743675
30
0
10
18.187954496993953
20
-5.6241789454950135
30
0
10
18.199411255152526
20
-5.6055849963978686
30
0
10
18.206234299134152
20
-5.5926345332054801
30
0
10
18.209453524852364
20
-5.5860138737235561
30
0
0
LINE
5
162
100
AcDbEntity
8
0
100
AcDbLine
10
18.209453524852361
20
-5.586013873723557
30
0
11
18.378331477608263
21
-4.0919863146684357
31
0
0
LINE
5
163
100
AcDbEntity
8
0
100
AcDbLine
10
18.378331477608263
20
-4.0919863146684357
30
0
11
11.927111005167319
21
-4.0928406453770965
31
0
0
LINE
5
164
100
AcDbEntity
8
0
100
AcDbLine
10
11.927111005167319
20
-4.0928406453770965
30
0
11
11.927118878935806
21
-4.218210724117271
31
0
0
LINE
5
165
100
AcDbEntity
8
0
100
AcDbLine
10
11.927118878935806
20
-4.218210724117271
30
0
11
11.369500768946846
21
-4.2182107241172542
31
0
0
LINE
5
166
100
AcDbEntity
8
0
100
AcDbLine
10
11.369500768946846
20
-4.2182107241172542
30
0
11
11.17729998154527
21
-4.3432107241172551
31
0
0
LINE
5
167
100
AcDbEntity
8
0
100
AcDbLine
10
11.17729998154527
20
-4.3432107241172551
30
0
11
11.17729998154527
21
-4.2182107241172542
31
0
0
LINE
5
168
100
AcDbEntity
8
0
100
AcDbLine
10
11.17729998154527
20
-4.2182107241172542
30
0
11
10.742414154773618
21
-4.2182107241172542
31
0
0
LINE
5
169
100
AcDbEntity
8
0
100
AcDbLine
10
10.742414154773618
20
-4.2182107241172542
30
0
11
10.550213367372043
21
-4.3432107241172551
31
0
0
LINE
5
170
100
AcDbEntity
8
0
100
AcDbLine
10
10.550213367372043
20
-4.3432107241172551
30
0
11
10.550213367372043
21
-4.2182107241172542
31
0
0
LINE
5
171
100
AcDbEntity
8
0
100
AcDbLine
10
10.550213367372043
20
-4.2182107241172542
30
0
11
9.937500768946844
21
-4.2182107241172551
31
0
0
ARC
5
172
100
AcDbEntity
8
0
100
AcDbCircle
10
9.937500768946844
20
-4.4057107241172551
30
0
40
0.18749999999999939
210
0
220
-0
230
1
100
AcDbArc
50
90
51
269.99999999999943
0
LINE
5
173
100
AcDbEntity
8
0
100
AcDbLine
10
9.9375007689468422
20
-4.5932107241172542
30
0
11
10.236162186269684
21
-4.5932107241172533
31
0
0
LINE
5
174
100
AcDbEntity
8
0
100
AcDbLine
10
10.236162186269684
20
-4.5932107241172533
30
0
11
10.236162186269684
21
-4.4686280469519
31
0
0
LINE
5
175
100
AcDbEntity
8
0
100
AcDbLine
10
10.236162186269684
20
-4.4686280469519
30
0
11
10.427725178395663
21
-4.5932107241172533
31
0
0
LINE
5
176
100
AcDbEntity
8
0
100
AcDbLine
10
10.427725178395663
20
-4.5932107241172533
30
0
11
10.845583446112197
21
-4.5932107241172533
31
0
0
LINE
5
177
100
AcDbEntity
8
0
100
AcDbLine
10
10.845583446112197
20
-4.5932107241172533
30
0
11
10.845583446112197
21
-4.4700020626999306
31
0
0
LINE
5
178
100
AcDbEntity
8
0
100
AcDbLine
10
10.845583446112197
20
-4.4700020626999306
30
0
11
11.035028328001966
21
-4.5932107241172533
31
0
0
LINE
5
179
100
AcDbEntity
8
0
100
AcDbLine
10
11.035028328001966
20
-4.5932107241172533
30
0
11
11.934402343749994
21
-4.5932107241172533
31
0
0
LINE
5
180
100
AcDbEntity
8
0
100
AcDbLine
10
11.934402343749994
20
-4.5932107241172533
30
0
11
11.934402343749994
21
-4.7157619052196145
31
0
0
LINE
5
181
100
AcDbEntity
8
0
100
AcDbLine
10
11.934402343749994
20
-4.7157619052196145
30
0
11
12.202763719064331
21
-4.7157619052196154
31
0
0
ARC
5
182
100
AcDbEntity
8
0
100
AcDbCircle
10
12.202763719064334
20
-4.945761905219614
30
0
40
0.22999999999999751
210
0
220
-0
230
1
100
AcDbArc
50
48.177993688396953
51
90.000000000000895
0
SPLINE
5
183
100
AcDbEntity
8
0
100
AcDbSpline
70
0
71
3
72
13
73
9
74
0
42
0.000000001
43
0.0000000001
44
0.0000000001
40
0.46841634881365413
40
0.46841634881365413
40
0.46841634881365413
40
0.46841634881365413
40
0.4851276454329469
40
0.52308852457350885
40
0.56091658708636538
40
0.59884721899788096
40
0.63711391303156717
40
0.67580317760588926
40
0.67580317760588926
40
0.67580317760588926
40
0.67580317760588926
10
12.356132030514305
20
-4.7743613187475056
30
0
10
12.357818373656595
20
-4.7757642562890421
30
0
10
12.363258256705393
20
-4.780446706630789
30
0
10
12.37201092963725
20
-4.7888759957480342
30
0
10
12.381920265626293
20
-4.8000559392733528
30
0
10
12.39093977865042
20
-4.8120154975935661
30
0
10
12.39905881379967
20
-4.8247375544794373
30
0
10
12.403832840120575
20
-4.8336477530539916
30
0
10
12.406067058437115
20
-4.8382084199210054
30
0
0
ARC
5
184
100
AcDbEntity
8
0
100
AcDbCircle
10
12.202763719064334
20
-4.945761905219614
30
0
40
0.22999999999999859
210
0
220
0
230
1
100
AcDbArc
50
-1.5805450477114711
51
27.88016566349776
0
CIRCLE
5
185
100
AcDbEntity
8
0
100
AcDbCircle
10
16.255252355747423
20
-0.61778625050138536
30
0
40
0.10165772035372955
210
0
220
-0
230
1
0
SPLINE
5
186
100
AcDbEntity
8
0
100
AcDbSpline
70
0
71
3
72
17
73
13
74
0
42
0.000000001
43
0.0000000001
44
0.0000000001
40
0.09151308182639066
40
0.09151308182639066
40
0.09151308182639066
40
0.09151308182639066
40
0.54034244632501605
40
0.54034244632501605
40
0.54034244632501605
40
0.93105947473763195
40
0.93105947473763195
40
0.93105947473763195
40
1
40
1
40
1
40
1.0040204288078358
40
1.0040204288078358
40
1.0040204288078358
40
1.0040204288078358
10
27.075520759994756
20
-2.0498682237395482
30
0
10
27.222518098056334
20
-1.9543517356929496
30
0
10
27.387066354402208
20
-1.7982980322133375
30
0
10
27.520440488778071
20
-1.6450129726856448
30
0
10
27.636545961308041
20
-1.5115745488748322
30
0
10
27.728784386299022
20
-1.3806456163715577
30
0
10
27.764680730575588
20
-1.2922046115279984
30
0
10
27.771014503228095
20
-1.2765995344894769
30
0
10
27.775599885796932
20
-1.2622926705277824
30
0
10
27.778216223463108
20
-1.2493869111091975
30
0
10
27.778321052557001
20
-1.2488698146031165
30
0
10
27.778425881650893
20
-1.2483527180970579
30
0
10
27.778530710744789
20
-1.2478356215909938
30
0
0
SPLINE
5
187
100
AcDbEntity
8
0
100
AcDbSpline
70
0
71
3
72
11
73
7
74
0
42
0.000000001
43
0.0000000001
44
0.0000000001
40
-1.0179851703917859
40
-1.0179851703917859
40
-1.0179851703917859
40
-1.0179851703917859
40
-1
40
-1
40
-1
40
0
40
0
40
0
40
0
10
27.778530710744789
20
-1.2478356215909938
30
0
10
27.776171215326823
20
-1.2478956377938373
30
0
10
27.77381171990886
20
-1.2479556539967032
30
0
10
27.771452224490883
20
-1.2480156701995411
30
0
10
25.201511293122085
20
-1.3133847720311116
30
0
10
22.602071046905646
20
-1.2268944323072661
30
0
10
20.283668280311129
20
-1.0525657927250049
30
0
0
SPLINE
5
188
100
AcDbEntity
8
0
100
AcDbSpline
70
0
71
3
72
8
73
4
74
0
42
0.000000001
43
0.0000000001
44
0.0000000001
40
-1
40
-1
40
-1
40
-1
40
0
40
0
40
0
40
0
10
20.283668280311129
20
-1.0525657927250049
30
0
10
19.83570343061508
20
-1.0126697107718881
30
0
10
19.456859587553737
20
-0.90259286601719868
30
0
10
19.461204162186068
20
-0.49452801290086995
30
0
0
ARC
5
189
100
AcDbEntity
8
0
100
AcDbCircle
10
19.35508458330164
20
-0.52119353792773748
30
0
40
0.10941853246852892
210
0
220
-0
230
1
100
AcDbArc
50
14.105144245456952
51
88.057637922698277
0
LINE
5
190
100
AcDbEntity
8
0
100
AcDbLine
10
19.358793228225938
20
-0.41183787414943279
30
0
11
18.207651860811563
21
-0.37279851905874856
31
0
0
LINE
5
191
100
AcDbEntity
8
0
100
AcDbLine
10
18.207651860811563
20
-0.37279851905874856
30
0
11
18.203393718408591
21
-0.49809626416452069
31
0
0
LINE
5
192
100
AcDbEntity
8
0
100
AcDbLine
10
18.203393718408591
20
-0.49809626416452069
30
0
11
17.646098523934231
21
-0.47912199728954535
31
0
0
LINE
5
193
100
AcDbEntity
8
0
100
AcDbLine
10
17.646098523934231
20
-0.47912199728954535
30
0
11
17.44975562080538
21
-0.59750952648379763
31
0
0
LINE
5
194
100
AcDbEntity
8
0
100
AcDbLine
10
17.44975562080538
20
-0.59750952648379763
30
0
11
17.454009039618146
21
-0.47258191372984659
31
0
0
LINE
5
195
100
AcDbEntity
8
0
100
AcDbLine
10
17.454009039618146
20
-0.47258191372984659
30
0
11
17.019375054345232
21
-0.45778390127385515
31
0
0
LINE
5
196
100
AcDbEntity
8
0
100
AcDbLine
10
17.019375054345232
20
-0.45778390127385515
30
0
11
16.823032151216381
21
-0.57617143046810748
31
0
0
LINE
5
197
100
AcDbEntity
8
0
100
AcDbLine
10
16.823032151216381
20
-0.57617143046810748
30
0
11
16.827285570029158
21
-0.451243817714162
31
0
0
LINE
5
198
100
AcDbEntity
8
0
100
AcDbLine
10
16.827285570029158
20
-0.451243817714162
30
0
11
16.21492779222487
21
-0.43039483137044471
31
0
0
ARC
5
199
100
AcDbEntity
8
0
100
AcDbCircle
10
16.208547664005721
20
-0.61778625050138536
30
0
40
0.18750000000000172
210
0
220
-0
230
1
100
AcDbArc
50
88.050000000002257
51
268.05000000000223
0
LINE
5
200
100
AcDbEntity
8
0
100
AcDbLine
10
16.202167535786572
20
-0.80517766963232584
30
0
11
16.500655998889403
21
-0.81534032636103948
31
0
0
LINE
5
201
100
AcDbEntity
8
0
100
AcDbLine
10
16.500655998889403
20
-0.81534032636103948
30
0
11
16.504895217311805
21
-0.69082979477091322
31
0
0
LINE
5
202
100
AcDbEntity
8
0
100
AcDbLine
10
16.504895217311805
20
-0.69082979477091322
30
0
11
16.692108057275838
21
-0.82185870743735556
31
0
0
LINE
5
203
100
AcDbEntity
8
0
100
AcDbLine
10
16.692108057275838
20
-0.82185870743735556
30
0
11
17.109724344118494
21
-0.83607731717316225
31
0
0
LINE
5
204
100
AcDbEntity
8
0
100
AcDbLine
10
17.109724344118494
20
-0.83607731717316225
30
0
11
17.113916808425444
21
-0.71294000564136584
31
0
0
LINE
5
205
100
AcDbEntity
8
0
100
AcDbLine
10
17.113916808425444
20
-0.71294000564136584
30
0
11
17.299059518862045
21
-0.84252362457007501
31
0
0
LINE
5
206
100
AcDbEntity
8
0
100
AcDbLine
10
17.299059518862045
20
-0.84252362457007501
30
0
11
18.197912708944788
21
-0.87312693943646735
31
0
0
LINE
5
207
100
AcDbEntity
8
0
100
AcDbLine
10
18.197912708944788
20
-0.87312693943646735
30
0
11
18.193742616950967
21
-0.99560715139883482
31
0
0
LINE
5
208
100
AcDbEntity
8
0
100
AcDbLine
10
18.193742616950967
20
-0.99560715139883482
30
0
11
18.443597842458885
21
-1.0041139890243822
31
0
0
ARC
5
209
100
AcDbEntity
8
0
100
AcDbCircle
10
18.445544514136436
20
-1.2425662217721123
30
0
40
0.23846017871543615
210
0
220
-0
230
1
100
AcDbArc
50
85.632260225973539
51
90.467739774022817
0
LINE
5
210
100
AcDbEntity
8
0
100
AcDbLine
10
18.463705075785313
20
-1.0047985813464329
30
0
11
18.46708544271246
21
-1.0049136729259962
31
0
0
ARC
5
211
100
AcDbEntity
8
0
100
AcDbCircle
10
18.459429288849485
20
-1.2297833758831107
30
0
40
0.22499999999998432
210
0
220
0
230
1
100
AcDbArc
50
-3.5304743605045004
51
88.050000000003195
0
ARC
5
212
100
AcDbEntity
8
0
100
AcDbCircle
10
18.445544514136436
20
-1.2425662217721123
30
0
40
0.23846017871508948
210
0
220
0
230
1
100
AcDbArc
50
353.25497586600903
51
359.74229977569485
0
LINE
5
213
100
AcDbEntity
8
0
100
AcDbLine
10
18.682354229062767
20
-1.2705736448835483
30
0
11
18.682399301739334
21
-1.2696204295274127
31
0
0
LINE
5
214
100
AcDbEntity
8
0
100
AcDbLine
10
18.682399301739334
20
-1.2696204295274127
30
0
11
18.630292957694135
21
-2.1141795158563514
31
0
0
ARC
5
215
100
AcDbEntity
8
0
100
AcDbCircle
10
18.305146552716963
20
-2.4940213452155726
30
0
40
0.50000000000053979
210
0
220
-0
230
1
100
AcDbArc
50
47.014113919811166
51
49.436317872365109
0
ARC
5
216
100
AcDbEntity
8
0
100
AcDbCircle
10
18.680146552717321
20
-2.0916844217293873
30
0
40
0.050000000000005131
210
0
220
0
230
1
100
AcDbArc
50
227.01411391981233
51
312.98588608018997
0
ARC
5
217
100
AcDbEntity
8
0
100
AcDbCircle
10
19.055146552717321
20
-2.4940213452151787
30
0
40
0.50000000000001166
210
0
220
-0
230
1
100
AcDbArc
50
47.014113919809908
51
132.98588608018932
0
ARC
5
218
100
AcDbEntity
8
0
100
AcDbCircle
10
19.430146552717318
20
-2.0916844217293873
30
0
40
0.04999999999999534
210
0
220
0
230
1
100
AcDbArc
50
227.01411391982091
51
312.98588608018053
0
ARC
5
219
100
AcDbEntity
8
0
100
AcDbCircle
10
19.805146552717321
20
-2.4940213452151805
30
0
40
0.50000000000001288
210
0
220
-0
230
1
100
AcDbArc
50
47.01411391981005
51
132.98588608019043
0
ARC
5
220
100
AcDbEntity
8
0
100
AcDbCircle
10
20.180146552717318
20
-2.0916844217293873
30
0
40
0.04999999999999534
210
0
220
0
230
1
100
AcDbArc
50
227.01411391982091
51
312.98588608017945
0
ARC
5
221
100
AcDbEntity
8
0
100
AcDbCircle
10
20.555146552717321
20
-2.4940213452151654
30
0
40
0.50000000000000311
210
0
220
-0
230
1
100
AcDbArc
50
47.014113919809176
51
132.9858860801917
0
ARC
5
222
100
AcDbEntity
8
0
100
AcDbCircle
10
20.930146552717321
20
-2.0916844217293873
30
0
40
0.049999999999997997
210
0
220
0
230
1
100
AcDbArc
50
227.0141139198148
51
312.98588608018696
0
ARC
5
223
100
AcDbEntity
8
0
100
AcDbCircle
10
21.305146552717325
20
-2.4940213452151698
30
0
40
0.500000000000005
210
0
220
-0
230
1
100
AcDbArc
50
47.014113919809212
51
132.9858860801906
0
ARC
5
224
100
AcDbEntity
8
0
100
AcDbCircle
10
21.680146552717325
20
-2.0916844217293873
30
0
40
0.049999999999999156
210
0
220
0
230
1
100
AcDbArc
50
227.0141139198179
51
312.98588608018559
0
ARC
5
225
100
AcDbEntity
8
0
100
AcDbCircle
10
22.055146552717325
20
-2.494021345215176
30
0
40
0.500000000000005
210
0
220
-0
230
1
100
AcDbArc
50
47.014113919810185
51
132.98588608018994
0
ARC
5
226
100
AcDbEntity
8
0
100
AcDbCircle
10
22.430146552717325
20
-2.0916844217293873
30
0
40
0.050000000000003743
210
0
220
0
230
1
100
AcDbArc
50
227.01411391981301
51
312.9858860801823
0
ARC
5
227
100
AcDbEntity
8
0
100
AcDbCircle
10
22.805146552717318
20
-2.4940213452151743
30
0
40
0.50000000000000511
210
0
220
-0
230
1
100
AcDbArc
50
47.014113919809731
51
132.9858860801898
0
ARC
5
228
100
AcDbEntity
8
0
100
AcDbCircle
10
23.180146552717325
20
-2.0916844217293873
30
0
40
0.050000000000006158
210
0
220
0
230
1
100
AcDbArc
50
227.01411391981037
51
312.98588608018366
0
ARC
5
229
100
AcDbEntity
8
0
100
AcDbCircle
10
23.555146552717321
20
-2.49402134521518
30
0
40
0.50000000000000977
210
0
220
-0
230
1
100
AcDbArc
50
47.0141139198102
51
132.98588608018954
0
ARC
5
230
100
AcDbEntity
8
0
100
AcDbCircle
10
23.930146552717325
20
-2.0916844217293873
30
0
40
0.050000000000003743
210
0
220
0
230
1
100
AcDbArc
50
227.01411391981301
51
312.98588608018264
0
ARC
5
231
100
AcDbEntity
8
0
100
AcDbCircle
10
24.305146552717325
20
-2.4940213452151681
30
0
40
0.50000000000000377
210
0
220
-0
230
1
100
AcDbArc
50
47.01411391980907
51
132.98588608019088
0
ARC
5
232
100
AcDbEntity
8
0
100
AcDbCircle
10
24.680146552717314
20
-2.0916844217293873
30
0
40
0.04999999999999153
210
0
220
0
230
1
100
AcDbArc
50
227.01411391982685
51
312.98588608018076
0
ARC
5
233
100
AcDbEntity
8
0
100
AcDbCircle
10
25.055146552717307
20
-2.49402134521518
30
0
40
0.50000000000000977
210
0
220
-0
230
1
100
AcDbArc
50
47.014113919809908
51
132.98588608018954
0
ARC
5
234
100
AcDbEntity
8
0
100
AcDbCircle
10
25.430146552717314
20
-2.0916844217293873
30
0
40
0.050000000000005644
210
0
220
0
230
1
100
AcDbArc
50
227.01411391981301
51
312.98588608017491
0
ARC
5
235
100
AcDbEntity
8
0
100
AcDbCircle
10
25.805146552717321
20
-2.4940213452151649
30
0
40
0.50000000000000211
210
0
220
-0
230
1
100
AcDbArc
50
47.014113919809375
51
132.9858860801925
0
ARC
5
236
100
AcDbEntity
8
0
100
AcDbCircle
10
26.180146552717314
20
-2.0916844217293873
30
0
40
0.049999999999994951
210
0
220
0
230
1
100
AcDbArc
50
227.01411391981847
51
312.98588608019071
0
ARC
5
237
100
AcDbEntity
8
0
100
AcDbCircle
10
26.555146552717311
20
-2.4940213452151672
30
0
40
0.50000000000000455
210
0
220
-0
230
1
100
AcDbArc
50
47.014113919809645
51
132.98588608018983
0
ARC
5
238
100
AcDbEntity
8
0
100
AcDbCircle
10
26.930146552717314
20
-2.0916844217293873
30
0
40
0.05000000000000155
210
0
220
0
230
1
100
AcDbArc
50
227.01411391980849
51
312.98588608018895
0
ARC
5
239
100
AcDbEntity
8
0
100
AcDbCircle
10
27.305146552716963
20
-2.4940213452147
30
0
40
0.49999999999942246
210
0
220
0
230
1
100
AcDbArc
50
117.33882421762547
51
132.98588608019733
0
CIRCLE
5
240
100
AcDbEntity
8
0
100
AcDbCircle
10
18.842468972994592
20
-2.7005747281772914
30
0
40
0.099999999999999811
210
0
220
0
230
1
0
LINE
5
241
100
AcDbEntity
8
0
100
AcDbLine
10
21.288172012604086
20
-3.2418319079997602
30
0
11
21.26270125645916
21
-4.1649290588859511
31
0
0
SPLINE
5
242
100
AcDbEntity
8
0
100
AcDbSpline
70
0
71
3
72
8
73
4
74
0
42
0.000000001
43
0.0000000001
44
0.0000000001
40
-1
40
-1
40
-1
40
-1
40
0
40
0
40
0
40
0
10
21.26270125645916
20
-4.1649290588859511
30
0
10
25.077437476931603
20
-3.8527440195158742
30
0
10
26.224279996616644
20
-3.7060432321142978
30
0
10
27.470079209215058
20
-3.437535358098549
30
0
0
LINE
5
243
100
AcDbEntity
8
0
100
AcDbLine
10
27.470079209215058
20
-3.4375353580985495
30
0
11
26.521465035986722
21
-2.5180944132166592
31
0
0
LINE
5
244
100
AcDbEntity
8
0
100
AcDbLine
10
26.521465035986722
20
-2.5180944132166592
30
0
11
20.782465035986718
21
-2.3877046494371332
31
0
0
LINE
5
245
100
AcDbEntity
8
0
100
AcDbLine
10
20.782465035986718
20
-2.3877046494371332
30
0
11
20.782472910002468
21
-2.5130747281772914
31
0
0
LINE
5
246
100
AcDbEntity
8
0
100
AcDbLine
10
20.782472910002468
20
-2.5130747281772914
30
0
11
20.224854799766245
21
-2.5130747281772914
31
0
0
LINE
5
247
100
AcDbEntity
8
0
100
AcDbLine
10
20.224854799766245
20
-2.5130747281772914
30
0
11
20.032654012364674
21
-2.6380747281772896
31
0
0
LINE
5
248
100
AcDbEntity
8
0
100
AcDbLine
10
20.032654012364674
20
-2.6380747281772896
30
0
11
20.032654012364674
21
-2.5130747281772914
31
0
0
LINE
5
249
100
AcDbEntity
8
0
100
AcDbLine
10
20.032654012364674
20
-2.5130747281772914
30
0
11
19.597768185593015
21
-2.5130747281772914
31
0
0
LINE
5
250
100
AcDbEntity
8
0
100
AcDbLine
10
19.597768185593015
20
-2.5130747281772914
30
0
11
19.40556739819144
21
-2.6380747281772896
31
0
0
LINE
5
251
100
AcDbEntity
8
0
100
AcDbLine
10
19.40556739819144
20
-2.6380747281772896
30
0
11
19.40556739819144
21
-2.5130747281772914
31
0
0
LINE
5
252
100
AcDbEntity
8
0
100
AcDbLine
10
19.40556739819144
20
-2.5130747281772914
30
0
11
18.792854799766243
21
-2.5130747281772901
31
0
0
ARC
5
253
100
AcDbEntity
8
0
100
AcDbCircle
10
18.792854799766243
20
-2.7005747281772914
30
0
40
0.1875000000000015
210
0
220
-0
230
1
100
AcDbArc
50
90
51
270
0
LINE
5
254
100
AcDbEntity
8
0
100
AcDbLine
10
18.792854799766243
20
-2.8880747281772932
30
0
11
19.091516217089083
21
-2.8880747281772918
31
0
0
LINE
5
255
100
AcDbEntity
8
0
100
AcDbLine
10
19.091516217089083
20
-2.8880747281772918
30
0
11
19.091516217089083
21
-2.7634920510119345
31
0
0
LINE
5
256
100
AcDbEntity
8
0
100
AcDbLine
10
19.091516217089083
20
-2.7634920510119345
30
0
11
19.28307920921506
21
-2.8880747281772918
31
0
0
LINE
5
257
100
AcDbEntity
8
0
100
AcDbLine
10
19.28307920921506
20
-2.8880747281772918
30
0
11
19.700937476931596
21
-2.8880747281772918
31
0
0
LINE
5
258
100
AcDbEntity
8
0
100
AcDbLine
10
19.700937476931596
20
-2.8880747281772918
30
0
11
19.700937476931596
21
-2.7648660667599674
31
0
0
LINE
5
259
100
AcDbEntity
8
0
100
AcDbLine
10
19.700937476931596
20
-2.7648660667599674
30
0
11
19.890382358821363
21
-2.8880747281772918
31
0
0
LINE
5
260
100
AcDbEntity
8
0
100
AcDbLine
10
19.890382358821363
20
-2.8880747281772918
30
0
11
20.789756374569393
21
-2.8880747281772918
31
0
0
LINE
5
261
100
AcDbEntity
8
0
100
AcDbLine
10
20.789756374569393
20
-2.8880747281772918
30
0
11
20.789756374569393
21
-3.0106259092796512
31
0
0
LINE
5
262
100
AcDbEntity
8
0
100
AcDbLine
10
20.789756374569393
20
-3.0106259092796512
30
0
11
21.063257616488841
21
-3.0106259092796526
31
0
0
ARC
5
263
100
AcDbEntity
8
0
100
AcDbCircle
10
21.063257616488841
20
-3.235625909279654
30
0
40
0.22499999999999867
210
0
220
0
230
1
100
AcDbArc
50
-1.5805450477114711
51
90
0
CIRCLE
5
264
100
AcDbEntity
8
0
100
AcDbCircle
10
27.276603407972438
20
-5.5563849617064438
30
0
40
0.099999999999999811
210
0
220
-0
230
1
0
LINE
5
265
100
AcDbEntity
8
0
100
AcDbLine
10
24.830900368362943
20
-5.0151277818839741
30
0
11
24.85637112450787
21
-4.0920306309977832
31
0
0
SPLINE
5
266
100
AcDbEntity
8
0
100
AcDbSpline
70
0
71
3
72
8
73
4
74
0
42
0.000000001
43
0.0000000001
44
0.0000000001
40
-1
40
-1
40
-1
40
-1
40
0
40
0
40
0
40
0
10
24.85637112450787
20
-4.0920306309977832
30
0
10
21.041634904035426
20
-4.4042156703678597
30
0
10
19.894792384350389
20
-4.5509164577694365
30
0
10
18.648993171751972
20
-4.8194243317851848
30
0
0
LINE
5
267
100
AcDbEntity
8
0
100
AcDbLine
10
18.648993171751972
20
-4.8194243317851848
30
0
11
19.597607344980307
21
-5.7388652766670747
31
0
0
LINE
5
268
100
AcDbEntity
8
0
100
AcDbLine
10
19.597607344980307
20
-5.7388652766670747
30
0
11
25.336607344980312
21
-5.8692550404466015
31
0
0
LINE
5
269
100
AcDbEntity
8
0
100
AcDbLine
10
25.336607344980312
20
-5.8692550404466015
30
0
11
25.336599470964561
21
-5.7438849617064429
31
0
0
LINE
5
270
100
AcDbEntity
8
0
100
AcDbLine
10
25.336599470964561
20
-5.7438849617064429
30
0
11
25.894217581200788
21
-5.7438849617064429
31
0
0
LINE
5
271
100
AcDbEntity
8
0
100
AcDbLine
10
25.894217581200788
20
-5.7438849617064429
30
0
11
26.086418368602363
21
-5.6188849617064456
31
0
0
LINE
5
272
100
AcDbEntity
8
0
100
AcDbLine
10
26.086418368602363
20
-5.6188849617064456
30
0
11
26.086418368602356
21
-5.7438849617064438
31
0
0
LINE
5
273
100
AcDbEntity
8
0
100
AcDbLine
10
26.086418368602356
20
-5.7438849617064438
30
0
11
26.521304195374015
21
-5.7438849617064438
31
0
0
LINE
5
274
100
AcDbEntity
8
0
100
AcDbLine
10
26.521304195374015
20
-5.7438849617064438
30
0
11
26.713504982775586
21
-5.6188849617064456
31
0
0
LINE
5
275
100
AcDbEntity
8
0
100
AcDbLine
10
26.713504982775586
20
-5.6188849617064456
30
0
11
26.713504982775586
21
-5.7438849617064438
31
0
0
LINE
5
276
100
AcDbEntity
8
0
100
AcDbLine
10
26.713504982775586
20
-5.7438849617064438
30
0
11
27.326217581200783
21
-5.7438849617064456
31
0
0
ARC
5
277
100
AcDbEntity
8
0
100
AcDbCircle
10
27.326217581200787
20
-5.5563849617064438
30
0
40
0.1875000000000015
210
0
220
0
230
1
100
AcDbArc
50
-90.000000000001123
51
90
0
LINE
5
278
100
AcDbEntity
8
0
100
AcDbLine
10
27.326217581200787
20
-5.368884961706442
30
0
11
27.027556163877954
21
-5.3688849617064438
31
0
0
LINE
5
279
100
AcDbEntity
8
0
100
AcDbLine
10
27.027556163877954
20
-5.3688849617064438
30
0
11
27.027556163877946
21
-5.4934676388718007
31
0
0
LINE
5
280
100
AcDbEntity
8
0
100
AcDbLine
10
27.027556163877946
20
-5.4934676388718007
30
0
11
26.835993171751962
21
-5.3688849617064438
31
0
0
LINE
5
281
100
AcDbEntity
8
0
100
AcDbLine
10
26.835993171751962
20
-5.3688849617064438
30
0
11
26.418134904035437
21
-5.3688849617064438
31
0
0
LINE
5
282
100
AcDbEntity
8
0
100
AcDbLine
10
26.418134904035437
20
-5.3688849617064438
30
0
11
26.41813490403543
21
-5.4920936231237683
31
0
0
LINE
5
283
100
AcDbEntity
8
0
100
AcDbLine
10
26.41813490403543
20
-5.4920936231237683
30
0
11
26.228690022145667
21
-5.3688849617064438
31
0
0
LINE
5
284
100
AcDbEntity
8
0
100
AcDbLine
10
26.228690022145667
20
-5.3688849617064438
30
0
11
25.329316006397637
21
-5.3688849617064438
31
0
0
LINE
5
285
100
AcDbEntity
8
0
100
AcDbLine
10
25.329316006397637
20
-5.3688849617064438
30
0
11
25.329316006397637
21
-5.2463337806040826
31
0
0
LINE
5
286
100
AcDbEntity
8
0
100
AcDbLine
10
25.329316006397637
20
-5.2463337806040826
30
0
11
25.055814764478193
21
-5.2463337806040817
31
0
0
ARC
5
287
100
AcDbEntity
8
0
100
AcDbCircle
10
25.055814764478189
20
-5.021333780604083
30
0
40
0.22499999999999876
210
0
220
0
230
1
100
AcDbArc
50
178.41945495228808
51
270.00000000000091
0
CIRCLE
5
288
100
AcDbEntity
8
0
100
AcDbCircle
10
25.391640939193543
20
-4.3510977008889249
30
0
40
0.10165772035372955
210
0
220
-0
230
1
0
SPLINE
5
289
100
AcDbEntity
8
0
100
AcDbSpline
70
0
71
3
72
17
73
13
74
0
42
0.000000001
43
0.0000000001
44
0.0000000001
40
0.09151308182639066
40
0.09151308182639066
40
0.09151308182639066
40
0.09151308182639066
40
0.54034244632501605
40
0.54034244632501605
40
0.54034244632501605
40
0.93105947473763195
40
0.93105947473763195
40
0.93105947473763195
40
1
40
1
40
1
40
1.0040204288078358
40
1.0040204288078358
40
1.0040204288078358
40
1.0040204288078358
10
36.21190934344088
20
-5.783179674127088
30
0
10
36.358906681502461
20
-5.6876631860804894
30
0
10
36.523454937848335
20
-5.531609482600877
30
0
10
36.656829072224191
20
-5.3783244230731846
30
0
10
36.772934544754165
20
-5.2448859992623724
30
0
10
36.865172969745153
20
-5.1139570667590979
30
0
10
36.901069314021719
20
-5.0255160619155381
30
0
10
36.907403086674215
20
-5.0099109848770169
30
0
10
36.911988469243063
20
-4.9956041209153224
30
0
10
36.914604806909225
20
-4.9826983614967375
30
0
10
36.914709636003124
20
-4.9821812649906567
30
0
10
36.914814465097017
20
-4.9816641684845981
30
0
10
36.914919294190909
20
-4.9811470719785333
30
0
0
SPLINE
5
290
100
AcDbEntity
8
0
100
AcDbSpline
70
0
71
3
72
11
73
7
74
0
42
0.000000001
43
0.0000000001
44
0.0000000001
40
-1.0179851703917859
40
-1.0179851703917859
40
-1.0179851703917859
40
-1.0179851703917859
40
-1
40
-1
40
-1
40
0
40
0
40
0
40
0
10
36.914919294190909
20
-4.9811470719785333
30
0
10
36.912559798772939
20
-4.9812070881813773
30
0
10
36.910200303354976
20
-4.9812671043842434
30
0
10
36.907840807937006
20
-4.981327120587081
30
0
10
34.337899876568208
20
-5.0466962224186513
30
0
10
31.73845963035177
20
-4.9602058826948063
30
0
10
29.420056863757249
20
-4.7858772431125445
30
0
0
SPLINE
5
291
100
AcDbEntity
8
0
100
AcDbSpline
70
0
71
3
72
8
73
4
74
0
42
0.000000001
43
0.0000000001
44
0.0000000001
40
-1
40
-1
40
-1
40
-1
40
0
40
0
40
0
40
0
10
29.420056863757249
20
-4.7858772431125445
30
0
10
28.9720920140612
20
-4.7459811611594276
30
0
10
28.593248170999853
20
-4.6359043164047389
30
0
10
28.597592745632188
20
-4.2278394632884098
30
0
0
ARC
5
292
100
AcDbEntity
8
0
100
AcDbCircle
10
28.49147316674776
20
-4.2545049883152775
30
0
40
0.10941853246853167
210
0
220
-0
230
1
100
AcDbArc
50
14.105144245456664
51
88.057637922696429
0
LINE
5
293
100
AcDbEntity
8
0
100
AcDbLine
10
28.495181811672062
20
-4.1451493245369724
30
0
11
27.344040444257683
21
-4.1061099694462886
31
0
0
LINE
5
294
100
AcDbEntity
8
0
100
AcDbLine
10
27.344040444257683
20
-4.1061099694462886
30
0
11
27.339782301854711
21
-4.231407714552061
31
0
0
LINE
5
295
100
AcDbEntity
8
0
100
AcDbLine
10
27.339782301854711
20
-4.231407714552061
30
0
11
26.782487107380348
21
-4.2124334476770855
31
0
0
LINE
5
296
100
AcDbEntity
8
0
100
AcDbLine
10
26.782487107380348
20
-4.2124334476770855
30
0
11
26.586144204251497
21
-4.3308209768713377
31
0
0
LINE
5
297
100
AcDbEntity
8
0
100
AcDbLine
10
26.586144204251497
20
-4.3308209768713377
30
0
11
26.590397623064273
21
-4.2058933641173866
31
0
0
LINE
5
298
100
AcDbEntity
8
0
100
AcDbLine
10
26.590397623064273
20
-4.2058933641173866
30
0
11
26.155763637791349
21
-4.1910953516613949
31
0
0
LINE
5
299
100
AcDbEntity
8
0
100
AcDbLine
10
26.155763637791349
20
-4.1910953516613949
30
0
11
25.959420734662501
21
-4.3094828808556471
31
0
0
LINE
5
300
100
AcDbEntity
8
0
100
AcDbLine
10
25.959420734662501
20
-4.3094828808556471
30
0
11
25.963674153475274
21
-4.1845552681017022
31
0
0
LINE
5
301
100
AcDbEntity
8
0
100
AcDbLine
10
25.963674153475274
20
-4.1845552681017022
30
0
11
25.351316375670997
21
-4.1637062817579844
31
0
0
ARC
5
302
100
AcDbEntity
8
0
100
AcDbCircle
10
25.344936247451841
20
-4.3510977008889249
30
0
40
0.18750000000000183
210
0
220
-0
230
1
100
AcDbArc
50
88.050000000000068
51
268.05000000000223
0
LINE
5
303
100
AcDbEntity
8
0
100
AcDbLine
10
25.338556119232692
20
-4.5384891200198654
30
0
11
25.637044582335523
21
-4.5486517767485797
31
0
0
LINE
5
304
100
AcDbEntity
8
0
100
AcDbLine
10
25.637044582335523
20
-4.5486517767485797
30
0
11
25.641283800757929
21
-4.4241412451584532
31
0
0
LINE
5
305
100
AcDbEntity
8
0
100
AcDbLine
10
25.641283800757929
20
-4.4241412451584532
30
0
11
25.828496640721966
21
-4.5551701578248958
31
0
0
LINE
5
306
100
AcDbEntity
8
0
100
AcDbLine
10
25.828496640721966
20
-4.5551701578248958
30
0
11
26.246112927564621
21
-4.5693887675607021
31
0
0
LINE
5
307
100
AcDbEntity
8
0
100
AcDbLine
10
26.246112927564621
20
-4.5693887675607021
30
0
11
26.250305391871564
21
-4.4462514560289055
31
0
0
LINE
5
308
100
AcDbEntity
8
0
100
AcDbLine
10
26.250305391871564
20
-4.4462514560289055
30
0
11
26.435448102308165
21
-4.5758350749576149
31
0
0
LINE
5
309
100
AcDbEntity
8
0
100
AcDbLine
10
26.435448102308165
20
-4.5758350749576149
30
0
11
27.334301292390908
21
-4.6064383898240076
31
0
0
LINE
5
310
100
AcDbEntity
8
0
100
AcDbLine
10
27.334301292390908
20
-4.6064383898240076
30
0
11
27.330131200397087
21
-4.7289186017863747
31
0
0
LINE
5
311
100
AcDbEntity
8
0
100
AcDbLine
10
27.330131200397087
20
-4.7289186017863747
30
0
11
27.579986425905005
21
-4.737425439411922
31
0
0
ARC
5
312
100
AcDbEntity
8
0
100
AcDbCircle
10
27.581933097582535
20
-4.975877672159938
30
0
40
0.23846017871572239
210
0
220
-0
230
1
100
AcDbArc
50
85.632260225976239
51
90.467739774017133
0
LINE
5
313
100
AcDbEntity
8
0
100
AcDbLine
10
27.600093659231423
20
-4.7381100317339726
30
0
11
27.603474026158572
21
-4.7382251233135362
31
0
0
ARC
5
314
100
AcDbEntity
8
0
100
AcDbCircle
10
27.595817872295608
20
-4.96309482627065
30
0
40
0.22499999999998141
210
0
220
0
230
1
100
AcDbArc
50
-3.5304743605037876
51
88.050000000005909
0
ARC
5
315
100
AcDbEntity
8
0
100
AcDbCircle
10
27.581933097582535
20
-4.975877672159938
30
0
40
0.23846017871507541
210
0
220
0
230
1
100
AcDbArc
50
353.25497586607747
51
359.74229977576414
0
LINE
5
316
100
AcDbEntity
8
0
100
AcDbLine
10
27.818742812508884
20
-5.0038850952710892
30
0
11
27.818787885185451
21
-5.0029318799149527
31
0
0
LINE
5
317
100
AcDbEntity
8
0
100
AcDbLine
10
27.818787885185451
20
-5.0029318799149527
30
0
11
27.766681541140247
21
-5.8474909662438916
31
0
0
ARC
5
318
100
AcDbEntity
8
0
100
AcDbCircle
10
27.44153513615327
20
-6.2273327956142372
30
0
40
0.50000000001537048
210
0
220
-0
230
1
100
AcDbArc
50
47.014113919857472
51
49.436317872340474
0
ARC
5
319
100
AcDbEntity
8
0
100
AcDbCircle
10
27.816535136163441
20
-5.8249958721169275
30
0
40
0.050000000000001321
210
0
220
0
230
1
100
AcDbArc
50
227.01411391981529
51
312.9858860801877
0
ARC
5
320
100
AcDbEntity
8
0
100
AcDbCircle
10
28.191535136163441
20
-6.2273327956027185
30
0
40
0.50000000000001055
210
0
220
-0
230
1
100
AcDbArc
50
47.014113919810356
51
132.98588608018957
0
ARC
5
321
100
AcDbEntity
8
0
100
AcDbCircle
10
28.566535136163434
20
-5.8249958721169275
30
0
40
0.049999999999995964
210
0
220
0
230
1
100
AcDbArc
50
227.01411391981918
51
312.9858860801865
0
ARC
5
322
100
AcDbEntity
8
0
100
AcDbCircle
10
28.941535136163441
20
-6.2273327956027247
30
0
40
0.50000000000001787
210
0
220
-0
230
1
100
AcDbArc
50
47.014113919810029
51
132.9858860801898
0
ARC
5
323
100
AcDbEntity
8
0
100
AcDbCircle
10
29.316535136163441
20
-5.8249958721169275
30
0
40
0.049999999999997505
210
0
220
0
230
1
100
AcDbArc
50
227.01411391982126
51
312.98588608018719
0
ARC
5
324
100
AcDbEntity
8
0
100
AcDbCircle
10
29.691535136163438
20
-6.2273327956027051
30
0
40
0.50000000000000233
210
0
220
-0
230
1
100
AcDbArc
50
47.014113919809375
51
132.98588608019037
0
ARC
5
325
100
AcDbEntity
8
0
100
AcDbCircle
10
30.066535136163441
20
-5.8249958721169275
30
0
40
0.050000000000002577
210
0
220
0
230
1
100
AcDbArc
50
227.01411391980952
51
312.98588608018923
0
ARC
5
326
100
AcDbEntity
8
0
100
AcDbCircle
10
30.441535136163441
20
-6.2273327956027149
30
0
40
0.50000000000001033
210
0
220
-0
230
1
100
AcDbArc
50
47.014113919809262
51
132.98588608018969
0
ARC
5
327
100
AcDbEntity
8
0
100
AcDbCircle
10
30.816535136163441
20
-5.8249958721169275
30
0
40
0.049999999999997505
210
0
220
0
230
1
100
AcDbArc
50
227.01411391982126
51
312.98588608019293
0
ARC
5
328
100
AcDbEntity
8
0
100
AcDbCircle
10
31.191535136163441
20
-6.2273327956027051
30
0
40
0.49999999999999539
210
0
220
-0
230
1
100
AcDbArc
50
47.01411391980939
51
132.98588608019006
0
ARC
5
329
100
AcDbEntity
8
0
100
AcDbCircle
10
31.566535136163441
20
-5.8249958721169275
30
0
40
0.050000000000005644
210
0
220
0
230
1
100
AcDbArc
50
227.01411391981233
51
312.98588608018122
0
ARC
5
330
100
AcDbEntity
8
0
100
AcDbCircle
10
31.941535136163438
20
-6.2273327956027211
30
0
40
0.5000000000000111
210
0
220
-0
230
1
100
AcDbArc
50
47.014113919810356
51
132.98588608018972
0
ARC
5
331
100
AcDbEntity
8
0
100
AcDbCircle
10
32.316535136163445
20
-5.8249958721169275
30
0
40
0.050000000000005131
210
0
220
0
230
1
100
AcDbArc
50
227.01411391980932
51
312.98588608018997
0
ARC
5
332
100
AcDbEntity
8
0
100
AcDbCircle
10
32.691535136163438
20
-6.2273327956027149
30
0
40
0.50000000000000644
210
0
220
-0
230
1
100
AcDbArc
50
47.014113919809866
51
132.985886080189
0
ARC
5
333
100
AcDbEntity
8
0
100
AcDbCircle
10
33.066535136163445
20
-5.8249958721169275
30
0
40
0.050000000000005644
210
0
220
0
230
1
100
AcDbArc
50
227.01411391980932
51
312.98588608017593
0
ARC
5
334
100
AcDbEntity
8
0
100
AcDbCircle
10
33.441535136163438
20
-6.2273327956027043
30
0
40
0.49999999999999928
210
0
220
-0
230
1
100
AcDbArc
50
47.014113919809091
51
132.98588608019125
0
ARC
5
335
100
AcDbEntity
8
0
100
AcDbCircle
10
33.816535136163445
20
-5.8249958721169275
30
0
40
0.050000000000004631
210
0
220
0
230
1
100
AcDbArc
50
227.01411391980866
51
312.98588608018372
0
ARC
5
336
100
AcDbEntity
8
0
100
AcDbCircle
10
34.191535136163438
20
-6.2273327956027194
30
0
40
0.50000000000000955
210
0
220
-0
230
1
100
AcDbArc
50
47.0141139198102
51
132.98588608018932
0
ARC
5
337
100
AcDbEntity
8
0
100
AcDbCircle
10
34.566535136163445
20
-5.8249958721169275
30
0
40
0.050000000000005644
210
0
220
0
230
1
100
AcDbArc
50
227.01411391980932
51
312.98588608017525
0
ARC
5
338
100
AcDbEntity
8
0
100
AcDbCircle
10
34.941535136163438
20
-6.227332795602706
30
0
40
0.50000000000000289
210
0
220
-0
230
1
100
AcDbArc
50
47.014113919809439
51
132.98588608019119
0
ARC
5
339
100
AcDbEntity
8
0
100
AcDbCircle
10
35.316535136163438
20
-5.8249958721169275
30
0
40
0.049999999999998761
210
0
220
0
230
1
100
AcDbArc
50
227.0141139198125
51
312.98588608019071
0
ARC
5
340
100
AcDbEntity
8
0
100
AcDbCircle
10
35.691535136163438
20
-6.227332795602706
30
0
40
0.50000000000000389
210
0
220
-0
230
1
100
AcDbArc
50
47.014113919809589
51
132.98588608019026
0
ARC
5
341
100
AcDbEntity
8
0
100
AcDbCircle
10
36.066535136163438
20
-5.8249958721169275
30
0
40
0.049999999999997734
210
0
220
0
230
1
100
AcDbArc
50
227.01411391981114
51
312.98588608018923
0
ARC
5
342
100
AcDbEntity
8
0
100
AcDbCircle
10
36.44153513616321
20
-6.2273327956024183
30
0
40
0.49999999999963973
210
0
220
0
230
1
100
AcDbArc
50
117.33882421762875
51
132.98588608019381
0
CIRCLE
5
343
100
AcDbEntity
8
0
100
AcDbCircle
10
37.701156888225889
20
-3.7017721668153296
30
0
40
0.099999999999999811
210
0
220
0
230
1
0
LINE
5
344
100
AcDbEntity
8
0
100
AcDbLine
10
35.255453869388916
20
-3.1605152221944794
30
0
11
35.279082085076276
21
-2.3041619305948586
31
0
0
SPLINE
5
345
100
AcDbEntity
8
0
100
AcDbSpline
70
0
71
3
72
8
73
4
74
0
42
0.000000001
43
0.0000000001
44
0.0000000001
40
-1
40
-1
40
-1
40
-1
40
0
40
0
40
0
40
0
10
35.279082085076276
20
-2.3041619305948586
30
0
10
29.879471848855808
20
-2.7308981510672967
30
0
10
28.508141140194383
20
-3.0167170487050932
30
0
10
27.635582085076276
20
-3.4137839778389516
30
0
0
SPLINE
5
346
100
AcDbEntity
8
0
100
AcDbSpline
70
0
71
3
72
8
73
4
74
0
42
0.000000001
43
0.0000000001
44
0.0000000001
40
-1
40
-1
40
-1
40
-1
40
0
40
0
40
0
40
0
10
27.635582085076276
20
-3.4137839778389516
30
0
10
28.238865549643208
20
-3.7331619305948593
30
0
10
28.828152951218005
20
-3.8649650802011566
30
0
10
29.496928541769186
20
-3.9116698046106038
30
0
0
LINE
5
347
100
AcDbEntity
8
0
100
AcDbLine
10
29.496928541769186
20
-3.9116698046106038
30
0
11
35.761160825233759
21
-4.0146422455554882
31
0
0
LINE
5
348
100
AcDbEntity
8
0
100
AcDbLine
10
35.761160825233759
20
-4.0146422455554882
30
0
11
35.761152951218008
21
-3.8892721668153314
31
0
0
LINE
5
349
100
AcDbEntity
8
0
100
AcDbLine
10
35.761152951218008
20
-3.8892721668153314
30
0
11
36.318771061454221
21
-3.8892721668153314
31
0
0
LINE
5
350
100
AcDbEntity
8
0
100
AcDbLine
10
36.318771061454221
20
-3.8892721668153314
30
0
11
36.510971848855803
21
-3.7642721668153301
31
0
0
LINE
5
351
100
AcDbEntity
8
0
100
AcDbLine
10
36.510971848855803
20
-3.7642721668153301
30
0
11
36.510971848855803
21
-3.8892721668153314
31
0
0
LINE
5
352
100
AcDbEntity
8
0
100
AcDbLine
10
36.510971848855803
20
-3.8892721668153314
30
0
11
36.945857675627458
21
-3.8892721668153314
31
0
0
LINE
5
353
100
AcDbEntity
8
0
100
AcDbLine
10
36.945857675627458
20
-3.8892721668153314
30
0
11
37.138058463029033
21
-3.7642721668153301
31
0
0
LINE
5
354
100
AcDbEntity
8
0
100
AcDbLine
10
37.138058463029033
20
-3.7642721668153301
30
0
11
37.138058463029033
21
-3.8892721668153314
31
0
0
LINE
5
355
100
AcDbEntity
8
0
100
AcDbLine
10
37.138058463029033
20
-3.8892721668153314
30
0
11
37.750771061454223
21
-3.8892721668153296
31
0
0
ARC
5
356
100
AcDbEntity
8
0
100
AcDbCircle
10
37.75077106145423
20
-3.7017721668153296
30
0
40
0.18750000000000008
210
0
220
0
230
1
100
AcDbArc
50
-90.000000000002188
51
90
0
LINE
5
357
100
AcDbEntity
8
0
100
AcDbLine
10
37.75077106145423
20
-3.5142721668153296
30
0
11
37.452109644131397
21
-3.5142721668153309
31
0
0
LINE
5
358
100
AcDbEntity
8
0
100
AcDbLine
10
37.452109644131397
20
-3.5142721668153309
30
0
11
37.45210964413139
21
-3.6388548439806869
31
0
0
LINE
5
359
100
AcDbEntity
8
0
100
AcDbLine
10
37.45210964413139
20
-3.6388548439806869
30
0
11
37.260546652005402
21
-3.5142721668153309
31
0
0
LINE
5
360
100
AcDbEntity
8
0
100
AcDbLine
10
37.260546652005402
20
-3.5142721668153309
30
0
11
36.842688384288877
21
-3.5142721668153309
31
0
0
LINE
5
361
100
AcDbEntity
8
0
100
AcDbLine
10
36.842688384288877
20
-3.5142721668153309
30
0
11
36.842688384288877
21
-3.6374808282326541
31
0
0
LINE
5
362
100
AcDbEntity
8
0
100
AcDbLine
10
36.842688384288877
20
-3.6374808282326541
30
0
11
36.653243502399107
21
-3.5142721668153309
31
0
0
LINE
5
363
100
AcDbEntity
8
0
100
AcDbLine
10
36.653243502399107
20
-3.5142721668153309
30
0
11
35.753869486651084
21
-3.5142721668153309
31
0
0
LINE
5
364
100
AcDbEntity
8
0
100
AcDbLine
10
35.753869486651084
20
-3.5142721668153309
30
0
11
35.753869486651084
21
-3.3917209857129675
31
0
0
LINE
5
365
100
AcDbEntity
8
0
100
AcDbLine
10
35.753869486651084
20
-3.3917209857129675
30
0
11
35.480368271993889
21
-3.3917209857129689
31
0
0
ARC
5
366
100
AcDbEntity
8
0
100
AcDbCircle
10
35.480368271993889
20
-3.1667209857129617
30
0
40
0.22500000000000417
210
0
220
0
230
1
100
AcDbArc
50
178.41951486868544
51
270
0
CIRCLE
5
367
100
AcDbEntity
8
0
100
AcDbCircle
10
28.265988415815695
20
-1.0618757987435459
30
0
40
0.099999999999999811
210
0
220
-0
230
1
0
LINE
5
368
100
AcDbEntity
8
0
100
AcDbLine
10
30.711691434652668
20
-1.603132743364396
30
0
11
30.688063218965304
21
-2.4594860349640166
31
0
0
SPLINE
5
369
100
AcDbEntity
8
0
100
AcDbSpline
70
0
71
3
72
8
73
4
74
0
42
0.000000001
43
0.0000000001
44
0.0000000001
40
-1
40
-1
40
-1
40
-1
40
0
40
0
40
0
40
0
10
30.688063218965304
20
-2.4594860349640166
30
0
10
36.087673455185779
20
-2.0327498144915803
30
0
10
37.459004163847197
20
-1.7469309168537837
30
0
10
38.3315632189653
20
-1.3498639877199254
30
0
0
SPLINE
5
370
100
AcDbEntity
8
0
100
AcDbSpline
70
0
71
3
72
8
73
4
74
0
42
0.000000001
43
0.0000000001
44
0.0000000001
40
-1
40
-1
40
-1
40
-1
40
0
40
0
40
0
40
0
10
38.3315632189653
20
-1.3498639877199254
30
0
10
37.728279754398372
20
-1.0304860349640177
30
0
10
37.138992352823578
20
-0.89868288535772045
30
0
10
36.470216762272401
20
-0.85197816094827328
30
0
0
LINE
5
371
100
AcDbEntity
8
0
100
AcDbLine
10
36.470216762272401
20
-0.85197816094827283
30
0
11
30.205984478807824
21
-0.74900572000338783
31
0
0
LINE
5
372
100
AcDbEntity
8
0
100
AcDbLine
10
30.205984478807824
20
-0.74900572000338783
30
0
11
30.205992352823575
21
-0.87437579874354432
31
0
0
LINE
5
373
100
AcDbEntity
8
0
100
AcDbLine
10
30.205992352823575
20
-0.87437579874354432
30
0
11
29.648374242587348
21
-0.87437579874354432
31
0
0
LINE
5
374
100
AcDbEntity
8
0
100
AcDbLine
10
29.648374242587348
20
-0.87437579874354432
30
0
11
29.45617345518577
21
-0.99937579874354532
31
0
0
LINE
5
375
100
AcDbEntity
8
0
100
AcDbLine
10
29.45617345518577
20
-0.99937579874354532
30
0
11
29.45617345518577
21
-0.87437579874354432
31
0
0
LINE
5
376
100
AcDbEntity
8
0
100
AcDbLine
10
29.45617345518577
20
-0.87437579874354432
30
0
11
29.021287628414118
21
-0.87437579874354432
31
0
0
LINE
5
377
100
AcDbEntity
8
0
100
AcDbLine
10
29.021287628414118
20
-0.87437579874354432
30
0
11
28.829086841012547
21
-0.99937579874354532
31
0
0
LINE
5
378
100
AcDbEntity
8
0
100
AcDbLine
10
28.829086841012547
20
-0.99937579874354532
30
0
11
28.829086841012547
21
-0.87437579874354432
31
0
0
LINE
5
379
100
AcDbEntity
8
0
100
AcDbLine
10
28.829086841012547
20
-0.87437579874354432
30
0
11
28.216374242587349
21
-0.87437579874354576
31
0
0
ARC
5
380
100
AcDbEntity
8
0
100
AcDbCircle
10
28.216374242587342
20
-1.0618757987435459
30
0
40
0.18750000000000008
210
0
220
-0
230
1
100
AcDbArc
50
89.999999999997826
51
270
0
LINE
5
381
100
AcDbEntity
8
0
100
AcDbLine
10
28.216374242587342
20
-1.2493757987435459
30
0
11
28.515035659910183
21
-1.2493757987435445
31
0
0
LINE
5
382
100
AcDbEntity
8
0
100
AcDbLine
10
28.515035659910183
20
-1.2493757987435445
30
0
11
28.51503565991019
21
-1.1247931215781888
31
0
0
LINE
5
383
100
AcDbEntity
8
0
100
AcDbLine
10
28.51503565991019
20
-1.1247931215781888
30
0
11
28.706598652036167
21
-1.2493757987435445
31
0
0
LINE
5
384
100
AcDbEntity
8
0
100
AcDbLine
10
28.706598652036167
20
-1.2493757987435445
30
0
11
29.124456919752696
21
-1.2493757987435445
31
0
0
LINE
5
385
100
AcDbEntity
8
0
100
AcDbLine
10
29.124456919752696
20
-1.2493757987435445
30
0
11
29.124456919752699
21
-1.1261671373262214
31
0
0
LINE
5
386
100
AcDbEntity
8
0
100
AcDbLine
10
29.124456919752699
20
-1.1261671373262214
30
0
11
29.313901801642469
21
-1.2493757987435445
31
0
0
LINE
5
387
100
AcDbEntity
8
0
100
AcDbLine
10
29.313901801642469
20
-1.2493757987435445
30
0
11
30.213275817390493
21
-1.2493757987435448
31
0
0
LINE
5
388
100
AcDbEntity
8
0
100
AcDbLine
10
30.213275817390493
20
-1.2493757987435448
30
0
11
30.2132758173905
21
-1.3719269798459082
31
0
0
LINE
5
389
100
AcDbEntity
8
0
100
AcDbLine
10
30.2132758173905
20
-1.3719269798459082
30
0
11
30.486777032047694
21
-1.3719269798459066
31
0
0
ARC
5
390
100
AcDbEntity
8
0
100
AcDbCircle
10
30.486777032047684
20
-1.5969269798459176
30
0
40
0.22500000000000969
210
0
220
0
230
1
100
AcDbArc
50
-1.5804851313136656
51
89.999999999997286
0
ENDSEC
0
SECTION
2
OBJECTS
0
DICTIONARY
5
C
100
AcDbDictionary
3
ACAD_GROUP
350
D
3
ACAD_MLINESTYLE
350
17
0
DICTIONARY
5
D
100
AcDbDictionary
0
DICTIONARY
5
1A
330
C
100
AcDbDictionary
0
DICTIONARY
5
17
100
AcDbDictionary
0
ENDSEC
0
EOF
