0
SECTION
2
HEADER
9
$INSUNITS
70
1
9
$ACADVER
1
AC1014
9
$HANDSEED
5
FFFF
0
ENDSEC
0
SECTION
2
TABLES
0
TABLE
2
VPORT
5
8
100
AcDbSymbolTable
0
ENDTAB
0
TABLE
2
LTYPE
5
5
100
AcDbSymbolTable
0
LTYPE
5
14
100
AcDbSymbolTableRecord
100
AcDbLinetypeTableRecord
2
BYBLOCK
70
0
0
LTYPE
5
15
100
AcDbSymbolTableRecord
100
AcDbLinetypeTableRecord
2
BYLAYER
70
0
0
ENDTAB
0
TABLE
2
LAYER
5
2
100
AcDbSymbolTable
70
2
0
LAYER
5
50
100
AcDbSymbolTableRecord
100
AcDbLayerTableRecord
2
0
70
0
6
CONTINUOUS
0
ENDTAB
0
TABLE
2
STYLE
5
3
100
AcDbSymbolTable
70
1
0
STYLE
5
11
100
AcDbSymbolTableRecord
100
AcDbTextStyleTableRecord
2
STANDARD
70
0
0
ENDTAB
0
TABLE
2
VIEW
5
6
100
AcDbSymbolTable
70
0
0
ENDTAB
0
TABLE
2
UCS
5
7
100
AcDbSymbolTable
70
0
0
ENDTAB
0
TABLE
2
APPID
5
9
100
AcDbSymbolTable
70
2
0
APPID
5
12
100
AcDbSymbolTableRecord
100
AcDbRegAppTableRecord
2
ACAD
70
0
0
ENDTAB
0
TABLE
2
DIMSTYLE
5
A
100
AcDbSymbolTable
70
1
0
ENDTAB
0
TABLE
2
BLOCK_RECORD
5
1
100
AcDbSymbolTable
70
1
0
BLOCK_RECORD
5
1F
100
AcDbSymbolTableRecord
100
AcDbBlockTableRecord
2
*MODEL_SPACE
0
BLOCK_RECORD
5
1B
100
AcDbSymbolTableRecord
100
AcDbBlockTableRecord
2
*PAPER_SPACE
0
ENDTAB
0
ENDSEC
0
SECTION
2
BLOCKS
0
BLOCK
5
20
100
AcDbEntity
100
AcDbBlockBegin
2
*MODEL_SPACE
0
ENDBLK
5
21
100
AcDbEntity
100
AcDbBlockEnd
0
BLOCK
5
1C
100
AcDbEntity
100
AcDbBlockBegin
2
*PAPER_SPACE
0
ENDBLK
5
1D
100
AcDbEntity
100
AcDbBlockEnd
0
ENDSEC
0
SECTION
2
ENTITIES
0
LWPOLYLINE
5
100
100
AcDbEntity
8
OUTER_PROFILES
100
AcDbPolyline
90
16
70
1
43
0.0
10
0
20
0
10
-2.1854783949314103e-17
20
2.8942461452772466
42
1.4341597851059784
10
-0.66350390531171377
20
3.5577500505889637
10
-1.9922633729427961
20
3.5577500505889637
10
-1.9922633729427961
20
12.704196659995684
10
-0.6635039053117151
20
12.704196659995684
42
1.434159785105972
10
-1.0927391974657051e-15
20
13.367700565307405
10
0
20
14.696460032938488
10
9.1464466094067252
20
14.696460032938488
10
9.1464466094067252
20
13.367700565307407
42
1.4341597851059895
10
9.8099505147184303
20
12.704196659995688
10
11.138709982349514
20
12.704196659995688
10
11.138709982349514
20
3.5577500505889637
10
9.8099505147184409
20
3.5577500505889641
42
1.4341597851059669
10
9.1464466094067252
20
2.8942461452772448
10
9.1464466094067252
20
0
0
LWPOLYLINE
5
101
100
AcDbEntity
8
INTERIOR_PROFILES
100
AcDbPolyline
90
4
70
1
43
0.0
10
1.198223356844921
20
3.2738238780006372
10
7.9482232525618022
20
3.2738238780006288
42
0.99999999999999989
10
7.9482232525618022
20
3.4238238780006287
10
1.198223356844921
20
3.4238238780006176
42
0.99999999999999989
0
LWPOLYLINE
5
102
100
AcDbEntity
8
INTERIOR_PROFILES
100
AcDbPolyline
90
4
70
1
43
0.0
10
-0.13452003411971902
20
4.7559733552923253
42
-0.99999999999999989
10
-0.2845200341197191
20
4.7559733552923253
10
-0.28452003411972049
20
11.505973355292323
42
-0.99999999999999989
10
-0.13452003411972044
20
11.505973355292323
0
LWPOLYLINE
5
103
100
AcDbEntity
8
INTERIOR_PROFILES
100
AcDbPolyline
90
4
70
1
43
0.0
10
9.4309666435264408
20
4.7559733552923253
10
9.4309666435264763
20
11.505973355292323
42
0.99999999999999989
10
9.2809666435264759
20
11.505973355292323
10
9.2809666435265132
20
4.7559733552923253
42
0.99999999999999989
0
LWPOLYLINE
5
104
100
AcDbEntity
8
INTERIOR_PROFILES
100
AcDbPolyline
90
4
70
1
43
0.0
10
7.948223252561804
20
1.8577433388230797
10
1.1982233568449216
20
1.8577433388231512
42
0.99999999999999989
10
1.1982233568449216
20
1.7077433388231511
10
7.948223252561804
20
1.7077433388232337
42
0.99999999999999989
0
LWPOLYLINE
5
105
100
AcDbEntity
8
INTERIOR_PROFILES
100
AcDbPolyline
90
4
70
1
43
0.0
10
1.198223356844921
20
12.838716694115405
10
7.948223252561804
20
12.838716694115405
42
0.99999999999999989
10
7.948223252561804
20
12.988716694115404
10
1.1982233568449223
20
12.988716694115404
42
0.99999999999999989
0
LINE
5
106
100
AcDbEntity
8
BEND
100
AcDbLine
10
0.29047996588028091
20
12.913716694115404
30
7.6054648143613085e-15
11
8.8559666435264432
21
12.913716694115404
31
4.9079203444783786e-15
0
LINE
5
107
100
AcDbEntity
8
BEND
100
AcDbLine
10
9.3559666435264379
20
12.413716694115408
30
2.5350618916856536e-15
11
9.3559666435264379
21
3.8482300164692442
31
8.8293327155227321e-15
0
LINE
5
108
100
AcDbEntity
8
BEND
100
AcDbLine
10
-2.7974123455122052e-15
20
1.7827433388230756
30
4.1765801542413571e-14
11
9.1464466094067252
21
1.7827433388230756
31
4.3179991179453563e-15
0
LINE
5
109
100
AcDbEntity
8
BEND
100
AcDbLine
10
8.855966643526445
20
3.3482300164692442
30
6.7749830242873783e-15
11
0.29047996588027791
21
3.3482300164692442
31
1.261964620712304e-14
0
LINE
5
110
100
AcDbEntity
8
BEND
100
AcDbLine
10
-0.20952003411971626
20
3.8482300164692442
30
1.3111939905237981e-15
11
-0.20952003411971626
21
12.413716694115404
31
7.6054648143613085e-15
0
LINE
5
111
100
AcDbEntity
8
BEND_EXTENT
100
AcDbLine
10
9.1464466094067252
20
1.499999999999998
30
2.7974123455122052e-15
11
-2.7974123455122052e-15
21
1.499999999999998
31
5.5948246910244104e-15
0
LINE
5
112
100
AcDbEntity
8
BEND_EXTENT
100
AcDbLine
10
0
20
2.0654866776461618
30
5.9445012342134363e-15
11
9.1464466094067252
21
2.0654866776461618
31
5.9445012342134363e-15
0
LINE
5
113
100
AcDbEntity
8
BEND_EXTENT
100
AcDbLine
10
-0.49226337294279843
20
3.7606087311856764
30
8.7419135797256328e-15
11
-0.49226337294279843
21
12.501337979398972
31
8.7419135797256518e-15
0
LINE
5
114
100
AcDbEntity
8
BEND_EXTENT
100
AcDbLine
10
0.073223304703364148
20
12.501337979398976
30
7.3432074069695389e-15
11
0.073223304703364148
21
3.7606087311856764
31
7.3432074069695389e-15
0
LINE
5
115
100
AcDbEntity
8
BEND_EXTENT
100
AcDbLine
10
9.6387099823495141
20
12.501337979398974
30
8.741913579725647e-15
11
9.6387099823495141
21
3.7606087311856822
31
8.7419135797256391e-15
0
LINE
5
116
100
AcDbEntity
8
BEND_EXTENT
100
AcDbLine
10
9.0732233047033617
20
3.760608731185672
30
7.3432074069695389e-15
11
9.0732233047033617
21
12.501337979398969
31
7.3432074069695389e-15
0
LINE
5
117
100
AcDbEntity
8
BEND_EXTENT
100
AcDbLine
10
0.2028586805967128
20
13.196460032938488
30
7.6928839501585624e-15
11
8.9435879288100022
21
13.196460032938488
31
7.6928839501585655e-15
0
LINE
5
118
100
AcDbEntity
8
BEND_EXTENT
100
AcDbLine
10
8.943587928810004
20
12.630973355292324
30
7.3432074069695389e-15
11
0.20285868059671291
21
12.630973355292324
31
7.3432074069695389e-15
0
LINE
5
119
100
AcDbEntity
8
BEND_EXTENT
100
AcDbLine
10
8.9435879288100111
20
3.0654866776461627
30
5.9445012342134394e-15
11
0.2028586805967143
21
3.0654866776461627
31
5.9445012342134339e-15
0
LINE
5
120
100
AcDbEntity
8
BEND_EXTENT
100
AcDbLine
10
0.20285868059671583
20
3.6309733552923249
30
7.3432074069695389e-15
11
8.9435879288100146
21
3.6309733552923249
31
7.3432074069695389e-15
0
ENDSEC
0
SECTION
2
OBJECTS
0
DICTIONARY
5
C
100
AcDbDictionary
3
ACAD_GROUP
350
D
3
ACAD_MLINESTYLE
350
17
0
DICTIONARY
5
D
100
AcDbDictionary
0
DICTIONARY
5
1A
330
C
100
AcDbDictionary
0
DICTIONARY
5
17
100
AcDbDictionary
0
ENDSEC
0
EOF
