  0
SECTION
  2
HEADER
  9
$ACADVER
  1
AC1027
  9
$ACADMAINTVER
 70
   125
  9
$DWGCODEPAGE
  3
ANSI_1252
  9
$REQUIREDVERSIONS
160
                 0
  9
$INSBASE
 10
0.0
 20
0.0
 30
0.0
  9
$EXTMIN
 10
1.000000000000000E+20
 20
1.000000000000000E+20
 30
1.000000000000000E+20
  9
$EXTMAX
 10
-1.000000000000000E+20
 20
-1.000000000000000E+20
 30
-1.000000000000000E+20
  9
$LIMMIN
 10
0.0
 20
0.0
  9
$LIMMAX
 10
12.0
 20
9.0
  9
$ORTHOMODE
 70
     0
  9
$REGENMODE
 70
     1
  9
$FILLMODE
 70
     1
  9
$QTEXTMODE
 70
     0
  9
$MIRRTEXT
 70
     0
  9
$LTSCALE
 40
1.0
  9
$ATTMODE
 70
     1
  9
$TEXTSIZE
 40
0.2
  9
$TRACEWID
 40
0.05
  9
$TEXTSTYLE
  7
Standard
  9
$CLAYER
  8
0
  9
$CELTYPE
  6
ByLayer
  9
$CECOLOR
 62
   256
  9
$CELTSCALE
 40
1.0
  9
$DISPSILH
 70
     0
  9
$DIMSCALE
 40
1.0
  9
$DIMASZ
 40
0.18
  9
$DIMEXO
 40
0.0625
  9
$DIMDLI
 40
0.38
  9
$DIMRND
 40
0.0
  9
$DIMDLE
 40
0.0
  9
$DIMEXE
 40
0.18
  9
$DIMTP
 40
0.0
  9
$DIMTM
 40
0.0
  9
$DIMTXT
 40
0.18
  9
$DIMCEN
 40
0.09
  9
$DIMTSZ
 40
0.0
  9
$DIMTOL
 70
     0
  9
$DIMLIM
 70
     0
  9
$DIMTIH
 70
     1
  9
$DIMTOH
 70
     1
  9
$DIMSE1
 70
     0
  9
$DIMSE2
 70
     0
  9
$DIMTAD
 70
     0
  9
$DIMZIN
 70
     0
  9
$DIMBLK
  1

  9
$DIMASO
 70
     1
  9
$DIMSHO
 70
     1
  9
$DIMPOST
  1

  9
$DIMAPOST
  1

  9
$DIMALT
 70
     0
  9
$DIMALTD
 70
     2
  9
$DIMALTF
 40
25.4
  9
$DIMLFAC
 40
1.0
  9
$DIMTOFL
 70
     0
  9
$DIMTVP
 40
0.0
  9
$DIMTIX
 70
     0
  9
$DIMSOXD
 70
     0
  9
$DIMSAH
 70
     0
  9
$DIMBLK1
  1

  9
$DIMBLK2
  1

  9
$DIMSTYLE
  2
Standard
  9
$DIMCLRD
 70
     0
  9
$DIMCLRE
 70
     0
  9
$DIMCLRT
 70
     0
  9
$DIMTFAC
 40
1.0
  9
$DIMGAP
 40
0.09
  9
$DIMJUST
 70
     0
  9
$DIMSD1
 70
     0
  9
$DIMSD2
 70
     0
  9
$DIMTOLJ
 70
     1
  9
$DIMTZIN
 70
     0
  9
$DIMALTZ
 70
     0
  9
$DIMALTTZ
 70
     0
  9
$DIMUPT
 70
     0
  9
$DIMDEC
 70
     4
  9
$DIMTDEC
 70
     4
  9
$DIMALTU
 70
     2
  9
$DIMALTTD
 70
     2
  9
$DIMTXSTY
  7
Standard
  9
$DIMAUNIT
 70
     0
  9
$DIMADEC
 70
     0
  9
$DIMALTRND
 40
0.0
  9
$DIMAZIN
 70
     0
  9
$DIMDSEP
 70
    46
  9
$DIMATFIT
 70
     3
  9
$DIMFRAC
 70
     0
  9
$DIMLDRBLK
  1

  9
$DIMLUNIT
 70
     2
  9
$DIMLWD
 70
    -2
  9
$DIMLWE
 70
    -2
  9
$DIMTMOVE
 70
     0
  9
$DIMFXL
 40
1.0
  9
$DIMFXLON
 70
     0
  9
$DIMJOGANG
 40
0.7853981633974483
  9
$DIMTFILL
 70
     0
  9
$DIMTFILLCLR
 70
     0
  9
$DIMARCSYM
 70
     0
  9
$DIMLTYPE
  6

  9
$DIMLTEX1
  6

  9
$DIMLTEX2
  6

  9
$DIMTXTDIRECTION
 70
     0
  9
$LUNITS
 70
     2
  9
$LUPREC
 70
     4
  9
$SKETCHINC
 40
0.1
  9
$FILLETRAD
 40
0.0
  9
$AUNITS
 70
     0
  9
$AUPREC
 70
     0
  9
$MENU
  1
.
  9
$ELEVATION
 40
0.0
  9
$PELEVATION
 40
0.0
  9
$THICKNESS
 40
0.0
  9
$LIMCHECK
 70
     0
  9
$CHAMFERA
 40
0.0
  9
$CHAMFERB
 40
0.0
  9
$CHAMFERC
 40
0.0
  9
$CHAMFERD
 40
0.0
  9
$SKPOLY
 70
     0
  9
$TDCREATE
 40
2459528.113668981
  9
$TDUCREATE
 40
2459528.113668981
  9
$TDUPDATE
 40
2459528.113668981
  9
$TDUUPDATE
 40
2459528.113668981
  9
$TDINDWG
 40
0.0000000000
  9
$TDUSRTIMER
 40
0.0000000000
  9
$USRTIMER
 70
     1
  9
$ANGBASE
 50
0.0
  9
$ANGDIR
 70
     0
  9
$PDMODE
 70
     0
  9
$PDSIZE
 40
0.0
  9
$PLINEWID
 40
0.0
  9
$SPLFRAME
 70
     0
  9
$SPLINETYPE
 70
     6
  9
$SPLINESEGS
 70
     8
  9
$HANDSEED
  5
14D
  9
$SURFTAB1
 70
     6
  9
$SURFTAB2
 70
     6
  9
$SURFTYPE
 70
     6
  9
$SURFU
 70
     6
  9
$SURFV
 70
     6
  9
$UCSBASE
  2

  9
$UCSNAME
  2

  9
$UCSORG
 10
0.0
 20
0.0
 30
0.0
  9
$UCSXDIR
 10
1.0
 20
0.0
 30
0.0
  9
$UCSYDIR
 10
0.0
 20
1.0
 30
0.0
  9
$UCSORTHOREF
  2

  9
$UCSORTHOVIEW
 70
     0
  9
$UCSORGTOP
 10
0.0
 20
0.0
 30
0.0
  9
$UCSORGBOTTOM
 10
0.0
 20
0.0
 30
0.0
  9
$UCSORGLEFT
 10
0.0
 20
0.0
 30
0.0
  9
$UCSORGRIGHT
 10
0.0
 20
0.0
 30
0.0
  9
$UCSORGFRONT
 10
0.0
 20
0.0
 30
0.0
  9
$UCSORGBACK
 10
0.0
 20
0.0
 30
0.0
  9
$PUCSBASE
  2

  9
$PUCSNAME
  2

  9
$PUCSORG
 10
0.0
 20
0.0
 30
0.0
  9
$PUCSXDIR
 10
1.0
 20
0.0
 30
0.0
  9
$PUCSYDIR
 10
0.0
 20
1.0
 30
0.0
  9
$PUCSORTHOREF
  2

  9
$PUCSORTHOVIEW
 70
     0
  9
$PUCSORGTOP
 10
0.0
 20
0.0
 30
0.0
  9
$PUCSORGBOTTOM
 10
0.0
 20
0.0
 30
0.0
  9
$PUCSORGLEFT
 10
0.0
 20
0.0
 30
0.0
  9
$PUCSORGRIGHT
 10
0.0
 20
0.0
 30
0.0
  9
$PUCSORGFRONT
 10
0.0
 20
0.0
 30
0.0
  9
$PUCSORGBACK
 10
0.0
 20
0.0
 30
0.0
  9
$USERI1
 70
     0
  9
$USERI2
 70
     0
  9
$USERI3
 70
     0
  9
$USERI4
 70
     0
  9
$USERI5
 70
     0
  9
$USERR1
 40
0.0
  9
$USERR2
 40
0.0
  9
$USERR3
 40
0.0
  9
$USERR4
 40
0.0
  9
$USERR5
 40
0.0
  9
$WORLDVIEW
 70
     1
  9
$SHADEDGE
 70
     3
  9
$SHADEDIF
 70
    70
  9
$TILEMODE
 70
     1
  9
$MAXACTVP
 70
    64
  9
$PINSBASE
 10
0.0
 20
0.0
 30
0.0
  9
$PLIMCHECK
 70
     0
  9
$PEXTMIN
 10
1.000000000000000E+20
 20
1.000000000000000E+20
 30
1.000000000000000E+20
  9
$PEXTMAX
 10
-1.000000000000000E+20
 20
-1.000000000000000E+20
 30
-1.000000000000000E+20
  9
$PLIMMIN
 10
0.0
 20
0.0
  9
$PLIMMAX
 10
12.0
 20
9.0
  9
$UNITMODE
 70
     0
  9
$VISRETAIN
 70
     1
  9
$PLINEGEN
 70
     0
  9
$PSLTSCALE
 70
     1
  9
$TREEDEPTH
 70
  3020
  9
$CMLSTYLE
  2
Standard
  9
$CMLJUST
 70
     0
  9
$CMLSCALE
 40
1.0
  9
$PROXYGRAPHICS
 70
     1
  9
$MEASUREMENT
 70
     0
  9
$CELWEIGHT
370
    -1
  9
$ENDCAPS
280
     0
  9
$JOINSTYLE
280
     0
  9
$LWDISPLAY
290
     0
  9
$INSUNITS
 70
     5
  9
$HYPERLINKBASE
  1

  9
$STYLESHEET
  1

  9
$XEDIT
290
     1
  9
$CEPSNTYPE
380
     0
  9
$PSTYLEMODE
290
     1
  9
$FINGERPRINTGUID
  2
{6AF8C37B-936A-4144-A1C0-FE2B18B1D692}
  9
$VERSIONGUID
  2
{D05BD7C7-6715-D347-AB6C-A12B34320FDD}
  9
$EXTNAMES
290
     1
  9
$PSVPSCALE
 40
0.0
  9
$OLESTARTUP
290
     0
  9
$SORTENTS
280
   127
  9
$INDEXCTL
280
     0
  9
$HIDETEXT
280
     1
  9
$XCLIPFRAME
280
     2
  9
$HALOGAP
280
     0
  9
$OBSCOLOR
 70
   257
  9
$OBSLTYPE
280
     0
  9
$INTERSECTIONDISPLAY
280
     0
  9
$INTERSECTIONCOLOR
 70
   257
  9
$DIMASSOC
280
     2
  9
$PROJECTNAME
  1

  9
$CAMERADISPLAY
290
     0
  9
$LENSLENGTH
 40
50.0
  9
$CAMERAHEIGHT
 40
0.0
  9
$STEPSPERSEC
 40
2.0
  9
$STEPSIZE
 40
6.0
  9
$3DDWFPREC
 40
2.0
  9
$PSOLWIDTH
 40
0.25
  9
$PSOLHEIGHT
 40
4.0
  9
$LOFTANG1
 40
1.570796326794896
  9
$LOFTANG2
 40
1.570796326794896
  9
$LOFTMAG1
 40
0.0
  9
$LOFTMAG2
 40
0.0
  9
$LOFTPARAM
 70
     7
  9
$LOFTNORMALS
280
     1
  9
$LATITUDE
 40
37.795
  9
$LONGITUDE
 40
-122.394
  9
$NORTHDIRECTION
 40
0.0
  9
$TIMEZONE
 70
 -8000
  9
$LIGHTGLYPHDISPLAY
280
     1
  9
$TILEMODELIGHTSYNCH
280
     1
  9
$CMATERIAL
347
11
  9
$SOLIDHIST
280
     0
  9
$SHOWHIST
280
     1
  9
$DWFFRAME
280
     2
  9
$DGNFRAME
280
     0
  9
$REALWORLDSCALE
290
     1
  9
$INTERFERECOLOR
 62
     1
  9
$INTERFEREOBJVS
345
33
  9
$INTERFEREVPVS
346
30
  9
$CSHADOW
280
     0
  9
$SHADOWPLANELOCATION
 40
0.0
  0
ENDSEC
  0
SECTION
  2
CLASSES
  0
CLASS
  1
ACDBDICTIONARYWDFLT
  2
AcDbDictionaryWithDefault
  3
ObjectDBX Classes
 90
        0
 91
        1
280
     0
281
     0
  0
CLASS
  1
MATERIAL
  2
AcDbMaterial
  3
ObjectDBX Classes
 90
     1153
 91
        3
280
     0
281
     0
  0
CLASS
  1
VISUALSTYLE
  2
AcDbVisualStyle
  3
ObjectDBX Classes
 90
     4095
 91
       24
280
     0
281
     0
  0
CLASS
  1
SCALE
  2
AcDbScale
  3
ObjectDBX Classes
 90
     1153
 91
       17
280
     0
281
     0
  0
CLASS
  1
TABLESTYLE
  2
AcDbTableStyle
  3
ObjectDBX Classes
 90
     4095
 91
        1
280
     0
281
     0
  0
CLASS
  1
MLEADERSTYLE
  2
AcDbMLeaderStyle
  3
ACDB_MLEADERSTYLE_CLASS
 90
     4095
 91
        1
280
     0
281
     0
  0
CLASS
  1
ACDBSECTIONVIEWSTYLE
  2
AcDbSectionViewStyle
  3
ObjectDBX Classes
 90
     1025
 91
        1
280
     0
281
     0
  0
CLASS
  1
ACDBDETAILVIEWSTYLE
  2
AcDbDetailViewStyle
  3
ObjectDBX Classes
 90
     1025
 91
        1
280
     0
281
     0
  0
CLASS
  1
DICTIONARYVAR
  2
AcDbDictionaryVar
  3
ObjectDBX Classes
 90
        0
 91
        5
280
     0
281
     0
  0
CLASS
  1
CELLSTYLEMAP
  2
AcDbCellStyleMap
  3
ObjectDBX Classes
 90
     1152
 91
        1
280
     0
281
     0
  0
ENDSEC
  0
SECTION
  2
TABLES
  0
TABLE
  2
VPORT
  5
8
330
0
100
AcDbSymbolTable
 70
     1
1001
ACAD
1000
DbSaveVer
1071
      247
  0
VPORT
  5
57
330
8
100
AcDbSymbolTableRecord
100
AcDbViewportTableRecord
  2
*Active
 70
     0
 10
0.0
 20
0.0
 11
1.0
 21
1.0
 12
500.0
 22
500.0
 13
0.0
 23
0.0
 14
1.0
 24
1.0
 15
0.0
 25
0.0
 16
0.0
 26
0.0
 36
1.0
 17
0.0
 27
0.0
 37
0.0
 40
12.0
 41
1.0
 42
50.0
 43
0.0
 44
0.0
 50
0.0
 51
0.0
 71
     0
 72
   100
 73
     1
 74
     1
 75
     0
 76
     0
 77
     0
 78
     0
281
     0
 65
     1
110
0.0
120
0.0
130
0.0
111
1.0
121
0.0
131
0.0
112
0.0
122
1.0
132
0.0
 79
     0
146
0.0
 60
     3
 61
     5
292
     1
282
     1
141
0.0
142
0.0
 63
   250
421
  3355443
  0
ENDTAB
  0
TABLE
  2
LTYPE
  5
5
330
0
100
AcDbSymbolTable
 70
     1
  0
LTYPE
  5
5B
330
5
100
AcDbSymbolTableRecord
100
AcDbLinetypeTableRecord
  2
ByBlock
 70
     0
  3

 72
    65
 73
     0
 40
0.0
  0
LTYPE
  5
5C
330
5
100
AcDbSymbolTableRecord
100
AcDbLinetypeTableRecord
  2
ByLayer
 70
     0
  3

 72
    65
 73
     0
 40
0.0
  0
LTYPE
  5
5D
330
5
100
AcDbSymbolTableRecord
100
AcDbLinetypeTableRecord
  2
Continuous
 70
     0
  3
Solid line
 72
    65
 73
     0
 40
0.0
  0
ENDTAB
  0
TABLE
  2
LAYER
  5
2
330
0
100
AcDbSymbolTable
 70
     2
  0
LAYER
  5
54
330
2
100
AcDbSymbolTableRecord
100
AcDbLayerTableRecord
  2
0
 70
     0
 62
     7
  6
Continuous
370
    -3
390
F
347
21
348
0
  0
LAYER
  5
7A
330
2
100
AcDbSymbolTableRecord
100
AcDbLayerTableRecord
  2

 70
     0
 62
     7
  6
Continuous
370
    -3
390
F
347
21
348
0
1001
NFusion_SketchTransform
1000
1.000000;0.000000;0.000000;0.000000;0.000000;1.000000;0.000000;0.000000;0.000000;0.000000;1.000000;0.000000;0.000000;0.000000;0.000000;1.000000
  0
ENDTAB
  0
TABLE
  2
STYLE
  5
3
330
0
100
AcDbSymbolTable
 70
     2
  0
STYLE
  5
55
330
3
100
AcDbSymbolTableRecord
100
AcDbTextStyleTableRecord
  2
Standard
 70
     0
 40
0.0
 41
1.0
 50
0.0
 71
     0
 42
0.2
  3
txt
  4

  0
STYLE
  5
5A
330
3
100
AcDbSymbolTableRecord
100
AcDbTextStyleTableRecord
  2
Annotative
 70
     0
 40
0.0
 41
1.0
 50
0.0
 71
     0
 42
0.2
  3
txt
  4

1001
AcadAnnotative
1000
AnnotativeData
1002
{
1070
     1
1070
     1
1002
}
  0
ENDTAB
  0
TABLE
  2
VIEW
  5
6
330
0
100
AcDbSymbolTable
 70
     0
  0
ENDTAB
  0
TABLE
  2
UCS
  5
7
330
0
100
AcDbSymbolTable
 70
     0
  0
ENDTAB
  0
TABLE
  2
APPID
  5
9
330
0
100
AcDbSymbolTable
 70
     4
  0
APPID
  5
56
330
9
100
AcDbSymbolTableRecord
100
AcDbRegAppTableRecord
  2
ACAD
 70
     0
  0
APPID
  5
5E
330
9
100
AcDbSymbolTableRecord
100
AcDbRegAppTableRecord
  2
AcadAnnotative
 70
     0
  0
APPID
  5
78
330
9
100
AcDbSymbolTableRecord
100
AcDbRegAppTableRecord
  2
EDIT_IN_FUSION_ACAD_ADDIN
 70
     0
  0
APPID
  5
79
330
9
100
AcDbSymbolTableRecord
100
AcDbRegAppTableRecord
  2
NFusion_SketchTransform
 70
     0
  0
ENDTAB
  0
TABLE
  2
DIMSTYLE
  5
A
330
0
100
AcDbSymbolTable
 70
     2
100
AcDbDimStyleTable
 71
     0
  0
DIMSTYLE
105
58
330
A
100
AcDbSymbolTableRecord
100
AcDbDimStyleTableRecord
  2
Standard
 70
     0
340
55
  0
DIMSTYLE
105
59
330
A
100
AcDbSymbolTableRecord
100
AcDbDimStyleTableRecord
  2
Annotative
 70
     0
340
55
1001
AcadAnnotative
1000
AnnotativeData
1002
{
1070
     1
1070
     1
1002
}
  0
ENDTAB
  0
TABLE
  2
BLOCK_RECORD
  5
1
330
0
100
AcDbSymbolTable
 70
     1
  0
BLOCK_RECORD
  5
70
330
1
100
AcDbSymbolTableRecord
100
AcDbBlockTableRecord
  2
*Model_Space
340
73
 70
     0
280
     1
281
     0
  0
BLOCK_RECORD
  5
6C
330
1
100
AcDbSymbolTableRecord
100
AcDbBlockTableRecord
  2
*Paper_Space
340
6F
 70
     0
280
     1
281
     0
  0
BLOCK_RECORD
  5
74
330
1
100
AcDbSymbolTableRecord
100
AcDbBlockTableRecord
  2
*Paper_Space0
340
77
 70
     0
280
     1
281
     0
  0
ENDTAB
  0
ENDSEC
  0
SECTION
  2
BLOCKS
  0
BLOCK
  5
71
330
70
100
AcDbEntity
  8
0
100
AcDbBlockBegin
  2
*Model_Space
 70
     0
 10
0.0
 20
0.0
 30
0.0
  3
*Model_Space
  1

  0
ENDBLK
  5
72
330
70
100
AcDbEntity
  8
0
100
AcDbBlockEnd
  0
BLOCK
  5
6D
330
6C
100
AcDbEntity
 67
     1
  8
0
100
AcDbBlockBegin
  2
*Paper_Space
 70
     0
 10
0.0
 20
0.0
 30
0.0
  3
*Paper_Space
  1

  0
ENDBLK
  5
6E
330
6C
100
AcDbEntity
 67
     1
  8
0
100
AcDbBlockEnd
  0
BLOCK
  5
75
330
74
100
AcDbEntity
 67
     1
  8
0
100
AcDbBlockBegin
  2
*Paper_Space0
 70
     0
 10
0.0
 20
0.0
 30
0.0
  3
*Paper_Space0
  1

  0
ENDBLK
  5
76
330
74
100
AcDbEntity
 67
     1
  8
0
100
AcDbBlockEnd
  0
ENDSEC
  0
SECTION
  2
ENTITIES
  0
POINT
  5
7B
330
70
100
AcDbEntity
  8

100
AcDbPoint
 10
0.0
 20
0.0
 30
0.0
  0
SPLINE
  5
7C
330
70
100
AcDbEntity
  8

100
AcDbSpline
210
0.0
220
0.0
230
1.0
 70
     8
 71
     2
 72
     6
 73
     3
 74
     0
 42
0.000000001
 43
0.0000000001
 40
0.0
 40
0.0
 40
0.0
 40
1.0
 40
1.0
 40
1.0
 10
1603.270974751286
 20
1029.511636656674
 30
0.0
 10
1601.276259060673
 20
1029.511636656674
 30
0.0
 10
1599.915378208927
 20
1027.554204863461
 30
0.0
  0
SPLINE
  5
7D
330
70
100
AcDbEntity
  8

100
AcDbSpline
210
0.0
220
0.0
230
1.0
 70
     8
 71
     2
 72
     6
 73
     3
 74
     0
 42
0.000000001
 43
0.0000000001
 40
0.0
 40
0.0
 40
0.0
 40
1.0
 40
1.0
 40
1.0
 10
1606.906203862004
 20
1025.671342772397
 30
0.0
 10
1606.906203862004
 20
1022.688589018735
 30
0.0
 10
1605.172479267887
 20
1020.302389067563
 30
0.0
  0
SPLINE
  5
7E
330
70
100
AcDbEntity
  8

100
AcDbSpline
210
0.0
220
0.0
230
1.0
 70
     8
 71
     2
 72
     6
 73
     3
 74
     0
 42
0.000000001
 43
0.0000000001
 40
0.0
 40
0.0
 40
0.0
 40
1.0
 40
1.0
 40
1.0
 10
1601.127121325306
 20
1007.066423338803
 30
0.0
 10
1602.693066473774
 20
1007.066423338803
 30
0.0
 10
1603.979378338627
 20
1008.986570280942
 30
0.0
  0
SPLINE
  5
7F
330
70
100
AcDbEntity
  8

100
AcDbSpline
210
0.0
220
0.0
230
1.0
 70
     8
 71
     2
 72
     6
 73
     3
 74
     0
 42
0.000000001
 43
0.0000000001
 40
0.0
 40
0.0
 40
0.0
 40
1.0
 40
1.0
 40
1.0
 10
1601.332185622029
 20
1009.750902098569
 30
0.0
 10
1600.306864615254
 20
1009.750902098569
 30
0.0
 10
1599.850130434803
 20
1009.275525969418
 30
0.0
  0
ARC
  5
80
330
70
100
AcDbEntity
  8

100
AcDbCircle
 10
1609.999066577436
 20
1044.202575402438
 30
0.0
 40
4.553704024704023
100
AcDbArc
 50
227.7905424018182
 51
312.077091979573
  0
SPLINE
  5
81
330
70
100
AcDbEntity
  8

100
AcDbSpline
210
0.0
220
0.0
230
1.0
 70
     8
 71
     2
 72
     6
 73
     3
 74
     0
 42
0.000000001
 43
0.0000000001
 40
0.0
 40
0.0
 40
0.0
 40
1.0
 40
1.0
 40
1.0
 10
1598.218937869839
 20
1008.073102873715
 30
0.0
 10
1598.218937869839
 20
1009.284845274838
 30
0.0
 10
1599.085800286107
 20
1010.077138823422
 30
0.0
  0
SPLINE
  5
82
330
70
100
AcDbEntity
  8

100
AcDbSpline
210
0.0
220
0.0
230
1.0
 70
     8
 71
     2
 72
     6
 73
     3
 74
     0
 42
0.000000001
 43
0.0000000001
 40
0.0
 40
0.0
 40
0.0
 40
1.0
 40
1.0
 40
1.0
 10
1606.365580197148
 20
1014.858865660581
 30
0.0
 10
1605.265690441899
 20
1014.597875517758
 30
0.0
 10
1604.20308458405
 20
1014.597875517758
 30
0.0
  0
SPLINE
  5
83
330
70
100
AcDbEntity
  8

100
AcDbSpline
210
0.0
220
0.0
230
1.0
 70
     8
 71
     2
 72
     6
 73
     3
 74
     0
 42
0.000000001
 43
0.0000000001
 40
0.0
 40
0.0
 40
0.0
 40
1.0
 40
1.0
 40
1.0
 10
1599.915378208927
 20
1027.554204863461
 30
0.0
 10
1598.554497476391
 20
1025.596774977597
 30
0.0
 10
1598.554497476391
 20
1021.942903441342
 30
0.0
  0
SPLINE
  5
84
330
70
100
AcDbEntity
  8

100
AcDbSpline
210
0.0
220
0.0
230
1.0
 70
     8
 71
     2
 72
     6
 73
     3
 74
     0
 42
0.000000001
 43
0.0000000001
 40
0.0
 40
0.0
 40
0.0
 40
1.0
 40
1.0
 40
1.0
 10
1620.347230549626
 20
1032.550315779599
 30
0.0
 10
1620.347230549626
 20
1029.026939314755
 30
0.0
 10
1617.625468846135
 20
1024.403673094663
 30
0.0
  0
SPLINE
  5
85
330
70
100
AcDbEntity
  8

100
AcDbSpline
210
0.0
220
0.0
230
1.0
 70
     8
 71
     2
 72
     6
 73
     3
 74
     0
 42
0.000000001
 43
0.0000000001
 40
0.0
 40
0.0
 40
0.0
 40
1.0
 40
1.0
 40
1.0
 10
1617.625468846135
 20
1024.403673094663
 30
0.0
 10
1615.3324791153
 20
1020.488809508237
 30
0.0
 10
1611.995524998478
 20
1017.841617506894
 30
0.0
  0
ARC
  5
86
330
70
100
AcDbEntity
  8

100
AcDbCircle
 10
1611.009318734744
 20
1022.792072574989
 30
0.0
 40
15.18670698258735
100
AcDbArc
 50
66.79169657070929
 51
69.06516910385254
  0
ARC
  5
87
330
70
100
AcDbEntity
  8

100
AcDbCircle
 10
1622.193511360606
 20
1066.374444090983
 30
0.0
 40
29.77824446591506
100
AcDbArc
 50
254.9012320689152
 51
255.0783954058176
  0
SPLINE
  5
88
330
70
100
AcDbEntity
  8

100
AcDbSpline
210
0.0
220
0.0
230
1.0
 70
     8
 71
     2
 72
     6
 73
     3
 74
     0
 42
0.000000001
 43
0.0000000001
 40
0.0
 40
0.0
 40
0.0
 40
1.0
 40
1.0
 40
1.0
 10
1604.389506932072
 20
1020.563379210385
 30
0.0
 10
1604.389506932072
 20
1020.693874281796
 30
0.0
 10
1604.482718106083
 20
1020.824369353207
 30
0.0
  0
ARC
  5
89
330
70
100
AcDbEntity
  8

100
AcDbCircle
 10
1609.704958471463
 20
1020.214873801159
 30
0.0
 40
18.08619842690975
100
AcDbArc
 50
35.77700333238457
 51
45.97579877364567
  0
SPLINE
  5
8A
330
70
100
AcDbEntity
  8

100
AcDbSpline
210
0.0
220
0.0
230
1.0
 70
     8
 71
     2
 72
     6
 73
     3
 74
     0
 42
0.000000001
 43
0.0000000001
 40
0.0
 40
0.0
 40
0.0
 40
1.0
 40
1.0
 40
1.0
 10
1597.473249789051
 20
1022.017469328793
 30
0.0
 10
1597.473249789051
 20
1025.783195418271
 30
0.0
 10
1599.151047941021
 20
1028.085508269223
 30
0.0
  0
ARC
  5
8B
330
70
100
AcDbEntity
  8

100
AcDbCircle
 10
1610.26078702685
 20
1021.046314709653
 30
0.0
 40
17.08617275991851
100
AcDbArc
 50
66.08211894865599
 51
66.79169830303274
  0
ARC
  5
8C
330
70
100
AcDbEntity
  8

100
AcDbCircle
 10
1613.740342860267
 20
1033.181433205672
 30
0.0
 40
4.477899350211668
100
AcDbArc
 50
72.00249776968779
 51
76.66986207625305
  0
SPLINE
  5
8D
330
70
100
AcDbEntity
  8

100
AcDbSpline
210
0.0
220
0.0
230
1.0
 70
     8
 71
     2
 72
     6
 73
     3
 74
     0
 42
0.000000001
 43
0.0000000001
 40
0.0
 40
0.0
 40
0.0
 40
1.0
 40
1.0
 40
1.0
 10
1599.840809460453
 20
1007.392663878354
 30
0.0
 10
1600.288222189717
 20
1007.066423338803
 30
0.0
 10
1601.127121325306
 20
1007.066423338803
 30
0.0
  0
ARC
  5
8E
330
70
100
AcDbEntity
  8

100
AcDbCircle
 10
1606.56942851341
 20
1011.186281309271
 30
0.0
 40
27.61276895252701
100
AcDbArc
 50
69.06520110143978
 51
70.5571319775309
  0
SPLINE
  5
8F
330
70
100
AcDbEntity
  8

100
AcDbSpline
210
0.0
220
0.0
230
1.0
 70
     8
 71
     2
 72
     6
 73
     3
 74
     0
 42
0.000000001
 43
0.0000000001
 40
0.0
 40
0.0
 40
0.0
 40
1.0
 40
1.0
 40
1.0
 10
1616.562863941959
 20
1024.608737868222
 30
0.0
 10
1618.94906580048
 20
1028.635454100522
 30
0.0
 10
1618.94906580048
 20
1031.804628294858
 30
0.0
  0
ARC
  5
90
330
70
100
AcDbEntity
  8

100
AcDbCircle
 10
1614.768775864539
 20
1038.854791386721
 30
0.0
 40
1.274595889815333
100
AcDbArc
 50
181.3872373689258
 51
254.9011529520175
  0
SPLINE
  5
91
330
70
100
AcDbEntity
  8

100
AcDbSpline
210
0.0
220
0.0
230
1.0
 70
     8
 71
     2
 72
     6
 73
     3
 74
     0
 42
0.000000001
 43
0.0000000001
 40
0.0
 40
0.0
 40
0.0
 40
1.0
 40
1.0
 40
1.0
 10
1618.94906580048
 20
1031.804628294858
 30
0.0
 10
1618.94906580048
 20
1035.067012709531
 30
0.0
 10
1616.301873799137
 20
1035.067012709531
 30
0.0
  0
SPLINE
  5
92
330
70
100
AcDbEntity
  8

100
AcDbSpline
210
0.0
220
0.0
230
1.0
 70
     8
 71
     2
 72
     6
 73
     3
 74
     0
 42
0.000000001
 43
0.0000000001
 40
0.0
 40
0.0
 40
0.0
 40
1.0
 40
1.0
 40
1.0
 10
1605.880882855229
 20
1007.942609709653
 30
0.0
 10
1603.867524739079
 20
1005.761468809994
 30
0.0
 10
1601.127121325306
 20
1005.761468809994
 30
0.0
  0
ARC
  5
93
330
70
100
AcDbEntity
  8

100
AcDbCircle
 10
1616.348510908742
 20
1044.440618674282
 30
0.0
 40
7.078977347953038
100
AcDbArc
 50
255.0784244166867
 51
256.0694014686526
  0
SPLINE
  5
94
330
70
100
AcDbEntity
  8

100
AcDbSpline
210
0.0
220
0.0
230
1.0
 70
     8
 71
     2
 72
     6
 73
     3
 74
     0
 42
0.000000001
 43
0.0000000001
 40
0.0
 40
0.0
 40
0.0
 40
1.0
 40
1.0
 40
1.0
 10
1599.850130434803
 20
1009.275525969418
 30
0.0
 10
1599.393396611981
 20
1008.800149840268
 30
0.0
 10
1599.393396611981
 20
1008.259527129086
 30
0.0
  0
SPLINE
  5
95
330
70
100
AcDbEntity
  8

100
AcDbSpline
210
0.0
220
0.0
230
1.0
 70
     8
 71
     2
 72
     6
 73
     3
 74
     0
 42
0.000000001
 43
0.0000000001
 40
0.0
 40
0.0
 40
0.0
 40
1.0
 40
1.0
 40
1.0
 10
1601.332185622029
 20
1010.869432372006
 30
0.0
 10
1602.991341229252
 20
1010.869432372006
 30
0.0
 10
1604.650498028569
 20
1010.161031645688
 30
0.0
  0
SPLINE
  5
96
330
70
100
AcDbEntity
  8

100
AcDbSpline
210
0.0
220
0.0
230
1.0
 70
     8
 71
     2
 72
     6
 73
     3
 74
     0
 42
0.000000001
 43
0.0000000001
 40
0.0
 40
0.0
 40
0.0
 40
1.0
 40
1.0
 40
1.0
 10
1603.270974751286
 20
1030.387819212827
 30
0.0
 10
1605.414827938847
 20
1030.387819212827
 30
0.0
 10
1606.346937771611
 20
1028.486314696225
 30
0.0
  0
SPLINE
  5
97
330
70
100
AcDbEntity
  8

100
AcDbSpline
210
0.0
220
0.0
230
1.0
 70
     8
 71
     2
 72
     6
 73
     3
 74
     0
 42
0.000000001
 43
0.0000000001
 40
0.0
 40
0.0
 40
0.0
 40
1.0
 40
1.0
 40
1.0
 10
1605.545323963933
 20
1028.169397276792
 30
0.0
 10
1604.836919422917
 20
1029.511636656674
 30
0.0
 10
1603.270974751286
 20
1029.511636656674
 30
0.0
  0
SPLINE
  5
98
330
70
100
AcDbEntity
  8

100
AcDbSpline
210
0.0
220
0.0
230
1.0
 70
     8
 71
     2
 72
     6
 73
     3
 74
     0
 42
0.000000001
 43
0.0000000001
 40
0.0
 40
0.0
 40
0.0
 40
1.0
 40
1.0
 40
1.0
 10
1599.766240711979
 20
1017.767049712094
 30
0.0
 10
1601.220332499317
 20
1015.697763365658
 30
0.0
 10
1604.20308458405
 20
1015.697763365658
 30
0.0
  0
SPLINE
  5
99
330
70
100
AcDbEntity
  8

100
AcDbSpline
210
0.0
220
0.0
230
1.0
 70
     8
 71
     2
 72
     6
 73
     3
 74
     0
 42
0.000000001
 43
0.0000000001
 40
0.0
 40
0.0
 40
0.0
 40
1.0
 40
1.0
 40
1.0
 10
1599.151047941021
 20
1028.085508269223
 30
0.0
 10
1600.828846092991
 20
1030.387819212827
 30
0.0
 10
1603.270974751286
 20
1030.387819212827
 30
0.0
  0
SPLINE
  5
9A
330
70
100
AcDbEntity
  8

100
AcDbSpline
210
0.0
220
0.0
230
1.0
 70
     8
 71
     2
 72
     6
 73
     3
 74
     0
 42
0.000000001
 43
0.0000000001
 40
0.0
 40
0.0
 40
0.0
 40
1.0
 40
1.0
 40
1.0
 10
1608.285727139286
 20
1025.839122694882
 30
0.0
 10
1608.80770933228
 20
1030.22004119769
 30
0.0
 10
1610.504149075321
 20
1033.146865767392
 30
0.0
  0
ARC
  5
9B
330
70
100
AcDbEntity
  8

100
AcDbCircle
 10
1606.887612462243
 20
1012.087714883667
 30
0.0
 40
26.65682778591453
100
AcDbArc
 50
70.55709305167214
 51
72.00253358194744
  0
SPLINE
  5
9C
330
70
100
AcDbEntity
  8

100
AcDbSpline
210
0.0
220
0.0
230
1.0
 70
     8
 71
     2
 72
     6
 73
     3
 74
     0
 42
0.000000001
 43
0.0000000001
 40
0.0
 40
0.0
 40
0.0
 40
1.0
 40
1.0
 40
1.0
 10
1599.393396611981
 20
1008.259527129086
 30
0.0
 10
1599.393396611981
 20
1007.718900603207
 30
0.0
 10
1599.840809460453
 20
1007.392663878354
 30
0.0
  0
SPLINE
  5
9D
330
70
100
AcDbEntity
  8

100
AcDbSpline
210
0.0
220
0.0
230
1.0
 70
     8
 71
     2
 72
     6
 73
     3
 74
     0
 42
0.000000001
 43
0.0000000001
 40
0.0
 40
0.0
 40
0.0
 40
1.0
 40
1.0
 40
1.0
 10
1599.085800286107
 20
1010.077138823422
 30
0.0
 10
1599.952662583165
 20
1010.869432372006
 30
0.0
 10
1601.332185622029
 20
1010.869432372006
 30
0.0
  0
SPLINE
  5
9E
330
70
100
AcDbEntity
  8

100
AcDbSpline
210
0.0
220
0.0
230
1.0
 70
     8
 71
     2
 72
     6
 73
     3
 74
     0
 42
0.000000001
 43
0.0000000001
 40
0.0
 40
0.0
 40
0.0
 40
1.0
 40
1.0
 40
1.0
 10
1604.650498028569
 20
1010.161031645688
 30
0.0
 10
1605.601250286869
 20
1012.006608885678
 30
0.0
 10
1606.365580197148
 20
1014.858865660581
 30
0.0
  0
ARC
  5
9F
330
70
100
AcDbEntity
  8

100
AcDbCircle
 10
1609.700753298368
 20
1020.210503314029
 30
0.0
 40
18.09226344545782
100
AcDbArc
 50
45.97584187122573
 51
56.17554064114222
  0
SPLINE
  5
A0
330
70
100
AcDbEntity
  8

100
AcDbSpline
210
0.0
220
0.0
230
1.0
 70
     8
 71
     2
 72
     6
 73
     3
 74
     0
 42
0.000000001
 43
0.0000000001
 40
0.0
 40
0.0
 40
0.0
 40
1.0
 40
1.0
 40
1.0
 10
1604.799635525517
 20
1020.134607237729
 30
0.0
 10
1604.669139500431
 20
1020.134607237729
 30
0.0
 10
1604.557286854557
 20
1020.209176939877
 30
0.0
  0
ARC
  5
A1
330
70
100
AcDbEntity
  8

100
AcDbCircle
 10
1610.538408800642
 20
1020.815448505566
 30
0.0
 40
17.05890614752246
100
AcDbArc
 50
25.14625378918561
 51
35.7770585213604
  0
SPLINE
  5
A2
330
70
100
AcDbEntity
  8

100
AcDbSpline
210
0.0
220
0.0
230
1.0
 70
     8
 71
     2
 72
     6
 73
     3
 74
     0
 42
0.000000001
 43
0.0000000001
 40
0.0
 40
0.0
 40
0.0
 40
1.0
 40
1.0
 40
1.0
 10
1604.20308458405
 20
1015.697763365658
 30
0.0
 10
1605.414827938847
 20
1015.697763365658
 30
0.0
 10
1606.663855191044
 20
1016.070608061704
 30
0.0
  0
ARC
  5
A3
330
70
100
AcDbEntity
  8

100
AcDbCircle
 10
1617.681780206525
 20
1049.815779269207
 30
0.0
 40
12.61702379427633
100
AcDbArc
 50
256.0693805453491
 51
256.6698412694908
  0
SPLINE
  5
A4
330
70
100
AcDbEntity
  8

100
AcDbSpline
210
0.0
220
0.0
230
1.0
 70
     8
 71
     2
 72
     6
 73
     3
 74
     0
 42
0.000000001
 43
0.0000000001
 40
0.0
 40
0.0
 40
0.0
 40
1.0
 40
1.0
 40
1.0
 10
1611.678607579045
 20
1028.710021895322
 30
0.0
 10
1611.380332585148
 20
1027.200004500302
 30
0.0
 10
1611.119341488652
 20
1024.944297713193
 30
0.0
  0
SPLINE
  5
A5
330
70
100
AcDbEntity
  8

100
AcDbSpline
210
0.0
220
0.0
230
1.0
 70
     8
 71
     2
 72
     6
 73
     3
 74
     0
 42
0.000000001
 43
0.0000000001
 40
0.0
 40
0.0
 40
0.0
 40
1.0
 40
1.0
 40
1.0
 10
1614.06481039124
 20
1034.11626045123
 30
0.0
 10
1612.442938442997
 20
1032.438463133725
 30
0.0
 10
1611.678607579045
 20
1028.710021895322
 30
0.0
  0
SPLINE
  5
A6
330
70
100
AcDbEntity
  8

100
AcDbSpline
210
0.0
220
0.0
230
1.0
 70
     8
 71
     2
 72
     6
 73
     3
 74
     0
 42
0.000000001
 43
0.0000000001
 40
0.0
 40
0.0
 40
0.0
 40
1.0
 40
1.0
 40
1.0
 10
1598.554497476391
 20
1021.942903441342
 30
0.0
 10
1598.554497476391
 20
1019.482129973325
 30
0.0
 10
1599.766240711979
 20
1017.767049712094
 30
0.0
  0
SPLINE
  5
A7
330
70
100
AcDbEntity
  8

100
AcDbSpline
210
0.0
220
0.0
230
1.0
 70
     8
 71
     2
 72
     6
 73
     3
 74
     0
 42
0.000000001
 43
0.0000000001
 40
0.0
 40
0.0
 40
0.0
 40
1.0
 40
1.0
 40
1.0
 10
1603.979378338627
 20
1008.986570280942
 30
0.0
 10
1602.581213351063
 20
1009.750902098569
 30
0.0
 10
1601.332185622029
 20
1009.750902098569
 30
0.0
  0
SPLINE
  5
A8
330
70
100
AcDbEntity
  8

100
AcDbSpline
210
0.0
220
0.0
230
1.0
 70
     8
 71
     2
 72
     6
 73
     3
 74
     0
 42
0.000000001
 43
0.0000000001
 40
0.0
 40
0.0
 40
0.0
 40
1.0
 40
1.0
 40
1.0
 10
1604.20308458405
 20
1014.597875517758
 30
0.0
 10
1600.511928673558
 20
1014.597875517758
 30
0.0
 10
1598.796846147351
 20
1017.226423186215
 30
0.0
  0
SPLINE
  5
A9
330
70
100
AcDbEntity
  8

100
AcDbSpline
210
0.0
220
0.0
230
1.0
 70
     8
 71
     2
 72
     6
 73
     3
 74
     0
 42
0.000000001
 43
0.0000000001
 40
0.0
 40
0.0
 40
0.0
 40
1.0
 40
1.0
 40
1.0
 10
1606.663855191044
 20
1016.070608061704
 30
0.0
 10
1607.558681126408
 20
1019.780404967221
 30
0.0
 10
1608.285727139286
 20
1025.839122694882
 30
0.0
  0
SPLINE
  5
AA
330
70
100
AcDbEntity
  8

100
AcDbSpline
210
0.0
220
0.0
230
1.0
 70
     8
 71
     2
 72
     6
 73
     3
 74
     0
 42
0.000000001
 43
0.0000000001
 40
0.0
 40
0.0
 40
0.0
 40
1.0
 40
1.0
 40
1.0
 10
1612.946277256779
 20
1005.332700652036
 30
0.0
 10
1611.343048687748
 20
1005.332700652036
 30
0.0
 10
1609.590681668095
 20
1006.022462767514
 30
0.0
  0
SPLINE
  5
AB
330
70
100
AcDbEntity
  8

100
AcDbSpline
210
0.0
220
0.0
230
1.0
 70
     8
 71
     2
 72
     6
 73
     3
 74
     0
 42
0.000000001
 43
0.0000000001
 40
0.0
 40
0.0
 40
0.0
 40
1.0
 40
1.0
 40
1.0
 10
1610.504149075321
 20
1033.146865767392
 30
0.0
 10
1612.573433514409
 20
1036.744811934384
 30
0.0
 10
1616.2832313736
 20
1036.744811934384
 30
0.0
  0
SPLINE
  5
AC
330
70
100
AcDbEntity
  8

100
AcDbSpline
210
0.0
220
0.0
230
1.0
 70
     8
 71
     2
 72
     6
 73
     3
 74
     0
 42
0.000000001
 43
0.0000000001
 40
0.0
 40
0.0
 40
0.0
 40
1.0
 40
1.0
 40
1.0
 10
1619.321910496525
 20
1035.47714225665
 30
0.0
 10
1620.347230549626
 20
1034.302682799252
 30
0.0
 10
1620.347230549626
 20
1032.550315779599
 30
0.0
  0
SPLINE
  5
AD
330
70
100
AcDbEntity
  8

100
AcDbSpline
210
0.0
220
0.0
230
1.0
 70
     8
 71
     2
 72
     6
 73
     3
 74
     0
 42
0.000000001
 43
0.0000000001
 40
0.0
 40
0.0
 40
0.0
 40
1.0
 40
1.0
 40
1.0
 10
1611.995524998478
 20
1017.841617506894
 30
0.0
 10
1610.802424069218
 20
1016.890865248593
 30
0.0
 10
1609.646607991032
 20
1016.219745558652
 30
0.0
  0
SPLINE
  5
AE
330
70
100
AcDbEntity
  8

100
AcDbSpline
210
0.0
220
0.0
230
1.0
 70
     8
 71
     2
 72
     6
 73
     3
 74
     0
 42
0.000000001
 43
0.0000000001
 40
0.0
 40
0.0
 40
0.0
 40
1.0
 40
1.0
 40
1.0
 10
1609.646607991032
 20
1016.219745558652
 30
0.0
 10
1608.56536066132
 20
1011.708333891782
 30
0.0
 10
1606.812993641667
 20
1009.135709685239
 30
0.0
  0
SPLINE
  5
AF
330
70
100
AcDbEntity
  8

100
AcDbSpline
210
0.0
220
0.0
230
1.0
 70
     8
 71
     2
 72
     6
 73
     3
 74
     0
 42
0.000000001
 43
0.0000000001
 40
0.0
 40
0.0
 40
0.0
 40
1.0
 40
1.0
 40
1.0
 10
1606.812993641667
 20
1009.135709685239
 30
0.0
 10
1608.584002133183
 20
1008.184957426938
 30
0.0
 10
1609.460185643009
 20
1007.83075515643
 30
0.0
  0
ARC
  5
B0
330
70
100
AcDbEntity
  8

100
AcDbCircle
 10
862.3377352455252
 20
873.0372115342531
 30
0.0
 40
769.2345565899359
100
AcDbArc
 50
12.44613480607437
 51
12.5633226186874
  0
SPLINE
  5
B1
330
70
100
AcDbEntity
  8

100
AcDbSpline
210
0.0
220
0.0
230
1.0
 70
     8
 71
     2
 72
     6
 73
     3
 74
     0
 42
0.000000001
 43
0.0000000001
 40
0.0
 40
0.0
 40
0.0
 40
1.0
 40
1.0
 40
1.0
 10
1609.963525410466
 20
1017.636552733334
 30
0.0
 10
1613.952955838017
 20
1020.227819365414
 30
0.0
 10
1616.562863941959
 20
1024.608737868222
 30
0.0
  0
SPLINE
  5
B2
330
70
100
AcDbEntity
  8

100
AcDbSpline
210
0.0
220
0.0
230
1.0
 70
     8
 71
     2
 72
     6
 73
     3
 74
     0
 42
0.000000001
 43
0.0000000001
 40
0.0
 40
0.0
 40
0.0
 40
1.0
 40
1.0
 40
1.0
 10
1616.301873799137
 20
1035.067012709531
 30
0.0
 10
1614.959635372929
 20
1035.067012709531
 30
0.0
 10
1614.06481039124
 20
1034.11626045123
 30
0.0
  0
SPLINE
  5
B3
330
70
100
AcDbEntity
  8

100
AcDbSpline
210
0.0
220
0.0
230
1.0
 70
     8
 71
     2
 72
     6
 73
     3
 74
     0
 42
0.000000001
 43
0.0000000001
 40
0.0
 40
0.0
 40
0.0
 40
1.0
 40
1.0
 40
1.0
 10
1611.119341488652
 20
1024.944297713193
 30
0.0
 10
1610.61600267487
 20
1020.749799651059
 30
0.0
 10
1609.963525410466
 20
1017.636552733334
 30
0.0
  0
ARC
  5
B4
330
70
100
AcDbEntity
  8

100
AcDbCircle
 10
846.6679977936136
 20
869.5447594922661
 30
0.0
 40
785.2887738845216
100
AcDbArc
 50
12.56334976993443
 51
12.59793797115475
  0
SPLINE
  5
B5
330
70
100
AcDbEntity
  8

100
AcDbSpline
210
0.0
220
0.0
230
1.0
 70
     8
 71
     2
 72
     6
 73
     3
 74
     0
 42
0.000000001
 43
0.0000000001
 40
0.0
 40
0.0
 40
0.0
 40
1.0
 40
1.0
 40
1.0
 10
1606.346937771611
 20
1028.486314696225
 30
0.0
 10
1606.906203862004
 20
1027.34914199725
 30
0.0
 10
1606.906203862004
 20
1025.671342772397
 30
0.0
  0
SPLINE
  5
B6
330
70
100
AcDbEntity
  8

100
AcDbSpline
210
0.0
220
0.0
230
1.0
 70
     8
 71
     2
 72
     6
 73
     3
 74
     0
 42
0.000000001
 43
0.0000000001
 40
0.0
 40
0.0
 40
0.0
 40
1.0
 40
1.0
 40
1.0
 10
1604.557286854557
 20
1020.209176939877
 30
0.0
 10
1604.389506932072
 20
1020.339672011289
 30
0.0
 10
1604.389506932072
 20
1020.563379210385
 30
0.0
  0
SPLINE
  5
B7
330
70
100
AcDbEntity
  8

100
AcDbSpline
210
0.0
220
0.0
230
1.0
 70
     8
 71
     2
 72
     6
 73
     3
 74
     0
 42
0.000000001
 43
0.0000000001
 40
0.0
 40
0.0
 40
0.0
 40
1.0
 40
1.0
 40
1.0
 10
1609.590681668095
 20
1006.022462767514
 30
0.0
 10
1608.378938313298
 20
1006.488515776547
 30
0.0
 10
1605.880882855229
 20
1007.942609709653
 30
0.0
  0
SPLINE
  5
B8
330
70
100
AcDbEntity
  8

100
AcDbSpline
210
0.0
220
0.0
230
1.0
 70
     8
 71
     2
 72
     6
 73
     3
 74
     0
 42
0.000000001
 43
0.0000000001
 40
0.0
 40
0.0
 40
0.0
 40
1.0
 40
1.0
 40
1.0
 10
1604.482718106083
 20
1020.824369353207
 30
0.0
 10
1606.030020352177
 20
1023.005508345517
 30
0.0
 10
1606.030020352177
 20
1025.727270049008
 30
0.0
  0
SPLINE
  5
B9
330
70
100
AcDbEntity
  8

100
AcDbSpline
210
0.0
220
0.0
230
1.0
 70
     8
 71
     2
 72
     6
 73
     3
 74
     0
 42
0.000000001
 43
0.0000000001
 40
0.0
 40
0.0
 40
0.0
 40
1.0
 40
1.0
 40
1.0
 10
1598.796846147351
 20
1017.226423186215
 30
0.0
 10
1597.473249789051
 20
1019.258424681577
 30
0.0
 10
1597.473249789051
 20
1022.017469328793
 30
0.0
  0
SPLINE
  5
BA
330
70
100
AcDbEntity
  8

100
AcDbSpline
210
0.0
220
0.0
230
1.0
 70
     8
 71
     2
 72
     6
 73
     3
 74
     0
 42
0.000000001
 43
0.0000000001
 40
0.0
 40
0.0
 40
0.0
 40
1.0
 40
1.0
 40
1.0
 10
1605.172479267887
 20
1020.302389067563
 30
0.0
 10
1605.041984196476
 20
1020.134607237729
 30
0.0
 10
1604.799635525517
 20
1020.134607237729
 30
0.0
  0
SPLINE
  5
BB
330
70
100
AcDbEntity
  8

100
AcDbSpline
210
0.0
220
0.0
230
1.0
 70
     8
 71
     2
 72
     6
 73
     3
 74
     0
 42
0.000000001
 43
0.0000000001
 40
0.0
 40
0.0
 40
0.0
 40
1.0
 40
1.0
 40
1.0
 10
1606.030020352177
 20
1025.727270049008
 30
0.0
 10
1606.030020352177
 20
1027.218645018491
 30
0.0
 10
1605.545323963933
 20
1028.169397276792
 30
0.0
  0
SPLINE
  5
BC
330
70
100
AcDbEntity
  8

100
AcDbSpline
210
0.0
220
0.0
230
1.0
 70
     8
 71
     2
 72
     6
 73
     3
 74
     0
 42
0.000000001
 43
0.0000000001
 40
0.0
 40
0.0
 40
0.0
 40
1.0
 40
1.0
 40
1.0
 10
1619.638827915959
 20
1009.993249815854
 30
0.0
 10
1616.544221516423
 20
1005.332700652036
 30
0.0
 10
1612.946277256779
 20
1005.332700652036
 30
0.0
  0
SPLINE
  5
BD
330
70
100
AcDbEntity
  8

100
AcDbSpline
210
0.0
220
0.0
230
1.0
 70
     8
 71
     2
 72
     6
 73
     3
 74
     0
 42
0.000000001
 43
0.0000000001
 40
0.9469893601199203
 40
0.9469893601199203
 40
0.9469893601199203
 40
1.0
 40
1.0
 40
1.0
 10
1619.199197924615
 20
1035.607979904216
 30
0.0
 10
1619.261628142989
 20
1035.544342237423
 30
0.0
 10
1619.321910496525
 20
1035.47714225665
 30
0.0
  0
SPLINE
  5
BE
330
70
100
AcDbEntity
  8

100
AcDbSpline
210
0.0
220
0.0
230
1.0
 70
     8
 71
     2
 72
     6
 73
     3
 74
     0
 42
0.000000001
 43
0.0000000001
 40
0.0
 40
0.0
 40
0.0
 40
1.0
 40
1.0
 40
1.0
 10
1621.596257801823
 20
1016.98407546893
 30
0.0
 10
1621.689469929509
 20
1017.263708037289
 30
0.0
 10
1621.987744923405
 20
1017.263708037289
 30
0.0
  0
SPLINE
  5
BF
330
70
100
AcDbEntity
  8

100
AcDbSpline
210
0.0
220
0.0
230
1.0
 70
     8
 71
     2
 72
     6
 73
     3
 74
     0
 42
0.000000001
 43
0.0000000001
 40
0.0
 40
0.0
 40
0.0
 40
1.0
 40
1.0
 40
1.0
 10
1622.43515741425
 20
1016.928148192319
 30
0.0
 10
1622.43515741425
 20
1016.779012602719
 30
0.0
 10
1621.708112355046
 20
1014.52330581561
 30
0.0
  0
SPLINE
  5
C0
330
70
100
AcDbEntity
  8

100
AcDbSpline
210
0.0
220
0.0
230
1.0
 70
     8
 71
     2
 72
     6
 73
     3
 74
     0
 42
0.000000001
 43
0.0000000001
 40
0.0
 40
0.0
 40
0.0
 40
1.0
 40
1.0
 40
1.0
 10
1612.946277256779
 20
1007.066423338803
 30
0.0
 10
1616.413726445011
 20
1007.066423338803
 30
0.0
 10
1618.818570729069
 20
1010.403379362973
 30
0.0
  0
LINE
  5
C1
330
70
100
AcDbEntity
  8

100
AcDbLine
 10
1620.887855168156
 20
1014.765653532895
 30
0.0
 11
1621.596257801823
 21
1016.98407546893
 31
0.0
  0
SPLINE
  5
C2
330
70
100
AcDbEntity
  8

100
AcDbSpline
210
0.0
220
0.0
230
1.0
 70
     8
 71
     2
 72
     6
 73
     3
 74
     0
 42
0.000000001
 43
0.0000000001
 40
0.0
 40
0.0
 40
0.0
 40
1.0
 40
1.0
 40
1.0
 10
1621.987744923405
 20
1017.263708037289
 30
0.0
 10
1622.43515741425
 20
1017.263708037289
 30
0.0
 10
1622.43515741425
 20
1016.928148192319
 30
0.0
  0
SPLINE
  5
C3
330
70
100
AcDbEntity
  8

100
AcDbSpline
210
0.0
220
0.0
230
1.0
 70
     8
 71
     2
 72
     6
 73
     3
 74
     0
 42
0.000000001
 43
0.0000000001
 40
0.0
 40
0.0
 40
0.0
 40
0.4445475867597751
 40
0.4445475867597751
 40
0.4445475867597751
 10
1601.127121325306
 20
1005.761468809994
 30
0.0
 10
1600.555294489965
 20
1005.761468809994
 30
0.0
 10
1600.077412677195
 20
1005.897781362904
 30
0.0
  0
SPLINE
  5
C4
330
70
100
AcDbEntity
  8

100
AcDbSpline
210
0.0
220
0.0
230
1.0
 70
     8
 71
     2
 72
     6
 73
     3
 74
     0
 42
0.000000001
 43
0.0000000001
 40
0.465078650827119
 40
0.465078650827119
 40
0.465078650827119
 40
1.0
 40
1.0
 40
1.0
 10
1598.450979710387
 20
1007.145237556848
 30
0.0
 10
1598.218937869839
 20
1007.574497424396
 30
0.0
 10
1598.218937869839
 20
1008.073102873715
 30
0.0
  0
SPLINE
  5
C5
330
70
100
AcDbEntity
  8

100
AcDbSpline
210
0.0
220
0.0
230
1.0
 70
     8
 71
     2
 72
     6
 73
     3
 74
     0
 42
0.000000001
 43
0.0000000001
 40
0.0
 40
0.0
 40
0.0
 40
1.0
 40
1.0
 40
1.0
 10
1618.818570729069
 20
1010.403379362973
 30
0.0
 10
1619.993028279118
 20
1012.006608885678
 30
0.0
 10
1620.887855168156
 20
1014.765653532895
 30
0.0
  0
ARC
  5
C6
330
70
100
AcDbEntity
  8

100
AcDbCircle
 10
1609.935875761682
 20
1020.4352413429
 30
0.0
 40
17.56493777535137
100
AcDbArc
 50
220.8614368775323
 51
229.16722337076
  0
ARC
  5
C7
330
70
100
AcDbEntity
  8

100
AcDbCircle
 10
1610.260908863985
 20
1021.046481484496
 30
0.0
 40
17.08596639230239
100
AcDbArc
 50
56.17554064114221
 51
58.45713629289868
  0
SPLINE
  5
C8
330
70
100
AcDbEntity
  8

100
AcDbSpline
210
0.0
220
0.0
230
1.0
 70
     8
 71
     2
 72
     6
 73
     3
 74
     0
 42
0.000000001
 43
0.0000000001
 40
0.0
 40
0.0
 40
0.0
 40
1.0
 40
1.0
 40
1.0
 10
1609.460185643009
 20
1007.83075515643
 30
0.0
 10
1611.287121411137
 20
1007.066423338803
 30
0.0
 10
1612.946277256779
 20
1007.066423338803
 30
0.0
  0
SPLINE
  5
C9
330
70
100
AcDbEntity
  8

100
AcDbSpline
210
0.0
220
0.0
230
1.0
 70
     8
 71
     2
 72
     6
 73
     3
 74
     0
 42
0.000000001
 43
0.0000000001
 40
0.0
 40
0.0
 40
0.0
 40
1.0
 40
1.0
 40
1.0
 10
1621.708112355046
 20
1014.52330581561
 30
0.0
 10
1620.776002522282
 20
1011.689691466244
 30
0.0
 10
1619.638827915959
 20
1009.993249815854
 30
0.0
  0
ARC
  5
CA
330
70
100
AcDbEntity
  8

100
AcDbCircle
 10
1609.935875761682
 20
1020.4352413429
 30
0.0
 40
17.5649377185968
100
AcDbArc
 50
235.8571534504596
 51
242.0868427663066
  0
SPLINE
  5
CB
330
70
100
AcDbEntity
  8

100
AcDbSpline
210
0.0
220
0.0
230
1.0
 70
     8
 71
     2
 72
     6
 73
     3
 74
     0
 42
0.000000001
 43
0.0000000001
 40
0.0
 40
0.0
 40
0.0
 40
0.2505168633116588
 40
0.2505168633116588
 40
0.2505168633116588
 10
1616.2832313736
 20
1036.744811934384
 30
0.0
 10
1616.759590320672
 20
1036.744811934384
 30
0.0
 10
1617.187980917119
 20
1036.665254634897
 30
0.0
  0
ARC
  5
CC
330
70
100
AcDbEntity
  8

100
AcDbCircle
 10
1613.22138454154
 20
1041.492478927929
 30
0.0
 40
1.30310203852796
100
AcDbArc
 50
78.52939911898745
 51
89.96004518303202
  0
ARC
  5
CD
330
70
100
AcDbEntity
  8

100
AcDbCircle
 10
1606.615162367969
 20
1042.135281913929
 30
0.0
 40
0.6364484838750253
100
AcDbArc
 50
119.1781809026471
 51
138.3578474945267
  0
ARC
  5
CE
330
70
100
AcDbEntity
  8

100
AcDbCircle
 10
-1605.207312902936
 20
1038.874495095795
 30
0.0
 40
0.0180791468511057
210
0.0
220
0.0
230
-1.0
100
AcDbArc
 50
192.1353237991009
 51
232.6441317925063
  0
ARC
  5
CF
330
70
100
AcDbEntity
  8

100
AcDbCircle
 10
1610.541728946087
 20
1043.0634110179
 30
0.0
 40
4.537833170086243
100
AcDbArc
 50
112.8965199753221
 51
115.7382449972607
  0
ARC
  5
D0
330
70
100
AcDbEntity
  8

100
AcDbCircle
 10
1608.875203597694
 20
1023.853429988939
 30
0.0
 40
15.42898270036921
100
AcDbArc
 50
105.842246034812
 51
111.4648130923093
  0
ARC
  5
D1
330
70
100
AcDbEntity
  8

100
AcDbCircle
 10
-1606.945254044735
 20
1043.020367951926
 30
0.0
 40
0.2219416307557454
210
0.0
220
0.0
230
-1.0
100
AcDbArc
 50
249.2342101475146
 51
268.1170780374658
  0
ARC
  5
D2
330
70
100
AcDbEntity
  8

100
AcDbCircle
 10
1640.730974537897
 20
1033.433391017283
 30
0.0
 40
35.86124803051092
100
AcDbArc
 50
166.6065019234499
 51
167.5541687154797
  0
ARC
  5
D3
330
70
100
AcDbEntity
  8

100
AcDbCircle
 10
-1470.078768506007
 20
1068.398980838964
 30
0.0
 40
138.3336388659611
210
0.0
220
0.0
230
-1.0
100
AcDbArc
 50
191.8956110965816
 51
192.1215855777606
  0
ARC
  5
D4
330
70
100
AcDbEntity
  8

100
AcDbCircle
 10
-1341.330580135049
 20
1095.520085986813
 30
0.0
 40
269.9073837896356
210
0.0
220
0.0
230
-1.0
100
AcDbArc
 50
191.7585401687763
 51
191.8955916570619
  0
ARC
  5
D5
330
70
100
AcDbEntity
  8

100
AcDbCircle
 10
1613.740342860267
 20
1033.181433205672
 30
0.0
 40
5.747899350211471
100
AcDbArc
 50
72.00250568241651
 51
76.66986207625519
  0
ARC
  5
D6
330
70
100
AcDbEntity
  8

100
AcDbCircle
 10
1613.761665127514
 20
1038.854791564031
 30
0.0
 40
1.002514847210291
100
AcDbArc
 50
359.9999903566875
 51
12.44407823561592
  0
ARC
  5
D7
330
70
100
AcDbEntity
  8

100
AcDbCircle
 10
-1613.052879110137
 20
1043.020367951926
 30
0.0
 40
0.2219416307557561
210
0.0
220
0.0
230
-1.0
100
AcDbArc
 50
271.8829219625342
 51
290.7657898524646
  0
ARC
  5
D8
330
70
100
AcDbEntity
  8

100
AcDbCircle
 10
1609.935875761682
 20
1020.4352413429
 30
0.0
 40
18.83493777535135
100
AcDbArc
 50
220.8614378863997
 51
242.0868427663064
  0
ARC
  5
D9
330
70
100
AcDbEntity
  8

100
AcDbCircle
 10
-1606.947207729967
 20
1042.856881917006
 30
0.0
 40
0.1020657778191704
210
0.0
220
0.0
230
-1.0
100
AcDbArc
 50
157.3031684371384
 51
187.3064355128999
  0
ARC
  5
DA
330
70
100
AcDbEntity
  8

100
AcDbCircle
 10
-1616.348510908742
 20
1044.440618674282
 30
0.0
 40
5.808977347953035
210
0.0
220
0.0
230
-1.0
100
AcDbArc
 50
283.9305939569491
 51
284.9215755833144
  0
ARC
  5
DB
330
70
100
AcDbEntity
  8

100
AcDbCircle
 10
1613.297023632714
 20
1042.054943664242
 30
0.0
 40
0.7548184056739426
100
AcDbArc
 50
25.3857811839494
 51
42.13348551604883
  0
ARC
  5
DC
330
70
100
AcDbEntity
  8

100
AcDbCircle
 10
394.856567337908
 20
1468.942356163015
 30
0.0
 40
2045.797610319991
210
0.0
220
0.0
230
-1.0
100
AcDbArc
 50
192.1216112362028
 51
192.1353622233048
  0
ARC
  5
DD
330
70
100
AcDbEntity
  8

100
AcDbCircle
 10
1606.732541793058
 20
1042.030913239317
 30
0.0
 40
0.7935177350808789
100
AcDbArc
 50
138.3578574154372
 51
154.6142284857279
  0
ARC
  5
DE
330
70
100
AcDbEntity
  8

100
AcDbCircle
 10
1609.97666765096
 20
1044.235517303251
 30
0.0
 40
3.236630875510611
100
AcDbArc
 50
115.7382333845007
 51
137.6978019143312
  0
ARC
  5
DF
330
70
100
AcDbEntity
  8

100
AcDbCircle
 10
-1589.833277721739
 20
1090.957531176464
 30
0.0
 40
54.32455009369355
210
0.0
220
0.0
230
-1.0
100
AcDbArc
 50
253.928872959203
 51
254.157826817991
  0
ARC
  5
E0
330
70
100
AcDbEntity
  8

100
AcDbCircle
 10
1609.953425495924
 20
1020.514090121358
 30
0.0
 40
18.89499705858122
100
AcDbArc
 50
149.3734728563856
 51
173.2432980137142
  0
ARC
  5
E1
330
70
100
AcDbEntity
  8

100
AcDbCircle
 10
1613.383890778685
 20
1042.133526862829
 30
0.0
 40
0.6376807936567302
100
AcDbArc
 50
42.13345596773335
 51
61.13855622195217
  0
ARC
  5
E2
330
70
100
AcDbEntity
  8

100
AcDbCircle
 10
1610.006920214212
 20
1044.222637132079
 30
0.0
 40
3.251392026065463
100
AcDbArc
 50
16.03847747365368
 51
37.41543074901362
  0
ARC
  5
E3
330
70
100
AcDbEntity
  8

100
AcDbCircle
 10
1613.108522790443
 20
1041.965494779142
 30
0.0
 40
0.9634656452494334
100
AcDbArc
 50
12.6784375928982
 51
25.38575025239282
  0
ARC
  5
E4
330
70
100
AcDbEntity
  8

100
AcDbCircle
 10
1609.211989389209
 20
1044.342831784338
 30
0.0
 40
4.022313715642924
100
AcDbArc
 50
347.0081805022311
 51
355.5023989708594
  0
ARC
  5
E5
330
70
100
AcDbEntity
  8

100
AcDbCircle
 10
846.6679977936136
 20
869.5447594922661
 30
0.0
 40
786.5587738760722
100
AcDbArc
 50
12.56239737912641
 51
12.67836402699602
  0
ARC
  5
E6
330
70
100
AcDbEntity
  8

100
AcDbCircle
 10
1610.371470543548
 20
1044.289052419739
 30
0.0
 40
3.609630352708658
100
AcDbArc
 50
182.3418885286623
 51
202.6967265569565
  0
ARC
  5
E7
330
70
100
AcDbEntity
  8

100
AcDbCircle
 10
1613.332570236976
 20
1042.040412557137
 30
0.0
 40
0.7440014027854947
100
AcDbArc
 50
61.13852874112087
 51
78.52940642085567
  0
ARC
  5
E8
330
70
100
AcDbEntity
  8

100
AcDbCircle
 10
1609.700753298368
 20
1020.210503314029
 30
0.0
 40
19.36226344545737
100
AcDbArc
 50
45.97583904439032
 51
56.17554064114131
  0
ARC
  5
E9
330
70
100
AcDbEntity
  8

100
AcDbCircle
 10
-1606.772010996405
 20
1048.289947915806
 30
0.0
 40
5.494368600332237
210
0.0
220
0.0
230
-1.0
100
AcDbArc
 50
268.1170208917182
 51
269.9600717954273
  0
ARC
  5
EA
330
70
100
AcDbEntity
  8

100
AcDbCircle
 10
1606.56942851341
 20
1011.186281309271
 30
0.0
 40
28.88276895251641
100
AcDbArc
 50
69.06517095525757
 51
70.55713197753019
  0
ARC
  5
EB
330
70
100
AcDbEntity
  8

100
AcDbCircle
 10
1651.572018614118
 20
1030.851948749645
 30
0.0
 40
47.0053981031943
100
AcDbArc
 50
165.9995774807874
 51
166.6064529589418
  0
ARC
  5
EC
330
70
100
AcDbEntity
  8

100
AcDbCircle
 10
1606.662574470845
 20
1042.050371457439
 30
0.0
 40
0.7336991554420099
100
AcDbArc
 50
101.5131835827417
 51
119.1781589973203
  0
ARC
  5
ED
330
70
100
AcDbEntity
  8

100
AcDbCircle
 10
1609.996480914685
 20
1020.514803765048
 30
0.0
 40
18.93753128308352
100
AcDbArc
 50
325.4149988068371
 51
345.3559390292038
  0
ARC
  5
EE
330
70
100
AcDbEntity
  8

100
AcDbCircle
 10
1606.887612462243
 20
1012.087714883667
 30
0.0
 40
27.92682778591414
100
AcDbArc
 50
70.5570948218637
 51
72.00253358194799
  0
ARC
  5
EF
330
70
100
AcDbEntity
  8

100
AcDbCircle
 10
-1596.851623733893
 20
1066.595794793027
 30
0.0
 40
28.97200820215462
210
0.0
220
0.0
230
-1.0
100
AcDbArc
 50
253.56238954407
 51
253.9288530375111
  0
ARC
  5
F0
330
70
100
AcDbEntity
  8

100
AcDbCircle
 10
1610.044620941222
 20
1020.427811238108
 30
0.0
 40
18.84074484439437
100
AcDbArc
 50
284.2794290884652
 51
305.5002895004619
  0
ARC
  5
F1
330
70
100
AcDbEntity
  8

100
AcDbCircle
 10
1609.993328360885
 20
1044.273586563224
 30
0.0
 40
3.231172028681271
100
AcDbArc
 50
160.2244850568663
 51
182.3418675086711
  0
ARC
  5
F2
330
70
100
AcDbEntity
  8

100
AcDbCircle
 10
1609.974575732269
 20
1044.197890791531
 30
0.0
 40
3.292117286971989
100
AcDbArc
 50
37.41547651846357
 51
58.59384534619937
  0
ARC
  5
F3
330
70
100
AcDbEntity
  8

100
AcDbCircle
 10
-1605.196894515324
 20
1038.888143463627
 30
0.0
 40
0.0352494917778229
210
0.0
220
0.0
230
-1.0
100
AcDbArc
 50
232.6440408643641
 51
253.4981078509026
  0
ARC
  5
F4
330
70
100
AcDbEntity
  8

100
AcDbCircle
 10
-1613.226122158468
 20
1048.289947915805
 30
0.0
 40
5.494368600331241
210
0.0
220
0.0
230
-1.0
100
AcDbArc
 50
270.0399282045727
 51
271.8829791082821
  0
ARC
  5
F5
330
70
100
AcDbEntity
  8

100
AcDbCircle
 10
-1607.010312904433
 20
1042.848790792634
 30
0.0
 40
0.0384440100199841
210
0.0
220
0.0
230
-1.0
100
AcDbArc
 50
187.3064937110862
 51
249.2342270890623
  0
ARC
  5
F6
330
70
100
AcDbEntity
  8

100
AcDbCircle
 10
-1563.822448360891
 20
1178.548054066518
 30
0.0
 40
145.6949056227518
210
0.0
220
0.0
230
-1.0
100
AcDbArc
 50
253.4980026374331
 51
253.5624030919091
  0
ARC
  5
F7
330
70
100
AcDbEntity
  8

100
AcDbCircle
 10
862.3377352455252
 20
873.0372115342531
 30
0.0
 40
770.5045565899361
100
AcDbArc
 50
12.44409195025427
 51
12.56235042863195
  0
ARC
  5
F8
330
70
100
AcDbEntity
  8

100
AcDbCircle
 10
1609.969152202741
 20
1020.533623687682
 30
0.0
 40
18.97071332110051
100
AcDbArc
 50
305.5002714160735
 51
325.4150543457698
  0
ARC
  5
F9
330
70
100
AcDbEntity
  8

100
AcDbCircle
 10
-1610.099815111393
 20
1044.338386351725
 30
0.0
 40
0.5181412109145449
210
0.0
220
0.0
230
-1.0
100
AcDbArc
 50
131.0847110027272
 51
149.800487828604
  0
ARC
  5
FA
330
70
100
AcDbEntity
  8

100
AcDbCircle
 10
1610.007828556643
 20
1020.572460279359
 30
0.0
 40
18.98999974116353
100
AcDbArc
 50
263.1837084046211
 51
284.2793621561232
  0
ARC
  5
FB
330
70
100
AcDbEntity
  8

100
AcDbCircle
 10
-1617.681780206525
 20
1049.815779269207
 30
0.0
 40
11.34702379427634
210
0.0
220
0.0
230
-1.0
100
AcDbArc
 50
283.3301610592776
 51
283.9306194546513
  0
ARC
  5
FC
330
70
100
AcDbEntity
  8

100
AcDbCircle
 10
1610.727517574785
 20
1019.142589027244
 30
0.0
 40
20.49090818738355
100
AcDbArc
 50
111.4648274680407
 51
116.0100786019517
  0
ARC
  5
FD
330
70
100
AcDbEntity
  8

100
AcDbCircle
 10
1609.922568940493
 20
1020.517762184428
 30
0.0
 40
18.86392277985717
100
AcDbArc
 50
173.2433471453339
 51
197.1356159678428
  0
ARC
  5
FE
330
70
100
AcDbEntity
  8

100
AcDbCircle
 10
1659.476960156449
 20
1029.296096248194
 30
0.0
 40
55.05836200155602
100
AcDbArc
 50
167.5541688687301
 51
168.2414869792001
  0
ARC
  5
FF
330
70
100
AcDbEntity
  8

100
AcDbCircle
 10
1609.977306381123
 20
1020.519807621031
 30
0.0
 40
18.95734797485342
100
AcDbArc
 50
345.3559579922316
 51
5.285298088166454
  0
ARC
  5
100
330
70
100
AcDbEntity
  8

100
AcDbCircle
 10
1606.776751990797
 20
1041.489831949296
 30
0.0
 40
1.305749018873606
100
AcDbArc
 50
90.04002202348024
 51
101.5131898005593
  0
ARC
  5
101
330
70
100
AcDbEntity
  8

100
AcDbCircle
 10
-1622.193511360606
 20
1066.374444090983
 30
0.0
 40
28.50824446591515
210
0.0
220
0.0
230
-1.0
100
AcDbArc
 50
284.9216058865727
 51
285.0987644015584
  0
ARC
  5
102
330
70
100
AcDbEntity
  8

100
AcDbCircle
 10
1609.85006600064
 20
1044.19561647488
 30
0.0
 40
3.367474720626473
100
AcDbArc
 50
337.3032621312578
 51
347.0081750553867
  0
ARC
  5
103
330
70
100
AcDbEntity
  8

100
AcDbCircle
 10
1610.091445132695
 20
1020.569822729111
 30
0.0
 40
19.04064139391621
100
AcDbArc
 50
197.1355944326386
 51
220.8614518396965
  0
ARC
  5
104
330
70
100
AcDbEntity
  8

100
AcDbCircle
 10
-1614.768775864539
 20
1038.854791386721
 30
0.0
 40
0.0045958898153423
210
0.0
220
0.0
230
-1.0
100
AcDbArc
 50
285.0988160981564
 51
0.0001069639816352
  0
ARC
  5
105
330
70
100
AcDbEntity
  8

100
AcDbCircle
 10
-1613.050925424905
 20
1042.856881917006
 30
0.0
 40
0.1020657778191374
210
0.0
220
0.0
230
-1.0
100
AcDbArc
 50
352.6935644871
 51
22.69683156279306
  0
ARC
  5
106
330
70
100
AcDbEntity
  8

100
AcDbCircle
 10
-1612.98782025044
 20
1042.848790792634
 30
0.0
 40
0.0384440100199959
210
0.0
220
0.0
230
-1.0
100
AcDbArc
 50
290.7657729108175
 51
352.6935062889138
  0
ARC
  5
107
330
70
100
AcDbEntity
  8

100
AcDbCircle
 10
-1610.075022730618
 20
1044.323957776659
 30
0.0
 40
0.5468265019639908
210
0.0
220
0.0
230
-1.0
100
AcDbArc
 50
149.8005469200661
 51
167.9361318902876
  0
ARC
  5
108
330
70
100
AcDbEntity
  8

100
AcDbCircle
 10
-1609.991877430398
 20
1044.225847073805
 30
0.0
 40
0.6272230273618148
210
0.0
220
0.0
230
-1.0
100
AcDbArc
 50
242.7408517428615
 51
274.6156968725706
  0
ARC
  5
109
330
70
100
AcDbEntity
  8

100
AcDbCircle
 10
1609.704958471463
 20
1020.214873801159
 30
0.0
 40
19.35619842663106
100
AcDbArc
 50
35.77449607100256
 51
45.97579877364562
  0
ARC
  5
10A
330
70
100
AcDbEntity
  8

100
AcDbCircle
 10
1609.409219740977
 20
1044.327317349533
 30
0.0
 40
3.824474110544214
100
AcDbArc
 50
355.502404625755
 51
4.193214783616231
  0
ARC
  5
10B
330
70
100
AcDbEntity
  8

100
AcDbCircle
 10
1610.895498299829
 20
1018.798263768807
 30
0.0
 40
20.87402358347908
100
AcDbArc
 50
116.0099974242974
 51
120.5174480920937
  0
ARC
  5
10C
330
70
100
AcDbEntity
  8

100
AcDbCircle
 10
1609.960993644708
 20
1044.175649817404
 30
0.0
 40
3.318177487023194
100
AcDbArc
 50
58.59380320437701
 51
79.67923080771983
  0
ARC
  5
10D
330
70
100
AcDbEntity
  8

100
AcDbCircle
 10
1610.165929077126
 20
1020.388253963898
 30
0.0
 40
19.14196367561817
100
AcDbArc
 50
125.7348373018532
 51
149.3733980163279
  0
ARC
  5
10E
330
70
100
AcDbEntity
  8

100
AcDbCircle
 10
-1609.688079904424
 20
1044.241260255255
 30
0.0
 40
0.9425077256642229
210
0.0
220
0.0
230
-1.0
100
AcDbArc
 50
167.9361698448656
 51
179.9999863071668
  0
ARC
  5
10F
330
70
100
AcDbEntity
  8

100
AcDbCircle
 10
1609.896625094226
 20
1044.308354530496
 30
0.0
 40
3.12840854620634
100
AcDbArc
 50
137.6977814756034
 51
160.2244734050323
  0
ARC
  5
110
330
70
100
AcDbEntity
  8

100
AcDbCircle
 10
-1609.964997526611
 20
1044.256787731848
 30
0.0
 40
0.6142630537008789
210
0.0
220
0.0
230
-1.0
100
AcDbArc
 50
332.4667744173073
 51
1.186829139941052
  0
ARC
  5
111
330
70
100
AcDbEntity
  8

100
AcDbCircle
 10
1610.538408800642
 20
1020.815448505566
 30
0.0
 40
18.32890614790837
100
AcDbArc
 50
25.14724591178555
 51
35.77440690983489
  0
ARC
  5
112
330
70
100
AcDbEntity
  8

100
AcDbCircle
 10
1610.700357381427
 20
1044.421980082927
 30
0.0
 40
2.529870912773616
100
AcDbArc
 50
4.193186836346823
 51
16.03849984653402
  0
ARC
  5
113
330
70
100
AcDbEntity
  8

100
AcDbCircle
 10
1606.727548692977
 20
1042.033281954398
 30
0.0
 40
0.7879912661178058
100
AcDbArc
 50
154.6141848802108
 51
165.9995650294812
  0
ARC
  5
114
330
70
100
AcDbEntity
  8

100
AcDbCircle
 10
1609.554119338747
 20
1046.291270131741
 30
0.0
 40
1.165489571541177
100
AcDbArc
 50
100.644312156673
 51
107.8966820196961
  0
ARC
  5
115
330
70
100
AcDbEntity
  8

100
AcDbCircle
 10
1609.956439373927
 20
1044.15066541461
 30
0.0
 40
3.343573584086301
100
AcDbArc
 50
79.67915529811889
 51
100.6443625466259
  0
ARC
  5
116
330
70
100
AcDbEntity
  8

100
AcDbCircle
 10
1609.891629400173
 20
1020.511856675017
 30
0.0
 40
19.04339309083947
100
AcDbArc
 50
5.285373303031389
 51
25.14715768937455
  0
ARC
  5
117
330
70
100
AcDbEntity
  8

100
AcDbCircle
 10
1610.886574748617
 20
1042.246895499835
 30
0.0
 40
5.424183111555302
100
AcDbArc
 50
110.4106154926444
 51
112.8964672842591
  0
ARC
  5
118
330
70
100
AcDbEntity
  8

100
AcDbCircle
 10
1610.26078702685
 20
1021.046314709653
 30
0.0
 40
18.35617276066973
100
AcDbArc
 50
56.17551448261133
 51
66.79169830303348
  0
ARC
  5
119
330
70
100
AcDbEntity
  8

100
AcDbCircle
 10
1610.007637979833
 20
1020.570717217626
 30
0.0
 40
18.98824638088944
100
AcDbArc
 50
242.0868651686181
 51
263.183655153604
  0
ARC
  5
11A
330
70
100
AcDbEntity
  8

100
AcDbCircle
 10
1611.009318734744
 20
1022.792072574989
 30
0.0
 40
16.45670698258729
100
AcDbArc
 50
66.79169670439569
 51
69.06511866433989
  0
ARC
  5
11B
330
70
100
AcDbEntity
  8

100
AcDbCircle
 10
1609.017002543203
 20
1021.985075009673
 30
0.0
 40
17.17476525343295
100
AcDbArc
 50
120.5174105993803
 51
125.7347795299903
  0
ARC
  5
11C
330
70
100
AcDbEntity
  8

100
AcDbCircle
 10
1610.686632089781
 20
1042.784223005599
 30
0.0
 40
4.850861286336564
100
AcDbArc
 50
107.8965883754465
 51
110.4106263365163
  0
ARC
  5
11D
330
70
100
AcDbEntity
  8

100
AcDbCircle
 10
1609.953425495924
 20
1020.514090121358
 30
0.0
 40
17.62499705774838
100
AcDbArc
 50
149.3710229956145
 51
173.230695033074
  0
ARC
  5
11E
330
70
100
AcDbEntity
  8

100
AcDbCircle
 10
1609.922568940493
 20
1020.517762184428
 30
0.0
 40
17.59392277704622
100
AcDbArc
 50
173.2307254519028
 51
197.1356159678431
  0
ARC
  5
11F
330
70
100
AcDbEntity
  8

100
AcDbCircle
 10
-1609.925983802914
 20
1044.139011515225
 30
0.0
 40
0.782655197759115
210
0.0
220
0.0
230
-1.0
100
AcDbArc
 50
117.3444375014803
 51
131.0846679682025
  0
ARC
  5
120
330
70
100
AcDbEntity
  8

100
AcDbCircle
 10
1610.091445132695
 20
1020.569822729111
 30
0.0
 40
17.77064139391611
100
AcDbArc
 50
197.1355928935998
 51
220.8614518396969
  0
ARC
  5
121
330
70
100
AcDbEntity
  8

100
AcDbCircle
 10
1589.833277721739
 20
1090.957531176464
 30
0.0
 40
55.59455009369368
100
AcDbArc
 50
285.8421980790828
 51
286.0711274958898
  0
ARC
  5
122
330
70
100
AcDbEntity
  8

100
AcDbCircle
 10
1610.895498299829
 20
1018.798263768807
 30
0.0
 40
19.60402358422612
100
AcDbArc
 50
116.0031505192429
 51
120.5174480920929
  0
ARC
  5
123
330
70
100
AcDbEntity
  8

100
AcDbCircle
 10
1610.007828556643
 20
1020.572460279359
 30
0.0
 40
17.71999964757682
100
AcDbArc
 50
264.5867833879616
 51
284.266036345055
  0
ARC
  5
124
330
70
100
AcDbEntity
  8

100
AcDbCircle
 10
1609.977306381123
 20
1020.519807621031
 30
0.0
 40
17.68734797485354
100
AcDbArc
 50
345.3559593538288
 51
5.311556620034305
  0
ARC
  5
125
330
70
100
AcDbEntity
  8

100
AcDbCircle
 10
1610.044620941222
 20
1020.427811238108
 30
0.0
 40
17.57074484330398
100
AcDbArc
 50
284.2659949189579
 51
305.5002895004627
  0
ARC
  5
126
330
70
100
AcDbEntity
  8

100
AcDbCircle
 10
1609.891629400173
 20
1020.511856675017
 30
0.0
 40
17.77339309324952
100
AcDbArc
 50
5.311510085743057
 51
25.14619914596667
  0
ARC
  5
127
330
70
100
AcDbEntity
  8

100
AcDbCircle
 10
1608.875203597694
 20
1023.853429988939
 30
0.0
 40
14.15898270036251
100
AcDbArc
 50
105.8421548122708
 51
111.4648130923085
  0
ARC
  5
128
330
70
100
AcDbEntity
  8

100
AcDbCircle
 10
1470.078768506007
 20
1068.398980838964
 30
0.0
 40
139.6036388659613
100
AcDbArc
 50
347.8784144222392
 51
348.1043890802702
  0
ARC
  5
129
330
70
100
AcDbEntity
  8

100
AcDbCircle
 10
-1609.988498638572
 20
1044.18398817901
 30
0.0
 40
0.5852279882830958
210
0.0
220
0.0
230
-1.0
100
AcDbArc
 50
274.6157590469617
 51
308.1885849750916
  0
ARC
  5
12A
330
70
100
AcDbEntity
  8

100
AcDbCircle
 10
-1609.998248701461
 20
1044.451595459378
 30
0.0
 40
0.4632516160986132
210
0.0
220
0.0
230
-1.0
100
AcDbArc
 50
85.91409973995313
 51
105.0464285039073
  0
ARC
  5
12B
330
70
100
AcDbEntity
  8

100
AcDbCircle
 10
1610.727517574785
 20
1019.142589027244
 30
0.0
 40
19.22090818738348
100
AcDbArc
 50
111.4648284179006
 51
116.0031005865932
  0
ARC
  5
12C
330
70
100
AcDbEntity
  8

100
AcDbCircle
 10
-1609.947171623805
 20
1044.25715729525
 30
0.0
 40
0.5964333204472198
210
0.0
220
0.0
230
-1.0
100
AcDbArc
 50
1.186803835028625
 51
30.41454806667797
  0
ARC
  5
12D
330
70
100
AcDbEntity
  8

100
AcDbCircle
 10
1659.476960156449
 20
1029.296096248194
 30
0.0
 40
53.78836200155968
100
AcDbArc
 50
167.6181938918479
 51
168.2414869792011
  0
ARC
  5
12E
330
70
100
AcDbEntity
  8

100
AcDbCircle
 10
1341.330580135049
 20
1095.520085986813
 30
0.0
 40
271.1773837896357
100
AcDbArc
 50
348.1044083429433
 51
348.2414599583609
  0
ARC
  5
12F
330
70
100
AcDbEntity
  8

100
AcDbCircle
 10
-1609.991036963245
 20
1044.241261037127
 30
0.0
 40
0.6395506668446006
210
0.0
220
0.0
230
-1.0
100
AcDbArc
 50
180.0000498668015
 51
211.5925246925621
  0
ARC
  5
130
330
70
100
AcDbEntity
  8

100
AcDbCircle
 10
1596.851623733893
 20
1066.595794793027
 30
0.0
 40
30.2420082021546
100
AcDbArc
 50
286.0711469624916
 51
286.4376098870044
  0
ARC
  5
131
330
70
100
AcDbEntity
  8

100
AcDbCircle
 10
-1609.901487267503
 20
1044.091640396405
 30
0.0
 40
0.8359853313181368
210
0.0
220
0.0
230
-1.0
100
AcDbArc
 50
105.0463671630873
 51
117.3444333307229
  0
ARC
  5
132
330
70
100
AcDbEntity
  8

100
AcDbCircle
 10
-1610.101899304394
 20
1044.328154291747
 30
0.0
 40
0.7686498492217448
210
0.0
220
0.0
230
-1.0
100
AcDbArc
 50
308.1885628796481
 51
332.4668357297442
  0
ARC
  5
133
330
70
100
AcDbEntity
  8

100
AcDbCircle
 10
1610.007637979833
 20
1020.570717217626
 30
0.0
 40
17.71824638088943
100
AcDbArc
 50
242.0868667743599
 51
264.5868651686183
  0
ARC
  5
134
330
70
100
AcDbEntity
  8

100
AcDbCircle
 10
1609.969152202741
 20
1020.533623687682
 30
0.0
 40
17.70071332110062
100
AcDbArc
 50
305.5002701185462
 51
325.4650506740547
  0
ARC
  5
135
330
70
100
AcDbEntity
  8

100
AcDbCircle
 10
1609.996480914685
 20
1020.514803765048
 30
0.0
 40
17.66753127969244
100
AcDbArc
 50
325.4650850427486
 51
345.3559390292038
  0
ARC
  5
136
330
70
100
AcDbEntity
  8

100
AcDbCircle
 10
-1609.999623718462
 20
1044.432348116419
 30
0.0
 40
0.4825480116880622
210
0.0
220
0.0
230
-1.0
100
AcDbArc
 50
67.24202080119082
 51
85.91408658498222
  0
ARC
  5
137
330
70
100
AcDbEntity
  8

100
AcDbCircle
 10
-1610.183460665587
 20
1043.994118007918
 30
0.0
 40
0.957776010784131
210
0.0
220
0.0
230
-1.0
100
AcDbArc
 50
56.06194612730712
 51
67.24201824221978
  0
ARC
  5
138
330
70
100
AcDbEntity
  8

100
AcDbCircle
 10
1605.207312902936
 20
1038.874495095795
 30
0.0
 40
1.288079146851013
100
AcDbArc
 50
307.3559578596161
 51
347.8646383295228
  0
ARC
  5
139
330
70
100
AcDbEntity
  8

100
AcDbCircle
 10
-1610.045158989454
 20
1044.199635784026
 30
0.0
 40
0.7100565930633714
210
0.0
220
0.0
230
-1.0
100
AcDbArc
 50
30.41449351538613
 51
56.06202917216855
  0
ARC
  5
13A
330
70
100
AcDbEntity
  8

100
AcDbCircle
 10
1605.196894515324
 20
1038.888143463627
 30
0.0
 40
1.305249491777954
100
AcDbArc
 50
286.5019946798798
 51
307.3559591358651
  0
ARC
  5
13B
330
70
100
AcDbEntity
  8

100
AcDbCircle
 10
1610.165929077126
 20
1020.388253963898
 30
0.0
 40
17.87196367567482
100
AcDbArc
 50
125.735051815008
 51
149.3709766911426
  0
ARC
  5
13C
330
70
100
AcDbEntity
  8

100
AcDbCircle
 10
-1609.980640585347
 20
1044.247655499222
 30
0.0
 40
0.6517561499869524
210
0.0
220
0.0
230
-1.0
100
AcDbArc
 50
211.5925574423132
 51
242.7408234707131
  0
ARC
  5
13D
330
70
100
AcDbEntity
  8

100
AcDbCircle
 10
-394.856567337908
 20
1468.942356163015
 30
0.0
 40
2047.067610319991
100
AcDbArc
 50
347.8646377767217
 51
347.8783887797264
  0
ARC
  5
13E
330
70
100
AcDbEntity
  8

100
AcDbCircle
 10
1563.822448360891
 20
1178.548054066518
 30
0.0
 40
146.9649056227518
100
AcDbArc
 50
286.4375969080967
 51
286.5019973639648
  0
ARC
  5
13F
330
70
100
AcDbEntity
  8

100
AcDbCircle
 10
1609.017002543203
 20
1021.985075009673
 30
0.0
 40
15.90476525343324
100
AcDbArc
 50
120.5174076055764
 51
125.7350159623417
  0
ENDSEC
  0
SECTION
  2
OBJECTS
  0
DICTIONARY
  5
C
330
0
100
AcDbDictionary
281
     1
  3
ACAD_COLOR
350
63
  3
ACAD_DETAILVIEWSTYLE
350
6A
  3
ACAD_GROUP
350
D
  3
ACAD_LAYOUT
350
62
  3
ACAD_MATERIAL
350
10
  3
ACAD_MLEADERSTYLE
350
66
  3
ACAD_MLINESTYLE
350
5F
  3
ACAD_PLOTSETTINGS
350
61
  3
ACAD_PLOTSTYLENAME
350
E
  3
ACAD_SCALELIST
350
42
  3
ACAD_SECTIONVIEWSTYLE
350
68
  3
ACAD_TABLESTYLE
350
64
  3
ACAD_VISUALSTYLE
350
29
  3
ACDB_RECOMPOSE_DATA
350
148
  3
AcDbVariableDictionary
350
140
  0
DICTIONARY
  5
63
102
{ACAD_REACTORS
330
C
102
}
330
C
100
AcDbDictionary
281
     1
  0
DICTIONARY
  5
6A
102
{ACAD_REACTORS
330
C
102
}
330
C
100
AcDbDictionary
281
     1
  3
Imperial24
350
6B
  0
DICTIONARY
  5
D
102
{ACAD_REACTORS
330
C
102
}
330
C
100
AcDbDictionary
281
     1
  0
DICTIONARY
  5
62
102
{ACAD_REACTORS
330
C
102
}
330
C
100
AcDbDictionary
281
     1
  3
Layout1
350
6F
  3
Layout2
350
77
  3
Model
350
73
  0
DICTIONARY
  5
10
102
{ACAD_REACTORS
330
C
102
}
330
C
100
AcDbDictionary
281
     1
  3
ByBlock
350
19
  3
ByLayer
350
11
  3
Global
350
21
  0
DICTIONARY
  5
66
102
{ACAD_REACTORS
330
C
102
}
330
C
100
AcDbDictionary
281
     1
  3
Standard
350
67
  0
DICTIONARY
  5
5F
102
{ACAD_REACTORS
330
C
102
}
330
C
100
AcDbDictionary
281
     1
  3
Standard
350
60
  0
DICTIONARY
  5
61
102
{ACAD_REACTORS
330
C
102
}
330
C
100
AcDbDictionary
281
     1
  0
ACDBDICTIONARYWDFLT
  5
E
102
{ACAD_REACTORS
330
C
102
}
330
C
100
AcDbDictionary
281
     1
  3
Normal
350
F
100
AcDbDictionaryWithDefault
340
F
  0
DICTIONARY
  5
42
102
{ACAD_REACTORS
330
C
102
}
330
C
100
AcDbDictionary
281
     1
  3
A0
350
43
  3
A1
350
44
  3
A2
350
45
  3
A3
350
46
  3
A4
350
47
  3
A5
350
48
  3
A6
350
49
  3
A7
350
4A
  3
A8
350
4B
  3
A9
350
4C
  3
B0
350
4D
  3
B1
350
4E
  3
B2
350
4F
  3
B3
350
50
  3
B4
350
51
  3
B5
350
52
  3
B6
350
53
  0
DICTIONARY
  5
68
102
{ACAD_REACTORS
330
C
102
}
330
C
100
AcDbDictionary
281
     1
  3
Imperial24
350
69
  0
DICTIONARY
  5
64
102
{ACAD_REACTORS
330
C
102
}
330
C
100
AcDbDictionary
281
     1
  3
Standard
350
65
  0
DICTIONARY
  5
29
102
{ACAD_REACTORS
330
C
102
}
330
C
100
AcDbDictionary
281
     1
  3
2dWireframe
350
2F
  3
Basic
350
2E
  3
Brighten
350
35
  3
ColorChange
350
39
  3
Conceptual
350
32
  3
Dim
350
34
  3
EdgeColorOff
350
41
  3
Facepattern
350
38
  3
Flat
350
2A
  3
FlatWithEdges
350
2B
  3
Gouraud
350
2C
  3
GouraudWithEdges
350
2D
  3
Hidden
350
31
  3
JitterOff
350
3F
  3
Linepattern
350
37
  3
OverhangOff
350
40
  3
Realistic
350
33
  3
Shaded
350
3E
  3
Shaded with edges
350
3D
  3
Shades of Gray
350
3A
  3
Sketchy
350
3B
  3
Thicken
350
36
  3
Wireframe
350
30
  3
X-Ray
350
3C
  0
XRECORD
  5
148
102
{ACAD_REACTORS
330
C
102
}
330
C
100
AcDbXrecord
280
     1
 90
        1
330
65
  0
DICTIONARY
  5
140
102
{ACAD_REACTORS
330
C
102
}
330
C
100
AcDbDictionary
281
     1
  3
CANNOSCALE
350
145
  3
CMLEADERSTYLE
350
142
  3
CTABLESTYLE
350
141
  3
CVIEWDETAILSTYLE
350
143
  3
CVIEWSECTIONSTYLE
350
144
  0
ACDBDETAILVIEWSTYLE
  5
6B
102
{ACAD_XDICTIONARY
360
14B
102
}
102
{ACAD_REACTORS
330
6A
102
}
330
6A
100
AcDbModelDocViewStyle
 70
     0
  3
Imperial24
290
     0
100
AcDbDetailViewStyle
 70
     0
 71
     0
 90
        3
 71
     1
340
55
 62
   256
 40
0.24
340
0
 62
   256
 40
0.24
300

 40
0.36
280
     3
 71
     2
340
5D
 90
       25
 62
   256
 71
     3
340
55
 62
   256
 40
0.24
 90
        1
 40
0.75
 90
        1
300
%<\AcVar ViewType \f "%tc1">% %<\AcVar ViewDetailId>%\PSCALE %<\AcVar ViewScale \f "%sn">%
 71
     4
340
5D
 90
       25
 62
   256
340
5D
 90
       25
 62
   256
280
     0
  0
LAYOUT
  5
6F
102
{ACAD_REACTORS
330
62
102
}
330
62
100
AcDbPlotSettings
  1

  2

  4

  6

 40
0.0
 41
0.0
 42
0.0
 43
0.0
 44
0.0
 45
0.0
 46
0.0
 47
0.0
 48
0.0
 49
0.0
140
0.0
141
0.0
142
1.0
143
1.0
 70
   688
 72
     0
 73
     0
 74
     5
  7

 75
    16
147
1.0
 76
     0
 77
     2
 78
   300
148
0.0
149
0.0
100
AcDbLayout
  1
Layout1
 70
     1
 71
     1
 10
0.0
 20
0.0
 11
12.0
 21
9.0
 12
0.0
 22
0.0
 32
0.0
 14
0.0
 24
0.0
 34
0.0
 15
0.0
 25
0.0
 35
0.0
146
0.0
 13
0.0
 23
0.0
 33
0.0
 16
1.0
 26
0.0
 36
0.0
 17
0.0
 27
1.0
 37
0.0
 76
     0
330
6C
  0
LAYOUT
  5
77
102
{ACAD_REACTORS
330
62
102
}
330
62
100
AcDbPlotSettings
  1

  2

  4

  6

 40
0.0
 41
0.0
 42
0.0
 43
0.0
 44
0.0
 45
0.0
 46
0.0
 47
0.0
 48
0.0
 49
0.0
140
0.0
141
0.0
142
1.0
143
1.0
 70
   688
 72
     0
 73
     0
 74
     5
  7

 75
    16
147
1.0
 76
     0
 77
     2
 78
   300
148
0.0
149
0.0
100
AcDbLayout
  1
Layout2
 70
     1
 71
     2
 10
0.0
 20
0.0
 11
12.0
 21
9.0
 12
0.0
 22
0.0
 32
0.0
 14
0.0
 24
0.0
 34
0.0
 15
0.0
 25
0.0
 35
0.0
146
0.0
 13
0.0
 23
0.0
 33
0.0
 16
1.0
 26
0.0
 36
0.0
 17
0.0
 27
1.0
 37
0.0
 76
     0
330
74
  0
LAYOUT
  5
73
102
{ACAD_REACTORS
330
62
102
}
330
62
100
AcDbPlotSettings
  1

  2

  4

  6

 40
0.0
 41
0.0
 42
0.0
 43
0.0
 44
0.0
 45
0.0
 46
0.0
 47
0.0
 48
0.0
 49
0.0
140
0.0
141
0.0
142
1.0
143
1.0
 70
  1712
 72
     0
 73
     0
 74
     0
  7

 75
     0
147
1.0
 76
     0
 77
     2
 78
   300
148
0.0
149
0.0
100
AcDbLayout
  1
Model
 70
     1
 71
     0
 10
0.0
 20
0.0
 11
12.0
 21
9.0
 12
0.0
 22
0.0
 32
0.0
 14
0.0
 24
0.0
 34
0.0
 15
0.0
 25
0.0
 35
0.0
146
0.0
 13
0.0
 23
0.0
 33
0.0
 16
1.0
 26
0.0
 36
0.0
 17
0.0
 27
1.0
 37
0.0
 76
     0
330
70
  0
MATERIAL
  5
19
102
{ACAD_XDICTIONARY
360
1A
102
}
102
{ACAD_REACTORS
330
10
102
}
330
10
100
AcDbMaterial
  1
ByBlock
 72
     0
 43
0.0208333333333333
 43
0.0
 43
0.0
 43
0.0
 43
0.0
 43
0.0208333333333333
 43
0.0
 43
0.0
 43
0.0
 43
0.0
 43
1.0
 43
0.0
 43
0.0
 43
0.0
 43
0.0
 43
1.0
 77
     0
 47
0.0208333333333333
 47
0.0
 47
0.0
 47
0.0
 47
0.0
 47
0.0208333333333333
 47
0.0
 47
0.0
 47
0.0
 47
0.0
 47
1.0
 47
0.0
 47
0.0
 47
0.0
 47
0.0
 47
1.0
171
     0
 49
0.0208333333333333
 49
0.0
 49
0.0
 49
0.0
 49
0.0
 49
0.0208333333333333
 49
0.0
 49
0.0
 49
0.0
 49
0.0
 49
1.0
 49
0.0
 49
0.0
 49
0.0
 49
0.0
 49
1.0
175
     0
142
0.0208333333333333
142
0.0
142
0.0
142
0.0
142
0.0
142
0.0208333333333333
142
0.0
142
0.0
142
0.0
142
0.0
142
1.0
142
0.0
142
0.0
142
0.0
142
0.0
142
1.0
179
     0
144
0.0208333333333333
144
0.0
144
0.0
144
0.0
144
0.0
144
0.0208333333333333
144
0.0
144
0.0
144
0.0
144
0.0
144
1.0
144
0.0
144
0.0
144
0.0
144
0.0
144
1.0
147
0.0208333333333333
147
0.0
147
0.0
147
0.0
147
0.0
147
0.0208333333333333
147
0.0
147
0.0
147
0.0
147
0.0
147
1.0
147
0.0
147
0.0
147
0.0
147
0.0
147
1.0
  0
MATERIAL
  5
11
102
{ACAD_XDICTIONARY
360
12
102
}
102
{ACAD_REACTORS
330
10
102
}
330
10
100
AcDbMaterial
  1
ByLayer
 72
     0
 43
0.0208333333333333
 43
0.0
 43
0.0
 43
0.0
 43
0.0
 43
0.0208333333333333
 43
0.0
 43
0.0
 43
0.0
 43
0.0
 43
1.0
 43
0.0
 43
0.0
 43
0.0
 43
0.0
 43
1.0
 77
     0
 47
0.0208333333333333
 47
0.0
 47
0.0
 47
0.0
 47
0.0
 47
0.0208333333333333
 47
0.0
 47
0.0
 47
0.0
 47
0.0
 47
1.0
 47
0.0
 47
0.0
 47
0.0
 47
0.0
 47
1.0
171
     0
 49
0.0208333333333333
 49
0.0
 49
0.0
 49
0.0
 49
0.0
 49
0.0208333333333333
 49
0.0
 49
0.0
 49
0.0
 49
0.0
 49
1.0
 49
0.0
 49
0.0
 49
0.0
 49
0.0
 49
1.0
175
     0
142
0.0208333333333333
142
0.0
142
0.0
142
0.0
142
0.0
142
0.0208333333333333
142
0.0
142
0.0
142
0.0
142
0.0
142
1.0
142
0.0
142
0.0
142
0.0
142
0.0
142
1.0
179
     0
144
0.0208333333333333
144
0.0
144
0.0
144
0.0
144
0.0
144
0.0208333333333333
144
0.0
144
0.0
144
0.0
144
0.0
144
1.0
144
0.0
144
0.0
144
0.0
144
0.0
144
1.0
147
0.0208333333333333
147
0.0
147
0.0
147
0.0
147
0.0
147
0.0208333333333333
147
0.0
147
0.0
147
0.0
147
0.0
147
1.0
147
0.0
147
0.0
147
0.0
147
0.0
147
1.0
  0
MATERIAL
  5
21
102
{ACAD_XDICTIONARY
360
22
102
}
102
{ACAD_REACTORS
330
10
102
}
330
10
100
AcDbMaterial
  1
Global
 72
     0
 43
0.0208333333333333
 43
0.0
 43
0.0
 43
0.0
 43
0.0
 43
0.0208333333333333
 43
0.0
 43
0.0
 43
0.0
 43
0.0
 43
1.0
 43
0.0
 43
0.0
 43
0.0
 43
0.0
 43
1.0
 77
     0
 47
0.0208333333333333
 47
0.0
 47
0.0
 47
0.0
 47
0.0
 47
0.0208333333333333
 47
0.0
 47
0.0
 47
0.0
 47
0.0
 47
1.0
 47
0.0
 47
0.0
 47
0.0
 47
0.0
 47
1.0
171
     0
 49
0.0208333333333333
 49
0.0
 49
0.0
 49
0.0
 49
0.0
 49
0.0208333333333333
 49
0.0
 49
0.0
 49
0.0
 49
0.0
 49
1.0
 49
0.0
 49
0.0
 49
0.0
 49
0.0
 49
1.0
175
     0
142
0.0208333333333333
142
0.0
142
0.0
142
0.0
142
0.0
142
0.0208333333333333
142
0.0
142
0.0
142
0.0
142
0.0
142
1.0
142
0.0
142
0.0
142
0.0
142
0.0
142
1.0
179
     0
144
0.0208333333333333
144
0.0
144
0.0
144
0.0
144
0.0
144
0.0208333333333333
144
0.0
144
0.0
144
0.0
144
0.0
144
1.0
144
0.0
144
0.0
144
0.0
144
0.0
144
1.0
147
0.0208333333333333
147
0.0
147
0.0
147
0.0
147
0.0
147
0.0208333333333333
147
0.0
147
0.0
147
0.0
147
0.0
147
1.0
147
0.0
147
0.0
147
0.0
147
0.0
147
1.0
  0
MLEADERSTYLE
  5
67
102
{ACAD_REACTORS
330
66
102
}
330
66
100
AcDbMLeaderStyle
179
     2
170
     2
171
     1
172
     0
 90
        2
 40
0.0
 41
0.0
173
     1
 91
-1056964608
340
5B
 92
       -2
290
     1
 42
0.09
291
     1
 43
0.36
  3
Standard
 44
0.18
300

342
55
174
     1
178
     6
175
     1
176
     0
 93
-1056964608
 45
0.18
292
     0
297
     0
 46
0.18
 94
-1056964608
 47
1.0
 49
1.0
140
1.0
293
     1
141
0.0
294
     1
177
     0
142
1.0
295
     0
296
     0
143
0.125
271
     0
272
     9
273
     9
298
     1
  0
MLINESTYLE
  5
60
102
{ACAD_REACTORS
330
5F
102
}
330
5F
100
AcDbMlineStyle
  2
STANDARD
 70
     0
  3

 62
   256
 51
90.0
 52
90.0
 71
     2
 49
0.5
 62
   256
  6
BYLAYER
 49
-0.5
 62
   256
  6
BYLAYER
  0
ACDBPLACEHOLDER
  5
F
102
{ACAD_REACTORS
330
E
102
}
330
E
  0
SCALE
  5
43
102
{ACAD_REACTORS
330
42
102
}
330
42
100
AcDbScale
 70
     0
300
1:1
140
1.0
141
1.0
290
     1
  0
SCALE
  5
44
102
{ACAD_REACTORS
330
42
102
}
330
42
100
AcDbScale
 70
     0
300
1/128" = 1'-0"
140
0.0078125
141
12.0
290
     0
  0
SCALE
  5
45
102
{ACAD_REACTORS
330
42
102
}
330
42
100
AcDbScale
 70
     0
300
1/64" = 1'-0"
140
0.015625
141
12.0
290
     0
  0
SCALE
  5
46
102
{ACAD_REACTORS
330
42
102
}
330
42
100
AcDbScale
 70
     0
300
1/32" = 1'-0"
140
0.03125
141
12.0
290
     0
  0
SCALE
  5
47
102
{ACAD_REACTORS
330
42
102
}
330
42
100
AcDbScale
 70
     0
300
1/16" = 1'-0"
140
0.0625
141
12.0
290
     0
  0
SCALE
  5
48
102
{ACAD_REACTORS
330
42
102
}
330
42
100
AcDbScale
 70
     0
300
3/32" = 1'-0"
140
0.09375
141
12.0
290
     0
  0
SCALE
  5
49
102
{ACAD_REACTORS
330
42
102
}
330
42
100
AcDbScale
 70
     0
300
1/8" = 1'-0"
140
0.125
141
12.0
290
     0
  0
SCALE
  5
4A
102
{ACAD_REACTORS
330
42
102
}
330
42
100
AcDbScale
 70
     0
300
3/16" = 1'-0"
140
0.1875
141
12.0
290
     0
  0
SCALE
  5
4B
102
{ACAD_REACTORS
330
42
102
}
330
42
100
AcDbScale
 70
     0
300
1/4" = 1'-0"
140
0.25
141
12.0
290
     0
  0
SCALE
  5
4C
102
{ACAD_REACTORS
330
42
102
}
330
42
100
AcDbScale
 70
     0
300
3/8" = 1'-0"
140
0.375
141
12.0
290
     0
  0
SCALE
  5
4D
102
{ACAD_REACTORS
330
42
102
}
330
42
100
AcDbScale
 70
     0
300
1/2" = 1'-0"
140
0.5
141
12.0
290
     0
  0
SCALE
  5
4E
102
{ACAD_REACTORS
330
42
102
}
330
42
100
AcDbScale
 70
     0
300
3/4" = 1'-0"
140
0.75
141
12.0
290
     0
  0
SCALE
  5
4F
102
{ACAD_REACTORS
330
42
102
}
330
42
100
AcDbScale
 70
     0
300
1" = 1'-0"
140
1.0
141
12.0
290
     0
  0
SCALE
  5
50
102
{ACAD_REACTORS
330
42
102
}
330
42
100
AcDbScale
 70
     0
300
1-1/2" = 1'-0"
140
1.5
141
12.0
290
     0
  0
SCALE
  5
51
102
{ACAD_REACTORS
330
42
102
}
330
42
100
AcDbScale
 70
     0
300
3" = 1'-0"
140
3.0
141
12.0
290
     0
  0
SCALE
  5
52
102
{ACAD_REACTORS
330
42
102
}
330
42
100
AcDbScale
 70
     0
300
6" = 1'-0"
140
6.0
141
12.0
290
     0
  0
SCALE
  5
53
102
{ACAD_REACTORS
330
42
102
}
330
42
100
AcDbScale
 70
     0
300
1'-0" = 1'-0"
140
12.0
141
12.0
290
     0
  0
ACDBSECTIONVIEWSTYLE
  5
69
102
{ACAD_XDICTIONARY
360
149
102
}
102
{ACAD_REACTORS
330
68
102
}
330
68
100
AcDbModelDocViewStyle
 70
     0
  3
Imperial24
290
     0
100
AcDbSectionViewStyle
 70
     0
 71
     0
 90
       78
 71
     1
340
55
 62
   256
 40
0.24
340
0
340
0
 62
   256
 40
0.24
300
I, O, Q, S, X, Z
 40
0.48
 90
        3
 40
0.18
 90
        1
 71
     2
340
5D
 90
       25
 62
   256
340
5D
 90
       50
 62
   256
 40
0.24
 40
0.0
 40
0.24
 71
     3
340
55
 62
   256
 40
0.24
 90
        1
 40
0.75
 90
        1
300
%<\AcVar ViewType \f "%tc1">% %<\AcVar ViewSectionStartId>%-%<\AcVar ViewSectionEndId>%\PSCALE %<\AcVar ViewScale \f "%sn">%
 71
     4
 62
   256
 62
   257
300
ANSI31
 40
1.0
 90
        0
290
     0
290
     0
 90
        6
 40
0.0
 40
1.570796326794896
 40
0.2617993877991494
 40
1.308996938995747
 40
-0.2617993877991494
 40
1.832595714594046
  0
TABLESTYLE
  5
65
102
{ACAD_XDICTIONARY
360
146
102
}
102
{ACAD_REACTORS
330
64
102
}
330
64
100
AcDbTableStyle
280
     0
  3
Standard
 70
     0
 71
     0
 40
0.06
 41
0.06
280
     0
281
     0
  7
Standard
140
0.18
170
     2
 62
     0
 63
     7
283
     0
 90
      512
 91
        0
  1

274
    -2
284
     1
 64
     0
275
    -2
285
     1
 65
     0
276
    -2
286
     1
 66
     0
277
    -2
287
     1
 67
     0
278
    -2
288
     1
 68
     0
279
    -2
289
     1
 69
     0
  7
Standard
140
0.25
170
     5
 62
     0
 63
     7
283
     0
 90
      512
 91
        0
  1

274
    -2
284
     1
 64
     0
275
    -2
285
     1
 65
     0
276
    -2
286
     1
 66
     0
277
    -2
287
     1
 67
     0
278
    -2
288
     1
 68
     0
279
    -2
289
     1
 69
     0
  7
Standard
140
0.18
170
     5
 62
     0
 63
     7
283
     0
 90
      512
 91
        0
  1

274
    -2
284
     1
 64
     0
275
    -2
285
     1
 65
     0
276
    -2
286
     1
 66
     0
277
    -2
287
     1
 67
     0
278
    -2
288
     1
 68
     0
279
    -2
289
     1
 69
     0
  0
VISUALSTYLE
  5
2F
102
{ACAD_REACTORS
330
29
102
}
330
29
100
AcDbVisualStyle
  2
2dWireframe
 70
     4
177
     3
291
     0
 70
    58
 90
        0
176
     1
 90
        2
176
     1
 90
        0
176
     1
 90
        0
176
     1
 40
0.6
176
     1
 40
30.0
176
     1
 62
     7
420
 16777215
176
     1
 90
        1
176
     1
 90
        4
176
     1
 62
     7
176
     1
 62
   257
176
     1
 90
        1
176
     1
 90
        1
176
     1
 40
1.0
176
     1
 90
        0
176
     1
 62
   257
176
     1
 40
1.0
176
     1
 90
        1
176
     1
 90
        6
176
     1
 90
        2
176
     1
 62
     7
176
     1
 90
        5
176
     1
 90
        0
176
     1
 90
        0
176
     1
290
     0
176
     1
 90
        1
176
     1
 40
0.0
176
     1
 90
        0
176
     1
290
     1
176
     1
290
     1
176
     1
290
     0
176
     1
290
     0
176
     1
290
     0
176
     1
290
     0
176
     1
290
     0
176
     1
290
     0
176
     1
290
     0
176
     1
 90
       50
176
     1
 40
0.0
176
     1
 40
1.0
176
     1
 90
        0
176
     1
 62
    18
420
        0
176
     1
 90
       50
176
     1
 90
        3
176
     1
 62
     5
420
      255
176
     1
290
     0
176
     1
 90
       50
176
     1
 90
       50
176
     1
 90
       50
176
     1
290
     0
176
     1
 90
       50
176
     1
 62
   256
176
     0
 40
1.0
176
     0
 90
        2
176
     1
  1
strokes_ogs.tif
176
     1
290
     0
176
     1
 40
1.0
176
     1
 40
1.0
176
     1
1001
ACAD
1000
AcDbSavedByObjectVersion
1070
     0
  0
VISUALSTYLE
  5
2E
102
{ACAD_REACTORS
330
29
102
}
330
29
100
AcDbVisualStyle
  2
Basic
 70
     7
177
     3
291
     1
 70
    58
 90
        1
176
     1
 90
        0
176
     1
 90
        1
176
     1
 90
        0
176
     1
 40
0.6
176
     1
 40
30.0
176
     1
 62
     7
420
 16777215
176
     1
 90
        0
176
     1
 90
        4
176
     1
 62
     7
176
     1
 62
   257
176
     1
 90
        1
176
     1
 90
        1
176
     1
 40
1.0
176
     1
 90
        8
176
     1
 62
     7
176
     1
 40
1.0
176
     1
 90
        1
176
     1
 90
        6
176
     1
 90
        2
176
     1
 62
     7
176
     1
 90
        5
176
     1
 90
        0
176
     1
 90
        0
176
     1
290
     0
176
     1
 90
        1
176
     1
 40
0.0
176
     1
 90
        0
176
     1
290
     0
176
     1
290
     1
176
     1
290
     1
176
     1
290
     0
176
     1
290
     0
176
     1
290
     0
176
     1
290
     0
176
     1
290
     0
176
     1
290
     0
176
     1
 90
       50
176
     1
 40
0.0
176
     1
 40
1.0
176
     1
 90
        0
176
     1
 62
    18
420
        0
176
     1
 90
       50
176
     1
 90
        3
176
     1
 62
     5
420
      255
176
     1
290
     0
176
     1
 90
       50
176
     1
 90
       50
176
     1
 90
       50
176
     1
290
     0
176
     1
 90
       50
176
     1
 62
   256
176
     0
 40
1.0
176
     0
 90
        2
176
     1
  1
strokes_ogs.tif
176
     1
290
     0
176
     1
 40
1.0
176
     1
 40
1.0
176
     1
1001
ACAD
1000
AcDbSavedByObjectVersion
1070
     0
  0
VISUALSTYLE
  5
35
102
{ACAD_REACTORS
330
29
102
}
330
29
100
AcDbVisualStyle
  2
Brighten
 70
    12
177
     3
291
     1
 70
    58
 90
        2
176
     1
 90
        2
176
     1
 90
        0
176
     1
 90
        0
176
     1
 40
0.6
176
     1
 40
30.0
176
     1
 62
     7
420
 16777215
176
     1
 90
        1
176
     1
 90
        4
176
     1
 62
     7
176
     1
 62
   257
176
     1
 90
        1
176
     1
 90
        1
176
     1
 40
1.0
176
     1
 90
        8
176
     1
 62
     7
176
     1
 40
1.0
176
     1
 90
        1
176
     1
 90
        6
176
     1
 90
        2
176
     1
 62
     7
176
     1
 90
        5
176
     1
 90
        0
176
     1
 90
        0
176
     1
290
     0
176
     1
 90
        1
176
     1
 40
50.0
176
     1
 90
        0
176
     1
290
     0
176
     1
290
     1
176
     1
290
     1
176
     1
290
     0
176
     1
290
     0
176
     1
290
     0
176
     1
290
     0
176
     1
290
     0
176
     1
290
     0
176
     1
 90
       50
176
     1
 40
0.0
176
     1
 40
1.0
176
     1
 90
        0
176
     1
 62
    18
420
        0
176
     1
 90
       50
176
     1
 90
        3
176
     1
 62
     5
420
      255
176
     1
290
     0
176
     1
 90
       50
176
     1
 90
       50
176
     1
 90
       50
176
     1
290
     0
176
     1
 90
       50
176
     1
 62
   256
176
     0
 40
1.0
176
     0
 90
        2
176
     1
  1
strokes_ogs.tif
176
     1
290
     0
176
     1
 40
1.0
176
     1
 40
1.0
176
     1
1001
ACAD
1000
AcDbSavedByObjectVersion
1070
     0
  0
VISUALSTYLE
  5
39
102
{ACAD_REACTORS
330
29
102
}
330
29
100
AcDbVisualStyle
  2
ColorChange
 70
    16
177
     3
291
     1
 70
    58
 90
        2
176
     1
 90
        2
176
     1
 90
        3
176
     1
 90
        0
176
     1
 40
0.6
176
     1
 40
30.0
176
     1
 62
     8
420
  8421504
176
     1
 90
        1
176
     1
 90
        4
176
     1
 62
     7
176
     1
 62
   257
176
     1
 90
        1
176
     1
 90
        1
176
     1
 40
1.0
176
     1
 90
        8
176
     1
 62
     8
420
  8421504
176
     1
 40
1.0
176
     1
 90
        1
176
     1
 90
        6
176
     1
 90
        2
176
     1
 62
     7
176
     1
 90
        5
176
     1
 90
        0
176
     1
 90
        0
176
     1
290
     0
176
     1
 90
        1
176
     1
 40
0.0
176
     1
 90
        0
176
     1
290
     0
176
     1
290
     1
176
     1
290
     1
176
     1
290
     0
176
     1
290
     0
176
     1
290
     0
176
     1
290
     0
176
     1
290
     0
176
     1
290
     0
176
     1
 90
       50
176
     1
 40
0.0
176
     1
 40
1.0
176
     1
 90
        0
176
     1
 62
    18
420
        0
176
     1
 90
       50
176
     1
 90
        3
176
     1
 62
     5
420
      255
176
     1
290
     0
176
     1
 90
       50
176
     1
 90
       50
176
     1
 90
       50
176
     1
290
     0
176
     1
 90
       50
176
     1
 62
   256
176
     0
 40
1.0
176
     0
 90
        2
176
     1
  1
strokes_ogs.tif
176
     1
290
     0
176
     1
 40
1.0
176
     1
 40
1.0
176
     1
1001
ACAD
1000
AcDbSavedByObjectVersion
1070
     0
  0
VISUALSTYLE
  5
32
102
{ACAD_REACTORS
330
29
102
}
330
29
100
AcDbVisualStyle
  2
Conceptual
 70
     9
177
     3
291
     0
 70
    58
 90
        3
176
     1
 90
        2
176
     1
 90
        0
176
     1
 90
        0
176
     1
 40
0.6
176
     1
 40
30.0
176
     1
 62
     7
420
 16777215
176
     1
 90
        2
176
     1
 90
        2
176
     1
 62
     7
176
     1
 62
   257
176
     1
 90
        1
176
     1
 90
        1
176
     1
 40
179.0
176
     1
 90
        8
176
     1
 62
     7
176
     1
 40
1.0
176
     1
 90
        1
176
     1
 90
        6
176
     1
 90
        2
176
     1
 62
     7
176
     1
 90
        3
176
     1
 90
        0
176
     1
 90
        0
176
     1
290
     0
176
     1
 90
        1
176
     1
 40
0.0
176
     1
 90
        0
176
     1
290
     0
176
     1
290
     1
176
     1
290
     1
176
     1
290
     0
176
     1
290
     0
176
     1
290
     0
176
     1
290
     0
176
     1
290
     0
176
     1
290
     0
176
     1
 90
       50
176
     1
 40
0.0
176
     1
 40
1.0
176
     1
 90
        0
176
     1
 62
    18
420
        0
176
     1
 90
       50
176
     1
 90
        3
176
     1
 62
     5
420
      255
176
     1
290
     0
176
     1
 90
       50
176
     1
 90
       50
176
     1
 90
       50
176
     1
290
     0
176
     1
 90
       50
176
     1
 62
   256
176
     0
 40
1.0
176
     0
 90
        2
176
     1
  1
strokes_ogs.tif
176
     1
290
     0
176
     1
 40
1.0
176
     1
 40
1.0
176
     1
1001
ACAD
1000
AcDbSavedByObjectVersion
1070
     0
  0
VISUALSTYLE
  5
34
102
{ACAD_REACTORS
330
29
102
}
330
29
100
AcDbVisualStyle
  2
Dim
 70
    11
177
     3
291
     1
 70
    58
 90
        2
176
     1
 90
        2
176
     1
 90
        0
176
     1
 90
        0
176
     1
 40
0.6
176
     1
 40
30.0
176
     1
 62
     7
420
 16777215
176
     1
 90
        1
176
     1
 90
        4
176
     1
 62
     7
176
     1
 62
   257
176
     1
 90
        1
176
     1
 90
        1
176
     1
 40
1.0
176
     1
 90
        8
176
     1
 62
     7
176
     1
 40
1.0
176
     1
 90
        1
176
     1
 90
        6
176
     1
 90
        2
176
     1
 62
     7
176
     1
 90
        5
176
     1
 90
        0
176
     1
 90
        0
176
     1
290
     0
176
     1
 90
        1
176
     1
 40
-50.0
176
     1
 90
        0
176
     1
290
     0
176
     1
290
     1
176
     1
290
     1
176
     1
290
     0
176
     1
290
     0
176
     1
290
     0
176
     1
290
     0
176
     1
290
     0
176
     1
290
     0
176
     1
 90
       50
176
     1
 40
0.0
176
     1
 40
1.0
176
     1
 90
        0
176
     1
 62
    18
420
        0
176
     1
 90
       50
176
     1
 90
        3
176
     1
 62
     5
420
      255
176
     1
290
     0
176
     1
 90
       50
176
     1
 90
       50
176
     1
 90
       50
176
     1
290
     0
176
     1
 90
       50
176
     1
 62
   256
176
     0
 40
1.0
176
     0
 90
        2
176
     1
  1
strokes_ogs.tif
176
     1
290
     0
176
     1
 40
1.0
176
     1
 40
1.0
176
     1
1001
ACAD
1000
AcDbSavedByObjectVersion
1070
     0
  0
VISUALSTYLE
  5
41
102
{ACAD_REACTORS
330
29
102
}
330
29
100
AcDbVisualStyle
  2
EdgeColorOff
 70
    22
177
     3
291
     1
 70
    58
 90
        2
176
     0
 90
        2
176
     0
 90
        0
176
     0
 90
        0
176
     0
 40
0.6
176
     0
 40
30.0
176
     0
 62
     7
420
 16777215
176
     0
 90
        1
176
     0
 90
        4
176
     0
 62
     7
176
     0
 62
   257
176
     0
 90
        1
176
     0
 90
        1
176
     0
 40
1.0
176
     0
 90
        8
176
     2
 62
     7
176
     0
 40
1.0
176
     0
 90
        1
176
     0
 90
        6
176
     0
 90
        2
176
     0
 62
     7
176
     0
 90
        5
176
     0
 90
        0
176
     0
 90
        0
176
     0
290
     0
176
     0
 90
        1
176
     0
 40
0.0
176
     0
 90
        0
176
     0
290
     0
176
     0
290
     1
176
     0
290
     1
176
     0
290
     0
176
     0
290
     0
176
     0
290
     0
176
     0
290
     0
176
     0
290
     0
176
     0
290
     0
176
     0
 90
       50
176
     0
 40
0.0
176
     0
 40
1.0
176
     0
 90
        0
176
     0
 62
    18
420
        0
176
     0
 90
       50
176
     0
 90
        3
176
     0
 62
     5
420
      255
176
     0
290
     0
176
     0
 90
       50
176
     0
 90
       50
176
     0
 90
       50
176
     0
290
     0
176
     0
 90
       50
176
     0
 62
   256
176
     0
 40
1.0
176
     0
 90
        2
176
     0
  1
strokes_ogs.tif
176
     0
290
     0
176
     0
 40
1.0
176
     0
 40
1.0
176
     0
1001
ACAD
1000
AcDbSavedByObjectVersion
1070
     0
  0
VISUALSTYLE
  5
38
102
{ACAD_REACTORS
330
29
102
}
330
29
100
AcDbVisualStyle
  2
Facepattern
 70
    15
177
     3
291
     1
 70
    58
 90
        2
176
     1
 90
        2
176
     1
 90
        0
176
     1
 90
        0
176
     1
 40
0.6
176
     1
 40
30.0
176
     1
 62
     7
420
 16777215
176
     1
 90
        1
176
     1
 90
        4
176
     1
 62
     7
176
     1
 62
   257
176
     1
 90
        1
176
     1
 90
        1
176
     1
 40
1.0
176
     1
 90
        8
176
     1
 62
     7
176
     1
 40
1.0
176
     1
 90
        1
176
     1
 90
        6
176
     1
 90
        2
176
     1
 62
     7
176
     1
 90
        5
176
     1
 90
        0
176
     1
 90
        0
176
     1
290
     0
176
     1
 90
        1
176
     1
 40
0.0
176
     1
 90
        0
176
     1
290
     0
176
     1
290
     1
176
     1
290
     1
176
     1
290
     0
176
     1
290
     0
176
     1
290
     0
176
     1
290
     0
176
     1
290
     0
176
     1
290
     0
176
     1
 90
       50
176
     1
 40
0.0
176
     1
 40
1.0
176
     1
 90
        0
176
     1
 62
    18
420
        0
176
     1
 90
       50
176
     1
 90
        3
176
     1
 62
     5
420
      255
176
     1
290
     0
176
     1
 90
       50
176
     1
 90
       50
176
     1
 90
       50
176
     1
290
     0
176
     1
 90
       50
176
     1
 62
   256
176
     0
 40
1.0
176
     0
 90
        2
176
     1
  1
strokes_ogs.tif
176
     1
290
     0
176
     1
 40
1.0
176
     1
 40
1.0
176
     1
1001
ACAD
1000
AcDbSavedByObjectVersion
1070
     0
  0
VISUALSTYLE
  5
2A
102
{ACAD_REACTORS
330
29
102
}
330
29
100
AcDbVisualStyle
  2
Flat
 70
     0
177
     3
291
     1
 70
    58
 90
        2
176
     1
 90
        1
176
     1
 90
        1
176
     1
 90
        2
176
     1
 40
0.6
176
     1
 40
30.0
176
     1
 62
     7
420
 16777215
176
     1
 90
        0
176
     1
 90
        0
176
     1
 62
     7
176
     1
 62
   257
176
     1
 90
        1
176
     1
 90
        1
176
     1
 40
1.0
176
     1
 90
        8
176
     1
 62
     7
176
     1
 40
1.0
176
     1
 90
        1
176
     1
 90
        6
176
     1
 90
        2
176
     1
 62
     7
176
     1
 90
        5
176
     1
 90
        0
176
     1
 90
        0
176
     1
290
     0
176
     1
 90
       13
176
     1
 40
0.0
176
     1
 90
        0
176
     1
290
     0
176
     1
290
     1
176
     1
290
     1
176
     1
290
     0
176
     1
290
     0
176
     1
290
     0
176
     1
290
     0
176
     1
290
     0
176
     1
290
     0
176
     1
 90
       50
176
     1
 40
0.0
176
     1
 40
1.0
176
     1
 90
        0
176
     1
 62
    18
420
        0
176
     1
 90
       50
176
     1
 90
        3
176
     1
 62
     5
420
      255
176
     1
290
     0
176
     1
 90
       50
176
     1
 90
       50
176
     1
 90
       50
176
     1
290
     0
176
     1
 90
       50
176
     1
 62
   256
176
     0
 40
1.0
176
     0
 90
        2
176
     1
  1
strokes_ogs.tif
176
     1
290
     0
176
     1
 40
1.0
176
     1
 40
1.0
176
     1
1001
ACAD
1000
AcDbSavedByObjectVersion
1070
     0
  0
VISUALSTYLE
  5
2B
102
{ACAD_REACTORS
330
29
102
}
330
29
100
AcDbVisualStyle
  2
FlatWithEdges
 70
     1
177
     3
291
     1
 70
    58
 90
        2
176
     1
 90
        1
176
     1
 90
        1
176
     1
 90
        2
176
     1
 40
0.6
176
     1
 40
30.0
176
     1
 62
     7
420
 16777215
176
     1
 90
        1
176
     1
 90
        0
176
     1
 62
     7
176
     1
 62
   257
176
     1
 90
        1
176
     1
 90
        1
176
     1
 40
1.0
176
     1
 90
        0
176
     1
 62
   257
176
     1
 40
1.0
176
     1
 90
        1
176
     1
 90
        6
176
     1
 90
        2
176
     1
 62
     7
176
     1
 90
        5
176
     1
 90
        0
176
     1
 90
        0
176
     1
290
     0
176
     1
 90
       13
176
     1
 40
0.0
176
     1
 90
        0
176
     1
290
     0
176
     1
290
     1
176
     1
290
     1
176
     1
290
     0
176
     1
290
     0
176
     1
290
     0
176
     1
290
     0
176
     1
290
     0
176
     1
290
     0
176
     1
 90
       50
176
     1
 40
0.0
176
     1
 40
1.0
176
     1
 90
        0
176
     1
 62
    18
420
        0
176
     1
 90
       50
176
     1
 90
        3
176
     1
 62
     5
420
      255
176
     1
290
     0
176
     1
 90
       50
176
     1
 90
       50
176
     1
 90
       50
176
     1
290
     0
176
     1
 90
       50
176
     1
 62
   256
176
     0
 40
1.0
176
     0
 90
        2
176
     1
  1
strokes_ogs.tif
176
     1
290
     0
176
     1
 40
1.0
176
     1
 40
1.0
176
     1
1001
ACAD
1000
AcDbSavedByObjectVersion
1070
     0
  0
VISUALSTYLE
  5
2C
102
{ACAD_REACTORS
330
29
102
}
330
29
100
AcDbVisualStyle
  2
Gouraud
 70
     2
177
     3
291
     1
 70
    58
 90
        2
176
     1
 90
        2
176
     1
 90
        1
176
     1
 90
        2
176
     1
 40
0.6
176
     1
 40
30.0
176
     1
 62
     7
420
 16777215
176
     1
 90
        0
176
     1
 90
        0
176
     1
 62
     7
176
     1
 62
   257
176
     1
 90
        1
176
     1
 90
        1
176
     1
 40
1.0
176
     1
 90
        0
176
     1
 62
     7
176
     1
 40
1.0
176
     1
 90
        1
176
     1
 90
        6
176
     1
 90
        2
176
     1
 62
     7
176
     1
 90
        5
176
     1
 90
        0
176
     1
 90
        0
176
     1
290
     0
176
     1
 90
       13
176
     1
 40
0.0
176
     1
 90
        0
176
     1
290
     0
176
     1
290
     1
176
     1
290
     1
176
     1
290
     0
176
     1
290
     0
176
     1
290
     0
176
     1
290
     0
176
     1
290
     0
176
     1
290
     0
176
     1
 90
       50
176
     1
 40
0.0
176
     1
 40
1.0
176
     1
 90
        0
176
     1
 62
    18
420
        0
176
     1
 90
       50
176
     1
 90
        3
176
     1
 62
     5
420
      255
176
     1
290
     0
176
     1
 90
       50
176
     1
 90
       50
176
     1
 90
       50
176
     1
290
     0
176
     1
 90
       50
176
     1
 62
   256
176
     0
 40
1.0
176
     0
 90
        2
176
     1
  1
strokes_ogs.tif
176
     1
290
     0
176
     1
 40
1.0
176
     1
 40
1.0
176
     1
1001
ACAD
1000
AcDbSavedByObjectVersion
1070
     0
  0
VISUALSTYLE
  5
2D
102
{ACAD_REACTORS
330
29
102
}
330
29
100
AcDbVisualStyle
  2
GouraudWithEdges
 70
     3
177
     3
291
     1
 70
    58
 90
        2
176
     1
 90
        2
176
     1
 90
        1
176
     1
 90
        2
176
     1
 40
0.6
176
     1
 40
30.0
176
     1
 62
     7
420
 16777215
176
     1
 90
        1
176
     1
 90
        0
176
     1
 62
     7
176
     1
 62
   257
176
     1
 90
        1
176
     1
 90
        1
176
     1
 40
1.0
176
     1
 90
        0
176
     1
 62
   257
176
     1
 40
1.0
176
     1
 90
        1
176
     1
 90
        6
176
     1
 90
        2
176
     1
 62
     7
176
     1
 90
        5
176
     1
 90
        0
176
     1
 90
        0
176
     1
290
     0
176
     1
 90
       13
176
     1
 40
0.0
176
     1
 90
        0
176
     1
290
     0
176
     1
290
     1
176
     1
290
     1
176
     1
290
     0
176
     1
290
     0
176
     1
290
     0
176
     1
290
     0
176
     1
290
     0
176
     1
290
     0
176
     1
 90
       50
176
     1
 40
0.0
176
     1
 40
1.0
176
     1
 90
        0
176
     1
 62
    18
420
        0
176
     1
 90
       50
176
     1
 90
        3
176
     1
 62
     5
420
      255
176
     1
290
     0
176
     1
 90
       50
176
     1
 90
       50
176
     1
 90
       50
176
     1
290
     0
176
     1
 90
       50
176
     1
 62
   256
176
     0
 40
1.0
176
     0
 90
        2
176
     1
  1
strokes_ogs.tif
176
     1
290
     0
176
     1
 40
1.0
176
     1
 40
1.0
176
     1
1001
ACAD
1000
AcDbSavedByObjectVersion
1070
     0
  0
VISUALSTYLE
  5
31
102
{ACAD_REACTORS
330
29
102
}
330
29
100
AcDbVisualStyle
  2
Hidden
 70
     6
177
     3
291
     0
 70
    58
 90
        1
176
     1
 90
        2
176
     1
 90
        2
176
     1
 90
        0
176
     1
 40
0.6
176
     1
 40
30.0
176
     1
 62
     7
420
 16777215
176
     1
 90
        2
176
     1
 90
        2
176
     1
 62
     7
176
     1
 62
   257
176
     1
 90
        2
176
     1
 90
        1
176
     1
 40
40.0
176
     1
 90
        0
176
     1
 62
   257
176
     1
 40
1.0
176
     1
 90
        1
176
     1
 90
        6
176
     1
 90
        2
176
     1
 62
     7
176
     1
 90
        3
176
     1
 90
        0
176
     1
 90
        0
176
     1
290
     0
176
     1
 90
        1
176
     1
 40
0.0
176
     1
 90
        0
176
     1
290
     0
176
     1
290
     1
176
     1
290
     1
176
     1
290
     0
176
     1
290
     0
176
     1
290
     0
176
     1
290
     0
176
     1
290
     0
176
     1
290
     0
176
     1
 90
       50
176
     1
 40
0.0
176
     1
 40
1.0
176
     1
 90
        0
176
     1
 62
    18
420
        0
176
     1
 90
       50
176
     1
 90
        3
176
     1
 62
     5
420
      255
176
     1
290
     0
176
     1
 90
       50
176
     1
 90
       50
176
     1
 90
       50
176
     1
290
     0
176
     1
 90
       50
176
     1
 62
   256
176
     0
 40
1.0
176
     0
 90
        2
176
     1
  1
strokes_ogs.tif
176
     1
290
     0
176
     1
 40
1.0
176
     1
 40
1.0
176
     1
1001
ACAD
1000
AcDbSavedByObjectVersion
1070
     0
  0
VISUALSTYLE
  5
3F
102
{ACAD_REACTORS
330
29
102
}
330
29
100
AcDbVisualStyle
  2
JitterOff
 70
    20
177
     3
291
     1
 70
    58
 90
        2
176
     0
 90
        2
176
     0
 90
        0
176
     0
 90
        0
176
     0
 40
0.6
176
     0
 40
30.0
176
     0
 62
     7
420
 16777215
176
     0
 90
        1
176
     0
 90
        4
176
     0
 62
     7
176
     0
 62
   257
176
     0
 90
        1
176
     0
 90
        1
176
     0
 40
1.0
176
     0
 90
       10
176
     2
 62
     7
176
     0
 40
1.0
176
     0
 90
        1
176
     0
 90
        6
176
     0
 90
        2
176
     0
 62
     7
176
     0
 90
        5
176
     0
 90
        0
176
     0
 90
        0
176
     0
290
     0
176
     0
 90
        1
176
     0
 40
0.0
176
     0
 90
        0
176
     0
290
     0
176
     0
290
     1
176
     0
290
     1
176
     0
290
     0
176
     0
290
     0
176
     0
290
     0
176
     0
290
     0
176
     0
290
     0
176
     0
290
     0
176
     0
 90
       50
176
     0
 40
0.0
176
     0
 40
1.0
176
     0
 90
        0
176
     0
 62
    18
420
        0
176
     0
 90
       50
176
     0
 90
        3
176
     0
 62
     5
420
      255
176
     0
290
     0
176
     0
 90
       50
176
     0
 90
       50
176
     0
 90
       50
176
     0
290
     0
176
     0
 90
       50
176
     0
 62
   256
176
     0
 40
1.0
176
     0
 90
        2
176
     0
  1
strokes_ogs.tif
176
     0
290
     0
176
     0
 40
1.0
176
     0
 40
1.0
176
     0
1001
ACAD
1000
AcDbSavedByObjectVersion
1070
     0
  0
VISUALSTYLE
  5
37
102
{ACAD_REACTORS
330
29
102
}
330
29
100
AcDbVisualStyle
  2
Linepattern
 70
    14
177
     3
291
     1
 70
    58
 90
        2
176
     1
 90
        2
176
     1
 90
        0
176
     1
 90
        0
176
     1
 40
0.6
176
     1
 40
30.0
176
     1
 62
     7
420
 16777215
176
     1
 90
        1
176
     1
 90
        4
176
     1
 62
     7
176
     1
 62
   257
176
     1
 90
        7
176
     1
 90
        7
176
     1
 40
1.0
176
     1
 90
        8
176
     1
 62
     7
176
     1
 40
1.0
176
     1
 90
        1
176
     1
 90
        6
176
     1
 90
        2
176
     1
 62
     7
176
     1
 90
        5
176
     1
 90
        0
176
     1
 90
        0
176
     1
290
     0
176
     1
 90
        1
176
     1
 40
0.0
176
     1
 90
        0
176
     1
290
     0
176
     1
290
     1
176
     1
290
     1
176
     1
290
     0
176
     1
290
     0
176
     1
290
     0
176
     1
290
     0
176
     1
290
     0
176
     1
290
     0
176
     1
 90
       50
176
     1
 40
0.0
176
     1
 40
1.0
176
     1
 90
        0
176
     1
 62
    18
420
        0
176
     1
 90
       50
176
     1
 90
        3
176
     1
 62
     5
420
      255
176
     1
290
     0
176
     1
 90
       50
176
     1
 90
       50
176
     1
 90
       50
176
     1
290
     0
176
     1
 90
       50
176
     1
 62
   256
176
     0
 40
1.0
176
     0
 90
        2
176
     1
  1
strokes_ogs.tif
176
     1
290
     0
176
     1
 40
1.0
176
     1
 40
1.0
176
     1
1001
ACAD
1000
AcDbSavedByObjectVersion
1070
     0
  0
VISUALSTYLE
  5
40
102
{ACAD_REACTORS
330
29
102
}
330
29
100
AcDbVisualStyle
  2
OverhangOff
 70
    21
177
     3
291
     1
 70
    58
 90
        2
176
     0
 90
        2
176
     0
 90
        0
176
     0
 90
        0
176
     0
 40
0.6
176
     0
 40
30.0
176
     0
 62
     7
420
 16777215
176
     0
 90
        1
176
     0
 90
        4
176
     0
 62
     7
176
     0
 62
   257
176
     0
 90
        1
176
     0
 90
        1
176
     0
 40
1.0
176
     0
 90
        9
176
     2
 62
     7
176
     0
 40
1.0
176
     0
 90
        1
176
     0
 90
        6
176
     0
 90
        2
176
     0
 62
     7
176
     0
 90
        5
176
     0
 90
        0
176
     0
 90
        0
176
     0
290
     0
176
     0
 90
        1
176
     0
 40
0.0
176
     0
 90
        0
176
     0
290
     0
176
     0
290
     1
176
     0
290
     1
176
     0
290
     0
176
     0
290
     0
176
     0
290
     0
176
     0
290
     0
176
     0
290
     0
176
     0
290
     0
176
     0
 90
       50
176
     0
 40
0.0
176
     0
 40
1.0
176
     0
 90
        0
176
     0
 62
    18
420
        0
176
     0
 90
       50
176
     0
 90
        3
176
     0
 62
     5
420
      255
176
     0
290
     0
176
     0
 90
       50
176
     0
 90
       50
176
     0
 90
       50
176
     0
290
     0
176
     0
 90
       50
176
     0
 62
   256
176
     0
 40
1.0
176
     0
 90
        2
176
     0
  1
strokes_ogs.tif
176
     0
290
     0
176
     0
 40
1.0
176
     0
 40
1.0
176
     0
1001
ACAD
1000
AcDbSavedByObjectVersion
1070
     0
  0
VISUALSTYLE
  5
33
102
{ACAD_REACTORS
330
29
102
}
330
29
100
AcDbVisualStyle
  2
Realistic
 70
     8
177
     3
291
     0
 70
    58
 90
        2
176
     1
 90
        3
176
     1
 90
        0
176
     1
 90
        2
176
     1
 40
0.6
176
     1
 40
30.0
176
     1
 62
     7
420
 16777215
176
     1
 90
        0
176
     1
 90
        0
176
     1
 62
     7
176
     1
 62
   257
176
     1
 90
        1
176
     1
 90
        1
176
     1
 40
1.0
176
     1
 90
        8
176
     1
 62
   257
176
     1
 40
1.0
176
     1
 90
        1
176
     1
 90
        6
176
     1
 90
        2
176
     1
 62
     7
176
     1
 90
        3
176
     1
 90
        0
176
     1
 90
        0
176
     1
290
     0
176
     1
 90
       13
176
     1
 40
0.0
176
     1
 90
        0
176
     1
290
     0
176
     1
290
     1
176
     1
290
     1
176
     1
290
     0
176
     1
290
     0
176
     1
290
     0
176
     1
290
     0
176
     1
290
     0
176
     1
290
     0
176
     1
 90
       50
176
     1
 40
0.0
176
     1
 40
1.0
176
     1
 90
        0
176
     1
 62
    18
420
        0
176
     1
 90
       50
176
     1
 90
        3
176
     1
 62
     5
420
      255
176
     1
290
     0
176
     1
 90
       50
176
     1
 90
       50
176
     1
 90
       50
176
     1
290
     0
176
     1
 90
       50
176
     1
 62
   256
176
     0
 40
1.0
176
     0
 90
        2
176
     1
  1
strokes_ogs.tif
176
     1
290
     0
176
     1
 40
1.0
176
     1
 40
1.0
176
     1
1001
ACAD
1000
AcDbSavedByObjectVersion
1070
     0
  0
VISUALSTYLE
  5
3E
102
{ACAD_REACTORS
330
29
102
}
330
29
100
AcDbVisualStyle
  2
Shaded
 70
    27
177
     3
291
     0
 70
    58
 90
        2
176
     1
 90
        2
176
     1
 90
        1
176
     1
 90
        2
176
     1
 40
0.6
176
     1
 40
30.0
176
     1
 62
     7
420
 16777215
176
     1
 90
        0
176
     1
 90
        4
176
     1
 62
     7
176
     1
 62
   257
176
     1
 90
        1
176
     1
 90
        1
176
     1
 40
1.0
176
     1
 90
        8
176
     1
 62
   257
176
     1
 40
1.0
176
     1
 90
        1
176
     1
 90
        6
176
     1
 90
        2
176
     1
 62
     8
420
  7895160
176
     1
 90
        3
176
     1
 90
        0
176
     1
 90
        0
176
     1
290
     0
176
     1
 90
        5
176
     1
 40
0.0
176
     1
 90
        0
176
     1
290
     0
176
     1
290
     1
176
     1
290
     1
176
     1
290
     0
176
     1
290
     0
176
     1
290
     0
176
     1
290
     0
176
     1
290
     0
176
     1
290
     0
176
     1
 90
       50
176
     1
 40
0.0
176
     1
 40
1.0
176
     1
 90
        0
176
     1
 62
    18
420
        0
176
     1
 90
       50
176
     1
 90
        3
176
     1
 62
     5
420
      255
176
     1
290
     0
176
     1
 90
       50
176
     1
 90
       50
176
     1
 90
       50
176
     1
290
     0
176
     1
 90
       50
176
     1
 62
   256
176
     0
 40
1.0
176
     0
 90
        2
176
     1
  1
strokes_ogs.tif
176
     1
290
     0
176
     1
 40
1.0
176
     1
 40
1.0
176
     1
1001
ACAD
1000
AcDbSavedByObjectVersion
1070
     0
  0
VISUALSTYLE
  5
3D
102
{ACAD_REACTORS
330
29
102
}
330
29
100
AcDbVisualStyle
  2
Shaded with edges
 70
    26
177
     3
291
     0
 70
    58
 90
        2
176
     1
 90
        2
176
     1
 90
        1
176
     1
 90
        2
176
     1
 40
0.6
176
     1
 40
30.0
176
     1
 62
     7
420
 16777215
176
     1
 90
        1
176
     1
 90
        2
176
     1
 62
     7
176
     1
 62
   257
176
     1
 90
        2
176
     1
 90
        1
176
     1
 40
1.0
176
     1
 90
        8
176
     1
 62
   257
176
     1
 40
1.0
176
     1
 90
        1
176
     1
 90
        6
176
     1
 90
        2
176
     1
 62
     7
176
     1
 90
        3
176
     1
 90
        0
176
     1
 90
        0
176
     1
290
     0
176
     1
 90
        5
176
     1
 40
0.0
176
     1
 90
        0
176
     1
290
     0
176
     1
290
     1
176
     1
290
     1
176
     1
290
     0
176
     1
290
     0
176
     1
290
     0
176
     1
290
     0
176
     1
290
     0
176
     1
290
     0
176
     1
 90
       50
176
     1
 40
0.0
176
     1
 40
1.0
176
     1
 90
        0
176
     1
 62
    18
420
        0
176
     1
 90
       50
176
     1
 90
        3
176
     1
 62
     5
420
      255
176
     1
290
     0
176
     1
 90
       50
176
     1
 90
       50
176
     1
 90
       50
176
     1
290
     0
176
     1
 90
       50
176
     1
 62
   256
176
     0
 40
1.0
176
     0
 90
        2
176
     1
  1
strokes_ogs.tif
176
     1
290
     0
176
     1
 40
1.0
176
     1
 40
1.0
176
     1
1001
ACAD
1000
AcDbSavedByObjectVersion
1070
     0
  0
VISUALSTYLE
  5
3A
102
{ACAD_REACTORS
330
29
102
}
330
29
100
AcDbVisualStyle
  2
Shades of Gray
 70
    23
177
     3
291
     0
 70
    58
 90
        2
176
     1
 90
        2
176
     1
 90
        3
176
     1
 90
        0
176
     1
 40
0.6
176
     1
 40
30.0
176
     1
 62
     7
420
 16777215
176
     1
 90
        2
176
     1
 90
        2
176
     1
 62
     7
176
     1
 62
     7
176
     1
 90
        1
176
     1
 90
        1
176
     1
 40
40.0
176
     1
 90
        8
176
     1
 62
     7
176
     1
 40
1.0
176
     1
 90
        1
176
     1
 90
        6
176
     1
 90
        2
176
     1
 62
     7
176
     1
 90
        3
176
     1
 90
        0
176
     1
 90
        0
176
     1
290
     0
176
     1
 90
        1
176
     1
 40
0.0
176
     1
 90
        0
176
     1
290
     0
176
     1
290
     1
176
     1
290
     1
176
     1
290
     0
176
     1
290
     0
176
     1
290
     0
176
     1
290
     0
176
     1
290
     0
176
     1
290
     0
176
     1
 90
       50
176
     1
 40
0.0
176
     1
 40
1.0
176
     1
 90
        0
176
     1
 62
    18
420
        0
176
     1
 90
       50
176
     1
 90
        3
176
     1
 62
     5
420
      255
176
     1
290
     0
176
     1
 90
       50
176
     1
 90
       50
176
     1
 90
       50
176
     1
290
     0
176
     1
 90
       50
176
     1
 62
   256
176
     0
 40
1.0
176
     0
 90
        2
176
     1
  1
strokes_ogs.tif
176
     1
290
     0
176
     1
 40
1.0
176
     1
 40
1.0
176
     1
1001
ACAD
1000
AcDbSavedByObjectVersion
1070
     0
  0
VISUALSTYLE
  5
3B
102
{ACAD_REACTORS
330
29
102
}
330
29
100
AcDbVisualStyle
  2
Sketchy
 70
    24
177
     3
291
     0
 70
    58
 90
        1
176
     1
 90
        2
176
     1
 90
        2
176
     1
 90
        0
176
     1
 40
0.6
176
     1
 40
30.0
176
     1
 62
     7
420
 16777215
176
     1
 90
        2
176
     1
 90
        2
176
     1
 62
     7
176
     1
 62
     7
176
     1
 90
        1
176
     1
 90
        1
176
     1
 40
40.0
176
     1
 90
       11
176
     1
 62
     7
176
     1
 40
1.0
176
     1
 90
        1
176
     1
 90
        6
176
     1
 90
        2
176
     1
 62
     7
176
     1
 90
        6
176
     1
 90
        0
176
     1
 90
        0
176
     1
290
     0
176
     1
 90
        1
176
     1
 40
0.0
176
     1
 90
        0
176
     1
290
     0
176
     1
290
     1
176
     1
290
     1
176
     1
290
     0
176
     1
290
     0
176
     1
290
     0
176
     1
290
     0
176
     1
290
     0
176
     1
290
     0
176
     1
 90
       50
176
     1
 40
0.0
176
     1
 40
1.0
176
     1
 90
        0
176
     1
 62
    18
420
        0
176
     1
 90
       50
176
     1
 90
        3
176
     1
 62
     5
420
      255
176
     1
290
     0
176
     1
 90
       50
176
     1
 90
       50
176
     1
 90
       50
176
     1
290
     0
176
     1
 90
       50
176
     1
 62
   256
176
     0
 40
1.0
176
     0
 90
        2
176
     1
  1
strokes_ogs.tif
176
     1
290
     0
176
     1
 40
1.0
176
     1
 40
1.0
176
     1
1001
ACAD
1000
AcDbSavedByObjectVersion
1070
     0
  0
VISUALSTYLE
  5
36
102
{ACAD_REACTORS
330
29
102
}
330
29
100
AcDbVisualStyle
  2
Thicken
 70
    13
177
     3
291
     1
 70
    58
 90
        2
176
     1
 90
        2
176
     1
 90
        0
176
     1
 90
        0
176
     1
 40
0.6
176
     1
 40
30.0
176
     1
 62
     7
420
 16777215
176
     1
 90
        1
176
     1
 90
        4
176
     1
 62
     7
176
     1
 62
   257
176
     1
 90
        1
176
     1
 90
        1
176
     1
 40
1.0
176
     1
 90
       12
176
     1
 62
     7
176
     1
 40
1.0
176
     1
 90
        1
176
     1
 90
        6
176
     1
 90
        2
176
     1
 62
     7
176
     1
 90
        5
176
     1
 90
        0
176
     1
 90
        0
176
     1
290
     0
176
     1
 90
        1
176
     1
 40
0.0
176
     1
 90
        0
176
     1
290
     0
176
     1
290
     1
176
     1
290
     1
176
     1
290
     0
176
     1
290
     0
176
     1
290
     0
176
     1
290
     0
176
     1
290
     0
176
     1
290
     0
176
     1
 90
       50
176
     1
 40
0.0
176
     1
 40
1.0
176
     1
 90
        0
176
     1
 62
    18
420
        0
176
     1
 90
       50
176
     1
 90
        3
176
     1
 62
     5
420
      255
176
     1
290
     0
176
     1
 90
       50
176
     1
 90
       50
176
     1
 90
       50
176
     1
290
     0
176
     1
 90
       50
176
     1
 62
   256
176
     0
 40
1.0
176
     0
 90
        2
176
     1
  1
strokes_ogs.tif
176
     1
290
     0
176
     1
 40
1.0
176
     1
 40
1.0
176
     1
1001
ACAD
1000
AcDbSavedByObjectVersion
1070
     0
  0
VISUALSTYLE
  5
30
102
{ACAD_REACTORS
330
29
102
}
330
29
100
AcDbVisualStyle
  2
Wireframe
 70
     5
177
     3
291
     0
 70
    58
 90
        0
176
     1
 90
        2
176
     1
 90
        0
176
     1
 90
        0
176
     1
 40
0.6
176
     1
 40
30.0
176
     1
 62
     7
420
 16777215
176
     1
 90
        1
176
     1
 90
        4
176
     1
 62
     7
176
     1
 62
   257
176
     1
 90
        1
176
     1
 90
        1
176
     1
 40
1.0
176
     1
 90
        0
176
     1
 62
   257
176
     1
 40
1.0
176
     1
 90
        1
176
     1
 90
        6
176
     1
 90
        2
176
     1
 62
     7
176
     1
 90
        3
176
     1
 90
        0
176
     1
 90
        0
176
     1
290
     0
176
     1
 90
        1
176
     1
 40
0.0
176
     1
 90
        0
176
     1
290
     0
176
     1
290
     1
176
     1
290
     1
176
     1
290
     0
176
     1
290
     0
176
     1
290
     0
176
     1
290
     0
176
     1
290
     0
176
     1
290
     0
176
     1
 90
       50
176
     1
 40
0.0
176
     1
 40
1.0
176
     1
 90
        0
176
     1
 62
    18
420
        0
176
     1
 90
       50
176
     1
 90
        3
176
     1
 62
     5
420
      255
176
     1
290
     0
176
     1
 90
       50
176
     1
 90
       50
176
     1
 90
       50
176
     1
290
     0
176
     1
 90
       50
176
     1
 62
   256
176
     0
 40
1.0
176
     0
 90
        2
176
     1
  1
strokes_ogs.tif
176
     1
290
     0
176
     1
 40
1.0
176
     1
 40
1.0
176
     1
1001
ACAD
1000
AcDbSavedByObjectVersion
1070
     0
  0
VISUALSTYLE
  5
3C
102
{ACAD_REACTORS
330
29
102
}
330
29
100
AcDbVisualStyle
  2
X-Ray
 70
    25
177
     3
291
     0
 70
    58
 90
        2
176
     1
 90
        2
176
     1
 90
        1
176
     1
 90
        1
176
     1
 40
0.5
176
     1
 40
30.0
176
     1
 62
     7
420
 16777215
176
     1
 90
        1
176
     1
 90
        0
176
     1
 62
     7
176
     1
 62
   257
176
     1
 90
        1
176
     1
 90
        1
176
     1
 40
1.0
176
     1
 90
        8
176
     1
 62
     7
176
     1
 40
1.0
176
     1
 90
        1
176
     1
 90
        6
176
     1
 90
        2
176
     1
 62
     7
176
     1
 90
        3
176
     1
 90
        0
176
     1
 90
        0
176
     1
290
     0
176
     1
 90
       13
176
     1
 40
0.0
176
     1
 90
        0
176
     1
290
     0
176
     1
290
     1
176
     1
290
     1
176
     1
290
     0
176
     1
290
     0
176
     1
290
     0
176
     1
290
     0
176
     1
290
     0
176
     1
290
     0
176
     1
 90
       50
176
     1
 40
0.0
176
     1
 40
1.0
176
     1
 90
        0
176
     1
 62
    18
420
        0
176
     1
 90
       50
176
     1
 90
        3
176
     1
 62
     5
420
      255
176
     1
290
     0
176
     1
 90
       50
176
     1
 90
       50
176
     1
 90
       50
176
     1
290
     0
176
     1
 90
       50
176
     1
 62
   256
176
     0
 40
1.0
176
     0
 90
        2
176
     1
  1
strokes_ogs.tif
176
     1
290
     0
176
     1
 40
1.0
176
     1
 40
1.0
176
     1
1001
ACAD
1000
AcDbSavedByObjectVersion
1070
     0
  0
DICTIONARYVAR
  5
145
102
{ACAD_REACTORS
330
140
102
}
330
140
100
DictionaryVariables
280
     0
  1
1:1
  0
DICTIONARYVAR
  5
142
102
{ACAD_REACTORS
330
140
102
}
330
140
100
DictionaryVariables
280
     0
  1
STANDARD
  0
DICTIONARYVAR
  5
141
102
{ACAD_REACTORS
330
140
102
}
330
140
100
DictionaryVariables
280
     0
  1
STANDARD
  0
DICTIONARYVAR
  5
143
102
{ACAD_REACTORS
330
140
102
}
330
140
100
DictionaryVariables
280
     0
  1
Imperial24
  0
DICTIONARYVAR
  5
144
102
{ACAD_REACTORS
330
140
102
}
330
140
100
DictionaryVariables
280
     0
  1
Imperial24
  0
DICTIONARY
  5
14B
330
6B
100
AcDbDictionary
280
     1
281
     1
  3
ACAD_XREC_ROUNDTRIP
360
14C
  0
DICTIONARY
  5
1A
330
19
100
AcDbDictionary
280
     1
281
     1
  3
BUMPTILE
360
1C
  3
DIFFUSETILE
360
1B
  3
OPACITYTILE
360
1F
  3
REFLECTIONTILE
360
1E
  3
REFRACTIONTILE
360
20
  3
SPECULARTILE
360
1D
  0
DICTIONARY
  5
12
330
11
100
AcDbDictionary
280
     1
281
     1
  3
BUMPTILE
360
14
  3
DIFFUSETILE
360
13
  3
OPACITYTILE
360
17
  3
REFLECTIONTILE
360
16
  3
REFRACTIONTILE
360
18
  3
SPECULARTILE
360
15
  0
DICTIONARY
  5
22
330
21
100
AcDbDictionary
280
     1
281
     1
  3
BUMPTILE
360
24
  3
DIFFUSETILE
360
23
  3
OPACITYTILE
360
27
  3
REFLECTIONTILE
360
26
  3
REFRACTIONTILE
360
28
  3
SPECULARTILE
360
25
  0
DICTIONARY
  5
149
330
69
100
AcDbDictionary
280
     1
281
     1
  3
ACAD_XREC_ROUNDTRIP
360
14A
  0
DICTIONARY
  5
146
330
65
100
AcDbDictionary
280
     1
281
     1
  3
ACAD_ROUNDTRIP_2008_TABLESTYLE_CELLSTYLEMAP
360
147
  0
XRECORD
  5
14C
102
{ACAD_REACTORS
330
14B
102
}
330
14B
100
AcDbXrecord
280
     1
102
DISPLAYNAME
  1
Imperial24
102
FLAGS
 90
        0
  0
XRECORD
  5
1C
102
{ACAD_REACTORS
330
1A
102
}
330
1A
100
AcDbXrecord
280
     1
270
     1
271
     1
  0
XRECORD
  5
1B
102
{ACAD_REACTORS
330
1A
102
}
330
1A
100
AcDbXrecord
280
     1
270
     1
271
     1
  0
XRECORD
  5
1F
102
{ACAD_REACTORS
330
1A
102
}
330
1A
100
AcDbXrecord
280
     1
270
     1
271
     1
  0
XRECORD
  5
1E
102
{ACAD_REACTORS
330
1A
102
}
330
1A
100
AcDbXrecord
280
     1
270
     1
271
     1
  0
XRECORD
  5
20
102
{ACAD_REACTORS
330
1A
102
}
330
1A
100
AcDbXrecord
280
     1
270
     1
271
     1
  0
XRECORD
  5
1D
102
{ACAD_REACTORS
330
1A
102
}
330
1A
100
AcDbXrecord
280
     1
270
     1
271
     1
  0
XRECORD
  5
14
102
{ACAD_REACTORS
330
12
102
}
330
12
100
AcDbXrecord
280
     1
270
     1
271
     1
  0
XRECORD
  5
13
102
{ACAD_REACTORS
330
12
102
}
330
12
100
AcDbXrecord
280
     1
270
     1
271
     1
  0
XRECORD
  5
17
102
{ACAD_REACTORS
330
12
102
}
330
12
100
AcDbXrecord
280
     1
270
     1
271
     1
  0
XRECORD
  5
16
102
{ACAD_REACTORS
330
12
102
}
330
12
100
AcDbXrecord
280
     1
270
     1
271
     1
  0
XRECORD
  5
18
102
{ACAD_REACTORS
330
12
102
}
330
12
100
AcDbXrecord
280
     1
270
     1
271
     1
  0
XRECORD
  5
15
102
{ACAD_REACTORS
330
12
102
}
330
12
100
AcDbXrecord
280
     1
270
     1
271
     1
  0
XRECORD
  5
24
102
{ACAD_REACTORS
330
22
102
}
330
22
100
AcDbXrecord
280
     1
270
     1
271
     1
  0
XRECORD
  5
23
102
{ACAD_REACTORS
330
22
102
}
330
22
100
AcDbXrecord
280
     1
270
     1
271
     1
  0
XRECORD
  5
27
102
{ACAD_REACTORS
330
22
102
}
330
22
100
AcDbXrecord
280
     1
270
     1
271
     1
  0
XRECORD
  5
26
102
{ACAD_REACTORS
330
22
102
}
330
22
100
AcDbXrecord
280
     1
270
     1
271
     1
  0
XRECORD
  5
28
102
{ACAD_REACTORS
330
22
102
}
330
22
100
AcDbXrecord
280
     1
270
     1
271
     1
  0
XRECORD
  5
25
102
{ACAD_REACTORS
330
22
102
}
330
22
100
AcDbXrecord
280
     1
270
     1
271
     1
  0
XRECORD
  5
14A
102
{ACAD_REACTORS
330
149
102
}
330
149
100
AcDbXrecord
280
     1
102
DISPLAYNAME
  1
Imperial24
102
FLAGS
 90
        0
  0
CELLSTYLEMAP
  5
147
102
{ACAD_REACTORS
330
146
102
}
330
146
100
AcDbCellStyleMap
 90
        3
300
CELLSTYLE
  1
TABLEFORMAT_BEGIN
 90
        5
170
     1
 91
        0
 92
    32768
 62
   257
 93
        1
300
CONTENTFORMAT
  1
CONTENTFORMAT_BEGIN
 90
        0
 91
        0
 92
      512
 93
        0
300

 40
0.0
140
1.0
 94
        5
 62
     0
340
55
144
0.25
309
CONTENTFORMAT_END
171
     0
 94
        0
309
TABLEFORMAT_END
  1
CELLSTYLE_BEGIN
 90
        1
 91
        1
300
_TITLE
309
CELLSTYLE_END
300
CELLSTYLE
  1
TABLEFORMAT_BEGIN
 90
        5
170
     1
 91
        0
 92
        0
 62
   257
 93
        1
300
CONTENTFORMAT
  1
CONTENTFORMAT_BEGIN
 90
        0
 91
        0
 92
      512
 93
        0
300

 40
0.0
140
1.0
 94
        5
 62
     0
340
55
144
0.18
309
CONTENTFORMAT_END
171
     0
 94
        0
309
TABLEFORMAT_END
  1
CELLSTYLE_BEGIN
 90
        2
 91
        1
300
_HEADER
309
CELLSTYLE_END
300
CELLSTYLE
  1
TABLEFORMAT_BEGIN
 90
        5
170
     1
 91
        0
 92
        0
 62
   257
 93
        1
300
CONTENTFORMAT
  1
CONTENTFORMAT_BEGIN
 90
        0
 91
        0
 92
      512
 93
        0
300

 40
0.0
140
1.0
 94
        2
 62
     0
340
55
144
0.18
309
CONTENTFORMAT_END
171
     0
 94
        0
309
TABLEFORMAT_END
  1
CELLSTYLE_BEGIN
 90
        3
 91
        2
300
_DATA
309
CELLSTYLE_END
  0
ENDSEC
  0
EOF
