0
SECTION
2
HEADER
9
$INSUNITS
70
1
9
$ACADVER
1
AC1014
9
$HANDSEED
5
FFFF
0
ENDSEC
0
SECTION
2
TABLES
0
TABLE
2
VPORT
5
8
100
AcDbSymbolTable
0
ENDTAB
0
TABLE
2
LTYPE
5
5
100
AcDbSymbolTable
0
LTYPE
5
14
100
AcDbSymbolTableRecord
100
AcDbLinetypeTableRecord
2
BYBLOCK
70
0
0
LTYPE
5
15
100
AcDbSymbolTableRecord
100
AcDbLinetypeTableRecord
2
BYLAYER
70
0
0
ENDTAB
0
TABLE
2
LAYER
5
2
100
AcDbSymbolTable
70
2
0
LAYER
5
50
100
AcDbSymbolTableRecord
100
AcDbLayerTableRecord
2
0
70
0
6
CONTINUOUS
0
ENDTAB
0
TABLE
2
STYLE
5
3
100
AcDbSymbolTable
70
1
0
STYLE
5
11
100
AcDbSymbolTableRecord
100
AcDbTextStyleTableRecord
2
STANDARD
70
0
0
ENDTAB
0
TABLE
2
VIEW
5
6
100
AcDbSymbolTable
70
0
0
ENDTAB
0
TABLE
2
UCS
5
7
100
AcDbSymbolTable
70
0
0
ENDTAB
0
TABLE
2
APPID
5
9
100
AcDbSymbolTable
70
2
0
APPID
5
12
100
AcDbSymbolTableRecord
100
AcDbRegAppTableRecord
2
ACAD
70
0
0
ENDTAB
0
TABLE
2
DIMSTYLE
5
A
100
AcDbSymbolTable
70
1
0
ENDTAB
0
TABLE
2
BLOCK_RECORD
5
1
100
AcDbSymbolTable
70
1
0
BLOCK_RECORD
5
1F
100
AcDbSymbolTableRecord
100
AcDbBlockTableRecord
2
*MODEL_SPACE
0
BLOCK_RECORD
5
1B
100
AcDbSymbolTableRecord
100
AcDbBlockTableRecord
2
*PAPER_SPACE
0
ENDTAB
0
ENDSEC
0
SECTION
2
BLOCKS
0
BLOCK
5
20
100
AcDbEntity
100
AcDbBlockBegin
2
*MODEL_SPACE
0
ENDBLK
5
21
100
AcDbEntity
100
AcDbBlockEnd
0
BLOCK
5
1C
100
AcDbEntity
100
AcDbBlockBegin
2
*PAPER_SPACE
0
ENDBLK
5
1D
100
AcDbEntity
100
AcDbBlockEnd
0
ENDSEC
0
SECTION
2
ENTITIES
0
LINE
5
100
100
AcDbEntity
8
0
100
AcDbLine
10
50.697893804357015
20
7.546256289509329
30
0
11
50.698063388848638
21
6.9006398254651717
31
0
0
LINE
5
101
100
AcDbEntity
8
0
100
AcDbLine
10
50.698063388848638
20
6.9006398254651717
30
0
11
51.836064889165726
21
6.9009387450508086
31
0
0
LINE
5
102
100
AcDbEntity
8
0
100
AcDbLine
10
51.836064889165726
20
6.9009387450508086
30
0
11
51.835895304674089
21
7.5465552090949659
31
0
0
SPLINE
5
103
100
AcDbEntity
8
0
100
AcDbSpline
70
0
71
2
72
6
73
3
74
0
42
0.000000001
43
0.0000000001
44
0.0000000001
40
0
40
0
40
0
40
1
40
1
40
1
10
51.835895304674089
20
7.5465552090949659
30
0
10
51.835849302847613
20
7.7216864151225941
30
0
10
51.779156770082203
20
7.7701790055027615
30
0
0
SPLINE
5
104
100
AcDbEntity
8
0
100
AcDbSpline
70
0
71
2
72
6
73
3
74
0
42
0.000000001
43
0.0000000001
44
0.0000000001
40
0
40
0
40
0
40
1
40
1
40
1
10
51.779156770082203
20
7.7701790055027615
30
0
10
51.722464237366097
20
7.8186714081517694
30
0
10
51.531402263501448
20
7.8232501092666595
30
0
0
LINE
5
105
100
AcDbEntity
8
0
100
AcDbLine
10
51.531402263501448
20
7.8232501092666595
30
0
11
51.531355825613709
21
8.0000414219259852
31
0
0
LINE
5
106
100
AcDbEntity
8
0
100
AcDbLine
10
51.531355825613709
20
8.0000414219259852
30
0
11
52.593762494083286
21
8.000320484968551
31
0
0
LINE
5
107
100
AcDbEntity
8
0
100
AcDbLine
10
52.593762494083286
20
8.000320484968551
30
0
11
52.59380893197104
21
7.82352917230922
31
0
0
SPLINE
5
108
100
AcDbEntity
8
0
100
AcDbSpline
70
0
71
2
72
6
73
3
74
0
42
0.000000001
43
0.0000000001
44
0.0000000001
40
0
40
0
40
0
40
1
40
1
40
1
10
52.59380893197104
20
7.82352917230922
30
0
10
52.389916071064178
20
7.8189107444833423
30
0
10
52.33966773970824
20
7.7653780170710043
30
0
0
SPLINE
5
109
100
AcDbEntity
8
0
100
AcDbSpline
70
0
71
2
72
6
73
3
74
0
42
0.000000001
43
0.0000000001
44
0.0000000001
40
0
40
0
40
0
40
1
40
1
40
1
10
52.33966773970824
20
7.7653780170710043
30
0
10
52.28941790645375
20
7.7118454769953315
30
0
10
52.289461292060494
20
7.5466743475644442
30
0
0
LINE
5
110
100
AcDbEntity
8
0
100
AcDbLine
10
52.289461292060494
20
7.5466743475644442
30
0
11
52.289917452985208
21
5.8100473694048853
31
0
0
SPLINE
5
111
100
AcDbEntity
8
0
100
AcDbSpline
70
0
71
2
72
6
73
3
74
0
42
0.000000001
43
0.0000000001
44
0.0000000001
40
0
40
0
40
0
40
1
40
1
40
1
10
52.289917452985208
20
5.8100473694048853
30
0
10
52.289964175893211
20
5.6321709706513285
30
0
10
52.345953813812812
20
5.5837900834193128
30
0
0
SPLINE
5
112
100
AcDbEntity
8
0
100
AcDbSpline
70
0
71
2
72
6
73
3
74
0
42
0.000000001
43
0.0000000001
44
0.0000000001
40
0
40
0
40
0
40
1
40
1
40
1
10
52.345953813812812
20
5.5837900834193128
30
0
10
52.401944953680292
20
5.5354088211194705
30
0
10
52.594410544406223
20
5.5331611711830204
30
0
0
LINE
5
113
100
AcDbEntity
8
0
100
AcDbLine
10
52.594410544406223
20
5.5331611711830204
30
0
11
52.594456931996277
21
5.3565613443050228
31
0
0
LINE
5
114
100
AcDbEntity
8
0
100
AcDbLine
10
52.594456931996277
20
5.3565613443050228
30
0
11
51.532050263526699
21
5.3562822812624615
31
0
0
LINE
5
115
100
AcDbEntity
8
0
100
AcDbLine
10
51.532050263526699
20
5.3562822812624615
30
0
11
51.532003859170743
21
5.5329459367342357
31
0
0
SPLINE
5
116
100
AcDbEntity
8
0
100
AcDbSpline
70
0
71
2
72
6
73
3
74
0
42
0.000000001
43
0.0000000001
44
0.0000000001
40
0
40
0
40
0
40
1
40
1
40
1
10
51.532003859170743
20
5.5329459367342357
30
0
10
51.730565767338078
20
5.5352324695170072
30
0
10
51.78348096374323
20
5.5903619878533917
30
0
0
SPLINE
5
117
100
AcDbEntity
8
0
100
AcDbSpline
70
0
71
2
72
6
73
3
74
0
42
0.000000001
43
0.0000000001
44
0.0000000001
40
0
40
0
40
0
40
1
40
1
40
1
10
51.78348096374323
20
5.5903619878533917
30
0
10
51.836394658299106
20
5.6454915057952837
30
0
10
51.836351465598803
20
5.8099282309354106
30
0
0
LINE
5
118
100
AcDbEntity
8
0
100
AcDbLine
10
51.836351465598803
20
5.8099282309354106
30
0
11
51.836119091833822
21
6.6945865333013082
31
0
0
LINE
5
119
100
AcDbEntity
8
0
100
AcDbLine
10
51.836119091833822
20
6.6945865333013082
30
0
11
50.698117591516763
21
6.6942876137156713
31
0
0
LINE
5
120
100
AcDbEntity
8
0
100
AcDbLine
10
50.698117591516763
20
6.6942876137156713
30
0
11
50.698349965281736
21
5.809629311349771
31
0
0
SPLINE
5
121
100
AcDbEntity
8
0
100
AcDbSpline
70
0
71
2
72
6
73
3
74
0
42
0.000000001
43
0.0000000001
44
0.0000000001
40
0
40
0
40
0
40
1
40
1
40
1
10
50.698349965281736
20
5.809629311349771
30
0
10
50.698420837887497
20
5.5398138306560787
30
0
10
51.002843958619074
20
5.5321682805188326
30
0
0
LINE
5
122
100
AcDbEntity
8
0
100
AcDbLine
10
51.002843958619088
20
5.5321682805188326
30
0
11
51.002890195217432
21
5.3561432864471534
31
0
0
LINE
5
123
100
AcDbEntity
8
0
100
AcDbLine
10
51.002890195217432
20
5.3561432864471534
30
0
11
49.940482775823213
21
5.3558642232073472
31
0
0
LINE
5
124
100
AcDbEntity
8
0
100
AcDbLine
10
49.940482775823213
20
5.3558642232073472
30
0
11
49.940436371467264
21
5.5325278786791214
31
0
0
SPLINE
5
125
100
AcDbEntity
8
0
100
AcDbSpline
70
0
71
2
72
6
73
3
74
0
42
0.000000001
43
0.0000000001
44
0.0000000001
40
0
40
0
40
0
40
1
40
1
40
1
10
49.940436371467264
20
5.5325278786791214
30
0
10
50.14145680688199
20
5.534815057244824
30
0
10
50.193142097717143
20
5.5895293666329406
30
0
0
SPLINE
5
126
100
AcDbEntity
8
0
100
AcDbSpline
70
0
71
2
72
6
73
3
74
0
42
0.000000001
43
0.0000000001
44
0.0000000001
40
0
40
0
40
0
40
1
40
1
40
1
10
50.193142097717143
20
5.5895293666329406
30
0
10
50.244827388650918
20
5.6442433005587382
30
0
10
50.244783977895324
20
5.8095101728802963
30
0
0
LINE
5
127
100
AcDbEntity
8
0
100
AcDbLine
10
50.244783977895324
20
5.8095101728802954
30
0
11
50.24432781697061
21
7.5461371510398543
31
0
0
SPLINE
5
128
100
AcDbEntity
8
0
100
AcDbSpline
70
0
71
2
72
6
73
3
74
0
42
0.000000001
43
0.0000000001
44
0.0000000001
40
0
40
0
40
0
40
1
40
1
40
1
10
50.24432781697061
20
7.5461371510398543
30
0
10
50.244281815144134
20
7.7212683570674807
30
0
10
50.187589282378724
20
7.7697609474476481
30
0
0
SPLINE
5
129
100
AcDbEntity
8
0
100
AcDbSpline
70
0
71
2
72
6
73
3
74
0
42
0.000000001
43
0.0000000001
44
0.0000000001
40
0
40
0
40
0
40
1
40
1
40
1
10
50.187589282378724
20
7.7697609474476481
30
0
10
50.130896749662618
20
7.8182533500966542
30
0
10
49.939834775797976
20
7.8228320512115417
30
0
0
LINE
5
130
100
AcDbEntity
8
0
100
AcDbLine
10
49.939834775797976
20
7.8228320512115417
30
0
11
49.939788337910223
21
7.9996233638708754
31
0
0
LINE
5
131
100
AcDbEntity
8
0
100
AcDbLine
10
49.939788337910223
20
7.9996233638708754
30
0
11
51.002195757304442
21
7.9999024271106816
31
0
0
LINE
5
132
100
AcDbEntity
8
0
100
AcDbLine
10
51.002195757304442
20
7.9999024271106816
30
0
11
51.002242195192196
21
7.8231111144513505
31
0
0
SPLINE
5
133
100
AcDbEntity
8
0
100
AcDbSpline
70
0
71
2
72
6
73
3
74
0
42
0.000000001
43
0.0000000001
44
0.0000000001
40
0
40
0
40
0
40
1
40
1
40
1
10
51.002242195192196
20
7.8231111144513505
30
0
10
50.798349334285334
20
7.8184926866254756
30
0
10
50.748099501080134
20
7.7649599588186424
30
0
0
SPLINE
5
134
100
AcDbEntity
8
0
100
AcDbSpline
70
0
71
2
72
6
73
3
74
0
42
0.000000001
43
0.0000000001
44
0.0000000001
40
0
40
0
40
0
40
1
40
1
40
1
10
50.748099501080134
20
7.7649599588186424
30
0
10
50.697850418750264
20
7.7114274189402199
30
0
10
50.697893804357015
20
7.546256289509329
30
0
0
LINE
5
135
100
AcDbEntity
8
0
100
AcDbLine
10
44.870327910282398
20
5.4345002893328962
30
0
11
44.870119761711024
21
6.2269320933554999
31
0
0
LINE
5
136
100
AcDbEntity
8
0
100
AcDbLine
10
44.870119761711024
20
6.2269320933554999
30
0
11
45.096903130866544
21
6.2269916626888602
31
0
0
SPLINE
5
137
100
AcDbEntity
8
0
100
AcDbSpline
70
0
71
2
72
6
73
3
74
0
42
0.000000001
43
0.0000000001
44
0.0000000001
40
0
40
0
40
0
40
1
40
1
40
1
10
45.096903130866544
20
6.2269916626888602
30
0
10
45.096990220681406
20
5.89543647281414
30
0
10
45.261780421595766
20
5.7047381301787787
30
0
0
SPLINE
5
138
100
AcDbEntity
8
0
100
AcDbSpline
70
0
71
2
72
6
73
3
74
0
42
0.000000001
43
0.0000000001
44
0.0000000001
40
0
40
0
40
0
40
1
40
1
40
1
10
45.261780421595766
20
5.7047381301787787
30
0
10
45.42657062260875
20
5.514039412081102
30
0
10
45.649682345772774
20
5.5140980169808484
30
0
0
SPLINE
5
139
100
AcDbEntity
8
0
100
AcDbSpline
70
0
71
2
72
6
73
3
74
0
42
0.000000001
43
0.0000000001
44
0.0000000001
40
0
40
0
40
0
40
1
40
1
40
1
10
45.649682345772774
20
5.5140980169808484
30
0
10
45.854949095965736
20
5.5141519345300765
30
0
10
45.972459518574759
20
5.632426781049662
30
0
0
SPLINE
5
140
100
AcDbEntity
8
0
100
AcDbSpline
70
0
71
2
72
6
73
3
74
0
42
0.000000001
43
0.0000000001
44
0.0000000001
40
0
40
0
40
0
40
1
40
1
40
1
10
45.972459518574759
20
5.632426781049662
30
0
10
46.089969941183789
20
5.7507016275692484
30
0
10
46.089921884992428
20
5.9336539013774212
30
0
0
SPLINE
5
141
100
AcDbEntity
8
0
100
AcDbSpline
70
0
71
2
72
6
73
3
74
0
42
0.000000001
43
0.0000000001
44
0.0000000001
40
0
40
0
40
0
40
1
40
1
40
1
10
46.089921884992428
20
5.9336539013774212
30
0
10
46.089880117738609
20
6.0926638819283125
30
0
10
45.99219509450446
20
6.213627395837138
30
0
0
SPLINE
5
142
100
AcDbEntity
8
0
100
AcDbSpline
70
0
71
2
72
6
73
3
74
0
42
0.000000001
43
0.0000000001
44
0.0000000001
40
0
40
0
40
0
40
1
40
1
40
1
10
45.99219509450446
20
6.213627395837138
30
0
10
45.889848059010298
20
6.3384845437795008
30
0
10
45.516344590667629
20
6.5854406565815475
30
0
0
SPLINE
5
143
100
AcDbEntity
8
0
100
AcDbSpline
70
0
71
2
72
6
73
3
74
0
42
0.000000001
43
0.0000000001
44
0.0000000001
40
0
40
0
40
0
40
1
40
1
40
1
10
45.516344590667629
20
6.5854406565815475
30
0
10
45.309031100971836
20
6.7215389841957531
30
0
10
45.127508714887362
20
6.8668061184512208
30
0
0
SPLINE
5
144
100
AcDbEntity
8
0
100
AcDbSpline
70
0
71
2
72
6
73
3
74
0
42
0.000000001
43
0.0000000001
44
0.0000000001
40
0
40
0
40
0
40
1
40
1
40
1
10
45.127508714887362
20
6.8668061184512208
30
0
10
45.031171798172949
20
6.9584326731631112
30
0
10
44.980146645396665
20
7.0663838423287473
30
0
0
SPLINE
5
145
100
AcDbEntity
8
0
100
AcDbSpline
70
0
71
2
72
6
73
3
74
0
42
0.000000001
43
0.0000000001
44
0.0000000001
40
0
40
0
40
0
40
1
40
1
40
1
10
44.980146645396665
20
7.0663838423287473
30
0
10
44.929120366233434
20
7.1743350111985134
30
0
10
44.929088879384324
20
7.2942069876251621
30
0
0
SPLINE
5
146
100
AcDbEntity
8
0
100
AcDbSpline
70
0
71
2
72
6
73
3
74
0
42
0.000000001
43
0.0000000001
44
0.0000000001
40
0
40
0
40
0
40
1
40
1
40
1
10
44.929088879384324
20
7.2942069876251621
30
0
10
44.929008112088127
20
7.6016920393238863
30
0
10
45.20747959671521
20
7.8286760398755924
30
0
0
SPLINE
5
147
100
AcDbEntity
8
0
100
AcDbSpline
70
0
71
2
72
6
73
3
74
0
42
0.000000001
43
0.0000000001
44
0.0000000001
40
0
40
0
40
0
40
1
40
1
40
1
10
45.20747959671521
20
7.8286760398755924
30
0
10
45.48595070592927
20
8.0556598525975147
30
0
10
45.85613327117801
20
8.0557570886898979
30
0
0
SPLINE
5
148
100
AcDbEntity
8
0
100
AcDbSpline
70
0
71
2
72
6
73
3
74
0
42
0.000000001
43
0.0000000001
44
0.0000000001
40
0
40
0
40
0
40
1
40
1
40
1
10
45.85613327117801
20
8.0557570886898979
30
0
10
46.041000402799526
20
8.0558056478581985
30
0
10
46.375427065701842
20
7.9410654683331456
30
0
0
LINE
5
149
100
AcDbEntity
8
0
100
AcDbLine
10
46.375427065701842
20
7.9410654683331456
30
0
11
46.37560995773034
21
7.2447865598269727
31
0
0
LINE
5
150
100
AcDbEntity
8
0
100
AcDbLine
10
46.37560995773034
20
7.2447865598269727
30
0
11
46.147103592005131
21
7.2447265379129959
31
0
0
SPLINE
5
151
100
AcDbEntity
8
0
100
AcDbSpline
70
0
71
2
72
6
73
3
74
0
42
0.000000001
43
0.0000000001
44
0.0000000001
40
0
40
0
40
0
40
1
40
1
40
1
10
46.147103592005131
20
7.2447265379129959
30
0
10
46.12950299857475
20
7.5293499666587866
30
0
10
45.994825532587548
20
7.6832487069593123
30
0
0
SPLINE
5
152
100
AcDbEntity
8
0
100
AcDbSpline
70
0
71
2
72
6
73
3
74
0
42
0.000000001
43
0.0000000001
44
0.0000000001
40
0
40
0
40
0
40
1
40
1
40
1
10
45.994825532587548
20
7.6832487069593123
30
0
10
45.860148817524966
20
7.8371474474570819
30
0
10
45.670524578355419
20
7.8370976387362834
30
0
0
SPLINE
5
153
100
AcDbEntity
8
0
100
AcDbSpline
70
0
71
2
72
6
73
3
74
0
42
0.000000001
43
0.0000000001
44
0.0000000001
40
0
40
0
40
0
40
1
40
1
40
1
10
45.670524578355419
20
7.8370976387362834
30
0
10
45.516781770909319
20
7.8370572550142192
30
0
10
45.418003926503353
20
7.7444697041273338
30
0
0
SPLINE
5
154
100
AcDbEntity
8
0
100
AcDbSpline
70
0
71
2
72
6
73
3
74
0
42
0.000000001
43
0.0000000001
44
0.0000000001
40
0
40
0
40
0
40
1
40
1
40
1
10
45.418003926503353
20
7.7444697041273338
30
0
10
45.319225331123441
20
7.6518823407743612
30
0
10
45.319262771542846
20
7.509344830697148
30
0
0
SPLINE
5
155
100
AcDbEntity
8
0
100
AcDbSpline
70
0
71
2
72
6
73
3
74
0
42
0.000000001
43
0.0000000001
44
0.0000000001
40
0
40
0
40
0
40
1
40
1
40
1
10
45.319262771542846
20
7.509344830697148
30
0
10
45.319299331506052
20
7.3701592604490678
30
0
10
45.392016884803532
20
7.2633949937689302
30
0
0
SPLINE
5
156
100
AcDbEntity
8
0
100
AcDbSpline
70
0
71
2
72
6
73
3
74
0
42
0.000000001
43
0.0000000001
44
0.0000000001
40
0
40
0
40
0
40
1
40
1
40
1
10
45.392016884803532
20
7.2633949937689302
30
0
10
45.527568915186691
20
7.1190734011544796
30
0
10
45.937217427326942
20
6.8433958409721081
30
0
0
SPLINE
5
157
100
AcDbEntity
8
0
100
AcDbSpline
70
0
71
2
72
6
73
3
74
0
42
0.000000001
43
0.0000000001
44
0.0000000001
40
0
40
0
40
0
40
1
40
1
40
1
10
45.937217427326942
20
6.8433958409721081
30
0
10
46.257400507127478
20
6.6287637308135015
30
0
10
46.375680780812651
20
6.4891624195304445
30
0
0
SPLINE
5
158
100
AcDbEntity
8
0
100
AcDbSpline
70
0
71
2
72
6
73
3
74
0
42
0.000000001
43
0.0000000001
44
0.0000000001
40
0
40
0
40
0
40
1
40
1
40
1
10
46.375680780812651
20
6.4891624195304445
30
0
10
46.490258312246965
20
6.3493046335218004
30
0
10
46.490312296859784
20
6.1437825689537284
30
0
0
SPLINE
5
159
100
AcDbEntity
8
0
100
AcDbSpline
70
0
71
2
72
6
73
3
74
0
42
0.000000001
43
0.0000000001
44
0.0000000001
40
0
40
0
40
0
40
1
40
1
40
1
10
46.490312296859784
20
6.1437825689537284
30
0
10
46.490399680225792
20
5.8111098154944196
30
0
10
46.187276025393281
20
5.5543509954674786
30
0
0
SPLINE
5
160
100
AcDbEntity
8
0
100
AcDbSpline
70
0
71
2
72
6
73
3
74
0
42
0.000000001
43
0.0000000001
44
0.0000000001
40
0
40
0
40
0
40
1
40
1
40
1
10
46.187276025393281
20
5.5543509954674786
30
0
10
45.884151619636143
20
5.2975921752432891
30
0
10
45.500912727798962
20
5.2974915096372124
30
0
0
SPLINE
5
161
100
AcDbEntity
8
0
100
AcDbSpline
70
0
71
2
72
6
73
3
74
0
42
0.000000001
43
0.0000000001
44
0.0000000001
40
0
40
0
40
0
40
1
40
1
40
1
10
45.500912727798962
20
5.2974915096372124
30
0
10
45.230171357033171
20
5.2974203938273101
30
0
10
44.870327910282398
20
5.4345002893328962
30
0
0
LINE
5
162
100
AcDbEntity
8
0
100
AcDbLine
10
48.56470357141135
20
4.469488509109893
30
0
11
48.526430443412458
21
4.3569849767602991
31
0
0
SPLINE
5
163
100
AcDbEntity
8
0
100
AcDbSpline
70
0
71
2
72
6
73
3
74
0
42
0.000000001
43
0.0000000001
44
0.0000000001
40
0
40
0
40
0
40
1
40
1
40
1
10
48.526430443412458
20
4.3569849767602991
30
0
10
48.395685449256455
20
4.3540800247185523
30
0
10
48.352119804263836
20
4.3200222122906418
30
0
0
SPLINE
5
164
100
AcDbEntity
8
0
100
AcDbSpline
70
0
71
2
72
6
73
3
74
0
42
0.000000001
43
0.0000000001
44
0.0000000001
40
0
40
0
40
0
40
1
40
1
40
1
10
48.352119804263836
20
4.3200222122906418
30
0
10
48.30855415927121
20
4.2859643998627313
30
0
10
48.272801134426544
20
4.180855598088578
30
0
0
LINE
5
165
100
AcDbEntity
8
0
100
AcDbLine
10
48.272801134426551
20
4.1808555980885771
30
0
11
47.896915283625297
21
3.0757291646034415
31
0
0
SPLINE
5
166
100
AcDbEntity
8
0
100
AcDbSpline
70
0
71
2
72
6
73
3
74
0
42
0.000000001
43
0.0000000001
44
0.0000000001
40
0
40
0
40
0
40
1
40
1
40
1
10
47.896915283625297
20
3.0757291646034415
30
0
10
47.858398856037027
20
2.9625351570302763
30
0
10
47.883548824702444
20
2.931737859469953
30
0
0
SPLINE
5
167
100
AcDbEntity
8
0
100
AcDbSpline
70
0
71
2
72
6
73
3
74
0
42
0.000000001
43
0.0000000001
44
0.0000000001
40
0
40
0
40
0
40
1
40
1
40
1
10
47.883548824702444
20
2.931737859469953
30
0
10
47.908698042443199
20
2.9009405619096289
30
0
10
48.030688006004723
20
2.8994777606747002
30
0
0
LINE
5
168
100
AcDbEntity
8
0
100
AcDbLine
10
48.030688006004716
20
2.8994777606747002
30
0
11
47.992455427937394
21
2.7870962535821269
31
0
0
LINE
5
169
100
AcDbEntity
8
0
100
AcDbLine
10
47.992455427937394
20
2.7870962535821269
30
0
11
47.316378433769863
21
2.7870962535821269
31
0
0
LINE
5
170
100
AcDbEntity
8
0
100
AcDbLine
10
47.316378433769863
20
2.7870962535821269
30
0
11
47.354611011837193
21
2.8995183106062643
31
0
0
SPLINE
5
171
100
AcDbEntity
8
0
100
AcDbSpline
70
0
71
2
72
6
73
3
74
0
42
0.000000001
43
0.0000000001
44
0.0000000001
40
0
40
0
40
0
40
1
40
1
40
1
10
47.354611011837193
20
2.8995183106062643
30
0
10
47.48145720516581
20
2.9009405619096289
30
0
10
47.527074376325686
20
2.9360139999382802
30
0
0
SPLINE
5
172
100
AcDbEntity
8
0
100
AcDbSpline
70
0
71
2
72
6
73
3
74
0
42
0.000000001
43
0.0000000001
44
0.0000000001
40
0
40
0
40
0
40
1
40
1
40
1
10
47.527074376325686
20
2.9360139999382802
30
0
10
47.572690796560906
20
2.9710874379669305
30
0
10
47.608282372603988
20
3.0757291646034415
30
0
0
LINE
5
173
100
AcDbEntity
8
0
100
AcDbLine
10
47.608282372603988
20
3.0757291646034415
30
0
11
47.79975013835201
21
3.6386936265232714
31
0
0
LINE
5
174
100
AcDbEntity
8
0
100
AcDbLine
10
47.79975013835201
20
3.6386936265232714
30
0
11
47.075567408706043
21
3.6386936265232714
31
0
0
LINE
5
175
100
AcDbEntity
8
0
100
AcDbLine
10
47.075567408706043
20
3.6386936265232714
30
0
11
46.884099642958006
21
3.0757291646034415
31
0
0
SPLINE
5
176
100
AcDbEntity
8
0
100
AcDbSpline
70
0
71
2
72
6
73
3
74
0
42
0.000000001
43
0.0000000001
44
0.0000000001
40
0
40
0
40
0
40
1
40
1
40
1
10
46.884099642958006
20
3.0757291646034415
30
0
10
46.825694224862382
20
2.9040283641057414
30
0
10
47.017731191501625
20
2.8991120603659684
30
0
0
LINE
5
177
100
AcDbEntity
8
0
100
AcDbLine
10
47.017731191501625
20
2.8991120603659679
30
0
11
46.979640538194765
21
2.7870962535821269
31
0
0
LINE
5
178
100
AcDbEntity
8
0
100
AcDbLine
10
46.979640538194765
20
2.7870962535821269
30
0
11
46.303562793102572
21
2.7870962535821269
31
0
0
LINE
5
179
100
AcDbEntity
8
0
100
AcDbLine
10
46.303562793102572
20
2.7870962535821269
30
0
11
46.341795371169901
21
2.8995183106062643
31
0
0
SPLINE
5
180
100
AcDbEntity
8
0
100
AcDbSpline
70
0
71
2
72
6
73
3
74
0
42
0.000000001
43
0.0000000001
44
0.0000000001
40
0
40
0
40
0
40
1
40
1
40
1
10
46.341795371169901
20
2.8995183106062643
30
0
10
46.470205740562356
20
2.9009405619096289
30
0
10
46.514949586344294
20
2.9357500499207863
30
0
0
SPLINE
5
181
100
AcDbEntity
8
0
100
AcDbSpline
70
0
71
2
72
6
73
3
74
0
42
0.000000001
43
0.0000000001
44
0.0000000001
40
0
40
0
40
0
40
1
40
1
40
1
10
46.514949586344294
20
2.9357500499207863
30
0
10
46.559692681201582
20
2.970559537931944
30
0
10
46.595466731936696
20
3.0757291646034415
30
0
0
LINE
5
182
100
AcDbEntity
8
0
100
AcDbLine
10
46.595466731936696
20
3.0757291646034415
30
0
11
46.97135183181328
21
4.180855598088578
31
0
0
SPLINE
5
183
100
AcDbEntity
8
0
100
AcDbSpline
70
0
71
2
72
6
73
3
74
0
42
0.000000001
43
0.0000000001
44
0.0000000001
40
0
40
0
40
0
40
1
40
1
40
1
10
46.97135183181328
20
4.180855598088578
30
0
10
47.009259259503438
20
4.2923025794435397
30
0
10
46.983693278577164
20
4.3231710271152641
30
0
0
SPLINE
5
184
100
AcDbEntity
8
0
100
AcDbSpline
70
0
71
2
72
6
73
3
74
0
42
0.000000001
43
0.0000000001
44
0.0000000001
40
0
40
0
40
0
40
1
40
1
40
1
10
46.983693278577164
20
4.3231710271152641
30
0
10
46.95812729765089
20
4.3540394747869886
30
0
10
46.837537808577629
20
4.3569849767602991
30
0
0
LINE
5
185
100
AcDbEntity
8
0
100
AcDbLine
10
46.837537808577629
20
4.3569849767602991
30
0
11
46.875810936576521
21
4.469488509109893
31
0
0
LINE
5
186
100
AcDbEntity
8
0
100
AcDbLine
10
46.875810936576521
20
4.469488509109893
30
0
11
47.551888681668714
21
4.469488509109893
31
0
0
LINE
5
187
100
AcDbEntity
8
0
100
AcDbLine
10
47.551888681668714
20
4.469488509109893
30
0
11
47.513615553669823
21
4.3569849767602991
31
0
0
SPLINE
5
188
100
AcDbEntity
8
0
100
AcDbSpline
70
0
71
2
72
6
73
3
74
0
42
0.000000001
43
0.0000000001
44
0.0000000001
40
0
40
0
40
0
40
1
40
1
40
1
10
47.513615553669823
20
4.3569849767602991
30
0
10
47.382869808589163
20
4.3540800247185523
30
0
10
47.339304163596545
20
4.3200222122906418
30
0
0
SPLINE
5
189
100
AcDbEntity
8
0
100
AcDbSpline
70
0
71
2
72
6
73
3
74
0
42
0.000000001
43
0.0000000001
44
0.0000000001
40
0
40
0
40
0
40
1
40
1
40
1
10
47.339304163596545
20
4.3200222122906418
30
0
10
47.295738518603926
20
4.2859643998627313
30
0
10
47.259985493759253
20
4.180855598088578
30
0
0
LINE
5
190
100
AcDbEntity
8
0
100
AcDbLine
10
47.25998549375926
20
4.1808555980885771
30
0
11
47.120239165720761
21
3.7700085724951435
31
0
0
LINE
5
191
100
AcDbEntity
8
0
100
AcDbLine
10
47.120239165720761
20
3.7700085724951435
30
0
11
47.844421895366736
21
3.7700085724951435
31
0
0
LINE
5
192
100
AcDbEntity
8
0
100
AcDbLine
10
47.844421895366736
20
3.7700085724951435
30
0
11
47.984168223405227
21
4.180855598088578
31
0
0
SPLINE
5
193
100
AcDbEntity
8
0
100
AcDbSpline
70
0
71
2
72
6
73
3
74
0
42
0.000000001
43
0.0000000001
44
0.0000000001
40
0
40
0
40
0
40
1
40
1
40
1
10
47.984168223405227
20
4.180855598088578
30
0
10
48.022074900170729
20
4.2923025794435397
30
0
10
47.996508919244455
20
4.3231710271152641
30
0
0
SPLINE
5
194
100
AcDbEntity
8
0
100
AcDbSpline
70
0
71
2
72
6
73
3
74
0
42
0.000000001
43
0.0000000001
44
0.0000000001
40
0
40
0
40
0
40
1
40
1
40
1
10
47.996508919244455
20
4.3231710271152641
30
0
10
47.970942938318181
20
4.3540394747869886
30
0
10
47.850353449244921
20
4.3569849767602991
30
0
0
LINE
5
195
100
AcDbEntity
8
0
100
AcDbLine
10
47.850353449244921
20
4.3569849767602991
30
0
11
47.888626577243812
21
4.469488509109893
31
0
0
LINE
5
196
100
AcDbEntity
8
0
100
AcDbLine
10
47.888626577243812
20
4.469488509109893
30
0
11
48.56470357141135
21
4.469488509109893
31
0
0
SPLINE
5
197
100
AcDbEntity
8
0
100
AcDbSpline
70
0
71
2
72
6
73
3
74
0
42
0.000000001
43
0.0000000001
44
0.0000000001
40
0
40
0
40
0
40
1
40
1
40
1
10
43.645573309893599
20
5.8426211611817545
30
0
10
43.718281888235957
20
6.011594183515915
30
0
10
43.718189473719896
20
6.3634207715810511
30
0
0
SPLINE
5
198
100
AcDbEntity
8
0
100
AcDbSpline
70
0
71
2
72
6
73
3
74
0
42
0.000000001
43
0.0000000001
44
0.0000000001
40
0
40
0
40
0
40
1
40
1
40
1
10
43.718189473719896
20
6.3634207715810511
30
0
10
43.717983572419882
20
7.1472971035323489
30
0
10
43.639158634296599
20
7.4760543163402389
30
0
0
SPLINE
5
199
100
AcDbEntity
8
0
100
AcDbSpline
70
0
71
2
72
6
73
3
74
0
42
0.000000001
43
0.0000000001
44
0.0000000001
40
0
40
0
40
0
40
1
40
1
40
1
10
43.639158634296599
20
7.4760543163402389
30
0
10
43.560333320661705
20
7.8048117167806659
30
0
10
43.352092500682353
20
7.8234640537707048
30
0
0
LINE
5
200
100
AcDbEntity
8
0
100
AcDbLine
10
43.352092500682353
20
7.8234640537707048
30
0
11
43.352046683379378
21
7.9978927698044604
31
0
0
LINE
5
201
100
AcDbEntity
8
0
100
AcDbLine
10
43.352046683379378
20
7.9978927698044604
30
0
11
44.31638559851919
21
7.9981460733272138
31
0
0
LINE
5
202
100
AcDbEntity
8
0
100
AcDbLine
10
44.31638559851919
20
7.9981460733272138
30
0
11
44.316430837250756
21
7.8259200069722725
31
0
0
SPLINE
5
203
100
AcDbEntity
8
0
100
AcDbSpline
70
0
71
2
72
6
73
3
74
0
42
0.000000001
43
0.0000000001
44
0.0000000001
40
0
40
0
40
0
40
1
40
1
40
1
10
44.316430837250756
20
7.8259200069722725
30
0
10
43.942560204004558
20
7.7697006949124372
30
0
10
43.942865152607034
20
6.6087464322727998
30
0
0
SPLINE
5
204
100
AcDbEntity
8
0
100
AcDbSpline
70
0
71
2
72
6
73
3
74
0
42
0.000000001
43
0.0000000001
44
0.0000000001
40
0
40
0
40
0
40
1
40
1
40
1
10
43.942865152607034
20
6.6087464322727998
30
0
10
43.942973314739113
20
6.1969678988458954
30
0
10
43.925177085558474
20
6.0113932144176685
30
0
0
SPLINE
5
205
100
AcDbEntity
8
0
100
AcDbSpline
70
0
71
2
72
6
73
3
74
0
42
0.000000001
43
0.0000000001
44
0.0000000001
40
0
40
0
40
0
40
1
40
1
40
1
10
43.925177085558474
20
6.0113932144176685
30
0
10
43.907380480915521
20
5.8258185298908218
30
0
10
43.797208495753026
20
5.6617039117490755
30
0
0
SPLINE
5
206
100
AcDbEntity
8
0
100
AcDbSpline
70
0
71
2
72
6
73
3
74
0
42
0.000000001
43
0.0000000001
44
0.0000000001
40
0
40
0
40
0
40
1
40
1
40
1
10
43.797208495753026
20
5.6617039117490755
30
0
10
43.68703613512821
20
5.4975892935087058
30
0
10
43.463264409329859
20
5.3972433972445835
30
0
0
SPLINE
5
207
100
AcDbEntity
8
0
100
AcDbSpline
70
0
71
2
72
6
73
3
74
0
42
0.000000001
43
0.0000000001
44
0.0000000001
40
0
40
0
40
0
40
1
40
1
40
1
10
43.463264409329859
20
5.3972433972445835
30
0
10
43.239492683531502
20
5.2968975009804575
30
0
10
42.92862340224444
20
5.2968158447465044
30
0
0
SPLINE
5
208
100
AcDbEntity
8
0
100
AcDbSpline
70
0
71
2
72
6
73
3
74
0
42
0.000000001
43
0.0000000001
44
0.0000000001
40
0
40
0
40
0
40
1
40
1
40
1
10
42.92862340224444
20
5.2968158447465044
30
0
10
42.604250994212485
20
5.2967306416375681
30
0
10
42.374090696004821
20
5.3925200893244734
30
0
0
SPLINE
5
209
100
AcDbEntity
8
0
100
AcDbSpline
70
0
71
2
72
6
73
3
74
0
42
0.000000001
43
0.0000000001
44
0.0000000001
40
0
40
0
40
0
40
1
40
1
40
1
10
42.374090696004821
20
5.3925200893244734
30
0
10
42.143930773358086
20
5.4883091616476847
30
0
10
42.019908330493386
20
5.6716437569121965
30
0
0
SPLINE
5
210
100
AcDbEntity
8
0
100
AcDbSpline
70
0
71
2
72
6
73
3
74
0
42
0.000000001
43
0.0000000001
44
0.0000000001
40
0
40
0
40
0
40
1
40
1
40
1
10
42.019908330493386
20
5.6716437569121965
30
0
10
41.895886262992384
20
5.8549787277376479
30
0
10
41.895816379821149
20
6.1210273827426489
30
0
0
LINE
5
211
100
AcDbEntity
8
0
100
AcDbLine
10
41.895816379821149
20
6.1210273827426489
30
0
11
41.895442621360765
21
7.5439441439985453
31
0
0
SPLINE
5
212
100
AcDbEntity
8
0
100
AcDbSpline
70
0
71
2
72
6
73
3
74
0
42
0.000000001
43
0.0000000001
44
0.0000000001
40
0
40
0
40
0
40
1
40
1
40
1
10
41.895442621360765
20
7.5439441439985453
30
0
10
41.895396435060107
20
7.7197776522888919
30
0
10
41.83873590466186
20
7.7679349632035137
30
0
0
SPLINE
5
213
100
AcDbEntity
8
0
100
AcDbSpline
70
0
71
2
72
6
73
3
74
0
42
0.000000001
43
0.0000000001
44
0.0000000001
40
0
40
0
40
0
40
1
40
1
40
1
10
41.83873590466186
20
7.7679349632035137
30
0
10
41.782075374263606
20
7.8160922741181338
30
0
10
41.59094939245697
20
7.8206390441209237
30
0
0
LINE
5
214
100
AcDbEntity
8
0
100
AcDbLine
10
41.59094939245697
20
7.8206390441209237
30
0
11
41.590902954618542
21
7.997430169049097
31
0
0
LINE
5
215
100
AcDbEntity
8
0
100
AcDbLine
10
41.590902954618542
20
7.997430169049097
30
0
11
42.65330981081928
21
7.9977092321409708
31
0
0
LINE
5
216
100
AcDbEntity
8
0
100
AcDbLine
10
42.65330981081928
20
7.9977092321409708
30
0
11
42.653356248657715
21
7.8209181072127985
31
0
0
SPLINE
5
217
100
AcDbEntity
8
0
100
AcDbSpline
70
0
71
2
72
6
73
3
74
0
42
0.000000001
43
0.0000000001
44
0.0000000001
40
0
40
0
40
0
40
1
40
1
40
1
10
42.653356248657715
20
7.8209181072127985
30
0
10
42.450932187998745
20
7.8163317917655473
30
0
10
42.399948386918908
20
7.7639962205763267
30
0
0
SPLINE
5
218
100
AcDbEntity
8
0
100
AcDbSpline
70
0
71
2
72
6
73
3
74
0
42
0.000000001
43
0.0000000001
44
0.0000000001
40
0
40
0
40
0
40
1
40
1
40
1
10
42.399948386918908
20
7.7639962205763267
30
0
10
42.348964585888368
20
7.711660461655951
30
0
10
42.34900860874717
20
7.5440632824680227
30
0
0
LINE
5
219
100
AcDbEntity
8
0
100
AcDbLine
10
42.34900860874717
20
7.5440632824680227
30
0
11
42.349378082287892
21
6.1374594202013562
31
0
0
SPLINE
5
220
100
AcDbEntity
8
0
100
AcDbSpline
70
0
71
2
72
6
73
3
74
0
42
0.000000001
43
0.0000000001
44
0.0000000001
40
0
40
0
40
0
40
1
40
1
40
1
10
42.349378082287892
20
6.1374594202013562
30
0
10
42.349428796663034
20
5.94438731058084
30
0
10
42.40666711676981
20
5.8235087276766055
30
0
0
SPLINE
5
221
100
AcDbEntity
8
0
100
AcDbSpline
70
0
71
2
72
6
73
3
74
0
42
0.000000001
43
0.0000000001
44
0.0000000001
40
0
40
0
40
0
40
1
40
1
40
1
10
42.40666711676981
20
5.8235087276766055
30
0
10
42.463905436777964
20
5.7026305202346848
30
0
10
42.621009795682994
20
5.6039007858745622
30
0
0
SPLINE
5
222
100
AcDbEntity
8
0
100
AcDbSpline
70
0
71
2
72
6
73
3
74
0
42
0.000000001
43
0.0000000001
44
0.0000000001
40
0
40
0
40
0
40
1
40
1
40
1
10
42.621009795682994
20
5.6039007858745622
30
0
10
42.778114529951708
20
5.5051714270753802
30
0
10
43.013931522438398
20
5.5052333692763895
30
0
0
SPLINE
5
223
100
AcDbEntity
8
0
100
AcDbSpline
70
0
71
2
72
6
73
3
74
0
42
0.000000001
43
0.0000000001
44
0.0000000001
40
0
40
0
40
0
40
1
40
1
40
1
10
43.013931522438398
20
5.5052333692763895
30
0
10
43.252909532166363
20
5.5052961417838286
30
0
10
43.412886944127642
20
5.5894721402663992
30
0
0
SPLINE
5
224
100
AcDbEntity
8
0
100
AcDbSpline
70
0
71
2
72
6
73
3
74
0
42
0.000000001
43
0.0000000001
44
0.0000000001
40
0
40
0
40
0
40
1
40
1
40
1
10
43.412886944127642
20
5.5894721402663992
30
0
10
43.572864356088921
20
5.6736481387489697
30
0
10
43.645573309893599
20
5.8426211611817545
30
0
0
LWPOLYLINE
5
225
100
AcDbEntity
8
0
100
AcDbPolyline
90
13
70
1
43
0.0
10
48.91822079388416
20
11.421004300310367
10
51.641888477660324
20
8.5319224575771457
10
51.669999822028124
20
8.536449408444641
42
0.73683370643685098
10
39.969907580321312
20
8.5030104048901425
10
39.978260791118885
20
8.4992134908912487
10
40.960312330403603
20
9.4873086610039721
10
41.61032989651698
20
8.4853967878545369
10
42.448888904286207
20
9.7642937436954984
10
42.676918382124569
20
9.3753022815006375
10
45.198656137042967
20
12.567714971237764
10
47.051575083519126
20
10.316459485842817
10
47.873072686213156
20
10.997701400272016
10
48.203675379980268
20
10.506806491345094
0
LINE
5
226
100
AcDbEntity
8
0
100
AcDbLine
10
49.395203906341038
20
6.0483286802202274
30
0
11
49.395251568435178
21
5.8668767538281523
31
0
0
SPLINE
5
227
100
AcDbEntity
8
0
100
AcDbSpline
70
0
71
2
72
6
73
3
74
0
42
0.000000001
43
0.0000000001
44
0.0000000001
40
0
40
0
40
0
40
1
40
1
40
1
10
49.395251568435178
20
5.8668767538281523
30
0
10
48.734940118336688
20
5.2983409936908377
30
0
10
48.196681096253222
20
5.2981996088474954
30
0
0
SPLINE
5
228
100
AcDbEntity
8
0
100
AcDbSpline
70
0
71
2
72
6
73
3
74
0
42
0.000000001
43
0.0000000001
44
0.0000000001
40
0
40
0
40
0
40
1
40
1
40
1
10
48.196681096253222
20
5.2981996088474954
30
0
10
47.753299148735245
20
5.2980831454263164
30
0
10
47.402549218096866
20
5.6345423161243211
30
0
0
SPLINE
5
229
100
AcDbEntity
8
0
100
AcDbSpline
70
0
71
2
72
6
73
3
74
0
42
0.000000001
43
0.0000000001
44
0.0000000001
40
0
40
0
40
0
40
1
40
1
40
1
10
47.402549218096866
20
5.6345423161243211
30
0
10
47.051799287458486
20
5.9710014868223249
30
0
10
47.051644603609169
20
6.5598904758774514
30
0
0
SPLINE
5
230
100
AcDbEntity
8
0
100
AcDbSpline
70
0
71
2
72
6
73
3
74
0
42
0.000000001
43
0.0000000001
44
0.0000000001
40
0
40
0
40
0
40
1
40
1
40
1
10
47.051644603609169
20
6.5598904758774514
30
0
10
47.051537171040195
20
6.9688915268192213
30
0
10
47.232505434221487
20
7.2922421755308386
30
0
0
SPLINE
5
231
100
AcDbEntity
8
0
100
AcDbSpline
70
0
71
2
72
6
73
3
74
0
42
0.000000001
43
0.0000000001
44
0.0000000001
40
0
40
0
40
0
40
1
40
1
40
1
10
47.232505434221487
20
7.2922421755308386
30
0
10
47.413472946478137
20
7.6155928240452084
30
0
10
47.745688720634334
20
7.8359668472709094
30
0
0
SPLINE
5
232
100
AcDbEntity
8
0
100
AcDbSpline
70
0
71
2
72
6
73
3
74
0
42
0.000000001
43
0.0000000001
44
0.0000000001
40
0
40
0
40
0
40
1
40
1
40
1
10
47.745688720634334
20
7.8359668472709094
30
0
10
48.077904494839842
20
8.0563406827654536
30
0
10
48.544367612792577
20
8.0564632089325077
30
0
0
SPLINE
5
233
100
AcDbEntity
8
0
100
AcDbSpline
70
0
71
2
72
6
73
3
74
0
42
0.000000001
43
0.0000000001
44
0.0000000001
40
0
40
0
40
0
40
1
40
1
40
1
10
48.544367612792577
20
8.0564632089325077
30
0
10
48.947335547504217
20
8.0565690567789616
30
0
10
49.335463004687924
20
7.9192731905589406
30
0
0
LINE
5
234
100
AcDbEntity
8
0
100
AcDbLine
10
49.335463004687924
20
7.9192731905589406
30
0
11
49.33563996829497
21
7.2455640728126669
31
0
0
LINE
5
235
100
AcDbEntity
8
0
100
AcDbLine
10
49.33563996829497
20
7.2455640728126669
30
0
11
49.112240640996632
21
7.2455053923677566
31
0
0
SPLINE
5
236
100
AcDbEntity
8
0
100
AcDbSpline
70
0
71
2
72
6
73
3
74
0
42
0.000000001
43
0.0000000001
44
0.0000000001
40
0
40
0
40
0
40
1
40
1
40
1
10
49.112240640996632
20
7.2455053923677566
30
0
10
49.084579879352567
20
7.5473966954213472
30
0
10
48.873128054557704
20
7.6977478006462841
30
0
0
SPLINE
5
237
100
AcDbEntity
8
0
100
AcDbSpline
70
0
71
2
72
6
73
3
74
0
42
0.000000001
43
0.0000000001
44
0.0000000001
40
0
40
0
40
0
40
1
40
1
40
1
10
48.873128054557704
20
7.6977478006462841
30
0
10
48.661676980687474
20
7.8480989060684703
30
0
10
48.366417920664603
20
7.8480213501813685
30
0
0
SPLINE
5
238
100
AcDbEntity
8
0
100
AcDbSpline
70
0
71
2
72
6
73
3
74
0
42
0.000000001
43
0.0000000001
44
0.0000000001
40
0
40
0
40
0
40
1
40
1
40
1
10
48.366417920664603
20
7.8480213501813685
30
0
10
47.954480191215573
20
7.847913146233167
30
0
10
47.717497786093233
20
7.543302691439604
30
0
0
SPLINE
5
239
100
AcDbEntity
8
0
100
AcDbSpline
70
0
71
2
72
6
73
3
74
0
42
0.000000001
43
0.0000000001
44
0.0000000001
40
0
40
0
40
0
40
1
40
1
40
1
10
47.717497786093233
20
7.543302691439604
30
0
10
47.480515380970886
20
7.2386922366460391
30
0
10
47.480633278468062
20
6.7898506915861532
30
0
0
SPLINE
5
240
100
AcDbEntity
8
0
100
AcDbSpline
70
0
71
2
72
6
73
3
74
0
42
0.000000001
43
0.0000000001
44
0.0000000001
40
0
40
0
40
0
40
1
40
1
40
1
10
47.480633278468062
20
6.7898506915861532
30
0
10
47.480761137669944
20
6.3030844488772821
30
0
10
47.750978926842457
20
5.9865402364673441
30
0
0
SPLINE
5
241
100
AcDbEntity
8
0
100
AcDbSpline
70
0
71
2
72
6
73
3
74
0
42
0.000000001
43
0.0000000001
44
0.0000000001
40
0
40
0
40
0
40
1
40
1
40
1
10
47.750978926842457
20
5.9865402364673441
30
0
10
48.021197466939604
20
5.6699960242546492
30
0
10
48.443159289310316
20
5.6701068612377838
30
0
0
SPLINE
5
242
100
AcDbEntity
8
0
100
AcDbSpline
70
0
71
2
72
6
73
3
74
0
42
0.000000001
43
0.0000000001
44
0.0000000001
40
0
40
0
40
0
40
1
40
1
40
1
10
48.443159289310316
20
5.6701068612377838
30
0
10
48.870452676573066
20
5.6702190986664975
30
0
10
49.395203906341038
20
6.0483286802202274
30
0
0
LINE
5
243
100
AcDbEntity
8
0
100
AcDbLine
10
48.855556215723446
20
3.9910338591921701
30
0
11
48.713738086551913
21
3.9910338591921701
31
0
0
LINE
5
244
100
AcDbEntity
8
0
100
AcDbLine
10
48.713738086551913
20
3.9910338591921701
30
0
11
48.895921419821164
21
4.5266950759880835
31
0
0
LINE
5
245
100
AcDbEntity
8
0
100
AcDbLine
10
48.895921419821164
20
4.5266950759880835
30
0
11
48.998328019211385
21
4.5266950759880835
31
0
0
SPLINE
5
246
100
AcDbEntity
8
0
100
AcDbSpline
70
0
71
2
72
6
73
3
74
0
42
0.000000001
43
0.0000000001
44
0.0000000001
40
0
40
0
40
0
40
1
40
1
40
1
10
48.998328019211385
20
4.5266950759880835
30
0
10
48.995463992563536
20
4.469488509109893
30
0
10
49.008141102649816
20
4.469488509109893
30
0
0
LINE
5
247
100
AcDbEntity
8
0
100
AcDbLine
10
49.008141102649816
20
4.469488509109893
30
0
11
50.122855717638124
21
4.469488509109893
31
0
0
SPLINE
5
248
100
AcDbEntity
8
0
100
AcDbSpline
70
0
71
2
72
6
73
3
74
0
42
0.000000001
43
0.0000000001
44
0.0000000001
40
0
40
0
40
0
40
1
40
1
40
1
10
50.122855717638124
20
4.469488509109893
30
0
10
50.140224604991261
20
4.469488509109893
30
0
10
50.159666044402087
20
4.5266950759880835
30
0
0
LINE
5
249
100
AcDbEntity
8
0
100
AcDbLine
10
50.159666044402087
20
4.5266950759880835
30
0
11
50.274078427233817
21
4.5266950759880835
31
0
0
LINE
5
250
100
AcDbEntity
8
0
100
AcDbLine
10
50.274078427233817
20
4.5266950759880835
30
0
11
50.091895093964553
21
3.9910338591921701
31
0
0
LINE
5
251
100
AcDbEntity
8
0
100
AcDbLine
10
50.091895093964553
20
3.9910338591921701
30
0
11
49.947843714858386
21
3.9910338591921701
31
0
0
SPLINE
5
252
100
AcDbEntity
8
0
100
AcDbSpline
70
0
71
2
72
6
73
3
74
0
42
0.000000001
43
0.0000000001
44
0.0000000001
40
0
40
0
40
0
40
1
40
1
40
1
10
49.947843714858386
20
3.9910338591921701
30
0
10
50.068289026397203
20
4.356375601399856
30
0
10
49.710321739799177
20
4.356375601399856
30
0
0
LINE
5
253
100
AcDbEntity
8
0
100
AcDbLine
10
49.710321739799177
20
4.356375601399856
30
0
11
49.668798609877918
21
4.356375601399856
31
0
0
LINE
5
254
100
AcDbEntity
8
0
100
AcDbLine
10
49.668798609877918
20
4.356375601399856
30
0
11
49.233208241321684
21
3.0757291646034406
31
0
0
SPLINE
5
255
100
AcDbEntity
8
0
100
AcDbSpline
70
0
71
2
72
6
73
3
74
0
42
0.000000001
43
0.0000000001
44
0.0000000001
40
0
40
0
40
0
40
1
40
1
40
1
10
49.233208241321684
20
3.0757291646034406
30
0
10
49.174802823226067
20
2.9040283641057401
30
0
10
49.366839789865303
20
2.899112060365967
30
0
0
LINE
5
256
100
AcDbEntity
8
0
100
AcDbLine
10
49.366839789865303
20
2.899112060365967
30
0
11
49.328748385633787
21
2.7870962535821264
31
0
0
LINE
5
257
100
AcDbEntity
8
0
100
AcDbLine
10
49.328748385633787
20
2.7870962535821264
30
0
11
48.652671391466249
21
2.7870962535821264
31
0
0
LINE
5
258
100
AcDbEntity
8
0
100
AcDbLine
10
48.652671391466249
20
2.7870962535821264
30
0
11
48.690903969533579
21
2.8995183106062625
31
0
0
SPLINE
5
259
100
AcDbEntity
8
0
100
AcDbSpline
70
0
71
2
72
6
73
3
74
0
42
0.000000001
43
0.0000000001
44
0.0000000001
40
0
40
0
40
0
40
1
40
1
40
1
10
48.690903969533579
20
2.899518310606263
30
0
10
48.820451989783798
20
2.9009405619096285
30
0
10
48.864606359708738
20
2.9356888495611111
30
0
0
SPLINE
5
260
100
AcDbEntity
8
0
100
AcDbSpline
70
0
71
2
72
6
73
3
74
0
42
0.000000001
43
0.0000000001
44
0.0000000001
40
0
40
0
40
0
40
1
40
1
40
1
10
48.864606359708738
20
2.9356888495611111
30
0
10
48.908760729633691
20
2.9704375126749225
30
0
10
48.944575330300367
20
3.0757291646034406
30
0
0
LINE
5
261
100
AcDbEntity
8
0
100
AcDbLine
10
48.944575330300367
20
3.0757291646034406
30
0
11
49.380165698856601
21
4.3563756013998551
31
0
0
LINE
5
262
100
AcDbEntity
8
0
100
AcDbLine
10
49.380165698856601
20
4.3563756013998551
30
0
11
49.318226429317662
21
4.356375601399856
31
0
0
SPLINE
5
263
100
AcDbEntity
8
0
100
AcDbSpline
70
0
71
2
72
6
73
3
74
0
42
0.000000001
43
0.0000000001
44
0.0000000001
40
0
40
0
40
0
40
1
40
1
40
1
10
49.318226429317662
20
4.356375601399856
30
0
10
48.991299364407013
20
4.356375601399856
30
0
10
48.855556215723446
20
3.9910338591921701
30
0
0
LINE
5
264
100
AcDbEntity
8
0
100
AcDbLine
10
45.481276262360076
20
3.4267693589571606
30
0
11
45.519752140016784
21
3.5398822666671994
31
0
0
LINE
5
265
100
AcDbEntity
8
0
100
AcDbLine
10
45.519752140016784
20
3.5398822666671994
30
0
11
46.210131245231786
21
3.5398822666671994
31
0
0
LINE
5
266
100
AcDbEntity
8
0
100
AcDbLine
10
46.210131245231786
20
3.5398822666671994
30
0
11
46.171858117232894
21
3.4273381843860418
31
0
0
SPLINE
5
267
100
AcDbEntity
8
0
100
AcDbSpline
70
0
71
2
72
6
73
3
74
0
42
0.000000001
43
0.0000000001
44
0.0000000001
40
0
40
0
40
0
40
1
40
1
40
1
10
46.171858117232894
20
3.4273381843860418
30
0
10
46.099070239151338
20
3.4258348332195494
30
0
10
46.056764645735832
20
3.3844230278789249
30
0
0
SPLINE
5
268
100
AcDbEntity
8
0
100
AcDbSpline
70
0
71
2
72
6
73
3
74
0
42
0.000000001
43
0.0000000001
44
0.0000000001
40
0
40
0
40
0
40
1
40
1
40
1
10
46.056764645735832
20
3.3844230278789249
30
0
10
46.014459052320319
20
3.3430114102694648
30
0
10
45.992965335817566
20
3.2798526390849796
30
0
0
LINE
5
269
100
AcDbEntity
8
0
100
AcDbLine
10
45.992965335817573
20
3.2798526390849796
30
0
11
45.805459448568243
21
2.7285894606575916
31
0
0
LINE
5
270
100
AcDbEntity
8
0
100
AcDbLine
10
45.805459448568243
20
2.7285894606575916
30
0
11
45.689157739295517
21
2.7285894606575916
31
0
0
SPLINE
5
271
100
AcDbEntity
8
0
100
AcDbSpline
70
0
71
2
72
6
73
3
74
0
42
0.000000001
43
0.0000000001
44
0.0000000001
40
0
40
0
40
0
40
1
40
1
40
1
10
45.689157739295517
20
2.7285894606575916
30
0
10
45.75885781518096
20
2.9522151994473074
30
0
10
45.62098128954235
20
2.9522151994473074
30
0
0
SPLINE
5
272
100
AcDbEntity
8
0
100
AcDbSpline
70
0
71
2
72
6
73
3
74
0
42
0.000000001
43
0.0000000001
44
0.0000000001
40
0
40
0
40
0
40
1
40
1
40
1
10
45.62098128954235
20
2.9522151994473074
30
0
10
45.555892641985288
20
2.9522151994473074
30
0
10
45.441174632817521
20
2.8883047526795753
30
0
0
SPLINE
5
273
100
AcDbEntity
8
0
100
AcDbSpline
70
0
71
2
72
6
73
3
74
0
42
0.000000001
43
0.0000000001
44
0.0000000001
40
0
40
0
40
0
40
1
40
1
40
1
10
45.441174632817521
20
2.8883047526795753
30
0
10
45.399712327793608
20
2.8662835116041649
30
0
10
45.372063281864413
20
2.8516772760699771
30
0
0
SPLINE
5
274
100
AcDbEntity
8
0
100
AcDbSpline
70
0
71
2
72
6
73
3
74
0
42
0.000000001
43
0.0000000001
44
0.0000000001
40
0
40
0
40
0
40
1
40
1
40
1
10
45.372063281864413
20
2.8516772760699771
30
0
10
45.159611301994481
20
2.7506921770584589
30
0
10
45.000404010504027
20
2.7506921770584589
30
0
0
SPLINE
5
275
100
AcDbEntity
8
0
100
AcDbSpline
70
0
71
2
72
6
73
3
74
0
42
0.000000001
43
0.0000000001
44
0.0000000001
40
0
40
0
40
0
40
1
40
1
40
1
10
45.000404010504027
20
2.7506921770584589
30
0
10
44.828093459183556
20
2.7506921770584589
30
0
10
44.697377751089235
20
2.8572941925162123
30
0
0
SPLINE
5
276
100
AcDbEntity
8
0
100
AcDbSpline
70
0
71
2
72
6
73
3
74
0
42
0.000000001
43
0.0000000001
44
0.0000000001
40
0
40
0
40
0
40
1
40
1
40
1
10
44.697377751089235
20
2.8572941925162123
30
0
10
44.566662042994921
20
2.9638962079739666
30
0
10
44.539745148607842
20
3.1401273369369265
30
0
0
SPLINE
5
277
100
AcDbEntity
8
0
100
AcDbSpline
70
0
71
2
72
6
73
3
74
0
42
0.000000001
43
0.0000000001
44
0.0000000001
40
0
40
0
40
0
40
1
40
1
40
1
10
44.539745148607842
20
3.1401273369369265
30
0
10
44.512827878758443
20
3.3163584658998864
30
0
10
44.58793198394941
20
3.5372007147113829
30
0
0
SPLINE
5
278
100
AcDbEntity
8
0
100
AcDbSpline
70
0
71
2
72
6
73
3
74
0
42
0.000000001
43
0.0000000001
44
0.0000000001
40
0
40
0
40
0
40
1
40
1
40
1
10
44.58793198394941
20
3.5372007147113829
30
0
10
44.681461152025811
20
3.8121821909019049
30
0
10
44.888266178463169
20
4.0356147543231993
30
0
0
SPLINE
5
279
100
AcDbEntity
8
0
100
AcDbSpline
70
0
71
2
72
6
73
3
74
0
42
0.000000001
43
0.0000000001
44
0.0000000001
40
0
40
0
40
0
40
1
40
1
40
1
10
44.888266178463169
20
4.0356147543231993
30
0
10
45.09507120490052
20
4.2590473177444927
30
0
10
45.352612080433019
20
4.3824700455546095
30
0
0
SPLINE
5
280
100
AcDbEntity
8
0
100
AcDbSpline
70
0
71
2
72
6
73
3
74
0
42
0.000000001
43
0.0000000001
44
0.0000000001
40
0
40
0
40
0
40
1
40
1
40
1
10
45.352612080433019
20
4.3824700455546095
30
0
10
45.610152955965511
20
4.5058927733647263
30
0
10
45.879466828295342
20
4.5058927733647263
30
0
0
SPLINE
5
281
100
AcDbEntity
8
0
100
AcDbSpline
70
0
71
2
72
6
73
3
74
0
42
0.000000001
43
0.0000000001
44
0.0000000001
40
0
40
0
40
0
40
1
40
1
40
1
10
45.879466828295342
20
4.5058927733647263
30
0
10
46.087206380470313
20
4.5058927733647263
30
0
10
46.340247715448548
20
4.4193517101611395
30
0
0
LINE
5
282
100
AcDbEntity
8
0
100
AcDbLine
10
46.340247715448548
20
4.4193517101611395
30
0
11
46.193676233188157
21
3.9884334070994814
31
0
0
LINE
5
283
100
AcDbEntity
8
0
100
AcDbLine
10
46.193676233188157
20
3.9884334070994814
30
0
11
46.049461903431066
21
3.9884334070994814
31
0
0
SPLINE
5
284
100
AcDbEntity
8
0
100
AcDbSpline
70
0
71
2
72
6
73
3
74
0
42
0.000000001
43
0.0000000001
44
0.0000000001
40
0
40
0
40
0
40
1
40
1
40
1
10
46.049461903431066
20
3.9884334070994814
30
0
10
46.092426808696814
20
4.1822369239980484
30
0
10
45.993067461571137
20
4.2758070174683454
30
0
0
SPLINE
5
285
100
AcDbEntity
8
0
100
AcDbSpline
70
0
71
2
72
6
73
3
74
0
42
0.000000001
43
0.0000000001
44
0.0000000001
40
0
40
0
40
0
40
1
40
1
40
1
10
45.993067461571137
20
4.2758070174683454
30
0
10
45.89370811444546
20
4.3693771109386415
30
0
10
45.714286682070494
20
4.3693771109386415
30
0
0
SPLINE
5
286
100
AcDbEntity
8
0
100
AcDbSpline
70
0
71
2
72
6
73
3
74
0
42
0.000000001
43
0.0000000001
44
0.0000000001
40
0
40
0
40
0
40
1
40
1
40
1
10
45.714286682070494
20
4.3693771109386415
30
0
10
45.47619700796939
20
4.3693771109386415
30
0
10
45.250428505666392
20
4.1977574103040682
30
0
0
SPLINE
5
287
100
AcDbEntity
8
0
100
AcDbSpline
70
0
71
2
72
6
73
3
74
0
42
0.000000001
43
0.0000000001
44
0.0000000001
40
0
40
0
40
0
40
1
40
1
40
1
10
45.250428505666392
20
4.1977574103040682
30
0
10
45.024660003363401
20
4.0261377096694941
30
0
10
44.921033902327629
20
3.7214560368448444
30
0
0
SPLINE
5
288
100
AcDbEntity
8
0
100
AcDbSpline
70
0
71
2
72
6
73
3
74
0
42
0.000000001
43
0.0000000001
44
0.0000000001
40
0
40
0
40
0
40
1
40
1
40
1
10
44.921033902327629
20
3.7214560368448444
30
0
10
44.809444620749865
20
3.3933920720010953
30
0
10
44.908052667754625
20
3.1799545035167665
30
0
0
SPLINE
5
289
100
AcDbEntity
8
0
100
AcDbSpline
70
0
71
2
72
6
73
3
74
0
42
0.000000001
43
0.0000000001
44
0.0000000001
40
0
40
0
40
0
40
1
40
1
40
1
10
44.908052667754625
20
3.1799545035167665
30
0
10
45.006661090221712
20
2.9665169350324376
30
0
10
45.247046341004115
20
2.9665169350324376
30
0
0
SPLINE
5
290
100
AcDbEntity
8
0
100
AcDbSpline
70
0
71
2
72
6
73
3
74
0
42
0.000000001
43
0.0000000001
44
0.0000000001
40
0
40
0
40
0
40
1
40
1
40
1
10
45.247046341004115
20
2.9665169350324376
30
0
10
45.404546780745598
20
2.9665169350324376
30
0
10
45.537995103672515
20
3.0538096738192695
30
0
0
SPLINE
5
291
100
AcDbEntity
8
0
100
AcDbSpline
70
0
71
2
72
6
73
3
74
0
42
0.000000001
43
0.0000000001
44
0.0000000001
40
0
40
0
40
0
40
1
40
1
40
1
10
45.537995103672515
20
3.0538096738192695
30
0
10
45.671443426599431
20
3.1411024126061022
30
0
10
45.712458931451486
20
3.261650600823145
30
0
0
SPLINE
5
292
100
AcDbEntity
8
0
100
AcDbSpline
70
0
71
2
72
6
73
3
74
0
42
0.000000001
43
0.0000000001
44
0.0000000001
40
0
40
0
40
0
40
1
40
1
40
1
10
45.712458931451486
20
3.261650600823145
30
0
10
45.768608571872718
20
3.4267693589571606
30
0
10
45.55325163996104
20
3.4267693589571606
30
0
0
LINE
5
293
100
AcDbEntity
8
0
100
AcDbLine
10
45.55325163996104
20
3.4267693589571606
30
0
11
45.481276262360076
21
3.4267693589571606
31
0
0
LINE
5
294
100
AcDbEntity
8
0
100
AcDbLine
10
39.814517165704274
20
5.3532044293111873
30
0
11
39.056530603112328
21
5.3530053284935297
31
0
0
LINE
5
295
100
AcDbEntity
8
0
100
AcDbLine
10
39.056530603112328
20
5.3530053284935297
30
0
11
39.056484198756387
21
5.5296689839653057
31
0
0
SPLINE
5
296
100
AcDbEntity
8
0
100
AcDbSpline
70
0
71
2
72
6
73
3
74
0
42
0.000000001
43
0.0000000001
44
0.0000000001
40
0
40
0
40
0
40
1
40
1
40
1
10
39.056484198756387
20
5.5296689839653057
30
0
10
39.255876488769083
20
5.5319557348650088
30
0
10
39.308376140759727
20
5.5858401109231854
30
0
0
SPLINE
5
297
100
AcDbEntity
8
0
100
AcDbSpline
70
0
71
2
72
6
73
3
74
0
42
0.000000001
43
0.0000000001
44
0.0000000001
40
0
40
0
40
0
40
1
40
1
40
1
10
39.308376140759727
20
5.5858401109231854
30
0
10
39.36087579275037
20
5.6397244869813612
30
0
10
39.360831945982817
20
5.8066512782034634
30
0
0
LINE
5
298
100
AcDbEntity
8
0
100
AcDbLine
10
39.360831945982817
20
5.8066512782034634
30
0
11
39.360375785058096
21
7.5432782563630179
31
0
0
SPLINE
5
299
100
AcDbEntity
8
0
100
AcDbSpline
70
0
71
2
72
6
73
3
74
0
42
0.000000001
43
0.0000000001
44
0.0000000001
40
0
40
0
40
0
40
1
40
1
40
1
10
39.360375785058096
20
7.5432782563630179
30
0
10
39.360329732933927
20
7.7186009481719813
30
0
10
39.304547064375434
20
7.7669980346494887
30
0
0
SPLINE
5
300
100
AcDbEntity
8
0
100
AcDbSpline
70
0
71
2
72
6
73
3
74
0
42
0.000000001
43
0.0000000001
44
0.0000000001
40
0
40
0
40
0
40
1
40
1
40
1
10
39.304547064375434
20
7.7669980346494887
30
0
10
39.248764302000673
20
7.8153949333711852
30
0
10
39.055882603087085
20
7.819973156497726
30
0
0
LINE
5
301
100
AcDbEntity
8
0
100
AcDbLine
10
39.055882603087085
20
7.819973156497726
30
0
11
39.055836165199345
21
7.996764469157057
31
0
0
LINE
5
302
100
AcDbEntity
8
0
100
AcDbLine
10
39.055836165199345
20
7.996764469157057
30
0
11
40.309974402021744
21
7.9970938944539309
31
0
0
SPLINE
5
303
100
AcDbEntity
8
0
100
AcDbSpline
70
0
71
2
72
6
73
3
74
0
42
0.000000001
43
0.0000000001
44
0.0000000001
40
0
40
0
40
0
40
1
40
1
40
1
10
40.309974402021744
20
7.9970938944539309
30
0
10
40.721369963885977
20
7.9972019559906249
30
0
10
40.855022441405985
20
7.8539334117517443
30
0
0
SPLINE
5
304
100
AcDbEntity
8
0
100
AcDbSpline
70
0
71
2
72
6
73
3
74
0
42
0.000000001
43
0.0000000001
44
0.0000000001
40
0
40
0
40
0
40
1
40
1
40
1
10
40.855022441405985
20
7.8539334117517443
30
0
10
40.988675106657155
20
7.7106648675621772
30
0
10
40.988729409969963
20
7.5039294965188486
30
0
0
SPLINE
5
305
100
AcDbEntity
8
0
100
AcDbSpline
70
0
71
2
72
6
73
3
74
0
42
0.000000001
43
0.0000000001
44
0.0000000001
40
0
40
0
40
0
40
1
40
1
40
1
10
40.988729409969963
20
7.5039294965188486
30
0
10
40.988786564225066
20
7.2863404485658902
30
0
10
40.840602144184956
20
7.0903084926358222
30
0
0
SPLINE
5
306
100
AcDbEntity
8
0
100
AcDbSpline
70
0
71
2
72
6
73
3
74
0
42
0.000000001
43
0.0000000001
44
0.0000000001
40
0
40
0
40
0
40
1
40
1
40
1
10
40.840602144184956
20
7.0903084926358222
30
0
10
40.692417911876007
20
6.8942765367550631
30
0
10
40.420521264039039
20
6.7954983204852466
30
0
0
SPLINE
5
307
100
AcDbEntity
8
0
100
AcDbSpline
70
0
71
2
72
6
73
3
74
0
42
0.000000001
43
0.0000000001
44
0.0000000001
40
0
40
0
40
0
40
1
40
1
40
1
10
40.420521264039039
20
6.7954983204852466
30
0
10
40.73911633655208
20
6.7930919398039693
30
0
10
40.922272690037346
20
6.6851595204762191
30
0
0
SPLINE
5
308
100
AcDbEntity
8
0
100
AcDbSpline
70
0
71
2
72
6
73
3
74
0
42
0.000000001
43
0.0000000001
44
0.0000000001
40
0
40
0
40
0
40
1
40
1
40
1
10
40.922272690037346
20
6.6851595204762191
30
0
10
41.105429043522605
20
6.577227101148468
30
0
10
41.105502859431034
20
6.2962063230858893
30
0
0
SPLINE
5
309
100
AcDbEntity
8
0
100
AcDbSpline
70
0
71
2
72
6
73
3
74
0
42
0.000000001
43
0.0000000001
44
0.0000000001
40
0
40
0
40
0
40
1
40
1
40
1
10
41.105502859431034
20
6.2962063230858893
30
0
10
41.105601915116438
20
5.9190964781006592
30
0
10
40.782277170208829
20
5.6362350908178778
30
0
0
SPLINE
5
310
100
AcDbEntity
8
0
100
AcDbSpline
70
0
71
2
72
6
73
3
74
0
42
0.000000001
43
0.0000000001
44
0.0000000001
40
0
40
0
40
0
40
1
40
1
40
1
10
40.782277170208829
20
5.6362350908178778
30
0
10
40.45895261303238
20
5.3533737035844036
30
0
10
40.03705443152429
20
5.3532628833178562
30
0
0
LINE
5
311
100
AcDbEntity
8
0
100
AcDbLine
10
40.03705443152429
20
5.3532628833178562
30
0
11
40.014517113690836
21
5.3532569634260927
31
0
0
LINE
5
312
100
AcDbEntity
8
0
100
AcDbLine
10
40.014517113690836
20
5.3532569634260927
30
0
11
40.014452814989781
21
5.59804693144517
31
0
0
SPLINE
5
313
100
AcDbEntity
8
0
100
AcDbSpline
70
0
71
2
72
6
73
3
74
0
42
0.000000001
43
0.0000000001
44
0.0000000001
40
0.53486021427362018
40
0.53486021427362018
40
0.53486021427362018
40
1
40
1
40
1
10
40.014452814989781
20
5.59804693144517
30
0
10
40.105340895184192
20
5.5678053594954484
30
0
10
40.203031085407581
20
5.5678310198405141
30
0
0
SPLINE
5
314
100
AcDbEntity
8
0
100
AcDbSpline
70
0
71
2
72
6
73
3
74
0
42
0.000000001
43
0.0000000001
44
0.0000000001
40
0
40
0
40
0
40
1
40
1
40
1
10
40.203031085407581
20
5.5678310198405141
30
0
10
40.399359391966563
20
5.5678825895230064
30
0
10
40.518558385918304
20
5.6985759210881719
30
0
0
SPLINE
5
315
100
AcDbEntity
8
0
100
AcDbSpline
70
0
71
2
72
6
73
3
74
0
42
0.000000001
43
0.0000000001
44
0.0000000001
40
0
40
0
40
0
40
1
40
1
40
1
10
40.518558385918304
20
5.6985759210881719
30
0
10
40.637757755332366
20
5.8292692527519616
30
0
10
40.637699007823869
20
6.05292389442541
30
0
0
SPLINE
5
316
100
AcDbEntity
8
0
100
AcDbSpline
70
0
71
2
72
6
73
3
74
0
42
0.000000001
43
0.0000000001
44
0.0000000001
40
0
40
0
40
0
40
1
40
1
40
1
10
40.637699007823869
20
6.05292389442541
30
0
10
40.63762727991076
20
6.3259955720575718
30
0
10
40.466852008914877
20
6.513883133346039
30
0
0
SPLINE
5
317
100
AcDbEntity
8
0
100
AcDbSpline
70
0
71
2
72
6
73
3
74
0
42
0.000000001
43
0.0000000001
44
0.0000000001
40
0
40
0
40
0
40
0.93899542342476483
40
0.93899542342476483
40
0.93899542342476483
10
40.466852008914877
20
6.513883133346039
30
0
10
40.306494987294315
20
6.6903086935606515
30
0
10
40.014452809953951
20
6.7009973188309058
30
0
0
LINE
5
318
100
AcDbEntity
8
0
100
AcDbLine
10
40.014452809953958
20
6.7009973188309058
30
0
11
40.014407014728071
21
6.8753594931576814
31
0
0
LINE
5
319
100
AcDbEntity
8
0
100
AcDbLine
10
40.014407014728071
20
6.8753594931576814
30
0
11
40.162751573794758
21
6.8753984589183723
31
0
0
SPLINE
5
320
100
AcDbEntity
8
0
100
AcDbSpline
70
0
71
2
72
6
73
3
74
0
42
0.000000001
43
0.0000000001
44
0.0000000001
40
0
40
0
40
0
40
1
40
1
40
1
10
40.162751573794758
20
6.8753984589183723
30
0
10
40.334881897259031
20
6.8754436725010875
30
0
10
40.440189897889283
20
6.9625898610927583
30
0
0
SPLINE
5
321
100
AcDbEntity
8
0
100
AcDbSpline
70
0
71
2
72
6
73
3
74
0
42
0.000000001
43
0.0000000001
44
0.0000000001
40
0
40
0
40
0
40
1
40
1
40
1
10
40.440189897889283
20
6.9625898610927583
30
0
10
40.545497898470224
20
7.0497362374155879
30
0
10
40.545449364302833
20
7.2345081893399064
30
0
0
SPLINE
5
322
100
AcDbEntity
8
0
100
AcDbSpline
70
0
71
2
72
6
73
3
74
0
42
0.000000001
43
0.0000000001
44
0.0000000001
40
0
40
0
40
0
40
1
40
1
40
1
10
40.545449364302833
20
7.2345081893399064
30
0
10
40.545380915010348
20
7.4950979977276244
30
0
10
40.412266216707259
20
7.6572175210424858
30
0
0
SPLINE
5
323
100
AcDbEntity
8
0
100
AcDbSpline
70
0
71
2
72
6
73
3
74
0
42
0.000000001
43
0.0000000001
44
0.0000000001
40
0
40
0
40
0
40
1
40
1
40
1
10
40.412266216707259
20
7.6572175210424858
30
0
10
40.279151330722328
20
7.8193368565768759
30
0
10
40.088218229918006
20
7.8192867040565508
30
0
0
SPLINE
5
324
100
AcDbEntity
8
0
100
AcDbSpline
70
0
71
2
72
6
73
3
74
0
42
0.000000001
43
0.0000000001
44
0.0000000001
40
0
40
0
40
0
40
1
40
1
40
1
10
40.088218229918006
20
7.8192867040565508
30
0
10
39.905201939784895
20
7.8192386310499709
30
0
10
39.813888854365885
20
7.7452164623303066
30
0
0
LINE
5
325
100
AcDbEntity
8
0
100
AcDbLine
10
39.813888854365885
20
7.7452164623303066
30
0
11
39.814517165704274
21
5.3532044293111873
31
0
0
SPLINE
5
326
100
AcDbEntity
8
0
100
AcDbSpline
70
0
71
2
72
6
73
3
74
0
42
0.000000001
43
0.0000000001
44
0.0000000001
40
0
40
0
40
0
40
1
40
1
40
1
10
43.965928323522107
20
4.180855598088578
30
0
10
44.003876301143833
20
4.2924246047005603
30
0
10
43.978869008163549
20
4.3232320397437745
30
0
0
SPLINE
5
327
100
AcDbEntity
8
0
100
AcDbSpline
70
0
71
2
72
6
73
3
74
0
42
0.000000001
43
0.0000000001
44
0.0000000001
40
0
40
0
40
0
40
1
40
1
40
1
10
43.978869008163549
20
4.3232320397437745
30
0
10
43.953861339720937
20
4.3540394747869886
30
0
10
43.832114675748784
20
4.3569849767602991
30
0
0
LINE
5
328
100
AcDbEntity
8
0
100
AcDbLine
10
43.832114675748784
20
4.3569849767602991
30
0
11
43.870387803747676
21
4.469488509109893
31
0
0
LINE
5
329
100
AcDbEntity
8
0
100
AcDbLine
10
43.870387803747676
20
4.469488509109893
30
0
11
44.546465173377548
21
4.469488509109893
31
0
0
LINE
5
330
100
AcDbEntity
8
0
100
AcDbLine
10
44.546465173377548
20
4.469488509109893
30
0
11
44.508192045378657
21
4.3569849767602991
31
0
0
SPLINE
5
331
100
AcDbEntity
8
0
100
AcDbSpline
70
0
71
2
72
6
73
3
74
0
42
0.000000001
43
0.0000000001
44
0.0000000001
40
0
40
0
40
0
40
1
40
1
40
1
10
44.508192045378657
20
4.3569849767602991
30
0
10
44.377709874853153
20
4.3540800247185523
30
0
10
44.334134467839974
20
4.3203777751164836
30
0
0
SPLINE
5
332
100
AcDbEntity
8
0
100
AcDbSpline
70
0
71
2
72
6
73
3
74
0
42
0.000000001
43
0.0000000001
44
0.0000000001
40
0
40
0
40
0
40
1
40
1
40
1
10
44.334134467839974
20
4.3203777751164836
30
0
10
44.290559060826794
20
4.2866755255144122
30
0
10
44.254561234543424
20
4.180855598088578
30
0
0
LINE
5
333
100
AcDbEntity
8
0
100
AcDbLine
10
44.254561234543417
20
4.180855598088578
30
0
11
43.87867613466684
21
3.0757291646034415
31
0
0
SPLINE
5
334
100
AcDbEntity
8
0
100
AcDbSpline
70
0
71
2
72
6
73
3
74
0
42
0.000000001
43
0.0000000001
44
0.0000000001
40
0
40
0
40
0
40
1
40
1
40
1
10
43.87867613466684
20
3.0757291646034415
30
0
10
43.820657067308055
20
2.9051457399977201
30
0
10
44.012266382354234
20
2.8989494851773836
30
0
0
LINE
5
335
100
AcDbEntity
8
0
100
AcDbLine
10
44.012266382354234
20
2.898949485177384
30
0
11
43.974217029903599
21
2.7870962535821269
31
0
0
LINE
5
336
100
AcDbEntity
8
0
100
AcDbLine
10
43.974217029903599
20
2.7870962535821269
30
0
11
43.298139660273733
21
2.7870962535821269
31
0
0
LINE
5
337
100
AcDbEntity
8
0
100
AcDbLine
10
43.298139660273733
20
2.7870962535821269
30
0
11
43.336371862878728
21
2.8995183106062643
31
0
0
SPLINE
5
338
100
AcDbEntity
8
0
100
AcDbSpline
70
0
71
2
72
6
73
3
74
0
42
0.000000001
43
0.0000000001
44
0.0000000001
40
0
40
0
40
0
40
1
40
1
40
1
10
43.336371862878728
20
2.8995183106062643
30
0
10
43.465919883128947
20
2.9009405619096289
30
0
10
43.510073877591566
20
2.9356888495611111
30
0
0
SPLINE
5
339
100
AcDbEntity
8
0
100
AcDbSpline
70
0
71
2
72
6
73
3
74
0
42
0.000000001
43
0.0000000001
44
0.0000000001
40
0
40
0
40
0
40
1
40
1
40
1
10
43.510073877591566
20
2.9356888495611111
30
0
10
43.554228247516519
20
2.970437512674923
30
0
10
43.590043223645523
20
3.0757291646034415
30
0
0
LINE
5
340
100
AcDbEntity
8
0
100
AcDbLine
10
43.590043223645523
20
3.0757291646034415
30
0
11
43.965928323522107
21
4.180855598088578
31
0
0
LINE
5
341
100
AcDbEntity
8
0
100
AcDbLine
10
42.884159777004669
20
2.7272892346112467
30
0
11
42.778055624595559
21
2.7272892346112467
31
0
0
SPLINE
5
342
100
AcDbEntity
8
0
100
AcDbSpline
70
0
71
2
72
6
73
3
74
0
42
0.000000001
43
0.0000000001
44
0.0000000001
40
0
40
0
40
0
40
1
40
1
40
1
10
42.778055624595559
20
2.7272892346112467
30
0
10
42.797111088731874
20
2.7870962535821264
30
0
10
42.768954417733475
20
2.7870962535821264
30
0
0
LINE
5
343
100
AcDbEntity
8
0
100
AcDbLine
10
42.768954417733475
20
2.7870962535821264
30
0
11
41.818830473113032
21
2.7870962535821269
31
0
0
LINE
5
344
100
AcDbEntity
8
0
100
AcDbLine
10
41.818830473113032
20
2.7870962535821269
30
0
11
41.857062863449194
21
2.8995183106062643
31
0
0
SPLINE
5
345
100
AcDbEntity
8
0
100
AcDbSpline
70
0
71
2
72
6
73
3
74
0
42
0.000000001
43
0.0000000001
44
0.0000000001
40
0
40
0
40
0
40
1
40
1
40
1
10
41.857062863449194
20
2.8995183106062643
30
0
10
41.985472857379321
20
2.9009405619096289
30
0
10
42.03021632769893
20
2.9357500499207863
30
0
0
SPLINE
5
346
100
AcDbEntity
8
0
100
AcDbSpline
70
0
71
2
72
6
73
3
74
0
42
0.000000001
43
0.0000000001
44
0.0000000001
40
0
40
0
40
0
40
1
40
1
40
1
10
42.03021632769893
20
2.9357500499207863
30
0
10
42.07495961028738
20
2.970559537931944
30
0
10
42.110734036484821
20
3.0757291646034415
30
0
0
LINE
5
347
100
AcDbEntity
8
0
100
AcDbLine
10
42.110734036484821
20
3.0757291646034415
30
0
11
42.486619136361405
21
4.180855598088578
31
0
0
SPLINE
5
348
100
AcDbEntity
8
0
100
AcDbSpline
70
0
71
2
72
6
73
3
74
0
42
0.000000001
43
0.0000000001
44
0.0000000001
40
0
40
0
40
0
40
1
40
1
40
1
10
42.486619136361405
20
4.180855598088578
30
0
10
42.524222064102503
20
4.2913885164028738
30
0
10
42.499153570762552
20
4.3227341766951302
30
0
0
SPLINE
5
349
100
AcDbEntity
8
0
100
AcDbSpline
70
0
71
2
72
6
73
3
74
0
42
0.000000001
43
0.0000000001
44
0.0000000001
40
0
40
0
40
0
40
1
40
1
40
1
10
42.499153570762552
20
4.3227341766951302
30
0
10
42.474085077422593
20
4.3540800247185523
30
0
10
42.352805488588082
20
4.3569647017945172
30
0
0
LINE
5
350
100
AcDbEntity
8
0
100
AcDbLine
10
42.352805488588082
20
4.3569647017945172
30
0
11
42.391078616586974
21
4.469488509109893
31
0
0
LINE
5
351
100
AcDbEntity
8
0
100
AcDbLine
10
42.391078616586974
20
4.469488509109893
30
0
11
43.067155986216846
21
4.469488509109893
31
0
0
LINE
5
352
100
AcDbEntity
8
0
100
AcDbLine
10
43.067155986216846
20
4.469488509109893
30
0
11
43.028882858217955
21
4.3569647017945172
31
0
0
SPLINE
5
353
100
AcDbEntity
8
0
100
AcDbSpline
70
0
71
2
72
6
73
3
74
0
42
0.000000001
43
0.0000000001
44
0.0000000001
40
0
40
0
40
0
40
1
40
1
40
1
10
43.028882858217955
20
4.3569647017945172
30
0
10
42.89732386173204
20
4.3540800247185523
30
0
10
42.854642430524905
20
4.3214442758628406
30
0
0
SPLINE
5
354
100
AcDbEntity
8
0
100
AcDbSpline
70
0
71
2
72
6
73
3
74
0
42
0.000000001
43
0.0000000001
44
0.0000000001
40
0
40
0
40
0
40
1
40
1
40
1
10
42.854642430524905
20
4.3214442758628406
30
0
10
42.811960999317776
20
4.2888085270071317
30
0
10
42.775252047382722
20
4.180855598088578
30
0
0
LINE
5
355
100
AcDbEntity
8
0
100
AcDbLine
10
42.775252047382715
20
4.180855598088578
30
0
11
42.339661678826495
21
2.9002091612921648
31
0
0
LINE
5
356
100
AcDbEntity
8
0
100
AcDbLine
10
42.339661678826495
20
2.9002091612921648
30
0
11
42.478269980544901
21
2.9002091612921648
31
0
0
SPLINE
5
357
100
AcDbEntity
8
0
100
AcDbSpline
70
0
71
2
72
6
73
3
74
0
42
0.000000001
43
0.0000000001
44
0.0000000001
40
0
40
0
40
0
40
1
40
1
40
1
10
42.478269980544901
20
2.9002091612921648
30
0
10
42.84324602244385
20
2.9002091612921648
30
0
10
43.05397162652369
20
3.3058556581625504
30
0
0
LINE
5
358
100
AcDbEntity
8
0
100
AcDbLine
10
43.05397162652369
20
3.3058556581625504
30
0
11
43.195321929632932
21
3.3058556581625504
31
0
0
LINE
5
359
100
AcDbEntity
8
0
100
AcDbLine
10
43.195321929632932
20
3.3058556581625504
30
0
11
42.884159777004669
21
2.7272892346112467
31
0
0
LWPOLYLINE
5
360
100
AcDbEntity
8
0
100
AcDbPolyline
90
16
70
1
43
0.0
10
52.273284825879088
20
5.0624645929212644
42
-0.34289704088193779
10
52.418260041956898
20
5.17513538770684
10
52.749658917733832
20
5.1751353877068418
42
0.41421356237309503
10
52.899265216946432
20
5.3247416869194408
10
52.899265216946439
20
8.0857904886419387
42
0.41421356237309231
10
52.749658917733832
20
8.2353967878545351
10
52.418260041956898
20
8.2353967878545351
42
-0.34289704088205464
10
52.273284825879074
20
8.3480675826401125
42
0.7771728012123913
10
39.376994095059416
20
8.3480675826401107
42
-0.34289704088199313
10
39.232018878981599
20
8.2353967878545351
10
38.900620003204665
20
8.2353967878545351
42
0.41421356237309775
10
38.751013703992065
20
8.0857904886419334
10
38.751013703992065
20
5.3247416869194408
42
0.41421356237309503
10
38.900620003204665
20
5.17513538770684
10
39.232018878981599
20
5.1751353877068373
42
-0.34289704088197409
10
39.376994095059416
20
5.0624645929212706
42
0.77717280121239285
0
ENDSEC
0
SECTION
2
OBJECTS
0
DICTIONARY
5
C
100
AcDbDictionary
3
ACAD_GROUP
350
D
3
ACAD_MLINESTYLE
350
17
0
DICTIONARY
5
D
100
AcDbDictionary
0
DICTIONARY
5
1A
330
C
100
AcDbDictionary
0
DICTIONARY
5
17
100
AcDbDictionary
0
ENDSEC
0
EOF
