0
SECTION
2
HEADER
9
$INSUNITS
70
1
9
$ACADVER
1
AC1014
9
$HANDSEED
5
FFFF
0
ENDSEC
0
SECTION
2
TABLES
0
TABLE
2
VPORT
5
8
100
AcDbSymbolTable
0
ENDTAB
0
TABLE
2
LTYPE
5
5
100
AcDbSymbolTable
0
LTYPE
5
14
100
AcDbSymbolTableRecord
100
AcDbLinetypeTableRecord
2
BYBLOCK
70
0
0
LTYPE
5
15
100
AcDbSymbolTableRecord
100
AcDbLinetypeTableRecord
2
BYLAYER
70
0
0
ENDTAB
0
TABLE
2
LAYER
5
2
100
AcDbSymbolTable
70
2
0
LAYER
5
50
100
AcDbSymbolTableRecord
100
AcDbLayerTableRecord
2
0
70
0
6
CONTINUOUS
0
ENDTAB
0
TABLE
2
STYLE
5
3
100
AcDbSymbolTable
70
1
0
STYLE
5
11
100
AcDbSymbolTableRecord
100
AcDbTextStyleTableRecord
2
STANDARD
70
0
0
ENDTAB
0
TABLE
2
VIEW
5
6
100
AcDbSymbolTable
70
0
0
ENDTAB
0
TABLE
2
UCS
5
7
100
AcDbSymbolTable
70
0
0
ENDTAB
0
TABLE
2
APPID
5
9
100
AcDbSymbolTable
70
2
0
APPID
5
12
100
AcDbSymbolTableRecord
100
AcDbRegAppTableRecord
2
ACAD
70
0
0
ENDTAB
0
TABLE
2
DIMSTYLE
5
A
100
AcDbSymbolTable
70
1
0
ENDTAB
0
TABLE
2
BLOCK_RECORD
5
1
100
AcDbSymbolTable
70
1
0
BLOCK_RECORD
5
1F
100
AcDbSymbolTableRecord
100
AcDbBlockTableRecord
2
*MODEL_SPACE
0
BLOCK_RECORD
5
1B
100
AcDbSymbolTableRecord
100
AcDbBlockTableRecord
2
*PAPER_SPACE
0
ENDTAB
0
ENDSEC
0
SECTION
2
BLOCKS
0
BLOCK
5
20
100
AcDbEntity
100
AcDbBlockBegin
2
*MODEL_SPACE
0
ENDBLK
5
21
100
AcDbEntity
100
AcDbBlockEnd
0
BLOCK
5
1C
100
AcDbEntity
100
AcDbBlockBegin
2
*PAPER_SPACE
0
ENDBLK
5
1D
100
AcDbEntity
100
AcDbBlockEnd
0
ENDSEC
0
SECTION
2
ENTITIES
0
SPLINE
5
100
100
AcDbEntity
8
0
100
AcDbSpline
70
4
71
3
72
8
73
4
74
0
42
0.000000001
43
0.0000000001
44
0.0000000001
40
0
40
0
40
0
40
0
40
1
40
1
40
1
40
1
41
1
41
1
41
1
41
1
10
15.303771578557368
20
-12.237015019885728
30
0
10
15.502722812738881
20
-11.823196452788164
30
0
10
15.575936866917688
20
-11.644936146961516
30
0
10
15.717590145654933
20
-11.234300799610857
30
0
0
SPLINE
5
101
100
AcDbEntity
8
0
100
AcDbSpline
70
4
71
3
72
8
73
4
74
0
42
0.000000001
43
0.0000000001
44
0.0000000001
40
0
40
0
40
0
40
0
40
1
40
1
40
1
40
1
41
1
41
1
41
1
41
1
10
9.924130206288984
20
-4.8360291083330802
30
0
10
9.9098057174279148
20
-4.8121549602313003
30
0
10
9.9639204531252883
20
-4.6482191432657247
30
0
10
10.000527480214689
20
-4.6036540668090637
30
0
0
SPLINE
5
102
100
AcDbEntity
8
0
100
AcDbSpline
70
4
71
3
72
8
73
4
74
0
42
0.000000001
43
0.0000000001
44
0.0000000001
40
0
40
0
40
0
40
0
40
1
40
1
40
1
40
1
41
1
41
1
41
1
41
1
10
16.330359946934024
20
-13.300210415351788
30
0
10
16.330359946934024
20
-13.222221531552629
30
0
10
16.292161309971167
20
-13.134682988512759
30
0
10
16.236454964400341
20
-13.080568252815386
30
0
0
SPLINE
5
103
100
AcDbEntity
8
0
100
AcDbSpline
70
4
71
3
72
8
73
4
74
0
42
0.000000001
43
0.0000000001
44
0.0000000001
40
0
40
0
40
0
40
0
40
1
40
1
40
1
40
1
41
1
41
1
41
1
41
1
10
15.813086738062065
20
-12.900716337115295
30
0
10
15.610952284133637
20
-12.833868722430298
30
0
10
15.375394022862709
20
-12.751105009010786
30
0
10
15.287855479822841
20
-12.716089591794836
30
0
0
SPLINE
5
104
100
AcDbEntity
8
0
100
AcDbSpline
70
4
71
3
72
8
73
4
74
0
42
0.000000001
43
0.0000000001
44
0.0000000001
40
0
40
0
40
0
40
0
40
1
40
1
40
1
40
1
41
1
41
1
41
1
41
1
10
17.388780512779721
20
-13.947995633846828
30
0
10
17.140489372521188
20
-13.979827831315868
30
0
10
16.971778725935252
20
-13.973461391822063
30
0
10
16.868324084160861
20
-13.927304705491951
30
0
0
SPLINE
5
105
100
AcDbEntity
8
0
100
AcDbSpline
70
4
71
3
72
8
73
4
74
0
42
0.000000001
43
0.0000000001
44
0.0000000001
40
0
40
0
40
0
40
0
40
1
40
1
40
1
40
1
41
1
41
1
41
1
41
1
10
10.123081440470511
20
-4.5208903533895501
30
0
10
10.237677351359066
20
-4.4651840078187224
30
0
10
10.253593450093588
20
-4.4206189313620623
30
0
10
10.256776669840489
20
-4.1436788133813813
30
0
0
SPLINE
5
106
100
AcDbEntity
8
0
100
AcDbSpline
70
4
71
3
72
8
73
4
74
0
42
0.000000001
43
0.0000000001
44
0.0000000001
40
0
40
0
40
0
40
0
40
1
40
1
40
1
40
1
41
1
41
1
41
1
41
1
10
18.041340560895122
20
-13.351141931302259
30
0
10
17.769175272534795
20
-13.343183881934998
30
0
10
17.274184601891168
20
-13.336817442441189
30
0
10
16.938354918592754
20
-13.335225832567737
30
0
0
SPLINE
5
107
100
AcDbEntity
8
0
100
AcDbSpline
70
4
71
3
72
8
73
4
74
0
42
0.000000001
43
0.0000000001
44
0.0000000001
40
0
40
0
40
0
40
0
40
1
40
1
40
1
40
1
41
1
41
1
41
1
41
1
10
18.464708787233395
20
-14.339531662716064
30
0
10
18.385128293560786
20
-14.390463178666534
30
0
10
18.316689069002344
20
-14.398421228033794
30
0
10
18.173444180391645
20
-14.368180640438197
30
0
0
SPLINE
5
108
100
AcDbEntity
8
0
100
AcDbSpline
70
4
71
3
72
8
73
4
74
0
42
0.000000001
43
0.0000000001
44
0.0000000001
40
0
40
0
40
0
40
0
40
1
40
1
40
1
40
1
41
1
41
1
41
1
41
1
10
10.000527480214689
20
-4.6036540668090637
30
0
10
10.021218408569569
20
-4.581371528580731
30
0
10
10.075333144266946
20
-4.5431728916178793
30
0
10
10.123081440470511
20
-4.5208903533895501
30
0
0
LINE
5
109
100
AcDbEntity
8
0
100
AcDbLine
10
16.308077408705689
20
-13.538951896369616
30
0
11
16.319218677819858
21
-13.441863694089035
31
0
0
LINE
5
110
100
AcDbEntity
8
0
100
AcDbLine
10
11.081230584288722
20
-2.53774445106813
30
0
11
11.022341018970994
21
-2.7096383174009637
31
0
0
SPLINE
5
111
100
AcDbEntity
8
0
100
AcDbSpline
70
4
71
3
72
8
73
4
74
0
42
0.000000001
43
0.0000000001
44
0.0000000001
40
0
40
0
40
0
40
0
40
1
40
1
40
1
40
1
41
1
41
1
41
1
41
1
10
11.058948046060392
20
-4.8487619873206986
30
0
10
10.34909004250072
20
-4.8503535971941529
30
0
10
9.9304966457827923
20
-4.8455787675737945
30
0
10
9.924130206288984
20
-4.8360291083330802
30
0
0
SPLINE
5
112
100
AcDbEntity
8
0
100
AcDbSpline
70
4
71
3
72
8
73
4
74
0
42
0.000000001
43
0.0000000001
44
0.0000000001
40
0
40
0
40
0
40
0
40
1
40
1
40
1
40
1
41
1
41
1
41
1
41
1
10
17.695961218355997
20
-14.040309006507055
30
0
10
17.624338774050646
20
-13.912980216630883
30
0
10
17.633888433291361
20
-13.916163436377781
30
0
10
17.388780512779721
20
-13.947995633846828
30
0
0
SPLINE
5
113
100
AcDbEntity
8
0
100
AcDbSpline
70
4
71
3
72
8
73
4
74
0
42
0.000000001
43
0.0000000001
44
0.0000000001
40
0
40
0
40
0
40
0
40
1
40
1
40
1
40
1
41
1
41
1
41
1
41
1
10
10.361822921488338
20
-3.1250484943719847
30
0
10
10.361822921488338
20
-3.0900330771560354
30
0
10
10.250410230346686
20
-2.914955991076297
30
0
10
10.180379395914787
20
-2.8417419368974977
30
0
0
SPLINE
5
114
100
AcDbEntity
8
0
100
AcDbSpline
70
4
71
3
72
8
73
4
74
0
42
0.000000001
43
0.0000000001
44
0.0000000001
40
0
40
0
40
0
40
0
40
1
40
1
40
1
40
1
41
1
41
1
41
1
41
1
10
19.212765427755929
20
-4.056140270341511
30
0
10
19.37829285459495
20
-4.248725065029225
30
0
10
19.768237273590731
20
-4.7866892022560652
30
0
10
19.768237273590731
20
-4.8217046194720101
30
0
0
SPLINE
5
115
100
AcDbEntity
8
0
100
AcDbSpline
70
4
71
3
72
8
73
4
74
0
42
0.000000001
43
0.0000000001
44
0.0000000001
40
0
40
0
40
0
40
0
40
1
40
1
40
1
40
1
41
1
41
1
41
1
41
1
10
15.133469322097982
20
-12.619001389514255
30
0
10
15.135060931971436
20
-12.598310461159377
30
0
10
15.211458205897134
20
-12.428008204699992
30
0
10
15.303771578557368
20
-12.237015019885728
30
0
0
SPLINE
5
116
100
AcDbEntity
8
0
100
AcDbSpline
70
4
71
3
72
8
73
4
74
0
42
0.000000001
43
0.0000000001
44
0.0000000001
40
0
40
0
40
0
40
0
40
1
40
1
40
1
40
1
41
1
41
1
41
1
41
1
10
15.287855479822841
20
-12.716089591794836
30
0
10
15.147793810959051
20
-12.661974856097464
30
0
10
15.128694492477626
20
-12.649241977109845
30
0
10
15.133469322097982
20
-12.619001389514255
30
0
0
SPLINE
5
117
100
AcDbEntity
8
0
100
AcDbSpline
70
4
71
3
72
8
73
4
74
0
42
0.000000001
43
0.0000000001
44
0.0000000001
40
0
40
0
40
0
40
0
40
1
40
1
40
1
40
1
41
1
41
1
41
1
41
1
10
19.142734593324029
20
-13.497570039659859
30
0
10
19.215948647502827
20
-13.491203600166052
30
0
10
19.274838212820558
20
-13.489611990292598
30
0
10
19.274838212820558
20
-13.492795210039503
30
0
0
SPLINE
5
118
100
AcDbEntity
8
0
100
AcDbSpline
70
4
71
3
72
8
73
4
74
0
42
0.000000001
43
0.0000000001
44
0.0000000001
40
0
40
0
40
0
40
0
40
1
40
1
40
1
40
1
41
1
41
1
41
1
41
1
10
12.462747954445216
20
-4.8264794490923704
30
0
10
12.462747954445216
20
-4.8408039379534369
30
0
10
12.208090374692867
20
-4.8455787675737945
30
0
10
11.058948046060392
20
-4.8487619873206986
30
0
0
LINE
5
119
100
AcDbEntity
8
0
100
AcDbLine
10
11.070089315174558
20
-2.2353385751122148
30
0
11
11.081230584288722
21
-2.53774445106813
31
0
0
SPLINE
5
120
100
AcDbEntity
8
0
100
AcDbSpline
70
4
71
3
72
8
73
4
74
0
42
0.000000001
43
0.0000000001
44
0.0000000001
40
0
40
0
40
0
40
0
40
1
40
1
40
1
40
1
41
1
41
1
41
1
41
1
10
19.768237273590731
20
-4.8217046194720101
30
0
10
19.768237273590731
20
-4.8280710589658202
30
0
10
19.749137955109312
20
-4.8376207182065345
30
0
10
19.723672197134071
20
-4.8408039379534369
30
0
0
LINE
5
121
100
AcDbEntity
8
0
100
AcDbLine
10
16.686880558587312
20
-13.774510157640538
30
0
11
16.577059477319111
21
-13.65036458751127
31
0
0
SPLINE
5
122
100
AcDbEntity
8
0
100
AcDbSpline
70
4
71
3
72
8
73
4
74
0
42
0.000000001
43
0.0000000001
44
0.0000000001
40
0
40
0
40
0
40
0
40
1
40
1
40
1
40
1
41
1
41
1
41
1
41
1
10
9.9273134260358908
20
-2.7255544161354868
30
0
10
9.8318168336287624
20
-2.5759430880309822
30
0
10
9.8031678559066204
20
-2.5536605498026508
30
0
10
9.69493838451187
20
-2.5441108905619374
30
0
0
SPLINE
5
123
100
AcDbEntity
8
0
100
AcDbSpline
70
4
71
3
72
8
73
4
74
0
42
0.000000001
43
0.0000000001
44
0.0000000001
40
0
40
0
40
0
40
0
40
1
40
1
40
1
40
1
41
1
41
1
41
1
41
1
10
19.274838212820558
20
-13.492795210039503
30
0
10
19.274838212820558
20
-13.538951896369616
30
0
10
18.585671137615766
20
-14.258359559169998
30
0
10
18.464708787233395
20
-14.339531662716064
30
0
0
LINE
5
124
100
AcDbEntity
8
0
100
AcDbLine
10
7.9982822594118481
20
-11.600371070504858
30
0
11
7.8343464424462672
21
-11.773856546711144
31
0
0
LINE
5
125
100
AcDbEntity
8
0
100
AcDbLine
10
16.938354918592754
20
-13.335225832567735
30
0
11
16.330359946934028
21
-13.335225832567735
31
0
0
SPLINE
5
126
100
AcDbEntity
8
0
100
AcDbSpline
70
4
71
3
72
8
73
4
74
0
42
0.000000001
43
0.0000000001
44
0.0000000001
40
0
40
0
40
0
40
0
40
1
40
1
40
1
40
1
41
1
41
1
41
1
41
1
10
11.009608139983378
20
-1.8533522054836908
30
0
10
11.054173216440038
20
-1.8390277166226219
30
0
10
11.057356436186943
20
-1.858127035104046
30
0
10
11.070089315174558
20
-2.2353385751122148
30
0
0
SPLINE
5
127
100
AcDbEntity
8
0
100
AcDbSpline
70
4
71
3
72
8
73
4
74
0
42
0.000000001
43
0.0000000001
44
0.0000000001
40
0
40
0
40
0
40
0
40
1
40
1
40
1
40
1
41
1
41
1
41
1
41
1
10
20.83302427893025
20
-10.016719246419933
30
0
10
20.844165548044408
20
-10.027860515534103
30
0
10
20.8346158888037
20
-10.109032619080164
30
0
10
20.801192081461199
20
-10.271376826172284
30
0
0
SPLINE
5
128
100
AcDbEntity
8
0
100
AcDbSpline
70
4
71
3
72
8
73
4
74
0
42
0.000000001
43
0.0000000001
44
0.0000000001
40
0
40
0
40
0
40
0
40
1
40
1
40
1
40
1
41
1
41
1
41
1
41
1
10
11.835653664305056
20
-3.6295888242563281
30
0
10
11.848386543292673
20
-3.6423217032439448
30
0
10
11.905684498736957
20
-3.737818295651075
30
0
10
11.961390844307781
20
-3.8428645472989187
30
0
0
SPLINE
5
129
100
AcDbEntity
8
0
100
AcDbSpline
70
4
71
3
72
8
73
4
74
0
42
0.000000001
43
0.0000000001
44
0.0000000001
40
0
40
0
40
0
40
0
40
1
40
1
40
1
40
1
41
1
41
1
41
1
41
1
10
16.957454237074181
20
-13.451413353329748
30
0
10
17.309200019107113
20
-13.457779792823555
30
0
10
17.785091371269317
20
-13.473695891558078
30
0
10
18.017466412793336
20
-13.486428770545698
30
0
0
SPLINE
5
130
100
AcDbEntity
8
0
100
AcDbSpline
70
4
71
3
72
8
73
4
74
0
42
0.000000001
43
0.0000000001
44
0.0000000001
40
0
40
0
40
0
40
0
40
1
40
1
40
1
40
1
41
1
41
1
41
1
41
1
10
16.868324084160861
20
-13.927304705491951
30
0
10
16.822167397830746
20
-13.908205387010522
30
0
10
16.75850300289266
20
-13.854090651313149
30
0
10
16.686880558587312
20
-13.774510157640542
30
0
0
SPLINE
5
131
100
AcDbEntity
8
0
100
AcDbSpline
70
4
71
3
72
8
73
4
74
0
42
0.000000001
43
0.0000000001
44
0.0000000001
40
0
40
0
40
0
40
0
40
1
40
1
40
1
40
1
41
1
41
1
41
1
41
1
10
15.934049088444427
20
-1.8056039092801248
30
0
10
16.260329112502124
20
-1.9026921115607094
30
0
10
16.955862627200727
20
-2.227380525744953
30
0
10
17.353765095563773
20
-2.4677136166362335
30
0
0
SPLINE
5
132
100
AcDbEntity
8
0
100
AcDbSpline
70
4
71
3
72
8
73
4
74
0
42
0.000000001
43
0.0000000001
44
0.0000000001
40
0
40
0
40
0
40
0
40
1
40
1
40
1
40
1
41
1
41
1
41
1
41
1
10
10.180379395914787
20
-2.8417419368974977
30
0
10
10.151730418192651
20
-2.8099097394284529
30
0
10
10.129447879964317
20
-2.7987684703142861
30
0
10
10.110348561482892
20
-2.8067265196815483
30
0
0
SPLINE
5
133
100
AcDbEntity
8
0
100
AcDbSpline
70
4
71
3
72
8
73
4
74
0
42
0.000000001
43
0.0000000001
44
0.0000000001
40
0
40
0
40
0
40
0
40
1
40
1
40
1
40
1
41
1
41
1
41
1
41
1
10
11.961390844307781
20
-3.8428645472989187
30
0
10
12.072803535449435
20
-4.0449990012273442
30
0
10
12.462747954445216
20
-4.8121549602313003
30
0
10
12.462747954445216
20
-4.8264794490923704
30
0
0
SPLINE
5
134
100
AcDbEntity
8
0
100
AcDbSpline
70
4
71
3
72
8
73
4
74
0
42
0.000000001
43
0.0000000001
44
0.0000000001
40
0
40
0
40
0
40
0
40
1
40
1
40
1
40
1
41
1
41
1
41
1
41
1
10
16.301710969211879
20
-13.648772977637815
30
0
10
16.298527749464977
20
-13.64240653814401
30
0
10
16.301710969211879
20
-13.593066632066991
30
0
10
16.308077408705689
20
-13.538951896369616
30
0
0
SPLINE
5
135
100
AcDbEntity
8
0
100
AcDbSpline
70
4
71
3
72
8
73
4
74
0
42
0.000000001
43
0.0000000001
44
0.0000000001
40
0
40
0
40
0
40
0
40
1
40
1
40
1
40
1
41
1
41
1
41
1
41
1
10
9.8047594657800747
20
-2.4199653204326697
30
0
10
10.124673050343961
20
-2.2321553553653102
30
0
10
10.791557587320426
20
-1.9186082102952304
30
0
10
11.009608139983378
20
-1.8533522054836908
30
0
0
LINE
5
136
100
AcDbEntity
8
0
100
AcDbLine
10
17.92992786975347
20
-4.8503535971941529
30
0
11
16.177565399082614
21
-4.8519452070676046
31
0
0
SPLINE
5
137
100
AcDbEntity
8
0
100
AcDbSpline
70
4
71
3
72
8
73
4
74
0
42
0.000000001
43
0.0000000001
44
0.0000000001
40
0
40
0
40
0
40
0
40
1
40
1
40
1
40
1
41
1
41
1
41
1
41
1
10
11.364537141763213
20
-3.4895271553925351
30
0
10
11.475949832904865
20
-3.5022600343801531
30
0
10
11.807004686582918
20
-3.5993482366607337
30
0
10
11.835653664305056
20
-3.6295888242563281
30
0
0
SPLINE
5
138
100
AcDbEntity
8
0
100
AcDbSpline
70
4
71
3
72
8
73
4
74
0
42
0.000000001
43
0.0000000001
44
0.0000000001
40
0
40
0
40
0
40
0
40
1
40
1
40
1
40
1
41
1
41
1
41
1
41
1
10
20.801192081461199
20
-10.271376826172284
30
0
10
20.654763973103602
20
-11.003517367960288
30
0
10
20.384190294616729
20
-11.743615959115555
30
0
10
20.035627732330703
20
-12.372301859129166
30
0
0
SPLINE
5
139
100
AcDbEntity
8
0
100
AcDbSpline
70
4
71
3
72
8
73
4
74
0
42
0.000000001
43
0.0000000001
44
0.0000000001
40
0
40
0
40
0
40
0
40
1
40
1
40
1
40
1
41
1
41
1
41
1
41
1
10
10.955493404285999
20
-3.0295519019648527
30
0
10
10.936394085804574
20
-3.3494654865287434
30
0
10
11.028707458464801
20
-3.452920128303135
30
0
10
11.364537141763213
20
-3.4895271553925351
30
0
0
SPLINE
5
140
100
AcDbEntity
8
0
100
AcDbSpline
70
4
71
3
72
8
73
4
74
0
42
0.000000001
43
0.0000000001
44
0.0000000001
40
0
40
0
40
0
40
0
40
1
40
1
40
1
40
1
41
1
41
1
41
1
41
1
10
18.173444180391645
20
-14.368180640438197
30
0
10
17.966534896842862
20
-14.323615563981541
30
0
10
17.786682981142768
20
-14.201061603725725
30
0
10
17.695961218355997
20
-14.040309006507055
30
0
0
LINE
5
141
100
AcDbEntity
8
0
100
AcDbLine
10
16.177565399082614
20
-4.8519452070676046
30
0
11
16.142549981866669
21
-4.3314887784487395
31
0
0
SPLINE
5
142
100
AcDbEntity
8
0
100
AcDbSpline
70
4
71
3
72
8
73
4
74
0
42
0.000000001
43
0.0000000001
44
0.0000000001
40
0
40
0
40
0
40
0
40
1
40
1
40
1
40
1
41
1
41
1
41
1
41
1
10
10.23290252173871
20
-3.2778430422233948
30
0
10
10.310891405537868
20
-3.2046289880445924
30
0
10
10.361822921488338
20
-3.1441478128534106
30
0
10
10.361822921488338
20
-3.1250484943719847
30
0
0
SPLINE
5
143
100
AcDbEntity
8
0
100
AcDbSpline
70
4
71
3
72
8
73
4
74
0
42
0.000000001
43
0.0000000001
44
0.0000000001
40
0
40
0
40
0
40
0
40
1
40
1
40
1
40
1
41
1
41
1
41
1
41
1
10
16.142549981866669
20
-4.3314887784487395
30
0
10
16.083660416548938
20
-3.4767942764049184
30
0
10
15.991347043888711
20
-2.6507487520832353
30
0
10
15.892667231734672
20
-2.0761775877669972
30
0
0
SPLINE
5
144
100
AcDbEntity
8
0
100
AcDbSpline
70
4
71
3
72
8
73
4
74
0
42
0.000000001
43
0.0000000001
44
0.0000000001
40
0
40
0
40
0
40
0
40
1
40
1
40
1
40
1
41
1
41
1
41
1
41
1
10
15.892667231734672
20
-2.0761775877669972
30
0
10
15.838552496037297
20
-1.757855613076561
30
0
10
15.835369276290397
20
-1.7769549315579849
30
0
10
15.934049088444427
20
-1.8056039092801248
30
0
0
SPLINE
5
145
100
AcDbEntity
8
0
100
AcDbSpline
70
4
71
3
72
8
73
4
74
0
42
0.000000001
43
0.0000000001
44
0.0000000001
40
0
40
0
40
0
40
0
40
1
40
1
40
1
40
1
41
1
41
1
41
1
41
1
10
8.8800341293043523
20
-11.36958763885429
30
0
10
8.6603919667679534
20
-11.539889895313676
30
0
10
8.5792198632218923
20
-11.56694726316236
30
0
10
8.2529398391641955
20
-11.586046581643787
30
0
0
SPLINE
5
146
100
AcDbEntity
8
0
100
AcDbSpline
70
4
71
3
72
8
73
4
74
0
42
0.000000001
43
0.0000000001
44
0.0000000001
40
0
40
0
40
0
40
0
40
1
40
1
40
1
40
1
41
1
41
1
41
1
41
1
10
16.236454964400341
20
-13.080568252815386
30
0
10
16.187115058323329
20
-13.029636736864919
30
0
10
16.131408712752503
20
-13.007354198636587
30
0
10
15.813086738062065
20
-12.900716337115295
30
0
0
LINE
5
147
100
AcDbEntity
8
0
100
AcDbLine
10
16.577059477319111
20
-13.65036458751127
30
0
11
16.441772638075676
21
-13.656731027005078
31
0
0
SPLINE
5
148
100
AcDbEntity
8
0
100
AcDbSpline
70
4
71
3
72
8
73
4
74
0
42
0.000000001
43
0.0000000001
44
0.0000000001
40
0
40
0
40
0
40
0
40
1
40
1
40
1
40
1
41
1
41
1
41
1
41
1
10
17.353765095563773
20
-2.4677136166362335
30
0
10
18.03815734114821
20
-2.8831237936072522
30
0
10
18.658885191794564
20
-3.4131298814668307
30
0
10
19.212765427755929
20
-4.056140270341511
30
0
0
LINE
5
149
100
AcDbEntity
8
0
100
AcDbLine
10
16.319218677819858
20
-13.441863694089035
30
0
11
16.957454237074181
21
-13.451413353329748
31
0
0
SPLINE
5
150
100
AcDbEntity
8
0
100
AcDbSpline
70
4
71
3
72
8
73
4
74
0
42
0.000000001
43
0.0000000001
44
0.0000000001
40
0
40
0
40
0
40
0
40
1
40
1
40
1
40
1
41
1
41
1
41
1
41
1
10
10.256776669840489
20
-4.1436788133813813
30
0
10
10.258368279713943
20
-3.941544359452954
30
0
10
10.256776669840489
20
-3.9319947002122415
30
0
10
10.191520665028953
20
-3.7282686364103608
30
0
0
SPLINE
5
151
100
AcDbEntity
8
0
100
AcDbSpline
70
4
71
3
72
8
73
4
74
0
42
0.000000001
43
0.0000000001
44
0.0000000001
40
0
40
0
40
0
40
0
40
1
40
1
40
1
40
1
41
1
41
1
41
1
41
1
10
16.257145892755219
20
-9.9896618785712494
30
0
10
16.346276045668542
20
-9.9753373897101785
30
0
10
20.818699790069179
20
-10.002394757558864
30
0
10
20.83302427893025
20
-10.016719246419933
30
0
0
SPLINE
5
152
100
AcDbEntity
8
0
100
AcDbSpline
70
4
71
3
72
8
73
4
74
0
42
0.000000001
43
0.0000000001
44
0.0000000001
40
0
40
0
40
0
40
0
40
1
40
1
40
1
40
1
41
1
41
1
41
1
41
1
10
16.441772638075676
20
-13.656731027005078
30
0
10
16.366966974023423
20
-13.659914246751985
30
0
10
16.304894188958787
20
-13.656731027005078
30
0
10
16.301710969211879
20
-13.648772977637815
30
0
0
SPLINE
5
153
100
AcDbEntity
8
0
100
AcDbSpline
70
4
71
3
72
8
73
4
74
0
42
0.000000001
43
0.0000000001
44
0.0000000001
40
0
40
0
40
0
40
0
40
1
40
1
40
1
40
1
41
1
41
1
41
1
41
1
10
10.191520665028953
20
-3.7282686364103608
30
0
10
10.083291193634208
20
-3.3892557333650477
30
0
10
10.0801079738873
20
-3.4210879308340907
30
0
10
10.23290252173871
20
-3.2778430422233948
30
0
0
LINE
5
154
100
AcDbEntity
8
0
100
AcDbLine
10
9.69493838451187
20
-2.5441108905619374
30
0
11
9.605808231598548
21
-2.5361528411946765
31
0
0
LINE
5
155
100
AcDbEntity
8
0
100
AcDbLine
10
9.605808231598548
20
-2.5361528411946765
30
0
11
9.8047594657800747
21
-2.4199653204326697
31
0
0
SPLINE
5
156
100
AcDbEntity
8
0
100
AcDbSpline
70
4
71
3
72
8
73
4
74
0
42
0.000000001
43
0.0000000001
44
0.0000000001
40
0
40
0
40
0
40
0
40
1
40
1
40
1
40
1
41
1
41
1
41
1
41
1
10
18.017466412793336
20
-13.486428770545698
30
0
10
18.461525567486493
20
-13.510302918647476
30
0
10
18.92309243078763
20
-13.515077748267833
30
0
10
19.142734593324029
20
-13.497570039659859
30
0
0
SPLINE
5
157
100
AcDbEntity
8
0
100
AcDbSpline
70
4
71
3
72
8
73
4
74
0
42
0.000000001
43
0.0000000001
44
0.0000000001
40
0
40
0
40
0
40
0
40
1
40
1
40
1
40
1
41
1
41
1
41
1
41
1
10
10.110348561482892
20
-2.8067265196815483
30
0
10
10.011668749328857
20
-2.8449251566444
30
0
10
10.002119090088142
20
-2.8401503270240451
30
0
10
9.9273134260358908
20
-2.7255544161354868
30
0
0
SPLINE
5
158
100
AcDbEntity
8
0
100
AcDbSpline
70
4
71
3
72
8
73
4
74
0
42
0.000000001
43
0.0000000001
44
0.0000000001
40
0
40
0
40
0
40
0
40
1
40
1
40
1
40
1
41
1
41
1
41
1
41
1
10
11.022341018970993
20
-2.7096383174009637
30
0
10
10.977775942514333
20
-2.8401503270240451
30
0
10
10.961859843779813
20
-2.9165476009497495
30
0
10
10.955493404285999
20
-3.0295519019648527
30
0
0
SPLINE
5
159
100
AcDbEntity
8
0
100
AcDbSpline
70
4
71
3
72
8
73
4
74
0
42
0.000000001
43
0.0000000001
44
0.0000000001
40
0
40
0
40
0
40
0
40
1
40
1
40
1
40
1
41
1
41
1
41
1
41
1
10
15.38016885248307
20
-13.793609476121965
30
0
10
15.392901731470683
20
-13.858865480933503
30
0
10
15.375394022862709
20
-13.858865480933503
30
0
10
15.326054116785693
20
-13.793609476121965
30
0
0
SPLINE
5
160
100
AcDbEntity
8
0
100
AcDbSpline
70
4
71
3
72
8
73
4
74
0
42
0.000000001
43
0.0000000001
44
0.0000000001
40
0
40
0
40
0
40
0
40
1
40
1
40
1
40
1
41
1
41
1
41
1
41
1
10
9.7442782905888912
20
-11.149945476317891
30
0
10
9.8031678559066204
20
-11.16108674543206
30
0
10
9.7872517571720969
20
-11.181777673786932
30
0
10
9.6710642364100892
20
-11.235892409484311
30
0
0
SPLINE
5
161
100
AcDbEntity
8
0
100
AcDbSpline
70
4
71
3
72
8
73
4
74
0
42
0.000000001
43
0.0000000001
44
0.0000000001
40
0
40
0
40
0
40
0
40
1
40
1
40
1
40
1
41
1
41
1
41
1
41
1
10
15.717590145654933
20
-11.234300799610857
30
0
10
15.894258841608117
20
-10.720210810485803
30
0
10
15.986572214268351
20
-10.497385428202492
30
0
10
16.090026856042741
20
-10.335041221110371
30
0
0
SPLINE
5
162
100
AcDbEntity
8
0
100
AcDbSpline
70
4
71
3
72
8
73
4
74
0
42
0.000000001
43
0.0000000001
44
0.0000000001
40
0
40
0
40
0
40
0
40
1
40
1
40
1
40
1
41
1
41
1
41
1
41
1
10
6.5658333733048808
20
-11.113338449228491
30
0
10
6.6294977682429703
20
-11.102197180114326
30
0
10
9.67902228577735
20
-11.13562098745682
30
0
10
9.7442782905888912
20
-11.149945476317891
30
0
0
SPLINE
5
163
100
AcDbEntity
8
0
100
AcDbSpline
70
4
71
3
72
8
73
4
74
0
42
0.000000001
43
0.0000000001
44
0.0000000001
40
0
40
0
40
0
40
0
40
1
40
1
40
1
40
1
41
1
41
1
41
1
41
1
10
9.6710642364100892
20
-11.235892409484311
30
0
10
9.5612431551418897
20
-11.288415535308234
30
0
10
9.4609717331144019
20
-11.29478197480204
30
0
10
9.2126805928558611
20
-11.2661329970799
30
0
0
SPLINE
5
164
100
AcDbEntity
8
0
100
AcDbSpline
70
4
71
3
72
8
73
4
74
0
42
0.000000001
43
0.0000000001
44
0.0000000001
40
0
40
0
40
0
40
0
40
1
40
1
40
1
40
1
41
1
41
1
41
1
41
1
10
19.282796262187819
20
-6.1570653032983911
30
0
10
19.298712360922341
20
-6.2334625772240964
30
0
10
19.281204652314372
20
-6.2127716488692188
30
0
10
19.1570590821851
20
-6.0074539751938891
30
0
0
SPLINE
5
165
100
AcDbEntity
8
0
100
AcDbSpline
70
4
71
3
72
8
73
4
74
0
42
0.000000001
43
0.0000000001
44
0.0000000001
40
0
40
0
40
0
40
0
40
1
40
1
40
1
40
1
41
1
41
1
41
1
41
1
10
19.723672197134071
20
-4.8408039379534369
30
0
10
19.699798049032296
20
-4.8439871577003419
30
0
10
18.892851843192034
20
-4.8487619873206986
30
0
10
17.92992786975347
20
-4.8503535971941529
30
0
0
SPLINE
5
166
100
AcDbEntity
8
0
100
AcDbSpline
70
4
71
3
72
8
73
4
74
0
42
0.000000001
43
0.0000000001
44
0.0000000001
40
0
40
0
40
0
40
0
40
1
40
1
40
1
40
1
41
1
41
1
41
1
41
1
10
19.052012830537254
20
-5.8085027410123642
30
0
10
19.052012830537254
20
-5.7925866422778434
30
0
10
19.06156248977797
20
-5.7671208843026083
30
0
10
19.074295368765583
20
-5.7496131756946349
30
0
0
SPLINE
5
167
100
AcDbEntity
8
0
100
AcDbSpline
70
4
71
3
72
8
73
4
74
0
42
0.000000001
43
0.0000000001
44
0.0000000001
40
0
40
0
40
0
40
0
40
1
40
1
40
1
40
1
41
1
41
1
41
1
41
1
10
7.6417616477585577
20
-4.3362636080690953
30
0
10
7.7754568771285406
20
-4.159594912115903
30
0
10
8.0253396272605286
20
-3.8667386954007021
30
0
10
8.0412557259950503
20
-3.8667386954007021
30
0
0
SPLINE
5
168
100
AcDbEntity
8
0
100
AcDbSpline
70
4
71
3
72
8
73
4
74
0
42
0.000000001
43
0.0000000001
44
0.0000000001
40
0
40
0
40
0
40
0
40
1
40
1
40
1
40
1
41
1
41
1
41
1
41
1
10
7.7165673118108078
20
-4.9156096020056905
30
0
10
7.5892385219346341
20
-4.9251592612464021
30
0
10
7.4635013419319112
20
-4.939483750107474
30
0
10
7.4380355839566787
20
-4.9474417994747339
30
0
0
LINE
5
169
100
AcDbEntity
8
0
100
AcDbLine
10
19.91625699182179
20
-5.4742646675874065
30
0
11
19.991062655874039
21
-5.5236045736644259
31
0
0
SPLINE
5
170
100
AcDbEntity
8
0
100
AcDbSpline
70
4
71
3
72
8
73
4
74
0
42
0.000000001
43
0.0000000001
44
0.0000000001
40
0
40
0
40
0
40
0
40
1
40
1
40
1
40
1
41
1
41
1
41
1
41
1
10
19.074295368765583
20
-5.7496131756946349
30
0
10
19.098169516867369
20
-5.7193725880990423
30
0
10
19.098169516867369
20
-5.7193725880990423
30
0
10
19.122043664969144
20
-5.7512047855680857
30
0
0
SPLINE
5
171
100
AcDbEntity
8
0
100
AcDbSpline
70
4
71
3
72
8
73
4
74
0
42
0.000000001
43
0.0000000001
44
0.0000000001
40
0
40
0
40
0
40
0
40
1
40
1
40
1
40
1
41
1
41
1
41
1
41
1
10
7.2677333274972895
20
-4.9538082389685441
30
0
10
7.2534088386362185
20
-4.9490334093481856
30
0
10
7.242267569522058
20
-4.9347089204871164
30
0
10
7.242267569522058
20
-4.9251592612464021
30
0
0
SPLINE
5
172
100
AcDbEntity
8
0
100
AcDbSpline
70
4
71
3
72
8
73
4
74
0
42
0.000000001
43
0.0000000001
44
0.0000000001
40
0
40
0
40
0
40
0
40
1
40
1
40
1
40
1
41
1
41
1
41
1
41
1
10
18.905584722179661
20
-5.8992245037991387
30
0
10
18.942191749269057
20
-5.8562510372159311
30
0
10
18.946966578889409
20
-5.8546594273424795
30
0
10
18.972432336864649
20
-5.8785335754442603
30
0
0
SPLINE
5
173
100
AcDbEntity
8
0
100
AcDbSpline
70
4
71
3
72
8
73
4
74
0
42
0.000000001
43
0.0000000001
44
0.0000000001
40
0
40
0
40
0
40
0
40
1
40
1
40
1
40
1
41
1
41
1
41
1
41
1
10
7.242267569522058
20
-4.9251592612464021
30
0
10
7.242267569522058
20
-4.899693503271167
30
0
10
7.4953335394009546
20
-4.5256651830099051
30
0
10
7.6417616477585577
20
-4.3362636080690953
30
0
0
SPLINE
5
174
100
AcDbEntity
8
0
100
AcDbSpline
70
4
71
3
72
8
73
4
74
0
42
0.000000001
43
0.0000000001
44
0.0000000001
40
0
40
0
40
0
40
0
40
1
40
1
40
1
40
1
41
1
41
1
41
1
41
1
10
8.0428473358685029
20
-4.2280341366743466
30
0
10
8.0317060667543423
20
-4.6498107531391755
30
0
10
8.0364808963746945
20
-4.6752765111144123
30
0
10
8.1526684171367023
20
-4.7994220812436827
30
0
0
SPLINE
5
175
100
AcDbEntity
8
0
100
AcDbSpline
70
4
71
3
72
8
73
4
74
0
42
0.000000001
43
0.0000000001
44
0.0000000001
40
0
40
0
40
0
40
0
40
1
40
1
40
1
40
1
41
1
41
1
41
1
41
1
10
14.646436700821612
20
-5.5984102377166769
30
0
10
14.633703821833997
20
-5.579310919235251
30
0
10
14.566856207149002
20
-5.4440240799918147
30
0
10
14.498416982590559
20
-5.2975959716342143
30
0
0
SPLINE
5
176
100
AcDbEntity
8
0
100
AcDbSpline
70
4
71
3
72
8
73
4
74
0
42
0.000000001
43
0.0000000001
44
0.0000000001
40
0
40
0
40
0
40
0
40
1
40
1
40
1
40
1
41
1
41
1
41
1
41
1
10
8.1526684171367023
20
-4.7994220812436827
30
0
10
8.2545314490376445
20
-4.9060599427649789
30
0
10
8.2449817897969329
20
-4.9235676513729505
30
0
10
8.0953704616924274
20
-4.9076515526384288
30
0
0
SPLINE
5
177
100
AcDbEntity
8
0
100
AcDbSpline
70
4
71
3
72
8
73
4
74
0
42
0.000000001
43
0.0000000001
44
0.0000000001
40
0
40
0
40
0
40
0
40
1
40
1
40
1
40
1
41
1
41
1
41
1
41
1
10
19.1570590821851
20
-6.0074539751938891
30
0
10
19.09976112674082
20
-5.9119573827867562
30
0
10
19.052012830537254
20
-5.8228272298734343
30
0
10
19.052012830537254
20
-5.8085027410123642
30
0
0
SPLINE
5
178
100
AcDbEntity
8
0
100
AcDbSpline
70
4
71
3
72
8
73
4
74
0
42
0.000000001
43
0.0000000001
44
0.0000000001
40
0
40
0
40
0
40
0
40
1
40
1
40
1
40
1
41
1
41
1
41
1
41
1
10
14.68145211803756
20
-5.5586199908803726
30
0
10
14.670310848923398
20
-5.6302424351857221
30
0
10
14.670310848923398
20
-5.631834045059172
30
0
10
14.646436700821612
20
-5.5984102377166769
30
0
0
SPLINE
5
179
100
AcDbEntity
8
0
100
AcDbSpline
70
4
71
3
72
8
73
4
74
0
42
0.000000001
43
0.0000000001
44
0.0000000001
40
0
40
0
40
0
40
0
40
1
40
1
40
1
40
1
41
1
41
1
41
1
41
1
10
8.0953704616924274
20
-4.9076515526384288
30
0
10
7.956900402702086
20
-4.8933270637773587
30
0
10
7.9950990396649404
20
-4.8933270637773587
30
0
10
7.7165673118108078
20
-4.9156096020056905
30
0
0
SPLINE
5
180
100
AcDbEntity
8
0
100
AcDbSpline
70
4
71
3
72
8
73
4
74
0
42
0.000000001
43
0.0000000001
44
0.0000000001
40
0
40
0
40
0
40
0
40
1
40
1
40
1
40
1
41
1
41
1
41
1
41
1
10
18.972432336864649
20
-5.8785335754442603
30
0
10
19.037688341676184
20
-5.9374231407619922
30
0
10
19.01699741332131
20
-6.0392861726629317
30
0
10
18.918317601167267
20
-6.1459240341842261
30
0
0
SPLINE
5
181
100
AcDbEntity
8
0
100
AcDbSpline
70
4
71
3
72
8
73
4
74
0
42
0.000000001
43
0.0000000001
44
0.0000000001
40
0
40
0
40
0
40
0
40
1
40
1
40
1
40
1
41
1
41
1
41
1
41
1
10
18.717774757112299
20
-6.2430122364648106
30
0
10
18.717774757112299
20
-6.2207296982364797
30
0
10
18.870569304963709
20
-5.9421979703823471
30
0
10
18.905584722179661
20
-5.8992245037991387
30
0
0
SPLINE
5
182
100
AcDbEntity
8
0
100
AcDbSpline
70
4
71
3
72
8
73
4
74
0
42
0.000000001
43
0.0000000001
44
0.0000000001
40
0
40
0
40
0
40
0
40
1
40
1
40
1
40
1
41
1
41
1
41
1
41
1
10
18.918317601167267
20
-6.1459240341842261
30
0
10
18.867386085216797
20
-6.2016303797550538
30
0
10
18.717774757112299
20
-6.2732528240604006
30
0
10
18.717774757112299
20
-6.2430122364648106
30
0
0
SPLINE
5
183
100
AcDbEntity
8
0
100
AcDbSpline
70
4
71
3
72
8
73
4
74
0
42
0.000000001
43
0.0000000001
44
0.0000000001
40
0
40
0
40
0
40
0
40
1
40
1
40
1
40
1
41
1
41
1
41
1
41
1
10
7.4380355839566787
20
-4.9474417994747339
30
0
10
7.3839208482593026
20
-4.9633578982092557
30
0
10
7.3011571348397846
20
-4.9665411179561607
30
0
10
7.2677333274972895
20
-4.9538082389685441
30
0
0
SPLINE
5
184
100
AcDbEntity
8
0
100
AcDbSpline
70
4
71
3
72
8
73
4
74
0
42
0.000000001
43
0.0000000001
44
0.0000000001
40
0
40
0
40
0
40
0
40
1
40
1
40
1
40
1
41
1
41
1
41
1
41
1
10
19.122043664969144
20
-5.7512047855680857
30
0
10
19.152284252564744
20
-5.7909950324043917
30
0
10
19.268471773326748
20
-6.0838512491195935
30
0
10
19.282796262187819
20
-6.1570653032983911
30
0
0
SPLINE
5
185
100
AcDbEntity
8
0
100
AcDbSpline
70
4
71
3
72
8
73
4
74
0
42
0.000000001
43
0.0000000001
44
0.0000000001
40
0
40
0
40
0
40
0
40
1
40
1
40
1
40
1
41
1
41
1
41
1
41
1
10
8.0412557259950503
20
-3.8667386954007021
30
0
10
8.0476221654888622
20
-3.8651470855272492
30
0
10
8.0492137753623147
20
-4.0274912926193727
30
0
10
8.0428473358685029
20
-4.2280341366743466
30
0
0
SPLINE
5
186
100
AcDbEntity
8
0
100
AcDbSpline
70
4
71
3
72
8
73
4
74
0
42
0.000000001
43
0.0000000001
44
0.0000000001
40
0
40
0
40
0
40
0
40
1
40
1
40
1
40
1
41
1
41
1
41
1
41
1
10
14.691001777278272
20
-5.2721302136589809
30
0
10
14.691001777278272
20
-5.3883177344209896
30
0
10
14.686226947657918
20
-5.517238134170614
30
0
10
14.68145211803756
20
-5.5586199908803726
30
0
0
SPLINE
5
187
100
AcDbEntity
8
0
100
AcDbSpline
70
4
71
3
72
8
73
4
74
0
42
0.000000001
43
0.0000000001
44
0.0000000001
40
0
40
0
40
0
40
0
40
1
40
1
40
1
40
1
41
1
41
1
41
1
41
1
10
7.6242539391505799
20
-13.271561437629648
30
0
10
7.5176160776292864
20
-13.150599087247285
30
0
10
7.0512743847077983
20
-12.432783034320353
30
0
10
7.0512743847077983
20
-12.38821795786369
30
0
0
SPLINE
5
188
100
AcDbEntity
8
0
100
AcDbSpline
70
4
71
3
72
8
73
4
74
0
42
0.000000001
43
0.0000000001
44
0.0000000001
40
0
40
0
40
0
40
0
40
1
40
1
40
1
40
1
41
1
41
1
41
1
41
1
10
19.418083101431254
20
-6.1777562316532713
30
0
10
19.381476074341858
20
-6.1968555501346954
30
0
10
19.367151585480784
20
-6.1984471600081505
30
0
10
19.360785145986981
20
-6.1841226711470796
30
0
0
SPLINE
5
189
100
AcDbEntity
8
0
100
AcDbSpline
70
4
71
3
72
8
73
4
74
0
42
0.000000001
43
0.0000000001
44
0.0000000001
40
0
40
0
40
0
40
0
40
1
40
1
40
1
40
1
41
1
41
1
41
1
41
1
10
20.059501880432489
20
-6.1459240341842261
30
0
10
20.034036122457248
20
-6.1506988638045836
30
0
10
19.991062655874046
20
-6.1475156440576812
30
0
10
19.962413678151901
20
-6.1363743749435153
30
0
0
SPLINE
5
190
100
AcDbEntity
8
0
100
AcDbSpline
70
4
71
3
72
8
73
4
74
0
42
0.000000001
43
0.0000000001
44
0.0000000001
40
0
40
0
40
0
40
0
40
1
40
1
40
1
40
1
41
1
41
1
41
1
41
1
10
8.1463019776428975
20
-11.805688744180191
30
0
10
8.3436616019509664
20
-11.847070600889943
30
0
10
8.6046856211971257
20
-11.813646793547452
30
0
10
8.7718046579096036
20
-11.726108250507581
30
0
0
SPLINE
5
191
100
AcDbEntity
8
0
100
AcDbSpline
70
4
71
3
72
8
73
4
74
0
42
0.000000001
43
0.0000000001
44
0.0000000001
40
0
40
0
40
0
40
0
40
1
40
1
40
1
40
1
41
1
41
1
41
1
41
1
10
7.0512743847077983
20
-12.38821795786369
30
0
10
7.0512743847077983
20
-12.378668298622975
30
0
10
7.1037975105317201
20
-12.361160590015002
30
0
10
7.1706451252167103
20
-12.351610930774291
30
0
0
SPLINE
5
192
100
AcDbEntity
8
0
100
AcDbSpline
70
4
71
3
72
8
73
4
74
0
42
0.000000001
43
0.0000000001
44
0.0000000001
40
0
40
0
40
0
40
0
40
1
40
1
40
1
40
1
41
1
41
1
41
1
41
1
10
8.7718046579096036
20
-11.726108250507581
30
0
10
8.8243277837335281
20
-11.697459272785443
30
0
10
8.9341488650017276
20
-11.611512339619022
30
0
10
9.0153209685477869
20
-11.533523455819868
30
0
0
SPLINE
5
193
100
AcDbEntity
8
0
100
AcDbSpline
70
4
71
3
72
8
73
4
74
0
42
0.000000001
43
0.0000000001
44
0.0000000001
40
0
40
0
40
0
40
0
40
1
40
1
40
1
40
1
41
1
41
1
41
1
41
1
10
9.0153209685477869
20
-11.533523455819868
30
0
10
9.0980846819673005
20
-11.457126181894161
30
0
10
9.1808483953868194
20
-11.387095347462266
30
0
10
9.2031309336151477
20
-11.379137298095003
30
0
0
SPLINE
5
194
100
AcDbEntity
8
0
100
AcDbSpline
70
4
71
3
72
8
73
4
74
0
42
0.000000001
43
0.0000000001
44
0.0000000001
40
0
40
0
40
0
40
0
40
1
40
1
40
1
40
1
41
1
41
1
41
1
41
1
10
14.498416982590559
20
-5.2975959716342143
30
0
10
14.428386148158664
20
-5.1511678632766111
30
0
10
14.372679802587834
20
-5.0270222931473425
30
0
10
14.372679802587834
20
-5.0206558536535351
30
0
0
SPLINE
5
195
100
AcDbEntity
8
0
100
AcDbSpline
70
4
71
3
72
8
73
4
74
0
42
0.000000001
43
0.0000000001
44
0.0000000001
40
0
40
0
40
0
40
0
40
1
40
1
40
1
40
1
41
1
41
1
41
1
41
1
10
10.831347834156732
20
-14.345898102209873
30
0
10
8.9962216500663601
20
-13.819075234097202
30
0
10
8.0810459728313564
20
-13.545318335863424
30
0
10
8.0094235285260087
20
-13.500753259406764
30
0
0
SPLINE
5
196
100
AcDbEntity
8
0
100
AcDbSpline
70
4
71
3
72
8
73
4
74
0
42
0.000000001
43
0.0000000001
44
0.0000000001
40
0
40
0
40
0
40
0
40
1
40
1
40
1
40
1
41
1
41
1
41
1
41
1
10
20.40328961309816
20
-6.0329197331691242
30
0
10
20.484461716644219
20
-6.2318709673506456
30
0
10
20.494011375884931
20
-6.266886384566595
30
0
10
20.471728837656602
20
-6.2732528240604006
30
0
0
SPLINE
5
197
100
AcDbEntity
8
0
100
AcDbSpline
70
4
71
3
72
8
73
4
74
0
42
0.000000001
43
0.0000000001
44
0.0000000001
40
0
40
0
40
0
40
0
40
1
40
1
40
1
40
1
41
1
41
1
41
1
41
1
10
19.034505121929282
20
-6.2366457969710032
30
0
10
18.983573605978808
20
-6.1857142810205312
30
0
10
18.981981996105358
20
-6.1570653032983911
30
0
10
19.029730292308919
20
-6.0822596392461392
30
0
0
SPLINE
5
198
100
AcDbEntity
8
0
100
AcDbSpline
70
4
71
3
72
8
73
4
74
0
42
0.000000001
43
0.0000000001
44
0.0000000001
40
0
40
0
40
0
40
0
40
1
40
1
40
1
40
1
41
1
41
1
41
1
41
1
10
8.0094235285260087
20
-13.500753259406764
30
0
10
7.9632668421958961
20
-13.470512671811171
30
0
10
7.9648584520693504
20
-13.446638523709389
30
0
10
8.0317060667543423
20
-13.17606484522252
30
0
0
SPLINE
5
199
100
AcDbEntity
8
0
100
AcDbSpline
70
4
71
3
72
8
73
4
74
0
42
0.000000001
43
0.0000000001
44
0.0000000001
40
0
40
0
40
0
40
0
40
1
40
1
40
1
40
1
41
1
41
1
41
1
41
1
10
7.6338035983912951
20
-12.972338781420641
30
0
10
7.6242539391505799
20
-13.034411566485273
30
0
10
7.648128087252366
20
-13.271561437629648
30
0
10
7.6672274057337892
20
-13.311351684465954
30
0
0
SPLINE
5
200
100
AcDbEntity
8
0
100
AcDbSpline
70
4
71
3
72
8
73
4
74
0
42
0.000000001
43
0.0000000001
44
0.0000000001
40
0
40
0
40
0
40
0
40
1
40
1
40
1
40
1
41
1
41
1
41
1
41
1
10
19.360785145986981
20
-6.1841226711470796
30
0
10
19.254147284465681
20
-5.9024077235460428
30
0
10
19.155467472311642
20
-5.5840857488556059
30
0
10
19.133184934083321
20
-5.4487989096121723
30
0
0
SPLINE
5
201
100
AcDbEntity
8
0
100
AcDbSpline
70
4
71
3
72
8
73
4
74
0
42
0.000000001
43
0.0000000001
44
0.0000000001
40
0
40
0
40
0
40
0
40
1
40
1
40
1
40
1
41
1
41
1
41
1
41
1
10
14.372679802587834
20
-5.0206558536535351
30
0
10
14.372679802587834
20
-5.0158810240331775
30
0
10
14.428386148158664
20
-5.0111061944128208
30
0
10
14.496825372717108
20
-5.0111061944128208
30
0
0
SPLINE
5
202
100
AcDbEntity
8
0
100
AcDbSpline
70
4
71
3
72
8
73
4
74
0
42
0.000000001
43
0.0000000001
44
0.0000000001
40
0
40
0
40
0
40
0
40
1
40
1
40
1
40
1
41
1
41
1
41
1
41
1
10
19.962413678151901
20
-6.1363743749435153
30
0
10
19.91625699182179
20
-6.1204582762089927
30
0
10
19.901932502960719
20
-6.1220498860824444
30
0
10
19.858959036377506
20
-6.1475156440576812
30
0
0
SPLINE
5
203
100
AcDbEntity
8
0
100
AcDbSpline
70
4
71
3
72
8
73
4
74
0
42
0.000000001
43
0.0000000001
44
0.0000000001
40
0
40
0
40
0
40
0
40
1
40
1
40
1
40
1
41
1
41
1
41
1
41
1
10
7.8200219535852016
20
-12.809994574328515
30
0
10
7.730891800671877
20
-12.809994574328515
30
0
10
7.719750531557712
20
-12.814769403948873
30
0
10
7.6831435044683083
20
-12.856151260658633
30
0
0
SPLINE
5
204
100
AcDbEntity
8
0
100
AcDbSpline
70
4
71
3
72
8
73
4
74
0
42
0.000000001
43
0.0000000001
44
0.0000000001
40
0
40
0
40
0
40
0
40
1
40
1
40
1
40
1
41
1
41
1
41
1
41
1
10
9.2031309336151477
20
-11.379137298095003
30
0
10
9.2238218619700287
20
-11.371179248727744
30
0
10
9.3018107457691812
20
-11.367996028980842
30
0
10
9.3766164098214357
20
-11.372770858601196
30
0
0
SPLINE
5
205
100
AcDbEntity
8
0
100
AcDbSpline
70
4
71
3
72
8
73
4
74
0
42
0.000000001
43
0.0000000001
44
0.0000000001
40
0
40
0
40
0
40
0
40
1
40
1
40
1
40
1
41
1
41
1
41
1
41
1
10
11.776764098987325
20
-14.56235704499937
30
0
10
11.749706731138637
20
-14.589414412848058
30
0
10
11.732199022530663
20
-14.594189242468413
30
0
10
11.686042336200552
20
-14.584639583227702
30
0
0
SPLINE
5
206
100
AcDbEntity
8
0
100
AcDbSpline
70
4
71
3
72
8
73
4
74
0
42
0.000000001
43
0.0000000001
44
0.0000000001
40
0
40
0
40
0
40
0
40
1
40
1
40
1
40
1
41
1
41
1
41
1
41
1
10
20.471728837656602
20
-6.2732528240604006
30
0
10
20.439896640187559
20
-6.2812108734276615
30
0
10
20.374640635376014
20
-6.2430122364648106
30
0
10
20.344400047780429
20
-6.2016303797550538
30
0
0
SPLINE
5
207
100
AcDbEntity
8
0
100
AcDbSpline
70
4
71
3
72
8
73
4
74
0
42
0.000000001
43
0.0000000001
44
0.0000000001
40
0
40
0
40
0
40
0
40
1
40
1
40
1
40
1
41
1
41
1
41
1
41
1
10
19.10612756623463
20
-5.2991875815076668
30
0
10
19.094986297120464
20
-5.2609889445448141
30
0
10
19.096577906993915
20
-5.2609889445448141
30
0
10
19.180933230286882
20
-5.2705386037855266
30
0
0
SPLINE
5
208
100
AcDbEntity
8
0
100
AcDbSpline
70
4
71
3
72
8
73
4
74
0
42
0.000000001
43
0.0000000001
44
0.0000000001
40
0
40
0
40
0
40
0
40
1
40
1
40
1
40
1
41
1
41
1
41
1
41
1
10
20.123166275370568
20
-6.1538820835514878
30
0
10
20.112025006256406
20
-6.1443324243107762
30
0
10
20.083376028534268
20
-6.1411492045638711
30
0
10
20.059501880432489
20
-6.1459240341842261
30
0
0
SPLINE
5
209
100
AcDbEntity
8
0
100
AcDbSpline
70
4
71
3
72
8
73
4
74
0
42
0.000000001
43
0.0000000001
44
0.0000000001
40
0
40
0
40
0
40
0
40
1
40
1
40
1
40
1
41
1
41
1
41
1
41
1
10
19.128410104462954
20
-6.2446038463382614
30
0
10
19.10612756623463
20
-6.2955353622887333
30
0
10
19.091803077373559
20
-6.2955353622887333
30
0
10
19.034505121929282
20
-6.2366457969710032
30
0
0
SPLINE
5
210
100
AcDbEntity
8
0
100
AcDbSpline
70
4
71
3
72
8
73
4
74
0
42
0.000000001
43
0.0000000001
44
0.0000000001
40
0
40
0
40
0
40
0
40
1
40
1
40
1
40
1
41
1
41
1
41
1
41
1
10
19.114085615601887
20
-6.0870344688664968
30
0
10
19.152284252564744
20
-6.1347827650700628
30
0
10
19.155467472311642
20
-6.1841226711470796
30
0
10
19.128410104462954
20
-6.2446038463382614
30
0
0
SPLINE
5
211
100
AcDbEntity
8
0
100
AcDbSpline
70
4
71
3
72
8
73
4
74
0
42
0.000000001
43
0.0000000001
44
0.0000000001
40
0
40
0
40
0
40
0
40
1
40
1
40
1
40
1
41
1
41
1
41
1
41
1
10
11.686042336200552
20
-14.584639583227702
30
0
10
11.652618528858055
20
-14.57827314373389
30
0
10
11.269040549356081
20
-14.471635282212596
30
0
10
10.831347834156732
20
-14.345898102209873
30
0
0
SPLINE
5
212
100
AcDbEntity
8
0
100
AcDbSpline
70
4
71
3
72
8
73
4
74
0
42
0.000000001
43
0.0000000001
44
0.0000000001
40
0
40
0
40
0
40
0
40
1
40
1
40
1
40
1
41
1
41
1
41
1
41
1
10
14.496825372717108
20
-5.0111061944128208
30
0
10
14.689410167404818
20
-5.0111061944128208
30
0
10
14.691001777278272
20
-5.0142894141597258
30
0
10
14.691001777278272
20
-5.2721302136589809
30
0
0
SPLINE
5
213
100
AcDbEntity
8
0
100
AcDbSpline
70
4
71
3
72
8
73
4
74
0
42
0.000000001
43
0.0000000001
44
0.0000000001
40
0
40
0
40
0
40
0
40
1
40
1
40
1
40
1
41
1
41
1
41
1
41
1
10
19.133184934083321
20
-5.4487989096121723
30
0
10
19.123635274842602
20
-5.3883177344209896
30
0
10
19.110902395854982
20
-5.3198785098625452
30
0
10
19.10612756623463
20
-5.2991875815076668
30
0
0
SPLINE
5
214
100
AcDbEntity
8
0
100
AcDbSpline
70
4
71
3
72
8
73
4
74
0
42
0.000000001
43
0.0000000001
44
0.0000000001
40
0
40
0
40
0
40
0
40
1
40
1
40
1
40
1
41
1
41
1
41
1
41
1
10
19.858959036377506
20
-6.1475156440576812
30
0
10
19.707756098399557
20
-6.2382374068444548
30
0
10
19.702981268779197
20
-6.2398290167179065
30
0
10
19.645683313334921
20
-6.2048135995019571
30
0
0
LINE
5
215
100
AcDbEntity
8
0
100
AcDbLine
10
19.991062655874039
20
-5.5236045736644259
30
0
11
20.048360611318316
21
-5.4885891564484766
31
0
0
SPLINE
5
216
100
AcDbEntity
8
0
100
AcDbSpline
70
4
71
3
72
8
73
4
74
0
42
0.000000001
43
0.0000000001
44
0.0000000001
40
0
40
0
40
0
40
0
40
1
40
1
40
1
40
1
41
1
41
1
41
1
41
1
10
19.74436312548896
20
-5.394684173914797
30
0
10
19.796886251312873
20
-5.4106002726493196
30
0
10
19.874875135112031
20
-5.4472072997387189
30
0
10
19.91625699182179
20
-5.4742646675874065
30
0
0
SPLINE
5
217
100
AcDbEntity
8
0
100
AcDbSpline
70
4
71
3
72
8
73
4
74
0
42
0.000000001
43
0.0000000001
44
0.0000000001
40
0
40
0
40
0
40
0
40
1
40
1
40
1
40
1
41
1
41
1
41
1
41
1
10
19.645683313334921
20
-6.2048135995019571
30
0
10
19.567694429535763
20
-6.1586569131718445
30
0
10
19.478564276622439
20
-6.1491072539311329
30
0
10
19.418083101431254
20
-6.1777562316532713
30
0
0
SPLINE
5
218
100
AcDbEntity
8
0
100
AcDbSpline
70
4
71
3
72
8
73
4
74
0
42
0.000000001
43
0.0000000001
44
0.0000000001
40
0
40
0
40
0
40
0
40
1
40
1
40
1
40
1
41
1
41
1
41
1
41
1
10
20.205929988790093
20
-6.1570653032983911
30
0
10
20.164548132080323
20
-6.1666149625391053
30
0
10
20.135899154358192
20
-6.1650233526656546
30
0
10
20.123166275370568
20
-6.1538820835514878
30
0
0
SPLINE
5
219
100
AcDbEntity
8
0
100
AcDbSpline
70
4
71
3
72
8
73
4
74
0
42
0.000000001
43
0.0000000001
44
0.0000000001
40
0
40
0
40
0
40
0
40
1
40
1
40
1
40
1
41
1
41
1
41
1
41
1
10
20.344400047780429
20
-6.2016303797550538
30
0
10
20.30938463056448
20
-6.1538820835514878
30
0
10
20.272777603475074
20
-6.1427408144373228
30
0
10
20.205929988790093
20
-6.1570653032983911
30
0
0
SPLINE
5
220
100
AcDbEntity
8
0
100
AcDbSpline
70
4
71
3
72
8
73
4
74
0
42
0.000000001
43
0.0000000001
44
0.0000000001
40
0
40
0
40
0
40
0
40
1
40
1
40
1
40
1
41
1
41
1
41
1
41
1
10
20.129532714864379
20
-5.4631233984732424
30
0
10
20.156590082713073
20
-5.4742646675874065
30
0
10
20.275960823221983
20
-5.7225558078459473
30
0
10
20.40328961309816
20
-6.0329197331691242
30
0
0
SPLINE
5
221
100
AcDbEntity
8
0
100
AcDbSpline
70
4
71
3
72
8
73
4
74
0
42
0.000000001
43
0.0000000001
44
0.0000000001
40
0
40
0
40
0
40
0
40
1
40
1
40
1
40
1
41
1
41
1
41
1
41
1
10
19.180933230286882
20
-5.2705386037855266
30
0
10
19.282796262187819
20
-5.2800882630262409
30
0
10
19.609076286245518
20
-5.3517107073315895
30
0
10
19.74436312548896
20
-5.394684173914797
30
0
0
SPLINE
5
222
100
AcDbEntity
8
0
100
AcDbSpline
70
4
71
3
72
8
73
4
74
0
42
0.000000001
43
0.0000000001
44
0.0000000001
40
0
40
0
40
0
40
0
40
1
40
1
40
1
40
1
41
1
41
1
41
1
41
1
10
20.048360611318316
20
-5.4885891564484766
30
0
10
20.081784418660817
20
-5.4710814478405023
30
0
10
20.116799835876762
20
-5.4583485688528848
30
0
10
20.129532714864379
20
-5.4631233984732424
30
0
0
SPLINE
5
223
100
AcDbEntity
8
0
100
AcDbSpline
70
4
71
3
72
8
73
4
74
0
42
0.000000001
43
0.0000000001
44
0.0000000001
40
0
40
0
40
0
40
0
40
1
40
1
40
1
40
1
41
1
41
1
41
1
41
1
10
8.066721483970289
20
-12.9070827766091
30
0
10
8.0364808963746945
20
-12.849784821164821
30
0
10
7.9362094743472094
20
-12.809994574328515
30
0
10
7.8200219535852016
20
-12.809994574328515
30
0
0
LINE
5
224
100
AcDbEntity
8
0
100
AcDbLine
10
8.0221564075136289
20
-11.83911255152268
30
0
11
8.0619466543499332
21
-11.786589425698764
31
0
0
SPLINE
5
225
100
AcDbEntity
8
0
100
AcDbSpline
70
4
71
3
72
8
73
4
74
0
42
0.000000001
43
0.0000000001
44
0.0000000001
40
0
40
0
40
0
40
0
40
1
40
1
40
1
40
1
41
1
41
1
41
1
41
1
10
12.524820739509854
20
-12.159026136086576
30
0
10
12.362476532417732
20
-12.423233375079638
30
0
10
12.332235944822136
20
-12.486897770017725
30
0
10
12.279712818998219
20
-12.658791636350555
30
0
0
SPLINE
5
226
100
AcDbEntity
8
0
100
AcDbSpline
70
4
71
3
72
8
73
4
74
0
42
0.000000001
43
0.0000000001
44
0.0000000001
40
0
40
0
40
0
40
0
40
1
40
1
40
1
40
1
41
1
41
1
41
1
41
1
10
10.075333144266946
20
-11.051265664163852
30
0
10
10.075333144266946
20
-10.998742538339934
30
0
10
9.5357773971666528
20
-10.979643219858508
30
0
10
7.9091521064985209
20
-10.968501950744345
30
0
0
SPLINE
5
227
100
AcDbEntity
8
0
100
AcDbSpline
70
4
71
3
72
8
73
4
74
0
42
0.000000001
43
0.0000000001
44
0.0000000001
40
0
40
0
40
0
40
0
40
1
40
1
40
1
40
1
41
1
41
1
41
1
41
1
10
20.611790506520393
20
-6.6154489468526192
30
0
10
20.707287098927527
20
-6.9194464326819896
30
0
10
20.861673256652388
20
-7.5990638486460709
30
0
10
20.839390718424056
20
-7.6213463868744
30
0
0
SPLINE
5
228
100
AcDbEntity
8
0
100
AcDbSpline
70
4
71
3
72
8
73
4
74
0
42
0.000000001
43
0.0000000001
44
0.0000000001
40
0
40
0
40
0
40
0
40
1
40
1
40
1
40
1
41
1
41
1
41
1
41
1
10
11.873852301267911
20
-14.329982003475351
30
0
10
11.873852301267911
20
-14.406379277401054
30
0
10
11.832470444558153
20
-14.506650699428546
30
0
10
11.776764098987325
20
-14.56235704499937
30
0
0
SPLINE
5
229
100
AcDbEntity
8
0
100
AcDbSpline
70
4
71
3
72
8
73
4
74
0
42
0.000000001
43
0.0000000001
44
0.0000000001
40
0
40
0
40
0
40
0
40
1
40
1
40
1
40
1
41
1
41
1
41
1
41
1
10
13.385881681047488
20
-10.271376826172284
30
0
10
13.349274653958084
20
-10.335041221110371
30
0
10
13.33335855522356
20
-10.392339176554653
30
0
10
13.315850846615586
20
-10.52762601579809
30
0
0
SPLINE
5
230
100
AcDbEntity
8
0
100
AcDbSpline
70
4
71
3
72
8
73
4
74
0
42
0.000000001
43
0.0000000001
44
0.0000000001
40
0
40
0
40
0
40
0
40
1
40
1
40
1
40
1
41
1
41
1
41
1
41
1
10
12.279712818998219
20
-12.658791636350555
30
0
10
12.247880621529172
20
-12.760654668251497
30
0
10
12.235147742541557
20
-12.840235161924108
30
0
10
12.233556132668102
20
-12.930956924710884
30
0
0
SPLINE
5
231
100
AcDbEntity
8
0
100
AcDbSpline
70
4
71
3
72
8
73
4
74
0
42
0.000000001
43
0.0000000001
44
0.0000000001
40
0
40
0
40
0
40
0
40
1
40
1
40
1
40
1
41
1
41
1
41
1
41
1
10
9.8015762460331679
20
-11.283640705687871
30
0
10
9.9018476680606593
20
-11.232709189737404
30
0
10
10.075333144266946
20
-11.086281081379802
30
0
10
10.075333144266946
20
-11.051265664163852
30
0
0
SPLINE
5
232
100
AcDbEntity
8
0
100
AcDbSpline
70
4
71
3
72
8
73
4
74
0
42
0.000000001
43
0.0000000001
44
0.0000000001
40
0
40
0
40
0
40
0
40
1
40
1
40
1
40
1
41
1
41
1
41
1
41
1
10
7.6831435044683083
20
-12.856151260658633
30
0
10
7.6624525761134326
20
-12.881617018633863
30
0
10
7.6401700378851034
20
-12.934140144457789
30
0
10
7.6338035983912951
20
-12.972338781420641
30
0
0
LINE
5
233
100
AcDbEntity
8
0
100
AcDbLine
10
6.4353213636818012
20
-10.958952291503625
30
0
11
6.3525576502622876
21
-10.607206509470695
31
0
0
LINE
5
234
100
AcDbEntity
8
0
100
AcDbLine
10
12.308361796720357
20
-13.209488652565009
30
0
11
12.38475907064606
21
-13.359099980669518
31
0
0
LINE
5
235
100
AcDbEntity
8
0
100
AcDbLine
10
12.38475907064606
20
-13.359099980669518
30
0
11
12.378392631152254
21
-13.55009316548378
31
0
0
SPLINE
5
236
100
AcDbEntity
8
0
100
AcDbSpline
70
4
71
3
72
8
73
4
74
0
42
0.000000001
43
0.0000000001
44
0.0000000001
40
0
40
0
40
0
40
0
40
1
40
1
40
1
40
1
41
1
41
1
41
1
41
1
10
6.3525576502622876
20
-10.607206509470695
30
0
10
6.2586526677286081
20
-10.207712431234198
30
0
10
6.222045640639208
20
-10.021494076040293
30
0
10
6.2347785196268219
20
-10.008761197052673
30
0
0
SPLINE
5
237
100
AcDbEntity
8
0
100
AcDbSpline
70
4
71
3
72
8
73
4
74
0
42
0.000000001
43
0.0000000001
44
0.0000000001
40
0
40
0
40
0
40
0
40
1
40
1
40
1
40
1
41
1
41
1
41
1
41
1
10
13.091433854458833
20
-11.106972009734681
30
0
10
12.852692373441005
20
-11.587638191517241
30
0
10
12.693531386095781
20
-11.885269237852798
30
0
10
12.524820739509854
20
-12.159026136086576
30
0
0
SPLINE
5
238
100
AcDbEntity
8
0
100
AcDbSpline
70
4
71
3
72
8
73
4
74
0
42
0.000000001
43
0.0000000001
44
0.0000000001
40
0
40
0
40
0
40
0
40
1
40
1
40
1
40
1
41
1
41
1
41
1
41
1
10
19.029730292308919
20
-6.0822596392461392
30
0
10
19.059970879904519
20
-6.0345113430425741
30
0
10
19.074295368765583
20
-6.0361029529160284
30
0
10
19.114085615601887
20
-6.0870344688664968
30
0
0
SPLINE
5
239
100
AcDbEntity
8
0
100
AcDbSpline
70
4
71
3
72
8
73
4
74
0
42
0.000000001
43
0.0000000001
44
0.0000000001
40
0
40
0
40
0
40
0
40
1
40
1
40
1
40
1
41
1
41
1
41
1
41
1
10
12.378392631152254
20
-13.550093165483782
30
0
10
12.373617801531891
20
-13.655139417131624
30
0
10
12.364068142291181
20
-13.776101767513993
30
0
10
12.359293312670827
20
-13.817483624223748
30
0
0
SPLINE
5
240
100
AcDbEntity
8
0
100
AcDbSpline
70
4
71
3
72
8
73
4
74
0
42
0.000000001
43
0.0000000001
44
0.0000000001
40
0
40
0
40
0
40
0
40
1
40
1
40
1
40
1
41
1
41
1
41
1
41
1
10
14.724425584620768
20
-3.4831607158987254
30
0
10
14.7467081228491
20
-4.2614579440168416
30
0
10
14.740341683355288
20
-4.7994220812436827
30
0
10
14.706917876012797
20
-4.8201130095985585
30
0
0
SPLINE
5
241
100
AcDbEntity
8
0
100
AcDbSpline
70
4
71
3
72
8
73
4
74
0
42
0.000000001
43
0.0000000001
44
0.0000000001
40
0
40
0
40
0
40
0
40
1
40
1
40
1
40
1
41
1
41
1
41
1
41
1
10
19.728447026754434
20
-7.33644821952646
30
0
10
19.776195322957992
20
-7.291883143069799
30
0
10
19.823943619161565
20
-7.2552761159804007
30
0
10
19.836676498149185
20
-7.2552761159804007
30
0
0
SPLINE
5
242
100
AcDbEntity
8
0
100
AcDbSpline
70
4
71
3
72
8
73
4
74
0
42
0.000000001
43
0.0000000001
44
0.0000000001
40
0
40
0
40
0
40
0
40
1
40
1
40
1
40
1
41
1
41
1
41
1
41
1
10
20.409656052591963
20
-6.6759301220438054
30
0
10
20.376232245249469
20
-6.6074908974853583
30
0
10
20.376232245249469
20
-6.6027160678650043
30
0
10
20.401698003224706
20
-6.6027160678650043
30
0
0
SPLINE
5
243
100
AcDbEntity
8
0
100
AcDbSpline
70
4
71
3
72
8
73
4
74
0
42
0.000000001
43
0.0000000001
44
0.0000000001
40
0
40
0
40
0
40
0
40
1
40
1
40
1
40
1
41
1
41
1
41
1
41
1
10
7.6672274057337892
20
-13.311351684465954
30
0
10
7.6704106254806943
20
-13.319309733833215
30
0
10
7.6513113069992666
20
-13.301802025225243
30
0
10
7.6242539391505799
20
-13.271561437629648
30
0
0
LINE
5
244
100
AcDbEntity
8
0
100
AcDbLine
10
8.0619466543499332
20
-11.786589425698764
30
0
11
8.1463019776428975
21
-11.805688744180191
31
0
0
SPLINE
5
245
100
AcDbEntity
8
0
100
AcDbSpline
70
4
71
3
72
8
73
4
74
0
42
0.000000001
43
0.0000000001
44
0.0000000001
40
0
40
0
40
0
40
0
40
1
40
1
40
1
40
1
41
1
41
1
41
1
41
1
10
7.1706451252167103
20
-12.351610930774291
30
0
10
7.5192076875027354
20
-12.297496195076913
30
0
10
7.8056974647241297
20
-12.12560232874408
30
0
10
8.0221564075136289
20
-11.839112551522685
30
0
0
LINE
5
246
100
AcDbEntity
8
0
100
AcDbLine
10
13.433629977251048
20
-10.011944416799579
30
0
11
13.433629977251048
21
-10.099482959839449
31
0
0
LINE
5
247
100
AcDbEntity
8
0
100
AcDbLine
10
12.348152043556659
20
-13.895472508022904
30
0
11
12.214456814186677
21
-13.955953683214087
31
0
0
LINE
5
248
100
AcDbEntity
8
0
100
AcDbLine
10
19.526312572826004
20
-7.4001126144645468
30
0
11
19.644091703461466
21
-7.4160287131990685
31
0
0
SPLINE
5
249
100
AcDbEntity
8
0
100
AcDbSpline
70
4
71
3
72
8
73
4
74
0
42
0.000000001
43
0.0000000001
44
0.0000000001
40
0
40
0
40
0
40
0
40
1
40
1
40
1
40
1
41
1
41
1
41
1
41
1
10
20.839390718424056
20
-7.6213463868744
30
0
10
20.813924960448823
20
-7.6468121448496351
30
0
10
19.747546345235858
20
-7.6595450238372553
30
0
10
19.153875862438191
20
-7.6420373152292775
30
0
0
LINE
5
250
100
AcDbEntity
8
0
100
AcDbLine
10
7.9091521064985209
20
-10.968501950744344
30
0
11
6.4353213636818012
21
-10.958952291503625
31
0
0
SPLINE
5
251
100
AcDbEntity
8
0
100
AcDbSpline
70
4
71
3
72
8
73
4
74
0
42
0.000000001
43
0.0000000001
44
0.0000000001
40
0
40
0
40
0
40
0
40
1
40
1
40
1
40
1
41
1
41
1
41
1
41
1
10
8.0317060667543423
20
-13.17606484522252
30
0
10
8.0810459728313564
20
-12.975522001167544
30
0
10
8.0858208024517175
20
-12.94209819382505
30
0
10
8.066721483970289
20
-12.9070827766091
30
0
0
LINE
5
252
100
AcDbEntity
8
0
100
AcDbLine
10
12.359293312670827
20
-13.817483624223748
30
0
11
12.348152043556659
21
-13.895472508022904
31
0
0
LINE
5
253
100
AcDbEntity
8
0
100
AcDbLine
10
13.333358555223565
20
-10.000803147685415
30
0
11
13.433629977251048
21
-10.011944416799579
31
0
0
SPLINE
5
254
100
AcDbEntity
8
0
100
AcDbSpline
70
4
71
3
72
8
73
4
74
0
42
0.000000001
43
0.0000000001
44
0.0000000001
40
0
40
0
40
0
40
0
40
1
40
1
40
1
40
1
41
1
41
1
41
1
41
1
10
11.89613483949624
20
-14.21379448271334
30
0
10
11.883401960508625
20
-14.237668630815126
30
0
10
11.873852301267911
20
-14.290191756639043
30
0
10
11.873852301267911
20
-14.329982003475351
30
0
0
SPLINE
5
255
100
AcDbEntity
8
0
100
AcDbSpline
70
4
71
3
72
8
73
4
74
0
42
0.000000001
43
0.0000000001
44
0.0000000001
40
0
40
0
40
0
40
0
40
1
40
1
40
1
40
1
41
1
41
1
41
1
41
1
10
12.214456814186677
20
-13.955953683214087
30
0
10
12.077578365069792
20
-14.019618078152178
30
0
10
11.939108306079447
20
-14.131030769293822
30
0
10
11.89613483949624
20
-14.21379448271334
30
0
0
SPLINE
5
256
100
AcDbEntity
8
0
100
AcDbSpline
70
4
71
3
72
8
73
4
74
0
42
0.000000001
43
0.0000000001
44
0.0000000001
40
0
40
0
40
0
40
0
40
1
40
1
40
1
40
1
41
1
41
1
41
1
41
1
10
12.233556132668102
20
-12.930956924710884
30
0
10
12.231964522794652
20
-13.056694104713603
30
0
10
12.235147742541557
20
-13.06624376395432
30
0
10
12.308361796720357
20
-13.209488652565009
30
0
0
SPLINE
5
257
100
AcDbEntity
8
0
100
AcDbSpline
70
4
71
3
72
8
73
4
74
0
42
0.000000001
43
0.0000000001
44
0.0000000001
40
0
40
0
40
0
40
0
40
1
40
1
40
1
40
1
41
1
41
1
41
1
41
1
10
13.433629977251046
20
-10.099482959839449
30
0
10
13.433629977251046
20
-10.167922184397893
30
0
10
13.422488708136886
20
-10.206120821360745
30
0
10
13.385881681047488
20
-10.271376826172284
30
0
0
SPLINE
5
258
100
AcDbEntity
8
0
100
AcDbSpline
70
4
71
3
72
8
73
4
74
0
42
0.000000001
43
0.0000000001
44
0.0000000001
40
0
40
0
40
0
40
0
40
1
40
1
40
1
40
1
41
1
41
1
41
1
41
1
10
19.362376755860431
20
-7.428761592186687
30
0
10
19.410125052063993
20
-7.3841965157300251
30
0
10
19.410125052063993
20
-7.3841965157300251
30
0
10
19.526312572826004
20
-7.4001126144645468
30
0
0
SPLINE
5
259
100
AcDbEntity
8
0
100
AcDbSpline
70
4
71
3
72
8
73
4
74
0
42
0.000000001
43
0.0000000001
44
0.0000000001
40
0
40
0
40
0
40
0
40
1
40
1
40
1
40
1
41
1
41
1
41
1
41
1
10
19.114085615601887
20
-7.5210749648469122
30
0
10
19.133184934083321
20
-7.4733266686433479
30
0
10
19.185708059907242
20
-7.4542273501619221
30
0
10
19.263696943706396
20
-7.4669602291495369
30
0
0
SPLINE
5
260
100
AcDbEntity
8
0
100
AcDbSpline
70
4
71
3
72
8
73
4
74
0
42
0.000000001
43
0.0000000001
44
0.0000000001
40
0
40
0
40
0
40
0
40
1
40
1
40
1
40
1
41
1
41
1
41
1
41
1
10
19.959230458404999
20
-7.1565963038263618
30
0
10
19.959230458404999
20
-7.2154858691440946
30
0
10
19.997429095367856
20
-7.2298103580051656
30
0
10
20.105658566762596
20
-7.2075278197768338
30
0
0
SPLINE
5
261
100
AcDbEntity
8
0
100
AcDbSpline
70
4
71
3
72
8
73
4
74
0
42
0.000000001
43
0.0000000001
44
0.0000000001
40
0
40
0
40
0
40
0
40
1
40
1
40
1
40
1
41
1
41
1
41
1
41
1
10
9.3766164098214357
20
-11.372770858601196
30
0
10
9.5325941774197496
20
-11.38232051784191
30
0
10
9.6567397475490235
20
-11.356854759866676
30
0
10
9.8015762460331679
20
-11.283640705687871
30
0
0
SPLINE
5
262
100
AcDbEntity
8
0
100
AcDbSpline
70
4
71
3
72
8
73
4
74
0
42
0.000000001
43
0.0000000001
44
0.0000000001
40
0
40
0
40
0
40
0
40
1
40
1
40
1
40
1
41
1
41
1
41
1
41
1
10
6.2347785196268219
20
-10.008761197052673
30
0
10
6.2459197887409887
20
-9.9976199279385103
30
0
10
13.217171034461556
20
-9.9896618785712494
30
0
10
13.33335855522356
20
-10.000803147685415
30
0
0
SPLINE
5
263
100
AcDbEntity
8
0
100
AcDbSpline
70
4
71
3
72
8
73
4
74
0
42
0.000000001
43
0.0000000001
44
0.0000000001
40
0
40
0
40
0
40
0
40
1
40
1
40
1
40
1
41
1
41
1
41
1
41
1
10
13.315850846615586
20
-10.52762601579809
30
0
10
13.291976698513805
20
-10.699519882130925
30
0
10
13.290385088640351
20
-10.702703101877825
30
0
10
13.091433854458833
20
-11.106972009734681
30
0
0
SPLINE
5
264
100
AcDbEntity
8
0
100
AcDbSpline
70
4
71
3
72
8
73
4
74
0
42
0.000000001
43
0.0000000001
44
0.0000000001
40
0
40
0
40
0
40
0
40
1
40
1
40
1
40
1
41
1
41
1
41
1
41
1
10
20.388965124237089
20
-6.9083051635678219
30
0
10
20.34758326752733
20
-6.8414575488828318
30
0
10
20.349174877400785
20
-6.8319078896421201
30
0
10
20.400106393351255
20
-6.7857512033120049
30
0
0
SPLINE
5
265
100
AcDbEntity
8
0
100
AcDbSpline
70
4
71
3
72
8
73
4
74
0
42
0.000000001
43
0.0000000001
44
0.0000000001
40
0
40
0
40
0
40
0
40
1
40
1
40
1
40
1
41
1
41
1
41
1
41
1
10
12.422957707608914
20
-1.6368932626941939
30
0
10
12.454789905077956
20
-1.6798667292774025
30
0
10
12.486622102546999
20
-1.7164737563668022
30
0
10
12.491396932167358
20
-1.7164737563668022
30
0
0
SPLINE
5
266
100
AcDbEntity
8
0
100
AcDbSpline
70
4
71
3
72
8
73
4
74
0
42
0.000000001
43
0.0000000001
44
0.0000000001
40
0
40
0
40
0
40
0
40
1
40
1
40
1
40
1
41
1
41
1
41
1
41
1
10
13.376332021806773
20
-1.6193855540862203
30
0
10
13.46227895497319
20
-1.6814583391508551
30
0
10
13.538676228898893
20
-1.7323898551013257
30
0
10
13.546634278266154
20
-1.7323898551013257
30
0
0
SPLINE
5
267
100
AcDbEntity
8
0
100
AcDbSpline
70
4
71
3
72
8
73
4
74
0
42
0.000000001
43
0.0000000001
44
0.0000000001
40
0
40
0
40
0
40
0
40
1
40
1
40
1
40
1
41
1
41
1
41
1
41
1
10
13.201254935727029
20
-1.498423203703853
30
0
10
13.212396204841195
20
-1.5031980333242119
30
0
10
13.290385088640351
20
-1.5573127690215851
30
0
10
13.376332021806773
20
-1.6193855540862203
30
0
0
LINE
5
268
100
AcDbEntity
8
0
100
AcDbLine
10
20.578366699177895
20
-6.5088110853313248
30
0
11
20.611790506520396
21
-6.6154489468526192
31
0
0
SPLINE
5
269
100
AcDbEntity
8
0
100
AcDbSpline
70
4
71
3
72
8
73
4
74
0
42
0.000000001
43
0.0000000001
44
0.0000000001
40
0
40
0
40
0
40
0
40
1
40
1
40
1
40
1
41
1
41
1
41
1
41
1
10
20.105658566762596
20
-7.2075278197768338
30
0
10
20.231395746765319
20
-7.1836536716750503
30
0
10
20.307793020691026
20
-7.1454550347121986
30
0
10
20.369865805755662
20
-7.0722409805333966
30
0
0
SPLINE
5
270
100
AcDbEntity
8
0
100
AcDbSpline
70
4
71
3
72
8
73
4
74
0
42
0.000000001
43
0.0000000001
44
0.0000000001
40
0
40
0
40
0
40
0
40
1
40
1
40
1
40
1
41
1
41
1
41
1
41
1
10
20.369865805755662
20
-7.0722409805333966
30
0
10
20.428755371073393
20
-7.0053933658484056
30
0
10
20.431938590820298
20
-6.9799276078731722
30
0
10
20.388965124237089
20
-6.9083051635678219
30
0
0
SPLINE
5
271
100
AcDbEntity
8
0
100
AcDbSpline
70
4
71
3
72
8
73
4
74
0
42
0.000000001
43
0.0000000001
44
0.0000000001
40
0
40
0
40
0
40
0
40
1
40
1
40
1
40
1
41
1
41
1
41
1
41
1
10
18.821229398886686
20
-7.624529606621306
30
0
10
18.838737107494659
20
-7.6213463868744
30
0
10
18.875344134584061
20
-7.6022470683929741
30
0
10
18.902401502432745
20
-7.5815561400380966
30
0
0
SPLINE
5
272
100
AcDbEntity
8
0
100
AcDbSpline
70
4
71
3
72
8
73
4
74
0
42
0.000000001
43
0.0000000001
44
0.0000000001
40
0
40
0
40
0
40
0
40
1
40
1
40
1
40
1
41
1
41
1
41
1
41
1
10
13.199663325853574
20
-3.1791632300693577
30
0
10
13.094617074205733
20
-3.0534260500666357
30
0
10
12.88134135116314
20
-2.797176860440834
30
0
10
12.725363583564828
20
-2.6109585052469315
30
0
0
SPLINE
5
273
100
AcDbEntity
8
0
100
AcDbSpline
70
4
71
3
72
8
73
4
74
0
42
0.000000001
43
0.0000000001
44
0.0000000001
40
0
40
0
40
0
40
0
40
1
40
1
40
1
40
1
41
1
41
1
41
1
41
1
10
13.00389531141896
20
-1.6162023343393155
30
0
10
13.00389531141896
20
-1.5573127690215851
30
0
10
13.019811410153482
20
-1.5541295492746805
30
0
10
13.078700975471214
20
-1.6066526750986034
30
0
0
SPLINE
5
274
100
AcDbEntity
8
0
100
AcDbSpline
70
4
71
3
72
8
73
4
74
0
42
0.000000001
43
0.0000000001
44
0.0000000001
40
0
40
0
40
0
40
0
40
1
40
1
40
1
40
1
41
1
41
1
41
1
41
1
10
12.04892938734765
20
-1.6941912181384735
30
0
10
12.058479046588364
20
-1.64803453180836
30
0
10
12.07598675519634
20
-1.5955114059844373
30
0
10
12.088719634183956
20
-1.5795953072499158
30
0
0
SPLINE
5
275
100
AcDbEntity
8
0
100
AcDbSpline
70
4
71
3
72
8
73
4
74
0
42
0.000000001
43
0.0000000001
44
0.0000000001
40
0
40
0
40
0
40
0
40
1
40
1
40
1
40
1
41
1
41
1
41
1
41
1
10
19.02495546268857
20
-7.5529071623159574
30
0
10
19.09339468724701
20
-7.5608652116832191
30
0
10
19.09976112674082
20
-7.5592736018097675
30
0
10
19.114085615601887
20
-7.5210749648469122
30
0
0
SPLINE
5
276
100
AcDbEntity
8
0
100
AcDbSpline
70
4
71
3
72
8
73
4
74
0
42
0.000000001
43
0.0000000001
44
0.0000000001
40
0
40
0
40
0
40
0
40
1
40
1
40
1
40
1
41
1
41
1
41
1
41
1
10
19.836676498149185
20
-7.2552761159804007
30
0
10
19.868508695618225
20
-7.2552761159804007
30
0
10
19.900340893087268
20
-7.213894259270643
30
0
10
19.901932502960719
20
-7.1709207926874319
30
0
0
SPLINE
5
277
100
AcDbEntity
8
0
100
AcDbSpline
70
4
71
3
72
8
73
4
74
0
42
0.000000001
43
0.0000000001
44
0.0000000001
40
0
40
0
40
0
40
0
40
1
40
1
40
1
40
1
41
1
41
1
41
1
41
1
10
13.546634278266154
20
-1.7323898551013257
30
0
10
13.554592327633413
20
-1.7323898551013257
30
0
10
13.560958767127225
20
-1.7069240971260902
30
0
10
13.560958767127225
20
-1.6735002897835936
30
0
0
SPLINE
5
278
100
AcDbEntity
8
0
100
AcDbSpline
70
4
71
3
72
8
73
4
74
0
42
0.000000001
43
0.0000000001
44
0.0000000001
40
0
40
0
40
0
40
0
40
1
40
1
40
1
40
1
41
1
41
1
41
1
41
1
10
19.193666109274499
20
-6.2477870660851673
30
0
10
19.206398988262112
20
-6.2350541870975507
30
0
10
19.211173817882475
20
-6.2366457969710032
30
0
10
19.211173817882475
20
-6.2541535055789765
30
0
0
SPLINE
5
279
100
AcDbEntity
8
0
100
AcDbSpline
70
4
71
3
72
8
73
4
74
0
42
0.000000001
43
0.0000000001
44
0.0000000001
40
0
40
0
40
0
40
0
40
1
40
1
40
1
40
1
41
1
41
1
41
1
41
1
10
14.277183210180704
20
-4.8153381799782036
30
0
10
14.240576183091305
20
-4.7978304713702284
30
0
10
14.113247393215131
20
-4.6259366050373929
30
0
10
13.933395477515036
20
-4.3569545364239763
30
0
0
SPLINE
5
280
100
AcDbEntity
8
0
100
AcDbSpline
70
4
71
3
72
8
73
4
74
0
42
0.000000001
43
0.0000000001
44
0.0000000001
40
0
40
0
40
0
40
0
40
1
40
1
40
1
40
1
41
1
41
1
41
1
41
1
10
12.257430280769883
20
-2.0857272470077093
30
0
10
12.040971337980391
20
-1.8692683042182123
30
0
10
12.020280409625512
20
-1.8294780573819078
30
0
10
12.04892938734765
20
-1.6941912181384735
30
0
0
SPLINE
5
281
100
AcDbEntity
8
0
100
AcDbSpline
70
4
71
3
72
8
73
4
74
0
42
0.000000001
43
0.0000000001
44
0.0000000001
40
0
40
0
40
0
40
0
40
1
40
1
40
1
40
1
41
1
41
1
41
1
41
1
10
13.793333808651242
20
-1.4236175396516013
30
0
10
13.809249907385762
20
-1.4172511001577939
30
0
10
13.845856934475165
20
-1.4379420285126701
30
0
10
13.88723879118492
20
-1.4745490556020699
30
0
0
SPLINE
5
282
100
AcDbEntity
8
0
100
AcDbSpline
70
4
71
3
72
8
73
4
74
0
42
0.000000001
43
0.0000000001
44
0.0000000001
40
0
40
0
40
0
40
0
40
1
40
1
40
1
40
1
41
1
41
1
41
1
41
1
10
13.88723879118492
20
-1.4745490556020699
30
0
10
13.968410894730983
20
-1.5461714999074188
30
0
10
14.025708850175258
20
-1.5652708183888449
30
0
10
14.240576183091305
20
-1.5955114059844373
30
0
0
SPLINE
5
283
100
AcDbEntity
8
0
100
AcDbSpline
70
4
71
3
72
8
73
4
74
0
42
0.000000001
43
0.0000000001
44
0.0000000001
40
0
40
0
40
0
40
0
40
1
40
1
40
1
40
1
41
1
41
1
41
1
41
1
10
13.078700975471214
20
-1.6066526750986034
30
0
10
13.108941563066798
20
-1.6321184330738387
30
0
10
13.1423653704093
20
-1.6512177515552626
30
0
10
13.151915029650015
20
-1.64803453180836
30
0
0
LINE
5
284
100
AcDbEntity
8
0
100
AcDbLine
10
20.400106393351255
20
-6.7857512033120049
30
0
11
20.444671469807915
21
-6.7491441762226057
31
0
0
SPLINE
5
285
100
AcDbEntity
8
0
100
AcDbSpline
70
4
71
3
72
8
73
4
74
0
42
0.000000001
43
0.0000000001
44
0.0000000001
40
0
40
0
40
0
40
0
40
1
40
1
40
1
40
1
41
1
41
1
41
1
41
1
10
19.901932502960719
20
-7.1709207926874319
30
0
10
19.90352411283418
20
-7.1263557162307727
30
0
10
19.959230458404999
20
-7.1120312273697017
30
0
10
19.959230458404999
20
-7.1565963038263618
30
0
0
SPLINE
5
286
100
AcDbEntity
8
0
100
AcDbSpline
70
4
71
3
72
8
73
4
74
0
42
0.000000001
43
0.0000000001
44
0.0000000001
40
0
40
0
40
0
40
0
40
1
40
1
40
1
40
1
41
1
41
1
41
1
41
1
10
13.933395477515036
20
-4.3569545364239763
30
0
10
13.895196840552181
20
-4.2980649711062444
30
0
10
13.785375759283982
20
-4.1007053467981729
30
0
10
13.689879166876851
20
-3.9160786014777189
30
0
0
LINE
5
287
100
AcDbEntity
8
0
100
AcDbLine
10
12.241514182035363
20
-1.6225687738331249
30
0
11
12.294037307859284
21
-1.5907365763640799
31
0
0
SPLINE
5
288
100
AcDbEntity
8
0
100
AcDbSpline
70
4
71
3
72
8
73
4
74
0
42
0.000000001
43
0.0000000001
44
0.0000000001
40
0
40
0
40
0
40
0
40
1
40
1
40
1
40
1
41
1
41
1
41
1
41
1
10
13.560958767127225
20
-1.6735002897835936
30
0
10
13.560958767127225
20
-1.6193855540862203
30
0
10
13.562550377000674
20
-1.6177939442127678
30
0
10
13.589607744849364
20
-1.641668092314549
30
0
0
SPLINE
5
289
100
AcDbEntity
8
0
100
AcDbSpline
70
4
71
3
72
8
73
4
74
0
42
0.000000001
43
0.0000000001
44
0.0000000001
40
0
40
0
40
0
40
0
40
1
40
1
40
1
40
1
41
1
41
1
41
1
41
1
10
13.708978485358276
20
-1.5509463295277757
30
0
10
13.742402292700772
20
-1.4856903247162361
30
0
10
13.780600929663624
20
-1.4283923692719582
30
0
10
13.793333808651242
20
-1.4236175396516013
30
0
0
SPLINE
5
290
100
AcDbEntity
8
0
100
AcDbSpline
70
4
71
3
72
8
73
4
74
0
42
0.000000001
43
0.0000000001
44
0.0000000001
40
0
40
0
40
0
40
0
40
1
40
1
40
1
40
1
41
1
41
1
41
1
41
1
10
8.7383808505671094
20
-6.3782990757082478
30
0
10
8.7113234827184254
20
-6.3289591696312284
30
0
10
8.7288311913263943
20
-6.3257759498843251
30
0
10
8.7797627072768645
20
-6.3703410263409879
30
0
0
SPLINE
5
291
100
AcDbEntity
8
0
100
AcDbSpline
70
4
71
3
72
8
73
4
74
0
42
0.000000001
43
0.0000000001
44
0.0000000001
40
0
40
0
40
0
40
0
40
1
40
1
40
1
40
1
41
1
41
1
41
1
41
1
10
19.18252484016033
20
-6.2843940931745665
30
0
10
19.177750010539981
20
-6.2732528240604006
30
0
10
19.184116450033791
20
-6.2573367253258789
30
0
10
19.193666109274499
20
-6.2477870660851673
30
0
0
SPLINE
5
292
100
AcDbEntity
8
0
100
AcDbSpline
70
4
71
3
72
8
73
4
74
0
42
0.000000001
43
0.0000000001
44
0.0000000001
40
0
40
0
40
0
40
0
40
1
40
1
40
1
40
1
41
1
41
1
41
1
41
1
10
14.240576183091305
20
-1.5955114059844373
30
0
10
14.326523116257725
20
-1.6082442849720557
30
0
10
14.415653269171047
20
-1.6257519935800275
30
0
10
14.437935807399375
20
-1.6337100429472891
30
0
0
SPLINE
5
293
100
AcDbEntity
8
0
100
AcDbSpline
70
4
71
3
72
8
73
4
74
0
42
0.000000001
43
0.0000000001
44
0.0000000001
40
0
40
0
40
0
40
0
40
1
40
1
40
1
40
1
41
1
41
1
41
1
41
1
10
14.611421283605667
20
-1.7817297611783418
30
0
10
14.654394750188876
20
-1.8613102548509524
30
0
10
14.692593387151726
20
-2.4502059080282597
30
0
10
14.724425584620768
20
-3.4831607158987254
30
0
0
SPLINE
5
294
100
AcDbEntity
8
0
100
AcDbSpline
70
4
71
3
72
8
73
4
74
0
42
0.000000001
43
0.0000000001
44
0.0000000001
40
0
40
0
40
0
40
0
40
1
40
1
40
1
40
1
41
1
41
1
41
1
41
1
10
12.088719634183956
20
-1.5795953072499158
30
0
10
12.111002172412284
20
-1.5509463295277757
30
0
10
12.112593782285739
20
-1.5509463295277757
30
0
10
12.176258177223824
20
-1.585961746743723
30
0
0
SPLINE
5
295
100
AcDbEntity
8
0
100
AcDbSpline
70
4
71
3
72
8
73
4
74
0
42
0.000000001
43
0.0000000001
44
0.0000000001
40
0
40
0
40
0
40
0
40
1
40
1
40
1
40
1
41
1
41
1
41
1
41
1
10
12.625092161537337
20
-1.5573127690215851
30
0
10
12.631458601031149
20
-1.5573127690215851
30
0
10
12.648966309639123
20
-1.5748204776295589
30
0
10
12.663290798500192
20
-1.5971030158578894
30
0
0
LINE
5
296
100
AcDbEntity
8
0
100
AcDbLine
10
19.644091703461466
20
-7.4160287131990685
30
0
11
19.728447026754434
21
-7.33644821952646
31
0
0
SPLINE
5
297
100
AcDbEntity
8
0
100
AcDbSpline
70
4
71
3
72
8
73
4
74
0
42
0.000000001
43
0.0000000001
44
0.0000000001
40
0
40
0
40
0
40
0
40
1
40
1
40
1
40
1
41
1
41
1
41
1
41
1
10
18.902401502432745
20
-7.5815561400380966
30
0
10
18.942191749269057
20
-7.5513155524425057
30
0
10
18.962882677623934
20
-7.5465407228221473
30
0
10
19.02495546268857
20
-7.5529071623159574
30
0
0
SPLINE
5
298
100
AcDbEntity
8
0
100
AcDbSpline
70
4
71
3
72
8
73
4
74
0
42
0.000000001
43
0.0000000001
44
0.0000000001
40
0
40
0
40
0
40
0
40
1
40
1
40
1
40
1
41
1
41
1
41
1
41
1
10
12.903623889391472
20
-1.5811869171233679
30
0
10
12.95296379546849
20
-1.6591758009225244
30
0
10
13.00389531141896
20
-1.6766835095304982
30
0
10
13.00389531141896
20
-1.6162023343393155
30
0
0
SPLINE
5
299
100
AcDbEntity
8
0
100
AcDbSpline
70
4
71
3
72
8
73
4
74
0
42
0.000000001
43
0.0000000001
44
0.0000000001
40
0
40
0
40
0
40
0
40
1
40
1
40
1
40
1
41
1
41
1
41
1
41
1
10
13.175789177751794
20
-1.5668624282622992
30
0
10
13.178972397498701
20
-1.5143393024383742
30
0
10
13.18693044686596
20
-1.4936483740834978
30
0
10
13.201254935727029
20
-1.498423203703853
30
0
0
SPLINE
5
300
100
AcDbEntity
8
0
100
AcDbSpline
70
4
71
3
72
8
73
4
74
0
42
0.000000001
43
0.0000000001
44
0.0000000001
40
0
40
0
40
0
40
0
40
1
40
1
40
1
40
1
41
1
41
1
41
1
41
1
10
19.211173817882475
20
-6.2541535055789765
30
0
10
19.211173817882475
20
-6.2859857030480182
30
0
10
19.190482889527594
20
-6.3082682412763491
30
0
10
19.18252484016033
20
-6.2843940931745665
30
0
0
SPLINE
5
301
100
AcDbEntity
8
0
100
AcDbSpline
70
4
71
3
72
8
73
4
74
0
42
0.000000001
43
0.0000000001
44
0.0000000001
40
0
40
0
40
0
40
0
40
1
40
1
40
1
40
1
41
1
41
1
41
1
41
1
10
8.7909039763910322
20
-6.411722883050742
30
0
10
8.7702130480361582
20
-6.411722883050742
30
0
10
8.7479305098078246
20
-6.3973983941896728
30
0
10
8.7383808505671094
20
-6.3782990757082478
30
0
0
SPLINE
5
302
100
AcDbEntity
8
0
100
AcDbSpline
70
4
71
3
72
8
73
4
74
0
42
0.000000001
43
0.0000000001
44
0.0000000001
40
0
40
0
40
0
40
0
40
1
40
1
40
1
40
1
41
1
41
1
41
1
41
1
10
20.401698003224706
20
-6.6027160678650043
30
0
10
20.417614101959224
20
-6.6027160678650043
30
0
10
20.463770788289338
20
-6.5820251395101268
30
0
10
20.505152644999097
20
-6.5549677716614374
30
0
0
SPLINE
5
303
100
AcDbEntity
8
0
100
AcDbSpline
70
4
71
3
72
8
73
4
74
0
42
0.000000001
43
0.0000000001
44
0.0000000001
40
0
40
0
40
0
40
0
40
1
40
1
40
1
40
1
41
1
41
1
41
1
41
1
10
19.263696943706396
20
-7.4669602291495369
30
0
10
19.305078800416151
20
-7.4733266686433479
30
0
10
19.324178118897581
20
-7.4653686192760871
30
0
10
19.362376755860431
20
-7.428761592186687
30
0
0
SPLINE
5
304
100
AcDbEntity
8
0
100
AcDbSpline
70
4
71
3
72
8
73
4
74
0
42
0.000000001
43
0.0000000001
44
0.0000000001
40
0
40
0
40
0
40
0
40
1
40
1
40
1
40
1
41
1
41
1
41
1
41
1
10
19.153875862438191
20
-7.6420373152292775
30
0
10
18.953333018383216
20
-7.6356708757354701
30
0
10
18.803721690278717
20
-7.6277128263682084
30
0
10
18.821229398886686
20
-7.624529606621306
30
0
0
SPLINE
5
305
100
AcDbEntity
8
0
100
AcDbSpline
70
4
71
3
72
8
73
4
74
0
42
0.000000001
43
0.0000000001
44
0.0000000001
40
0
40
0
40
0
40
0
40
1
40
1
40
1
40
1
41
1
41
1
41
1
41
1
10
13.689879166876851
20
-3.9160786014777189
30
0
10
13.490927932695326
20
-3.5309090121022915
30
0
10
13.460687345099737
20
-3.487935545519083
30
0
10
13.199663325853574
20
-3.1791632300693577
30
0
0
SPLINE
5
306
100
AcDbEntity
8
0
100
AcDbSpline
70
4
71
3
72
8
73
4
74
0
42
0.000000001
43
0.0000000001
44
0.0000000001
40
0
40
0
40
0
40
0
40
1
40
1
40
1
40
1
41
1
41
1
41
1
41
1
10
12.356110092923922
20
-1.5573127690215851
30
0
10
12.360884922544278
20
-1.5573127690215851
30
0
10
12.391125510139869
20
-1.5939197961109848
30
0
10
12.422957707608914
20
-1.6368932626941939
30
0
0
LINE
5
307
100
AcDbEntity
8
0
100
AcDbLine
10
20.505152644999097
20
-6.5549677716614392
30
0
11
20.578366699177895
21
-6.5088110853313248
31
0
0
SPLINE
5
308
100
AcDbEntity
8
0
100
AcDbSpline
70
4
71
3
72
8
73
4
74
0
42
0.000000001
43
0.0000000001
44
0.0000000001
40
0
40
0
40
0
40
0
40
1
40
1
40
1
40
1
41
1
41
1
41
1
41
1
10
12.663290798500192
20
-1.5971030158578894
30
0
10
12.699897825589593
20
-1.6528093614287152
30
0
10
12.726955193438277
20
-1.6464429219349075
30
0
10
12.773111879768395
20
-1.5732288677561064
30
0
0
SPLINE
5
309
100
AcDbEntity
8
0
100
AcDbSpline
70
4
71
3
72
8
73
4
74
0
42
0.000000001
43
0.0000000001
44
0.0000000001
40
0
40
0
40
0
40
0
40
1
40
1
40
1
40
1
41
1
41
1
41
1
41
1
10
12.294037307859282
20
-1.5907365763640799
30
0
10
12.322686285581428
20
-1.5716372578826543
30
0
10
12.351335263303563
20
-1.5573127690215851
30
0
10
12.356110092923922
20
-1.5573127690215851
30
0
0
SPLINE
5
310
100
AcDbEntity
8
0
100
AcDbSpline
70
4
71
3
72
8
73
4
74
0
42
0.000000001
43
0.0000000001
44
0.0000000001
40
0
40
0
40
0
40
0
40
1
40
1
40
1
40
1
41
1
41
1
41
1
41
1
10
14.706917876012797
20
-4.8201130095985585
30
0
10
14.670310848923398
20
-4.8439871577003419
30
0
10
14.324931506384276
20
-4.839212328079987
30
0
10
14.277183210180704
20
-4.8153381799782036
30
0
0
SPLINE
5
311
100
AcDbEntity
8
0
100
AcDbSpline
70
4
71
3
72
8
73
4
74
0
42
0.000000001
43
0.0000000001
44
0.0000000001
40
0
40
0
40
0
40
0
40
1
40
1
40
1
40
1
41
1
41
1
41
1
41
1
10
12.835184664833029
20
-1.5095644728180191
30
0
10
12.847917543820644
20
-1.5095644728180191
30
0
10
12.878158131416237
20
-1.5413966702870638
30
0
10
12.903623889391472
20
-1.5811869171233679
30
0
0
SPLINE
5
312
100
AcDbEntity
8
0
100
AcDbSpline
70
4
71
3
72
8
73
4
74
0
42
0.000000001
43
0.0000000001
44
0.0000000001
40
0
40
0
40
0
40
0
40
1
40
1
40
1
40
1
41
1
41
1
41
1
41
1
10
12.773111879768395
20
-1.5732288677561064
30
0
10
12.795394417996723
20
-1.538213450540157
30
0
10
12.824043395718864
20
-1.5095644728180191
30
0
10
12.835184664833029
20
-1.5095644728180191
30
0
0
SPLINE
5
313
100
AcDbEntity
8
0
100
AcDbSpline
70
4
71
3
72
8
73
4
74
0
42
0.000000001
43
0.0000000001
44
0.0000000001
40
0
40
0
40
0
40
0
40
1
40
1
40
1
40
1
41
1
41
1
41
1
41
1
10
12.725363583564828
20
-2.6109585052469315
30
0
10
12.570977425839967
20
-2.4247401500530241
30
0
10
12.360884922544278
20
-2.1891818887821013
30
0
10
12.257430280769883
20
-2.0857272470077093
30
0
0
SPLINE
5
314
100
AcDbEntity
8
0
100
AcDbSpline
70
4
71
3
72
8
73
4
74
0
42
0.000000001
43
0.0000000001
44
0.0000000001
40
0
40
0
40
0
40
0
40
1
40
1
40
1
40
1
41
1
41
1
41
1
41
1
10
8.7797627072768645
20
-6.3703410263409879
30
0
10
8.8243277837335281
20
-6.408539663303837
30
0
10
8.8243277837335281
20
-6.4101312731772913
30
0
10
8.7909039763910322
20
-6.411722883050742
30
0
0
SPLINE
5
315
100
AcDbEntity
8
0
100
AcDbSpline
70
4
71
3
72
8
73
4
74
0
42
0.000000001
43
0.0000000001
44
0.0000000001
40
0
40
0
40
0
40
0
40
1
40
1
40
1
40
1
41
1
41
1
41
1
41
1
10
13.634172821306024
20
-1.6687254601632384
30
0
10
13.642130870673281
20
-1.6687254601632384
30
0
10
13.675554678015782
20
-1.6162023343393155
30
0
10
13.708978485358276
20
-1.5509463295277757
30
0
0
LINE
5
316
100
AcDbEntity
8
0
100
AcDbLine
10
13.350866263831538
20
-7.6372624856089217
30
0
11
11.278590208596793
21
-7.6372624856089235
31
0
0
LINE
5
317
100
AcDbEntity
8
0
100
AcDbLine
10
12.176258177223824
20
-1.5859617467437235
30
0
11
12.241514182035363
21
-1.6225687738331249
31
0
0
LINE
5
318
100
AcDbEntity
8
0
100
AcDbLine
10
20.444671469807915
20
-6.7491441762226057
30
0
11
20.409656052591963
21
-6.6759301220438045
31
0
0
SPLINE
5
319
100
AcDbEntity
8
0
100
AcDbSpline
70
4
71
3
72
8
73
4
74
0
42
0.000000001
43
0.0000000001
44
0.0000000001
40
0
40
0
40
0
40
0
40
1
40
1
40
1
40
1
41
1
41
1
41
1
41
1
10
12.491396932167358
20
-1.7164737563668022
30
0
10
12.497763371661165
20
-1.7148821464933501
30
0
10
12.528003959256754
20
-1.6798667292774025
30
0
10
12.558244546852348
20
-1.6368932626941939
30
0
0
SPLINE
5
320
100
AcDbEntity
8
0
100
AcDbSpline
70
4
71
3
72
8
73
4
74
0
42
0.000000001
43
0.0000000001
44
0.0000000001
40
0
40
0
40
0
40
0
40
1
40
1
40
1
40
1
41
1
41
1
41
1
41
1
10
12.558244546852348
20
-1.6368932626941939
30
0
10
12.588485134447939
20
-1.5923281862375342
30
0
10
12.618725722043532
20
-1.5573127690215851
30
0
10
12.625092161537337
20
-1.5573127690215851
30
0
0
CIRCLE
5
321
100
AcDbEntity
8
0
100
AcDbCircle
10
13.519954878403791
20
-8.8505643915704955
30
0
40
7.9999999999999982
210
0
220
0
230
1
0
LINE
5
322
100
AcDbEntity
8
0
100
AcDbLine
10
18.539514451285655
20
-7.6372624856089235
30
0
11
18.251433064190806
21
-7.6420373152292793
31
0
0
SPLINE
5
323
100
AcDbEntity
8
0
100
AcDbSpline
70
4
71
3
72
8
73
4
74
0
42
0.000000001
43
0.0000000001
44
0.0000000001
40
0
40
0
40
0
40
0
40
1
40
1
40
1
40
1
41
1
41
1
41
1
41
1
10
18.98039038623191
20
-5.6986816597441639
30
0
10
18.897626672812397
20
-5.8148691805061725
30
0
10
18.781439152050385
20
-5.9883546567124624
30
0
10
18.700267048504326
20
-6.1220498860824444
30
0
0
SPLINE
5
324
100
AcDbEntity
8
0
100
AcDbSpline
70
4
71
3
72
8
73
4
74
0
42
0.000000001
43
0.0000000001
44
0.0000000001
40
0
40
0
40
0
40
0
40
1
40
1
40
1
40
1
41
1
41
1
41
1
41
1
10
16.516578302127925
20
-7.6213463868744
30
0
10
16.483154494785431
20
-7.6117967276336911
30
0
10
16.452913907189838
20
-7.5942890190257106
30
0
10
16.449730687442933
20
-7.5847393597850008
30
0
0
SPLINE
5
325
100
AcDbEntity
8
0
100
AcDbSpline
70
4
71
3
72
8
73
4
74
0
42
0.000000001
43
0.0000000001
44
0.0000000001
40
0
40
0
40
0
40
0
40
1
40
1
40
1
40
1
41
1
41
1
41
1
41
1
10
18.700267048504326
20
-6.1220498860824444
30
0
10
18.639785873313134
20
-6.2191380883630289
30
0
10
18.590445967236125
20
-6.2557451154524291
30
0
10
18.420143710776738
20
-6.3289591696312284
30
0
0
SPLINE
5
326
100
AcDbEntity
8
0
100
AcDbSpline
70
4
71
3
72
8
73
4
74
0
42
0.000000001
43
0.0000000001
44
0.0000000001
40
0
40
0
40
0
40
0
40
1
40
1
40
1
40
1
41
1
41
1
41
1
41
1
10
16.394024341872104
20
-7.0722409805333966
30
0
10
16.331951556807468
20
-6.4594711792543071
30
0
10
16.295344529718076
20
-6.1666149625391053
30
0
10
16.233271744653436
20
-5.7909950324043917
30
0
0
SPLINE
5
327
100
AcDbEntity
8
0
100
AcDbSpline
70
4
71
3
72
8
73
4
74
0
42
0.000000001
43
0.0000000001
44
0.0000000001
40
0
40
0
40
0
40
0
40
1
40
1
40
1
40
1
41
1
41
1
41
1
41
1
10
17.745301124433009
20
-5.3326113888501618
30
0
10
17.834431277346329
20
-5.409008662775868
30
0
10
17.972901336336673
20
-5.4296995911307429
30
0
10
18.071581148490711
20
-5.3819512949271786
30
0
0
SPLINE
5
328
100
AcDbEntity
8
0
100
AcDbSpline
70
4
71
3
72
8
73
4
74
0
42
0.000000001
43
0.0000000001
44
0.0000000001
40
0
40
0
40
0
40
0
40
1
40
1
40
1
40
1
41
1
41
1
41
1
41
1
10
17.422204320122219
20
-5.2896379222669525
30
0
10
17.692777998609088
20
-5.2896379222669525
30
0
10
17.692777998609088
20
-5.2896379222669525
30
0
10
17.745301124433009
20
-5.3326113888501618
30
0
0
SPLINE
5
329
100
AcDbEntity
8
0
100
AcDbSpline
70
4
71
3
72
8
73
4
74
0
42
0.000000001
43
0.0000000001
44
0.0000000001
40
0
40
0
40
0
40
0
40
1
40
1
40
1
40
1
41
1
41
1
41
1
41
1
10
19.052012830537254
20
-5.5442955020193017
30
0
10
19.052012830537254
20
-5.5824941389821552
30
0
10
19.031321902182377
20
-5.627059215438817
30
0
10
18.98039038623191
20
-5.6986816597441639
30
0
0
SPLINE
5
330
100
AcDbEntity
8
0
100
AcDbSpline
70
4
71
3
72
8
73
4
74
0
42
0.000000001
43
0.0000000001
44
0.0000000001
40
0
40
0
40
0
40
0
40
1
40
1
40
1
40
1
41
1
41
1
41
1
41
1
10
15.165301519567022
20
-16.039371007562995
30
0
10
14.845387935003135
20
-16.110993451868346
30
0
10
14.506375031957822
20
-16.163516577692267
30
0
10
14.094148074733708
20
-16.206490044275473
30
0
0
SPLINE
5
331
100
AcDbEntity
8
0
100
AcDbSpline
70
4
71
3
72
8
73
4
74
0
42
0.000000001
43
0.0000000001
44
0.0000000001
40
0
40
0
40
0
40
0
40
1
40
1
40
1
40
1
41
1
41
1
41
1
41
1
10
16.19029827807023
20
-5.2864547025200483
30
0
10
16.195073107690586
20
-5.1368433744155446
30
0
10
16.204622766931298
20
-5.0684041498571002
30
0
10
16.220538865665823
20
-5.0493048313756752
30
0
0
SPLINE
5
332
100
AcDbEntity
8
0
100
AcDbSpline
70
4
71
3
72
8
73
4
74
0
42
0.000000001
43
0.0000000001
44
0.0000000001
40
0
40
0
40
0
40
0
40
1
40
1
40
1
40
1
41
1
41
1
41
1
41
1
10
8.6826745049962852
20
-14.409562497147958
30
0
10
8.4916813201820229
20
-14.242443460435476
30
0
10
7.9823661606773246
20
-13.731536691057332
30
0
10
7.9266598151064951
20
-13.655139417131624
30
0
0
SPLINE
5
333
100
AcDbEntity
8
0
100
AcDbSpline
70
4
71
3
72
8
73
4
74
0
42
0.000000001
43
0.0000000001
44
0.0000000001
40
0
40
0
40
0
40
0
40
1
40
1
40
1
40
1
41
1
41
1
41
1
41
1
10
12.757195781033873
20
-16.184207506047141
30
0
10
11.757664780505904
20
-16.083936084019662
30
0
10
10.61807211111414
20
-15.706724544011484
30
0
10
9.7649692189437687
20
-15.192634554886437
30
0
0
LINE
5
334
100
AcDbEntity
8
0
100
AcDbLine
10
18.440834639131619
20
-7.4860595476309655
30
0
11
18.490174545208632
21
-7.5608652116832191
31
0
0
SPLINE
5
335
100
AcDbEntity
8
0
100
AcDbSpline
70
4
71
3
72
8
73
4
74
0
42
0.000000001
43
0.0000000001
44
0.0000000001
40
0
40
0
40
0
40
0
40
1
40
1
40
1
40
1
41
1
41
1
41
1
41
1
10
16.449730687442933
20
-7.5847393597850008
30
0
10
16.446547467696028
20
-7.5735980906708358
30
0
10
16.421081709720799
20
-7.3444062688937226
30
0
10
16.394024341872104
20
-7.0722409805333966
30
0
0
SPLINE
5
336
100
AcDbEntity
8
0
100
AcDbSpline
70
4
71
3
72
8
73
4
74
0
42
0.000000001
43
0.0000000001
44
0.0000000001
40
0
40
0
40
0
40
0
40
1
40
1
40
1
40
1
41
1
41
1
41
1
41
1
10
17.713468926963969
20
-6.4690208384950214
30
0
10
17.672087070254211
20
-6.4626543990012113
30
0
10
17.652987751772788
20
-6.4658376187481181
30
0
10
17.646621312278977
20
-6.4801621076091855
30
0
0
SPLINE
5
337
100
AcDbEntity
8
0
100
AcDbSpline
70
4
71
3
72
8
73
4
74
0
42
0.000000001
43
0.0000000001
44
0.0000000001
40
0
40
0
40
0
40
0
40
1
40
1
40
1
40
1
41
1
41
1
41
1
41
1
10
18.171852570518197
20
-5.3851345146740845
30
0
10
18.210051207481051
20
-5.4106002726493196
30
0
10
18.246658234570454
20
-5.4137834923962229
30
0
10
18.459933957613043
20
-5.4106002726493196
30
0
0
SPLINE
5
338
100
AcDbEntity
8
0
100
AcDbSpline
70
4
71
3
72
8
73
4
74
0
42
0.000000001
43
0.0000000001
44
0.0000000001
40
0
40
0
40
0
40
0
40
1
40
1
40
1
40
1
41
1
41
1
41
1
41
1
10
8.0858208024517175
20
-13.669463905992693
30
0
10
8.2449817897969329
20
-13.728353471310424
30
0
10
8.6317429890458151
20
-13.852499041439698
30
0
10
9.8206755645145964
20
-14.226527361700956
30
0
0
SPLINE
5
339
100
AcDbEntity
8
0
100
AcDbSpline
70
4
71
3
72
8
73
4
74
0
42
0.000000001
43
0.0000000001
44
0.0000000001
40
0
40
0
40
0
40
0
40
1
40
1
40
1
40
1
41
1
41
1
41
1
41
1
10
12.394308729886774
20
-15.842011383254922
30
0
10
12.52959556913021
20
-15.870660360977062
30
0
10
12.572569035713419
20
-15.870660360977062
30
0
10
12.701489435463044
20
-15.842011383254922
30
0
0
SPLINE
5
340
100
AcDbEntity
8
0
100
AcDbSpline
70
4
71
3
72
8
73
4
74
0
42
0.000000001
43
0.0000000001
44
0.0000000001
40
0
40
0
40
0
40
0
40
1
40
1
40
1
40
1
41
1
41
1
41
1
41
1
10
13.850631764095519
20
-15.539605507299006
30
0
10
13.8713226924504
20
-15.545971946792816
30
0
10
13.907929719539798
20
-15.566662875147699
30
0
10
13.934987087388487
20
-15.587353803502571
30
0
0
SPLINE
5
341
100
AcDbEntity
8
0
100
AcDbSpline
70
4
71
3
72
8
73
4
74
0
42
0.000000001
43
0.0000000001
44
0.0000000001
40
0
40
0
40
0
40
0
40
1
40
1
40
1
40
1
41
1
41
1
41
1
41
1
10
17.856713815574668
20
-7.0786074200272084
30
0
10
17.882179573549898
20
-7.0977067385086317
30
0
10
17.918786600639297
20
-7.1120312273697017
30
0
10
17.937885919120728
20
-7.1120312273697017
30
0
0
SPLINE
5
342
100
AcDbEntity
8
0
100
AcDbSpline
70
4
71
3
72
8
73
4
74
0
42
0.000000001
43
0.0000000001
44
0.0000000001
40
0
40
0
40
0
40
0
40
1
40
1
40
1
40
1
41
1
41
1
41
1
41
1
10
17.785091371269317
20
-6.8334994995155691
30
0
10
17.801007470003835
20
-6.8573736476173526
30
0
10
17.81055712924455
20
-6.9067135536943702
30
0
10
17.81055712924455
20
-6.9592366795182947
30
0
0
SPLINE
5
343
100
AcDbEntity
8
0
100
AcDbSpline
70
4
71
3
72
8
73
4
74
0
42
0.000000001
43
0.0000000001
44
0.0000000001
40
0
40
0
40
0
40
0
40
1
40
1
40
1
40
1
41
1
41
1
41
1
41
1
10
13.102575123572995
20
-15.770388938949575
30
0
10
13.264919330665116
20
-15.744923180974343
30
0
10
13.417713878516524
20
-15.714682593378745
30
0
10
13.441588026618311
20
-15.703541324264588
30
0
0
LINE
5
344
100
AcDbEntity
8
0
100
AcDbLine
10
9.8015762460331679
20
-4.0609150999618686
30
0
11
9.8095342954004288
21
-4.1389039837610255
31
0
0
SPLINE
5
345
100
AcDbEntity
8
0
100
AcDbSpline
70
4
71
3
72
8
73
4
74
0
42
0.000000001
43
0.0000000001
44
0.0000000001
40
0
40
0
40
0
40
0
40
1
40
1
40
1
40
1
41
1
41
1
41
1
41
1
10
13.441588026618311
20
-15.703541324264588
30
0
10
13.562550377000674
20
-15.649426588567209
30
0
10
13.554592327633413
20
-15.485490771601631
30
0
10
13.425671927883789
20
-15.342245882990939
30
0
0
SPLINE
5
346
100
AcDbEntity
8
0
100
AcDbSpline
70
4
71
3
72
8
73
4
74
0
42
0.000000001
43
0.0000000001
44
0.0000000001
40
0
40
0
40
0
40
0
40
1
40
1
40
1
40
1
41
1
41
1
41
1
41
1
10
18.063623099123447
20
-6.3321423893781326
30
0
10
18.025424462160601
20
-6.349650097986105
30
0
10
17.976084556083578
20
-6.3639745868471778
30
0
10
17.953802017855246
20
-6.3639745868471778
30
0
0
SPLINE
5
347
100
AcDbEntity
8
0
100
AcDbSpline
70
4
71
3
72
8
73
4
74
0
42
0.000000001
43
0.0000000001
44
0.0000000001
40
0
40
0
40
0
40
0
40
1
40
1
40
1
40
1
41
1
41
1
41
1
41
1
10
9.7649692189437687
20
-15.192634554886437
30
0
10
9.3973073381763097
20
-14.97140078247658
30
0
10
8.965981062470771
20
-14.659445247279951
30
0
10
8.6826745049962852
20
-14.409562497147958
30
0
0
SPLINE
5
348
100
AcDbEntity
8
0
100
AcDbSpline
70
4
71
3
72
8
73
4
74
0
42
0.000000001
43
0.0000000001
44
0.0000000001
40
0
40
0
40
0
40
0
40
1
40
1
40
1
40
1
41
1
41
1
41
1
41
1
10
12.701489435463044
20
-15.842011383254922
30
0
10
12.758787390907322
20
-15.829278504267311
30
0
10
12.938639306607421
20
-15.797446306798264
30
0
10
13.102575123572995
20
-15.770388938949575
30
0
0
SPLINE
5
349
100
AcDbEntity
8
0
100
AcDbSpline
70
4
71
3
72
8
73
4
74
0
42
0.000000001
43
0.0000000001
44
0.0000000001
40
0
40
0
40
0
40
0
40
1
40
1
40
1
40
1
41
1
41
1
41
1
41
1
10
7.9266598151064951
20
-13.655139417131624
30
0
10
7.8820947386498359
20
-13.59147502219354
30
0
10
7.8709534695356709
20
-13.59147502219354
30
0
10
8.0858208024517175
20
-13.669463905992693
30
0
0
SPLINE
5
350
100
AcDbEntity
8
0
100
AcDbSpline
70
4
71
3
72
8
73
4
74
0
42
0.000000001
43
0.0000000001
44
0.0000000001
40
0
40
0
40
0
40
0
40
1
40
1
40
1
40
1
41
1
41
1
41
1
41
1
10
17.737343075065752
20
-6.6807049516641603
30
0
10
17.762808833040989
20
-6.7157203688801079
30
0
10
17.775541712028598
20
-6.7475525663491531
30
0
10
17.769175272534795
20
-6.7650602749571274
30
0
0
SPLINE
5
351
100
AcDbEntity
8
0
100
AcDbSpline
70
4
71
3
72
8
73
4
74
0
42
0.000000001
43
0.0000000001
44
0.0000000001
40
0
40
0
40
0
40
0
40
1
40
1
40
1
40
1
41
1
41
1
41
1
41
1
10
14.094148074733708
20
-16.206490044275473
30
0
10
13.973185724351339
20
-16.219222923263089
30
0
10
12.932272867113612
20
-16.201715214655117
30
0
10
12.757195781033873
20
-16.184207506047141
30
0
0
SPLINE
5
352
100
AcDbEntity
8
0
100
AcDbSpline
70
4
71
3
72
8
73
4
74
0
42
0.000000001
43
0.0000000001
44
0.0000000001
40
0
40
0
40
0
40
0
40
1
40
1
40
1
40
1
41
1
41
1
41
1
41
1
10
11.651026918984606
20
-14.987316881211104
30
0
10
11.652618528858055
20
-15.234016411596192
30
0
10
11.732199022530663
20
-15.393177398941409
30
0
10
11.959799234434326
20
-15.608044731857456
30
0
0
SPLINE
5
353
100
AcDbEntity
8
0
100
AcDbSpline
70
4
71
3
72
8
73
4
74
0
42
0.000000001
43
0.0000000001
44
0.0000000001
40
0
40
0
40
0
40
0
40
1
40
1
40
1
40
1
41
1
41
1
41
1
41
1
10
9.6869803351446127
20
-3.758509224005953
30
0
10
9.7108544832463917
20
-3.7505511746386913
30
0
10
9.7920265867924581
20
-3.9686017273016407
30
0
10
9.8015762460331679
20
-4.0609150999618677
30
0
0
LINE
5
354
100
AcDbEntity
8
0
100
AcDbLine
10
9.8095342954004288
20
-4.1389039837610255
30
0
11
9.6885719450180634
21
-4.2566831143964876
31
0
0
SPLINE
5
355
100
AcDbEntity
8
0
100
AcDbSpline
70
4
71
3
72
8
73
4
74
0
42
0.000000001
43
0.0000000001
44
0.0000000001
40
0
40
0
40
0
40
0
40
1
40
1
40
1
40
1
41
1
41
1
41
1
41
1
10
17.659354191266594
20
-14.969809172603126
30
0
10
16.901747891503351
20
-15.475941112360919
30
0
10
16.050236609206436
20
-15.84041977338147
30
0
10
15.165301519567022
20
-16.039371007562995
30
0
0
SPLINE
5
356
100
AcDbEntity
8
0
100
AcDbSpline
70
4
71
3
72
8
73
4
74
0
42
0.000000001
43
0.0000000001
44
0.0000000001
40
0
40
0
40
0
40
0
40
1
40
1
40
1
40
1
41
1
41
1
41
1
41
1
10
16.483154494785431
20
-13.87478157966803
30
0
10
16.542044060103162
20
-13.858865480933503
30
0
10
16.559551768711135
20
-13.860457090806957
30
0
10
16.589792356306727
20
-13.882739629035292
30
0
0
SPLINE
5
357
100
AcDbEntity
8
0
100
AcDbSpline
70
4
71
3
72
8
73
4
74
0
42
0.000000001
43
0.0000000001
44
0.0000000001
40
0
40
0
40
0
40
0
40
1
40
1
40
1
40
1
41
1
41
1
41
1
41
1
10
17.156405471255702
20
-14.108748231065496
30
0
10
17.28373426113188
20
-14.118297890306209
30
0
10
17.363314754804485
20
-14.107156621192045
30
0
10
17.533617011263875
20
-14.057816715115028
30
0
0
SPLINE
5
358
100
AcDbEntity
8
0
100
AcDbSpline
70
4
71
3
72
8
73
4
74
0
42
0.000000001
43
0.0000000001
44
0.0000000001
40
0
40
0
40
0
40
0
40
1
40
1
40
1
40
1
41
1
41
1
41
1
41
1
10
17.769175272534795
20
-6.7650602749571274
30
0
10
17.76440044291444
20
-6.7825679835651007
30
0
10
17.77076688240825
20
-6.8128085711606943
30
0
10
17.785091371269317
20
-6.8334994995155691
30
0
0
LINE
5
359
100
AcDbEntity
8
0
100
AcDbLine
10
18.490174545208632
20
-7.5608652116832191
30
0
11
18.539514451285655
21
-7.6372624856089235
31
0
0
SPLINE
5
360
100
AcDbEntity
8
0
100
AcDbSpline
70
4
71
3
72
8
73
4
74
0
42
0.000000001
43
0.0000000001
44
0.0000000001
40
0
40
0
40
0
40
0
40
1
40
1
40
1
40
1
41
1
41
1
41
1
41
1
10
15.361069534001635
20
-15.448883744512234
30
0
10
15.402451390711395
20
-15.402727058182125
30
0
10
15.470890615269848
20
-15.296089196660825
30
0
10
15.513864081853049
20
-15.213325483241311
30
0
0
SPLINE
5
361
100
AcDbEntity
8
0
100
AcDbSpline
70
4
71
3
72
8
73
4
74
0
42
0.000000001
43
0.0000000001
44
0.0000000001
40
0
40
0
40
0
40
0
40
1
40
1
40
1
40
1
41
1
41
1
41
1
41
1
10
9.583525693370218
20
-4.193018719458399
30
0
10
9.6089914513454548
20
-4.0927472974309111
30
0
10
9.6392320389410475
20
-3.9558688483140241
30
0
10
9.6503733080552117
20
-3.8874296237555797
30
0
0
SPLINE
5
362
100
AcDbEntity
8
0
100
AcDbSpline
70
4
71
3
72
8
73
4
74
0
42
0.000000001
43
0.0000000001
44
0.0000000001
40
0
40
0
40
0
40
0
40
1
40
1
40
1
40
1
41
1
41
1
41
1
41
1
10
16.220538865665823
20
-5.0493048313756752
30
0
10
16.239638184147246
20
-5.0254306832738926
30
0
10
16.265103942122483
20
-5.0238390734004374
30
0
10
16.433814588708419
20
-5.0333887326411535
30
0
0
SPLINE
5
363
100
AcDbEntity
8
0
100
AcDbSpline
70
4
71
3
72
8
73
4
74
0
42
0.000000001
43
0.0000000001
44
0.0000000001
40
0
40
0
40
0
40
0
40
1
40
1
40
1
40
1
41
1
41
1
41
1
41
1
10
16.433814588708419
20
-5.0333887326411535
30
0
10
16.637540652510292
20
-5.0445300017553176
30
0
10
16.643907092004106
20
-5.0461216116287702
30
0
10
16.858774424920142
20
-5.1734504015049438
30
0
0
SPLINE
5
364
100
AcDbEntity
8
0
100
AcDbSpline
70
4
71
3
72
8
73
4
74
0
42
0.000000001
43
0.0000000001
44
0.0000000001
40
0
40
0
40
0
40
0
40
1
40
1
40
1
40
1
41
1
41
1
41
1
41
1
10
9.5532851057746271
20
-4.3744622450319479
30
0
10
9.5453270564073662
20
-4.3744622450319479
30
0
10
9.5580599353949847
20
-4.2932901414858859
30
0
10
9.583525693370218
20
-4.193018719458399
30
0
0
LINE
5
365
100
AcDbEntity
8
0
100
AcDbLine
10
18.396269562674963
20
-7.5322162339610799
30
0
11
18.440834639131619
21
-7.4860595476309655
31
0
0
SPLINE
5
366
100
AcDbEntity
8
0
100
AcDbSpline
70
4
71
3
72
8
73
4
74
0
42
0.000000001
43
0.0000000001
44
0.0000000001
40
0
40
0
40
0
40
0
40
1
40
1
40
1
40
1
41
1
41
1
41
1
41
1
10
17.842389326713597
20
-6.4212725422914545
30
0
10
17.780316541648958
20
-6.470612448368473
30
0
10
17.762808833040989
20
-6.4769788878622814
30
0
10
17.713468926963969
20
-6.4690208384950214
30
0
0
SPLINE
5
367
100
AcDbEntity
8
0
100
AcDbSpline
70
4
71
3
72
8
73
4
74
0
42
0.000000001
43
0.0000000001
44
0.0000000001
40
0
40
0
40
0
40
0
40
1
40
1
40
1
40
1
41
1
41
1
41
1
41
1
10
18.845103546988472
20
-5.3310197789767093
30
0
10
18.884893793824773
20
-5.3039624111280244
30
0
10
18.926275650534532
20
-5.2816798728996925
30
0
10
18.937416919648697
20
-5.2816798728996925
30
0
0
SPLINE
5
368
100
AcDbEntity
8
0
100
AcDbSpline
70
4
71
3
72
8
73
4
74
0
42
0.000000001
43
0.0000000001
44
0.0000000001
40
0
40
0
40
0
40
0
40
1
40
1
40
1
40
1
41
1
41
1
41
1
41
1
10
18.235516965456284
20
-7.5258497944672698
30
0
10
18.29599814064747
20
-7.5799645301646459
30
0
10
18.345338046724486
20
-7.5831477499115474
30
0
10
18.396269562674952
20
-7.5322162339610799
30
0
0
SPLINE
5
369
100
AcDbEntity
8
0
100
AcDbSpline
70
4
71
3
72
8
73
4
74
0
42
0.000000001
43
0.0000000001
44
0.0000000001
40
0
40
0
40
0
40
0
40
1
40
1
40
1
40
1
41
1
41
1
41
1
41
1
10
9.6503733080552117
20
-3.8874296237555797
30
0
10
9.6615145771693793
20
-3.8189903991971375
30
0
10
9.67902228577735
20
-3.7616924437528581
30
0
10
9.6869803351446127
20
-3.758509224005953
30
0
0
SPLINE
5
370
100
AcDbEntity
8
0
100
AcDbSpline
70
4
71
3
72
8
73
4
74
0
42
0.000000001
43
0.0000000001
44
0.0000000001
40
0
40
0
40
0
40
0
40
1
40
1
40
1
40
1
41
1
41
1
41
1
41
1
10
18.459933957613043
20
-5.4106002726493196
30
0
10
18.722549586732651
20
-5.4074170529024155
30
0
10
18.736874075593722
20
-5.4042338331555104
30
0
10
18.845103546988472
20
-5.3310197789767093
30
0
0
SPLINE
5
371
100
AcDbEntity
8
0
100
AcDbSpline
70
4
71
3
72
8
73
4
74
0
42
0.000000001
43
0.0000000001
44
0.0000000001
40
0
40
0
40
0
40
0
40
1
40
1
40
1
40
1
41
1
41
1
41
1
41
1
10
18.103413345959755
20
-7.3205321207919392
30
0
10
18.144795202669506
20
-7.4653686192760871
30
0
10
18.157528081657134
20
-7.4940175969982255
30
0
10
18.181402229758913
20
-7.4940175969982255
30
0
0
SPLINE
5
372
100
AcDbEntity
8
0
100
AcDbSpline
70
4
71
3
72
8
73
4
74
0
42
0.000000001
43
0.0000000001
44
0.0000000001
40
0
40
0
40
0
40
0
40
1
40
1
40
1
40
1
41
1
41
1
41
1
41
1
10
13.425671927883789
20
-15.342245882990939
30
0
10
13.357232703325346
20
-15.26744021893869
30
0
10
13.36837397243951
20
-15.262665389318329
30
0
10
13.484561493201518
20
-15.313596905268803
30
0
0
SPLINE
5
373
100
AcDbEntity
8
0
100
AcDbSpline
70
4
71
3
72
8
73
4
74
0
42
0.000000001
43
0.0000000001
44
0.0000000001
40
0
40
0
40
0
40
0
40
1
40
1
40
1
40
1
41
1
41
1
41
1
41
1
10
16.233271744653436
20
-5.7909950324043917
30
0
10
16.19029827807023
20
-5.5379290625254942
30
0
10
16.185523448449878
20
-5.4678982280935973
30
0
10
16.19029827807023
20
-5.2864547025200483
30
0
0
SPLINE
5
374
100
AcDbEntity
8
0
100
AcDbSpline
70
4
71
3
72
8
73
4
74
0
42
0.000000001
43
0.0000000001
44
0.0000000001
40
0
40
0
40
0
40
0
40
1
40
1
40
1
40
1
41
1
41
1
41
1
41
1
10
18.181402229758913
20
-7.4940175969982255
30
0
10
18.192543498873075
20
-7.4940175969982255
30
0
10
18.218009256848312
20
-7.5083420858592973
30
0
10
18.235516965456284
20
-7.5258497944672698
30
0
0
SPLINE
5
375
100
AcDbEntity
8
0
100
AcDbSpline
70
4
71
3
72
8
73
4
74
0
42
0.000000001
43
0.0000000001
44
0.0000000001
40
0
40
0
40
0
40
0
40
1
40
1
40
1
40
1
41
1
41
1
41
1
41
1
10
17.81055712924455
20
-6.9592366795182947
30
0
10
17.81055712924455
20
-7.037225563317449
30
0
10
17.815331958864906
20
-7.0499584423050647
30
0
10
17.856713815574668
20
-7.0786074200272084
30
0
0
LINE
5
376
100
AcDbEntity
8
0
100
AcDbLine
10
18.420143710776738
20
-6.3289591696312284
30
0
11
18.338971607230675
21
-6.363974586847176
31
0
0
SPLINE
5
377
100
AcDbEntity
8
0
100
AcDbSpline
70
4
71
3
72
8
73
4
74
0
42
0.000000001
43
0.0000000001
44
0.0000000001
40
0
40
0
40
0
40
0
40
1
40
1
40
1
40
1
41
1
41
1
41
1
41
1
10
13.65327213978745
20
-15.37885291008034
30
0
10
13.718528144598992
20
-15.40113544830867
30
0
10
13.745585512447676
20
-15.420234766790095
30
0
10
13.775826100043266
20
-15.467983062993657
30
0
0
SPLINE
5
378
100
AcDbEntity
8
0
100
AcDbSpline
70
4
71
3
72
8
73
4
74
0
42
0.000000001
43
0.0000000001
44
0.0000000001
40
0
40
0
40
0
40
0
40
1
40
1
40
1
40
1
41
1
41
1
41
1
41
1
10
13.775826100043266
20
-15.467983062993657
30
0
10
13.796517028398144
20
-15.501406870336158
30
0
10
13.831532445614096
20
-15.534830677678656
30
0
10
13.850631764095519
20
-15.539605507299006
30
0
0
SPLINE
5
379
100
AcDbEntity
8
0
100
AcDbSpline
70
4
71
3
72
8
73
4
74
0
42
0.000000001
43
0.0000000001
44
0.0000000001
40
0
40
0
40
0
40
0
40
1
40
1
40
1
40
1
41
1
41
1
41
1
41
1
10
18.937416919648697
20
-5.2816798728996925
30
0
10
18.966065897370836
20
-5.2816798728996925
30
0
10
19.052012830537254
20
-5.4790394972077641
30
0
10
19.052012830537254
20
-5.5442955020193017
30
0
0
SPLINE
5
380
100
AcDbEntity
8
0
100
AcDbSpline
70
4
71
3
72
8
73
4
74
0
42
0.000000001
43
0.0000000001
44
0.0000000001
40
0
40
0
40
0
40
0
40
1
40
1
40
1
40
1
41
1
41
1
41
1
41
1
10
17.953802017855246
20
-6.3639745868471778
30
0
10
17.931519479626921
20
-6.3639745868471778
30
0
10
17.882179573549898
20
-6.3894403448224129
30
0
10
17.842389326713597
20
-6.4212725422914545
30
0
0
SPLINE
5
381
100
AcDbEntity
8
0
100
AcDbSpline
70
4
71
3
72
8
73
4
74
0
42
0.000000001
43
0.0000000001
44
0.0000000001
40
0
40
0
40
0
40
0
40
1
40
1
40
1
40
1
41
1
41
1
41
1
41
1
10
18.251433064190806
20
-7.6420373152292775
30
0
10
17.694369608482543
20
-7.6531785843434452
30
0
10
16.580242697066016
20
-7.6404457053558286
30
0
10
16.516578302127925
20
-7.6213463868744
30
0
0
SPLINE
5
382
100
AcDbEntity
8
0
100
AcDbSpline
70
4
71
3
72
8
73
4
74
0
42
0.000000001
43
0.0000000001
44
0.0000000001
40
0
40
0
40
0
40
0
40
1
40
1
40
1
40
1
41
1
41
1
41
1
41
1
10
16.858774424920142
20
-5.1734504015049438
30
0
10
17.022710241885726
20
-5.2705386037855266
30
0
10
17.111840394799042
20
-5.2880463123935018
30
0
10
17.422204320122219
20
-5.2896379222669525
30
0
0
SPLINE
5
383
100
AcDbEntity
8
0
100
AcDbSpline
70
4
71
3
72
8
73
4
74
0
42
0.000000001
43
0.0000000001
44
0.0000000001
40
0
40
0
40
0
40
0
40
1
40
1
40
1
40
1
41
1
41
1
41
1
41
1
10
17.937885919120728
20
-7.1120312273697017
30
0
10
17.996775484438459
20
-7.1120312273697017
30
0
10
18.071581148490711
20
-7.2075278197768338
30
0
10
18.103413345959755
20
-7.3205321207919392
30
0
0
SPLINE
5
384
100
AcDbEntity
8
0
100
AcDbSpline
70
4
71
3
72
8
73
4
74
0
42
0.000000001
43
0.0000000001
44
0.0000000001
40
0
40
0
40
0
40
0
40
1
40
1
40
1
40
1
41
1
41
1
41
1
41
1
10
9.8206755645145964
20
-14.226527361700956
30
0
10
11.157627858214427
20
-14.646712368292334
30
0
10
11.563488375944736
20
-14.780407597662316
30
0
10
11.608053452401396
20
-14.817014624751714
30
0
0
SPLINE
5
385
100
AcDbEntity
8
0
100
AcDbSpline
70
4
71
3
72
8
73
4
74
0
42
0.000000001
43
0.0000000001
44
0.0000000001
40
0
40
0
40
0
40
0
40
1
40
1
40
1
40
1
41
1
41
1
41
1
41
1
10
13.484561493201518
20
-15.313596905268803
30
0
10
13.532309789405085
20
-15.33428783362368
30
0
10
13.607115453457338
20
-15.364528421219269
30
0
10
13.65327213978745
20
-15.37885291008034
30
0
0
SPLINE
5
386
100
AcDbEntity
8
0
100
AcDbSpline
70
4
71
3
72
8
73
4
74
0
42
0.000000001
43
0.0000000001
44
0.0000000001
40
0
40
0
40
0
40
0
40
1
40
1
40
1
40
1
41
1
41
1
41
1
41
1
10
11.608053452401396
20
-14.817014624751714
30
0
10
11.649435309111151
20
-14.84725521234731
30
0
10
11.651026918984606
20
-14.856804871588023
30
0
10
11.651026918984606
20
-14.987316881211104
30
0
0
LINE
5
387
100
AcDbEntity
8
0
100
AcDbLine
10
18.338971607230675
20
-6.363974586847176
30
0
11
18.268940772798782
21
-6.3321423893781326
31
0
0
SPLINE
5
388
100
AcDbEntity
8
0
100
AcDbSpline
70
4
71
3
72
8
73
4
74
0
42
0.000000001
43
0.0000000001
44
0.0000000001
40
0
40
0
40
0
40
0
40
1
40
1
40
1
40
1
41
1
41
1
41
1
41
1
10
9.6885719450180634
20
-4.2566831143964876
30
0
10
9.621724330333068
20
-4.321939119208027
30
0
10
9.5612431551418897
20
-4.3744622450319479
30
0
10
9.5532851057746271
20
-4.3744622450319479
30
0
0
SPLINE
5
389
100
AcDbEntity
8
0
100
AcDbSpline
70
4
71
3
72
8
73
4
74
0
42
0.000000001
43
0.0000000001
44
0.0000000001
40
0
40
0
40
0
40
0
40
1
40
1
40
1
40
1
41
1
41
1
41
1
41
1
10
18.268940772798782
20
-6.3321423893781326
30
0
10
18.182993839632363
20
-6.2923521425418283
30
0
10
18.149570032289869
20
-6.2923521425418283
30
0
10
18.063623099123447
20
-6.3321423893781326
30
0
0
SPLINE
5
390
100
AcDbEntity
8
0
100
AcDbSpline
70
4
71
3
72
8
73
4
74
0
42
0.000000001
43
0.0000000001
44
0.0000000001
40
0
40
0
40
0
40
0
40
1
40
1
40
1
40
1
41
1
41
1
41
1
41
1
10
11.959799234434326
20
-15.608044731857456
30
0
10
12.095086073677761
20
-15.732190301986719
30
0
10
12.235147742541557
20
-15.808587575912426
30
0
10
12.394308729886774
20
-15.842011383254922
30
0
0
SPLINE
5
391
100
AcDbEntity
8
0
100
AcDbSpline
70
4
71
3
72
8
73
4
74
0
42
0.000000001
43
0.0000000001
44
0.0000000001
40
0
40
0
40
0
40
0
40
1
40
1
40
1
40
1
41
1
41
1
41
1
41
1
10
17.646621312278977
20
-6.4801621076091855
30
0
10
17.637071653038262
20
-6.507219475457874
30
0
10
17.681636729494922
20
-6.6090825073588153
30
0
10
17.737343075065752
20
-6.6807049516641603
30
0
0
SPLINE
5
392
100
AcDbEntity
8
0
100
AcDbSpline
70
4
71
3
72
8
73
4
74
0
42
0.000000001
43
0.0000000001
44
0.0000000001
40
0
40
0
40
0
40
0
40
1
40
1
40
1
40
1
41
1
41
1
41
1
41
1
10
18.071581148490711
20
-5.3819512949271786
30
0
10
18.124104274314632
20
-5.3580771468253969
30
0
10
18.128879103934988
20
-5.3580771468253969
30
0
10
18.171852570518197
20
-5.3851345146740845
30
0
0
SPLINE
5
393
100
AcDbEntity
8
0
100
AcDbSpline
70
4
71
3
72
8
73
4
74
0
42
0.000000001
43
0.0000000001
44
0.0000000001
40
0
40
0
40
0
40
0
40
1
40
1
40
1
40
1
41
1
41
1
41
1
41
1
10
6.5101270277340566
20
-11.146762256570986
30
0
10
6.5101270277340566
20
-11.134029377583369
30
0
10
6.5340011758358374
20
-11.119704888722302
30
0
10
6.5658333733048808
20
-11.113338449228491
30
0
0
SPLINE
5
394
100
AcDbEntity
8
0
100
AcDbSpline
70
4
71
3
72
8
73
4
74
0
42
0.000000001
43
0.0000000001
44
0.0000000001
40
0
40
0
40
0
40
0
40
1
40
1
40
1
40
1
41
1
41
1
41
1
41
1
10
15.291038699569745
20
-13.694929663967931
30
0
10
15.349928264887479
20
-13.709254152829001
30
0
10
15.369027583368901
20
-13.729945081183878
30
0
10
15.38016885248307
20
-13.793609476121965
30
0
0
LINE
5
395
100
AcDbEntity
8
0
100
AcDbLine
10
8.2529398391641955
20
-11.586046581643787
30
0
11
7.9982822594118481
21
-11.600371070504858
31
0
0
SPLINE
5
396
100
AcDbEntity
8
0
100
AcDbSpline
70
4
71
3
72
8
73
4
74
0
42
0.000000001
43
0.0000000001
44
0.0000000001
40
0
40
0
40
0
40
0
40
1
40
1
40
1
40
1
41
1
41
1
41
1
41
1
10
18.208459597607597
20
-14.559173825252467
30
0
10
18.208459597607597
20
-14.57508992398699
30
0
10
17.851938985954309
20
-14.842480382726949
30
0
10
17.659354191266594
20
-14.969809172603126
30
0
0
SPLINE
5
397
100
AcDbEntity
8
0
100
AcDbSpline
70
4
71
3
72
8
73
4
74
0
42
0.000000001
43
0.0000000001
44
0.0000000001
40
0
40
0
40
0
40
0
40
1
40
1
40
1
40
1
41
1
41
1
41
1
41
1
10
13.538676228898893
20
-14.915694436905756
30
0
10
13.576874865861743
20
-14.758125059433988
30
0
10
13.613481892951144
20
-14.505059089555091
30
0
10
13.632581211432573
20
-14.263134388790357
30
0
0
SPLINE
5
398
100
AcDbEntity
8
0
100
AcDbSpline
70
4
71
3
72
8
73
4
74
0
42
0.000000001
43
0.0000000001
44
0.0000000001
40
0
40
0
40
0
40
0
40
1
40
1
40
1
40
1
41
1
41
1
41
1
41
1
10
14.315381847143561
20
-15.768797329076129
30
0
10
14.377454632208194
20
-15.818137235153142
30
0
10
14.401328780309974
20
-15.824503674646948
30
0
10
14.619379332972928
20
-15.849969432622185
30
0
0
SPLINE
5
399
100
AcDbEntity
8
0
100
AcDbSpline
70
4
71
3
72
8
73
4
74
0
42
0.000000001
43
0.0000000001
44
0.0000000001
40
0
40
0
40
0
40
0
40
1
40
1
40
1
40
1
41
1
41
1
41
1
41
1
10
14.619379332972928
20
-15.849969432622185
30
0
10
14.792864809179211
20
-15.870660360977062
30
0
10
15.235332353998915
20
-15.842011383254922
30
0
10
15.291038699569745
20
-15.806995966038976
30
0
0
SPLINE
5
400
100
AcDbEntity
8
0
100
AcDbSpline
70
4
71
3
72
8
73
4
74
0
42
0.000000001
43
0.0000000001
44
0.0000000001
40
0
40
0
40
0
40
0
40
1
40
1
40
1
40
1
41
1
41
1
41
1
41
1
10
13.92225420840087
20
-13.967094952328251
30
0
10
13.973185724351339
20
-13.984602660936229
30
0
10
14.125980272202749
20
-14.03712578676015
30
0
10
14.261267111446182
20
-14.083282473090264
30
0
0
SPLINE
5
401
100
AcDbEntity
8
0
100
AcDbSpline
70
4
71
3
72
8
73
4
74
0
42
0.000000001
43
0.0000000001
44
0.0000000001
40
0
40
0
40
0
40
0
40
1
40
1
40
1
40
1
41
1
41
1
41
1
41
1
10
17.899687282157881
20
-14.428661815629386
30
0
10
17.934702699373819
20
-14.447761134110815
30
0
10
18.017466412793336
20
-14.48436816120021
30
0
10
18.084314027478328
20
-14.506650699428546
30
0
0
SPLINE
5
402
100
AcDbEntity
8
0
100
AcDbSpline
70
4
71
3
72
8
73
4
74
0
42
0.000000001
43
0.0000000001
44
0.0000000001
40
0
40
0
40
0
40
0
40
1
40
1
40
1
40
1
41
1
41
1
41
1
41
1
10
15.327645726659147
20
-15.706724544011484
30
0
10
15.327645726659147
20
-15.644651758946855
30
0
10
15.321279287165337
20
-15.623960830591974
30
0
10
15.292630309443199
20
-15.603269902237097
30
0
0
SPLINE
5
403
100
AcDbEntity
8
0
100
AcDbSpline
70
4
71
3
72
8
73
4
74
0
42
0.000000001
43
0.0000000001
44
0.0000000001
40
0
40
0
40
0
40
0
40
1
40
1
40
1
40
1
41
1
41
1
41
1
41
1
10
14.633703821833997
20
-14.802690135890648
30
0
10
14.61778772309947
20
-14.818606234625175
30
0
10
14.523882740565792
20
-14.856804871588023
30
0
10
14.422019708664852
20
-14.888637069057067
30
0
0
SPLINE
5
404
100
AcDbEntity
8
0
100
AcDbSpline
70
4
71
3
72
8
73
4
74
0
42
0.000000001
43
0.0000000001
44
0.0000000001
40
0
40
0
40
0
40
0
40
1
40
1
40
1
40
1
41
1
41
1
41
1
41
1
10
13.892013620805278
20
-15.173535236405005
30
0
10
13.85540659371588
20
-15.167168796911193
30
0
10
13.767868050676009
20
-15.149661088303221
30
0
10
13.701020435991017
20
-15.132153379695252
30
0
0
SPLINE
5
405
100
AcDbEntity
8
0
100
AcDbSpline
70
4
71
3
72
8
73
4
74
0
42
0.000000001
43
0.0000000001
44
0.0000000001
40
0
40
0
40
0
40
0
40
1
40
1
40
1
40
1
41
1
41
1
41
1
41
1
10
17.616380724683381
20
-14.134213989040731
30
0
10
17.67049546038076
20
-14.229710581447865
30
0
10
17.807373909497645
20
-14.371363860185111
30
0
10
17.899687282157881
20
-14.428661815629386
30
0
0
SPLINE
5
406
100
AcDbEntity
8
0
100
AcDbSpline
70
4
71
3
72
8
73
4
74
0
42
0.000000001
43
0.0000000001
44
0.0000000001
40
0
40
0
40
0
40
0
40
1
40
1
40
1
40
1
41
1
41
1
41
1
41
1
10
13.632581211432573
20
-14.263134388790357
30
0
10
13.64531409042019
20
-14.108748231065496
30
0
10
13.673963068142328
20
-14.048267055874318
30
0
10
13.764684830929104
20
-13.983011051062777
30
0
0
LINE
5
407
100
AcDbEntity
8
0
100
AcDbLine
10
14.614604503352568
20
-14.239260240688575
30
0
11
14.659169579809225
21
-14.280642097398335
31
0
0
SPLINE
5
408
100
AcDbEntity
8
0
100
AcDbSpline
70
4
71
3
72
8
73
4
74
0
42
0.000000001
43
0.0000000001
44
0.0000000001
40
0
40
0
40
0
40
0
40
1
40
1
40
1
40
1
41
1
41
1
41
1
41
1
10
13.701020435991017
20
-15.132153379695252
30
0
10
13.632581211432573
20
-15.114645671087276
30
0
10
13.560958767127225
20
-15.095546352605846
30
0
10
13.538676228898893
20
-15.087588303238588
30
0
0
SPLINE
5
409
100
AcDbEntity
8
0
100
AcDbSpline
70
4
71
3
72
8
73
4
74
0
42
0.000000001
43
0.0000000001
44
0.0000000001
40
0
40
0
40
0
40
0
40
1
40
1
40
1
40
1
41
1
41
1
41
1
41
1
10
14.659169579809225
20
-14.52734162778342
30
0
10
14.659169579809225
20
-14.732659301458753
30
0
10
14.654394750188876
20
-14.777224377915413
30
0
10
14.633703821833997
20
-14.802690135890648
30
0
0
SPLINE
5
410
100
AcDbEntity
8
0
100
AcDbSpline
70
4
71
3
72
8
73
4
74
0
42
0.000000001
43
0.0000000001
44
0.0000000001
40
0
40
0
40
0
40
0
40
1
40
1
40
1
40
1
41
1
41
1
41
1
41
1
10
16.589792356306727
20
-13.882739629035292
30
0
10
16.807842908969675
20
-14.043492226253958
30
0
10
16.935171698845849
20
-14.094423742204429
30
0
10
17.156405471255702
20
-14.108748231065496
30
0
0
SPLINE
5
411
100
AcDbEntity
8
0
100
AcDbSpline
70
4
71
3
72
8
73
4
74
0
42
0.000000001
43
0.0000000001
44
0.0000000001
40
0
40
0
40
0
40
0
40
1
40
1
40
1
40
1
41
1
41
1
41
1
41
1
10
16.179157008956068
20
-10.129723547435042
30
0
10
16.214172426172009
20
-10.023085685913742
30
0
10
16.230088524906531
20
-9.9944367081916035
30
0
10
16.257145892755219
20
-9.9896618785712494
30
0
0
SPLINE
5
412
100
AcDbEntity
8
0
100
AcDbSpline
70
4
71
3
72
8
73
4
74
0
42
0.000000001
43
0.0000000001
44
0.0000000001
40
0
40
0
40
0
40
0
40
1
40
1
40
1
40
1
41
1
41
1
41
1
41
1
10
7.8343464424462672
20
-11.773856546711144
30
0
10
7.6688190156072427
20
-11.952116852537792
30
0
10
7.5621811540859492
20
-12.030105736336948
30
0
10
7.4062033864876309
20
-12.09217852140158
30
0
0
SPLINE
5
413
100
AcDbEntity
8
0
100
AcDbSpline
70
4
71
3
72
8
73
4
74
0
42
0.000000001
43
0.0000000001
44
0.0000000001
40
0
40
0
40
0
40
0
40
1
40
1
40
1
40
1
41
1
41
1
41
1
41
1
10
16.090026856042741
20
-10.335041221110371
30
0
10
16.115492614017978
20
-10.295250974274067
30
0
10
16.155282860854282
20
-10.20293760161384
30
0
10
16.179157008956068
20
-10.129723547435042
30
0
0
SPLINE
5
414
100
AcDbEntity
8
0
100
AcDbSpline
70
4
71
3
72
8
73
4
74
0
42
0.000000001
43
0.0000000001
44
0.0000000001
40
0
40
0
40
0
40
0
40
1
40
1
40
1
40
1
41
1
41
1
41
1
41
1
10
16.341501216048187
20
-13.892289288276004
30
0
10
16.379699853011036
20
-13.892289288276004
30
0
10
16.443364247949123
20
-13.884331238908741
30
0
10
16.483154494785431
20
-13.87478157966803
30
0
0
SPLINE
5
415
100
AcDbEntity
8
0
100
AcDbSpline
70
4
71
3
72
8
73
4
74
0
42
0.000000001
43
0.0000000001
44
0.0000000001
40
0
40
0
40
0
40
0
40
1
40
1
40
1
40
1
41
1
41
1
41
1
41
1
10
16.18870666819678
20
-14.035534176886697
30
0
10
16.239638184147246
20
-13.909796996883975
30
0
10
16.258737502628676
20
-13.892289288276004
30
0
10
16.341501216048187
20
-13.892289288276004
30
0
0
SPLINE
5
416
100
AcDbEntity
8
0
100
AcDbSpline
70
4
71
3
72
8
73
4
74
0
42
0.000000001
43
0.0000000001
44
0.0000000001
40
0
40
0
40
0
40
0
40
1
40
1
40
1
40
1
41
1
41
1
41
1
41
1
10
15.513864081853049
20
-15.213325483241311
30
0
10
15.556837548436258
20
-15.130561769821796
30
0
10
15.677799898818627
20
-14.922060876399565
30
0
10
15.782846150466467
20
-14.75175861994018
30
0
0
LINE
5
417
100
AcDbEntity
8
0
100
AcDbLine
10
13.764684830929104
20
-13.983011051062777
30
0
11
13.829940835740642
21
-13.93526275485921
31
0
0
LINE
5
418
100
AcDbEntity
8
0
100
AcDbLine
10
13.538676228898893
20
-15.087588303238588
30
0
11
13.500477591936042
21
-15.071672204504067
31
0
0
LINE
5
419
100
AcDbEntity
8
0
100
AcDbLine
10
14.659169579809225
20
-14.280642097398335
30
0
11
14.659169579809225
21
-14.52734162778342
31
0
0
SPLINE
5
420
100
AcDbEntity
8
0
100
AcDbSpline
70
4
71
3
72
8
73
4
74
0
42
0.000000001
43
0.0000000001
44
0.0000000001
40
0
40
0
40
0
40
0
40
1
40
1
40
1
40
1
41
1
41
1
41
1
41
1
10
14.422019708664852
20
-14.888637069057067
30
0
10
14.180095007900125
20
-14.963442733109318
30
0
10
14.157812469671793
20
-14.976175612096934
30
0
10
14.051174608150498
20
-15.089179913112043
30
0
0
SPLINE
5
421
100
AcDbEntity
8
0
100
AcDbSpline
70
4
71
3
72
8
73
4
74
0
42
0.000000001
43
0.0000000001
44
0.0000000001
40
0
40
0
40
0
40
0
40
1
40
1
40
1
40
1
41
1
41
1
41
1
41
1
10
20.035627732330703
20
-12.372301859129166
30
0
10
19.817577179667754
20
-12.763837887998406
30
0
10
19.473789447002083
20
-13.276336267250008
30
0
10
19.392617343456021
20
-13.328859393073927
30
0
0
SPLINE
5
422
100
AcDbEntity
8
0
100
AcDbSpline
70
4
71
3
72
8
73
4
74
0
42
0.000000001
43
0.0000000001
44
0.0000000001
40
0
40
0
40
0
40
0
40
1
40
1
40
1
40
1
41
1
41
1
41
1
41
1
10
15.782846150466467
20
-14.75175861994018
30
0
10
16.00567153274978
20
-14.390463178666534
30
0
10
16.137775152246306
20
-14.158088137142515
30
0
10
16.18870666819678
20
-14.035534176886697
30
0
0
SPLINE
5
423
100
AcDbEntity
8
0
100
AcDbSpline
70
4
71
3
72
8
73
4
74
0
42
0.000000001
43
0.0000000001
44
0.0000000001
40
0
40
0
40
0
40
0
40
1
40
1
40
1
40
1
41
1
41
1
41
1
41
1
10
17.533617011263875
20
-14.057816715115028
30
0
10
17.562265988986013
20
-14.04985866574777
30
0
10
17.574998867973623
20
-14.062591544735387
30
0
10
17.616380724683381
20
-14.134213989040731
30
0
0
SPLINE
5
424
100
AcDbEntity
8
0
100
AcDbSpline
70
4
71
3
72
8
73
4
74
0
42
0.000000001
43
0.0000000001
44
0.0000000001
40
0
40
0
40
0
40
0
40
1
40
1
40
1
40
1
41
1
41
1
41
1
41
1
10
13.934987087388487
20
-15.587353803502571
30
0
10
13.989101823085861
20
-15.627144050338877
30
0
10
14.199194326381544
20
-15.722640642746008
30
0
10
14.2342097435975
20
-15.722640642746008
30
0
0
SPLINE
5
425
100
AcDbEntity
8
0
100
AcDbSpline
70
4
71
3
72
8
73
4
74
0
42
0.000000001
43
0.0000000001
44
0.0000000001
40
0
40
0
40
0
40
0
40
1
40
1
40
1
40
1
41
1
41
1
41
1
41
1
10
14.2342097435975
20
-15.722640642746008
30
0
10
14.246942622585117
20
-15.722640642746008
30
0
10
14.283549649674514
20
-15.743331571100889
30
0
10
14.315381847143561
20
-15.768797329076129
30
0
0
SPLINE
5
426
100
AcDbEntity
8
0
100
AcDbSpline
70
4
71
3
72
8
73
4
74
0
42
0.000000001
43
0.0000000001
44
0.0000000001
40
0
40
0
40
0
40
0
40
1
40
1
40
1
40
1
41
1
41
1
41
1
41
1
10
18.084314027478328
20
-14.506650699428546
30
0
10
18.152753252036771
20
-14.528933237656871
30
0
10
18.208459597607597
20
-14.552807385758651
30
0
10
18.208459597607597
20
-14.559173825252467
30
0
0
SPLINE
5
427
100
AcDbEntity
8
0
100
AcDbSpline
70
4
71
3
72
8
73
4
74
0
42
0.000000001
43
0.0000000001
44
0.0000000001
40
0
40
0
40
0
40
0
40
1
40
1
40
1
40
1
41
1
41
1
41
1
41
1
10
14.051174608150498
20
-15.089179913112043
30
0
10
13.962044455237171
20
-15.184676505519171
30
0
10
13.960452845363719
20
-15.184676505519171
30
0
10
13.892013620805278
20
-15.173535236405005
30
0
0
SPLINE
5
428
100
AcDbEntity
8
0
100
AcDbSpline
70
4
71
3
72
8
73
4
74
0
42
0.000000001
43
0.0000000001
44
0.0000000001
40
0
40
0
40
0
40
0
40
1
40
1
40
1
40
1
41
1
41
1
41
1
41
1
10
7.4062033864876309
20
-12.09217852140158
30
0
10
7.2263514707875371
20
-12.162209355833475
30
0
10
6.9621442317944719
20
-12.195633163175973
30
0
10
6.9255372047050736
20
-12.151068086719313
30
0
0
SPLINE
5
429
100
AcDbEntity
8
0
100
AcDbSpline
70
4
71
3
72
8
73
4
74
0
42
0.000000001
43
0.0000000001
44
0.0000000001
40
0
40
0
40
0
40
0
40
1
40
1
40
1
40
1
41
1
41
1
41
1
41
1
10
15.292630309443199
20
-15.603269902237097
30
0
10
15.251248452733444
20
-15.576212534388407
30
0
10
15.251248452733444
20
-15.577804144261865
30
0
10
15.361069534001635
20
-15.448883744512234
30
0
0
SPLINE
5
430
100
AcDbEntity
8
0
100
AcDbSpline
70
4
71
3
72
8
73
4
74
0
42
0.000000001
43
0.0000000001
44
0.0000000001
40
0
40
0
40
0
40
0
40
1
40
1
40
1
40
1
41
1
41
1
41
1
41
1
10
14.261267111446182
20
-14.083282473090264
30
0
10
14.542982059047221
20
-14.177187455623947
30
0
10
14.555714938034837
20
-14.183553895117752
30
0
10
14.614604503352568
20
-14.239260240688575
30
0
0
SPLINE
5
431
100
AcDbEntity
8
0
100
AcDbSpline
70
4
71
3
72
8
73
4
74
0
42
0.000000001
43
0.0000000001
44
0.0000000001
40
0
40
0
40
0
40
0
40
1
40
1
40
1
40
1
41
1
41
1
41
1
41
1
10
9.2126805928558611
20
-11.2661329970799
30
0
10
9.0471531660168321
20
-11.247033678598473
30
0
10
9.0328286771557629
20
-11.251808508218827
30
0
10
8.8800341293043523
20
-11.36958763885429
30
0
0
LINE
5
432
100
AcDbEntity
8
0
100
AcDbLine
10
13.500477591936042
20
-15.071672204504067
30
0
11
13.538676228898893
21
-14.915694436905756
31
0
0
SPLINE
5
433
100
AcDbEntity
8
0
100
AcDbSpline
70
4
71
3
72
8
73
4
74
0
42
0.000000001
43
0.0000000001
44
0.0000000001
40
0
40
0
40
0
40
0
40
1
40
1
40
1
40
1
41
1
41
1
41
1
41
1
10
6.9255372047050736
20
-12.151068086719313
30
0
10
6.8618728097669859
20
-12.074670812793608
30
0
10
6.5101270277340566
20
-11.223159530496691
30
0
10
6.5101270277340566
20
-11.146762256570986
30
0
0
SPLINE
5
434
100
AcDbEntity
8
0
100
AcDbSpline
70
4
71
3
72
8
73
4
74
0
42
0.000000001
43
0.0000000001
44
0.0000000001
40
0
40
0
40
0
40
0
40
1
40
1
40
1
40
1
41
1
41
1
41
1
41
1
10
15.326054116785693
20
-13.793609476121965
30
0
10
15.23851557374582
20
-13.675830345486501
30
0
10
15.240107183619278
20
-13.682196784980313
30
0
10
15.291038699569745
20
-13.694929663967931
30
0
0
LINE
5
435
100
AcDbEntity
8
0
100
AcDbLine
10
16.330359946934028
20
-13.335225832567735
30
0
11
16.330359946934028
21
-13.300210415351788
31
0
0
SPLINE
5
436
100
AcDbEntity
8
0
100
AcDbSpline
70
4
71
3
72
8
73
4
74
0
42
0.000000001
43
0.0000000001
44
0.0000000001
40
0
40
0
40
0
40
0
40
1
40
1
40
1
40
1
41
1
41
1
41
1
41
1
10
15.291038699569745
20
-15.806995966038976
30
0
10
15.321279287165337
20
-15.789488257431003
30
0
10
15.327645726659147
20
-15.771980548823025
30
0
10
15.327645726659147
20
-15.706724544011484
30
0
0
LINE
5
437
100
AcDbEntity
8
0
100
AcDbLine
10
13.829940835740642
20
-13.93526275485921
30
0
11
13.92225420840087
21
-13.967094952328251
31
0
0
SPLINE
5
438
100
AcDbEntity
8
0
100
AcDbSpline
70
4
71
3
72
8
73
4
74
0
42
0.000000001
43
0.0000000001
44
0.0000000001
40
0
40
0
40
0
40
0
40
1
40
1
40
1
40
1
41
1
41
1
41
1
41
1
10
19.392617343456021
20
-13.328859393073927
30
0
10
19.308262020163053
20
-13.384565738644756
30
0
10
19.238231185731159
20
-13.386157348518207
30
0
10
18.041340560895122
20
-13.351141931302259
30
0
0
SPLINE
5
439
100
AcDbEntity
8
0
100
AcDbSpline
70
4
71
3
72
8
73
4
74
0
42
0.000000001
43
0.0000000001
44
0.0000000001
40
0
40
0
40
0
40
0
40
1
40
1
40
1
40
1
41
1
41
1
41
1
41
1
10
11.278590208596793
20
-7.6372624856089235
30
0
10
10.140589149078483
20
-7.6372624856089235
30
0
10
9.1919896645009835
20
-7.6324876559885659
30
0
10
9.1728903460195568
20
-7.6277128263682084
30
0
0
SPLINE
5
440
100
AcDbEntity
8
0
100
AcDbSpline
70
4
71
3
72
8
73
4
74
0
42
0.000000001
43
0.0000000001
44
0.0000000001
40
0
40
0
40
0
40
0
40
1
40
1
40
1
40
1
41
1
41
1
41
1
41
1
10
13.151915029650015
20
-1.64803453180836
30
0
10
13.163056298764177
20
-1.6448513120614554
30
0
10
13.172605958004892
20
-1.6082442849720557
30
0
10
13.175789177751794
20
-1.5668624282622992
30
0
0
LINE
5
441
100
AcDbEntity
8
0
100
AcDbLine
10
9.139466538677059
20
-7.6181631671274959
30
0
11
9.1712987361461007
21
-7.5640484314301242
31
0
0
SPLINE
5
442
100
AcDbEntity
8
0
100
AcDbSpline
70
4
71
3
72
8
73
4
74
0
42
0.000000001
43
0.0000000001
44
0.0000000001
40
0
40
0
40
0
40
0
40
1
40
1
40
1
40
1
41
1
41
1
41
1
41
1
10
9.2238218619700287
20
-6.7173119787535613
30
0
10
9.2270050817169267
20
-6.7204951985004664
30
0
10
9.2381463508310926
20
-6.8048505217934316
30
0
10
9.2476960100718077
20
-6.9051219438209177
30
0
0
SPLINE
5
443
100
AcDbEntity
8
0
100
AcDbSpline
70
4
71
3
72
8
73
4
74
0
42
0.000000001
43
0.0000000001
44
0.0000000001
40
0
40
0
40
0
40
0
40
1
40
1
40
1
40
1
41
1
41
1
41
1
41
1
10
9.6121746710923563
20
-5.7814453731636801
30
0
10
9.6249075500799783
20
-5.735288686833564
30
0
10
9.6440068685613998
20
-5.7114145387317814
30
0
10
9.6837971153977058
20
-5.6891320005034522
30
0
0
LINE
5
444
100
AcDbEntity
8
0
100
AcDbLine
10
9.8206755645145964
20
-5.5092800848033523
30
0
11
9.8286336138818555
21
-5.4360660306245538
31
0
0
SPLINE
5
445
100
AcDbEntity
8
0
100
AcDbSpline
70
4
71
3
72
8
73
4
74
0
42
0.000000001
43
0.0000000001
44
0.0000000001
40
0
40
0
40
0
40
0
40
1
40
1
40
1
40
1
41
1
41
1
41
1
41
1
10
9.1712987361461007
20
-7.5640484314301242
30
0
10
9.1903980546275275
20
-7.5322162339610799
30
0
10
9.1999477138682426
20
-7.4956092068716798
30
0
10
9.1935812743744325
20
-7.4733266686433479
30
0
0
SPLINE
5
446
100
AcDbEntity
8
0
100
AcDbSpline
70
4
71
3
72
8
73
4
74
0
42
0.000000001
43
0.0000000001
44
0.0000000001
40
0
40
0
40
0
40
0
40
1
40
1
40
1
40
1
41
1
41
1
41
1
41
1
10
9.2476960100718077
20
-6.9051219438209177
30
0
10
9.268386938426687
20
-7.1152144471166068
30
0
10
9.2827114272877598
20
-7.1534130840794612
30
0
10
9.3575170913400054
20
-7.2027529901564771
30
0
0
SPLINE
5
447
100
AcDbEntity
8
0
100
AcDbSpline
70
4
71
3
72
8
73
4
74
0
42
0.000000001
43
0.0000000001
44
0.0000000001
40
0
40
0
40
0
40
0
40
1
40
1
40
1
40
1
41
1
41
1
41
1
41
1
10
9.6837971153977058
20
-5.6891320005034522
30
0
10
9.7713356584375752
20
-5.6413837042998871
30
0
10
9.8111259052738777
20
-5.5904521883494187
30
0
10
9.8206755645145964
20
-5.5092800848033523
30
0
0
LINE
5
448
100
AcDbEntity
8
0
100
AcDbLine
10
12.209681984566323
20
-5.0063313647924659
30
0
11
12.537553618497469
21
-4.9967817055517525
31
0
0
SPLINE
5
449
100
AcDbEntity
8
0
100
AcDbSpline
70
4
71
3
72
8
73
4
74
0
42
0.000000001
43
0.0000000001
44
0.0000000001
40
0
40
0
40
0
40
0
40
1
40
1
40
1
40
1
41
1
41
1
41
1
41
1
10
6.3127674034259842
20
-7.1836536716750503
30
0
10
6.4003059464658545
20
-6.8016673020465266
30
0
10
6.5578753239376217
20
-6.2955353622887333
30
0
10
6.6645131854589126
20
-6.0583854911443566
30
0
0
SPLINE
5
450
100
AcDbEntity
8
0
100
AcDbSpline
70
4
71
3
72
8
73
4
74
0
42
0.000000001
43
0.0000000001
44
0.0000000001
40
0
40
0
40
0
40
0
40
1
40
1
40
1
40
1
41
1
41
1
41
1
41
1
10
13.369965582312965
20
-7.048366832431614
30
0
10
13.387473290920935
20
-7.1454550347121986
30
0
10
13.384290071174034
20
-7.3396314392733624
30
0
10
13.360415923072253
20
-7.5544987721894072
30
0
0
SPLINE
5
451
100
AcDbEntity
8
0
100
AcDbSpline
70
4
71
3
72
8
73
4
74
0
42
0.000000001
43
0.0000000001
44
0.0000000001
40
0
40
0
40
0
40
0
40
1
40
1
40
1
40
1
41
1
41
1
41
1
41
1
10
8.6747164556290262
20
-7.6022470683929741
30
0
10
8.6747164556290262
20
-7.6436289251027318
30
0
10
8.6237849396785524
20
-7.6452205349761808
30
0
10
7.2788745966114572
20
-7.6499953645965393
30
0
0
LINE
5
452
100
AcDbEntity
8
0
100
AcDbLine
10
6.6645131854589126
20
-6.0583854911443566
30
0
11
6.7043034322952169
21
-5.9676637283575849
31
0
0
SPLINE
5
453
100
AcDbEntity
8
0
100
AcDbSpline
70
4
71
3
72
8
73
4
74
0
42
0.000000001
43
0.0000000001
44
0.0000000001
40
0
40
0
40
0
40
0
40
1
40
1
40
1
40
1
41
1
41
1
41
1
41
1
10
9.3575170913400054
20
-7.2027529901564771
30
0
10
9.4004905579232165
20
-7.2314019678786163
30
0
10
9.433914365265716
20
-7.2393600172458745
30
0
10
9.5134948589383264
20
-7.2393600172458745
30
0
0
SPLINE
5
454
100
AcDbEntity
8
0
100
AcDbSpline
70
4
71
3
72
8
73
4
74
0
42
0.000000001
43
0.0000000001
44
0.0000000001
40
0
40
0
40
0
40
0
40
1
40
1
40
1
40
1
41
1
41
1
41
1
41
1
10
6.7631929976129506
20
-5.996312706079725
30
0
10
6.7950251950819913
20
-6.0122288048142458
30
0
10
6.8555063702731767
20
-6.0313281232956699
30
0
10
6.8968882269829335
20
-6.0361029529160284
30
0
0
SPLINE
5
455
100
AcDbEntity
8
0
100
AcDbSpline
70
4
71
3
72
8
73
4
74
0
42
0.000000001
43
0.0000000001
44
0.0000000001
40
0
40
0
40
0
40
0
40
1
40
1
40
1
40
1
41
1
41
1
41
1
41
1
10
14.437935807399375
20
-1.6337100429472891
30
0
10
14.487275713476393
20
-1.6528093614287152
30
0
10
14.590730355250788
20
-1.7403479044685852
30
0
10
14.611421283605667
20
-1.7817297611783418
30
0
0
SPLINE
5
456
100
AcDbEntity
8
0
100
AcDbSpline
70
4
71
3
72
8
73
4
74
0
42
0.000000001
43
0.0000000001
44
0.0000000001
40
0
40
0
40
0
40
0
40
1
40
1
40
1
40
1
41
1
41
1
41
1
41
1
10
8.9803055513318402
20
-7.0404087830643567
30
0
10
8.9850803809521977
20
-6.943320580783773
30
0
10
8.9962216500663601
20
-6.8494155982500926
30
0
10
9.005771309307077
20
-6.8319078896421201
30
0
0
SPLINE
5
457
100
AcDbEntity
8
0
100
AcDbSpline
70
4
71
3
72
8
73
4
74
0
42
0.000000001
43
0.0000000001
44
0.0000000001
40
0
40
0
40
0
40
0
40
1
40
1
40
1
40
1
41
1
41
1
41
1
41
1
10
9.3431926024789398
20
-6.7777931539447449
30
0
10
9.3431926024789398
20
-6.725270028120824
30
0
10
9.3479674320992974
20
-6.7173119787535613
30
0
10
9.3893492888090506
20
-6.7093539293863005
30
0
0
SPLINE
5
458
100
AcDbEntity
8
0
100
AcDbSpline
70
4
71
3
72
8
73
4
74
0
42
0.000000001
43
0.0000000001
44
0.0000000001
40
0
40
0
40
0
40
0
40
1
40
1
40
1
40
1
41
1
41
1
41
1
41
1
10
9.5134948589383264
20
-7.2393600172458745
30
0
10
9.6249075500799783
20
-7.2393600172458745
30
0
10
9.6678810166631841
20
-7.2234439185113546
30
0
10
9.6933467746384228
20
-7.1741040124343387
30
0
0
SPLINE
5
459
100
AcDbEntity
8
0
100
AcDbSpline
70
4
71
3
72
8
73
4
74
0
42
0.000000001
43
0.0000000001
44
0.0000000001
40
0
40
0
40
0
40
0
40
1
40
1
40
1
40
1
41
1
41
1
41
1
41
1
10
9.6933467746384228
20
-7.1741040124343387
30
0
10
9.7235873622340119
20
-7.1199892767369626
30
0
10
9.696529994385326
20
-7.0833822496475634
30
0
10
9.5532851057746271
20
-6.9910688769873381
30
0
0
SPLINE
5
460
100
AcDbEntity
8
0
100
AcDbSpline
70
4
71
3
72
8
73
4
74
0
42
0.000000001
43
0.0000000001
44
0.0000000001
40
0
40
0
40
0
40
0
40
1
40
1
40
1
40
1
41
1
41
1
41
1
41
1
10
13.589607744849364
20
-1.641668092314549
30
0
10
13.605523843583883
20
-1.6575841910490721
30
0
10
13.626214771938765
20
-1.6687254601632384
30
0
10
13.634172821306024
20
-1.6687254601632384
30
0
0
SPLINE
5
461
100
AcDbEntity
8
0
100
AcDbSpline
70
4
71
3
72
8
73
4
74
0
42
0.000000001
43
0.0000000001
44
0.0000000001
40
0
40
0
40
0
40
0
40
1
40
1
40
1
40
1
41
1
41
1
41
1
41
1
10
9.7490531202092452
20
-5.8833084050646161
30
0
10
9.67902228577735
20
-5.8753503556973543
30
0
10
9.6153578908392614
20
-5.8610258668362878
30
0
10
9.6089914513454548
20
-5.8546594273424795
30
0
0
SPLINE
5
462
100
AcDbEntity
8
0
100
AcDbSpline
70
4
71
3
72
8
73
4
74
0
42
0.000000001
43
0.0000000001
44
0.0000000001
40
0
40
0
40
0
40
0
40
1
40
1
40
1
40
1
41
1
41
1
41
1
41
1
10
9.6089914513454548
20
-5.8546594273424795
30
0
10
9.601033401978194
20
-5.8482929878486694
30
0
10
9.6026250118516483
20
-5.8148691805061725
30
0
10
9.6121746710923563
20
-5.7814453731636801
30
0
0
LINE
5
463
100
AcDbEntity
8
0
100
AcDbLine
10
9.0789853634858773
20
-7.3268985602857466
30
0
11
8.9723475019645811
21
-7.2154858691440946
31
0
0
SPLINE
5
464
100
AcDbEntity
8
0
100
AcDbSpline
70
4
71
3
72
8
73
4
74
0
42
0.000000001
43
0.0000000001
44
0.0000000001
40
0
40
0
40
0
40
0
40
1
40
1
40
1
40
1
41
1
41
1
41
1
41
1
10
9.3893492888090506
20
-6.7093539293863005
30
0
10
9.5278193477993902
20
-6.6807049516641603
30
0
10
9.9320882556562484
20
-6.174573011906368
30
0
10
9.9320882556562484
20
-6.0281449035487666
30
0
0
LINE
5
465
100
AcDbEntity
8
0
100
AcDbLine
10
9.1728903460195568
20
-7.6277128263682101
30
0
11
9.139466538677059
21
-7.6181631671274959
31
0
0
LINE
5
466
100
AcDbEntity
8
0
100
AcDbLine
10
9.8286336138818555
20
-5.4360660306245538
30
0
11
10.186745835408592
21
-5.4328828108776497
31
0
0
LINE
5
467
100
AcDbEntity
8
0
100
AcDbLine
10
8.9723475019645811
20
-7.2154858691440946
30
0
11
8.9803055513318402
21
-7.0404087830643567
31
0
0
SPLINE
5
468
100
AcDbEntity
8
0
100
AcDbSpline
70
4
71
3
72
8
73
4
74
0
42
0.000000001
43
0.0000000001
44
0.0000000001
40
0
40
0
40
0
40
0
40
1
40
1
40
1
40
1
41
1
41
1
41
1
41
1
10
9.5532851057746271
20
-6.9910688769873381
30
0
10
9.3607003110869123
20
-6.8653316969846125
30
0
10
9.3431926024789398
20
-6.847823988376641
30
0
10
9.3431926024789398
20
-6.7777931539447449
30
0
0
SPLINE
5
469
100
AcDbEntity
8
0
100
AcDbSpline
70
4
71
3
72
8
73
4
74
0
42
0.000000001
43
0.0000000001
44
0.0000000001
40
0
40
0
40
0
40
0
40
1
40
1
40
1
40
1
41
1
41
1
41
1
41
1
10
10.756542170104478
20
-5.3787680751802753
30
0
10
10.909336717955886
20
-5.3421610480908734
30
0
10
10.984142382008139
20
-5.3310197789767093
30
0
10
11.027115848591349
20
-5.3389778283439711
30
0
0
SPLINE
5
470
100
AcDbEntity
8
0
100
AcDbSpline
70
4
71
3
72
8
73
4
74
0
42
0.000000001
43
0.0000000001
44
0.0000000001
40
0
40
0
40
0
40
0
40
1
40
1
40
1
40
1
41
1
41
1
41
1
41
1
10
9.1935812743744325
20
-7.4733266686433479
30
0
10
9.1888064447540767
20
-7.4542273501619221
30
0
10
9.137874928803603
20
-7.3889713453503836
30
0
10
9.0789853634858773
20
-7.3268985602857466
30
0
0
SPLINE
5
471
100
AcDbEntity
8
0
100
AcDbSpline
70
4
71
3
72
8
73
4
74
0
42
0.000000001
43
0.0000000001
44
0.0000000001
40
0
40
0
40
0
40
0
40
1
40
1
40
1
40
1
41
1
41
1
41
1
41
1
10
8.0412557259950503
20
-6.163431742792203
30
0
10
8.1733593454915869
20
-6.0376945627894791
30
0
10
8.2274740811889586
20
-6.0058623653204348
30
0
10
8.2895468662535947
20
-6.0217784640549565
30
0
0
SPLINE
5
472
100
AcDbEntity
8
0
100
AcDbSpline
70
4
71
3
72
8
73
4
74
0
42
0.000000001
43
0.0000000001
44
0.0000000001
40
0
40
0
40
0
40
0
40
1
40
1
40
1
40
1
41
1
41
1
41
1
41
1
10
9.005771309307077
20
-6.8319078896421201
30
0
10
9.0216874080415987
20
-6.8016673020465266
30
0
10
9.2094973731089542
20
-6.7029874898924895
30
0
10
9.2238218619700287
20
-6.7173119787535613
30
0
0
SPLINE
5
473
100
AcDbEntity
8
0
100
AcDbSpline
70
4
71
3
72
8
73
4
74
0
42
0.000000001
43
0.0000000001
44
0.0000000001
40
0
40
0
40
0
40
0
40
1
40
1
40
1
40
1
41
1
41
1
41
1
41
1
10
9.9320882556562484
20
-6.0281449035487666
30
0
10
9.9320882556562484
20
-5.9326483111416373
30
0
10
9.8954812285668474
20
-5.9024077235460428
30
0
10
9.7490531202092452
20
-5.8833084050646161
30
0
0
SPLINE
5
474
100
AcDbEntity
8
0
100
AcDbSpline
70
4
71
3
72
8
73
4
74
0
42
0.000000001
43
0.0000000001
44
0.0000000001
40
0
40
0
40
0
40
0
40
1
40
1
40
1
40
1
41
1
41
1
41
1
41
1
10
10.186745835408592
20
-5.4328828108776497
30
0
10
10.525758738453913
20
-5.428107981257293
30
0
10
10.555999326049506
20
-5.4265163713838405
30
0
10
10.756542170104478
20
-5.3787680751802753
30
0
0
LINE
5
475
100
AcDbEntity
8
0
100
AcDbLine
10
13.360415923072253
20
-7.5544987721894072
30
0
11
13.350866263831538
21
-7.6372624856089217
31
0
0
SPLINE
5
476
100
AcDbEntity
8
0
100
AcDbSpline
70
4
71
3
72
8
73
4
74
0
42
0.000000001
43
0.0000000001
44
0.0000000001
40
0
40
0
40
0
40
0
40
1
40
1
40
1
40
1
41
1
41
1
41
1
41
1
10
8.8816257391778084
20
-6.7921176428058141
30
0
10
8.8959502280388758
20
-6.8191750106544999
30
0
10
8.8975418379123301
20
-6.8637400871111636
30
0
10
8.8895837885450675
20
-6.943320580783773
30
0
0
SPLINE
5
477
100
AcDbEntity
8
0
100
AcDbSpline
70
4
71
3
72
8
73
4
74
0
42
0.000000001
43
0.0000000001
44
0.0000000001
40
0
40
0
40
0
40
0
40
1
40
1
40
1
40
1
41
1
41
1
41
1
41
1
10
7.4985167591478579
20
-6.2732528240604006
30
0
10
7.5876469120611807
20
-6.2477870660851673
30
0
10
7.6003797910488
20
-6.2477870660851673
30
0
10
7.6767770649745044
20
-6.2732528240604006
30
0
0
SPLINE
5
478
100
AcDbEntity
8
0
100
AcDbSpline
70
4
71
3
72
8
73
4
74
0
42
0.000000001
43
0.0000000001
44
0.0000000001
40
0
40
0
40
0
40
0
40
1
40
1
40
1
40
1
41
1
41
1
41
1
41
1
10
8.3548028710651341
20
-7.1932033309157637
30
0
10
8.2290656910624094
20
-7.3507727083875283
30
0
10
8.2051915429606304
20
-7.3969293947176435
30
0
10
8.2195160318216978
20
-7.4542273501619221
30
0
0
SPLINE
5
479
100
AcDbEntity
8
0
100
AcDbSpline
70
4
71
3
72
8
73
4
74
0
42
0.000000001
43
0.0000000001
44
0.0000000001
40
0
40
0
40
0
40
0
40
1
40
1
40
1
40
1
41
1
41
1
41
1
41
1
10
8.2195160318216978
20
-7.4542273501619221
30
0
10
8.2322489108093109
20
-7.5035672562389406
30
0
10
8.2831804267597828
20
-7.5258497944672698
30
0
10
8.385043458660725
20
-7.5258497944672698
30
0
0
SPLINE
5
480
100
AcDbEntity
8
0
100
AcDbSpline
70
4
71
3
72
8
73
4
74
0
42
0.000000001
43
0.0000000001
44
0.0000000001
40
0
40
0
40
0
40
0
40
1
40
1
40
1
40
1
41
1
41
1
41
1
41
1
10
6.8968882269829335
20
-6.0361029529160284
30
0
10
6.9621442317944719
20
-6.0456526121567409
30
0
10
6.9796519404024506
20
-6.0567938812709059
30
0
10
7.0003428687573273
20
-6.0965841281072111
30
0
0
SPLINE
5
481
100
AcDbEntity
8
0
100
AcDbSpline
70
4
71
3
72
8
73
4
74
0
42
0.000000001
43
0.0000000001
44
0.0000000001
40
0
40
0
40
0
40
0
40
1
40
1
40
1
40
1
41
1
41
1
41
1
41
1
10
11.418651877460585
20
-5.2164238680881532
30
0
10
11.845203323545773
20
-5.0126978042862724
30
0
10
11.82928722481125
20
-5.0174726339066318
30
0
10
12.20968198456632
20
-5.0063313647924659
30
0
0
LINE
5
482
100
AcDbEntity
8
0
100
AcDbLine
10
12.537553618497469
20
-4.9967817055517525
30
0
11
12.709447484830307
21
-5.187774890366013
31
0
0
SPLINE
5
483
100
AcDbEntity
8
0
100
AcDbSpline
70
4
71
3
72
8
73
4
74
0
42
0.000000001
43
0.0000000001
44
0.0000000001
40
0
40
0
40
0
40
0
40
1
40
1
40
1
40
1
41
1
41
1
41
1
41
1
10
12.892482620277308
20
-5.3771764653068237
30
0
10
12.917948378252539
20
-5.3771764653068237
30
0
10
13.15509824939692
20
-5.6652578524016697
30
0
10
13.198071715980126
20
-5.7512047855680857
30
0
0
LINE
5
484
100
AcDbEntity
8
0
100
AcDbLine
10
6.7043034322952169
20
-5.9676637283575849
30
0
11
6.7631929976129488
21
-5.9963127060797241
31
0
0
SPLINE
5
485
100
AcDbEntity
8
0
100
AcDbSpline
70
4
71
3
72
8
73
4
74
0
42
0.000000001
43
0.0000000001
44
0.0000000001
40
0
40
0
40
0
40
0
40
1
40
1
40
1
40
1
41
1
41
1
41
1
41
1
10
8.8895837885450675
20
-6.943320580783773
30
0
10
8.8720760799370932
20
-7.1311305458511294
30
0
10
8.849793541708765
20
-7.2075278197768338
30
0
10
8.7606633887954377
20
-7.4001126144645468
30
0
0
LINE
5
486
100
AcDbEntity
8
0
100
AcDbLine
10
8.5235135176510681
20
-6.2541535055789756
30
0
11
8.5282883472714222
21
-6.3050850215294449
31
0
0
SPLINE
5
487
100
AcDbEntity
8
0
100
AcDbSpline
70
4
71
3
72
8
73
4
74
0
42
0.000000001
43
0.0000000001
44
0.0000000001
40
0
40
0
40
0
40
0
40
1
40
1
40
1
40
1
41
1
41
1
41
1
41
1
10
8.6269681594254575
20
-6.8016673020465266
30
0
10
8.6269681594254575
20
-6.6456895344482136
30
0
10
8.633334598919264
20
-6.523135574192394
30
0
10
8.6412926482865249
20
-6.523135574192394
30
0
0
SPLINE
5
488
100
AcDbEntity
8
0
100
AcDbSpline
70
4
71
3
72
8
73
4
74
0
42
0.000000001
43
0.0000000001
44
0.0000000001
40
0
40
0
40
0
40
0
40
1
40
1
40
1
40
1
41
1
41
1
41
1
41
1
10
7.0003428687573273
20
-6.0965841281072111
30
0
10
7.1022059006582632
20
-6.2859857030480182
30
0
10
7.2550004485096755
20
-6.3416920486188468
30
0
10
7.4985167591478579
20
-6.2732528240604006
30
0
0
SPLINE
5
489
100
AcDbEntity
8
0
100
AcDbSpline
70
4
71
3
72
8
73
4
74
0
42
0.000000001
43
0.0000000001
44
0.0000000001
40
0
40
0
40
0
40
0
40
1
40
1
40
1
40
1
41
1
41
1
41
1
41
1
10
6.2331869097533747
20
-7.6388540954823743
30
0
10
6.222045640639208
20
-7.6229379967478543
30
0
10
6.2538778381082514
20
-7.4430860810477562
30
0
10
6.3127674034259842
20
-7.1836536716750503
30
0
0
SPLINE
5
490
100
AcDbEntity
8
0
100
AcDbSpline
70
4
71
3
72
8
73
4
74
0
42
0.000000001
43
0.0000000001
44
0.0000000001
40
0
40
0
40
0
40
0
40
1
40
1
40
1
40
1
41
1
41
1
41
1
41
1
10
8.6667584062617617
20
-7.1788788420546963
30
0
10
8.6301513791723607
20
-7.0865654693944675
30
0
10
8.6269681594254575
20
-7.062691321292685
30
0
10
8.6269681594254575
20
-6.8016673020465266
30
0
0
SPLINE
5
491
100
AcDbEntity
8
0
100
AcDbSpline
70
4
71
3
72
8
73
4
74
0
42
0.000000001
43
0.0000000001
44
0.0000000001
40
0
40
0
40
0
40
0
40
1
40
1
40
1
40
1
41
1
41
1
41
1
41
1
10
8.5282883472714222
20
-6.3050850215294449
30
0
10
8.5378380065121338
20
-6.3958067843162212
30
0
10
8.4980477596758277
20
-6.987885657240434
30
0
10
8.4805400510678552
20
-7.0229010744563816
30
0
0
SPLINE
5
492
100
AcDbEntity
8
0
100
AcDbSpline
70
4
71
3
72
8
73
4
74
0
42
0.000000001
43
0.0000000001
44
0.0000000001
40
0
40
0
40
0
40
0
40
1
40
1
40
1
40
1
41
1
41
1
41
1
41
1
10
7.8725450794091207
20
-6.3003101919090891
30
0
10
7.896419227510906
20
-6.2907605326683784
30
0
10
7.9728165014366104
20
-6.2286877476037414
30
0
10
8.0412557259950503
20
-6.163431742792203
30
0
0
SPLINE
5
493
100
AcDbEntity
8
0
100
AcDbSpline
70
4
71
3
72
8
73
4
74
0
42
0.000000001
43
0.0000000001
44
0.0000000001
40
0
40
0
40
0
40
0
40
1
40
1
40
1
40
1
41
1
41
1
41
1
41
1
10
8.1733593454915869
20
-6.3448752683657501
30
0
10
8.2370237404296738
20
-6.3735242460878894
30
0
10
8.2752223773925255
20
-6.3687494164675309
30
0
10
8.4041427771421517
20
-6.3082682412763491
30
0
0
SPLINE
5
494
100
AcDbEntity
8
0
100
AcDbSpline
70
4
71
3
72
8
73
4
74
0
42
0.000000001
43
0.0000000001
44
0.0000000001
40
0
40
0
40
0
40
0
40
1
40
1
40
1
40
1
41
1
41
1
41
1
41
1
10
8.4805400510678552
20
-7.0229010744563816
30
0
10
8.4709903918271401
20
-7.0420003929378066
30
0
10
8.4152840462563123
20
-7.1168060569900575
30
0
10
8.3548028710651341
20
-7.1932033309157637
30
0
0
SPLINE
5
495
100
AcDbEntity
8
0
100
AcDbSpline
70
4
71
3
72
8
73
4
74
0
42
0.000000001
43
0.0000000001
44
0.0000000001
40
0
40
0
40
0
40
0
40
1
40
1
40
1
40
1
41
1
41
1
41
1
41
1
10
8.642884258159981
20
-7.4319448119335902
30
0
10
8.7192815320856845
20
-7.3587307577547918
30
0
10
8.7240563617060403
20
-7.3189405109184875
30
0
10
8.6667584062617617
20
-7.1788788420546963
30
0
0
SPLINE
5
496
100
AcDbEntity
8
0
100
AcDbSpline
70
4
71
3
72
8
73
4
74
0
42
0.000000001
43
0.0000000001
44
0.0000000001
40
0
40
0
40
0
40
0
40
1
40
1
40
1
40
1
41
1
41
1
41
1
41
1
10
7.6767770649745044
20
-6.2732528240604006
30
0
10
7.8120639042179416
20
-6.31622629064361
30
0
10
7.8247967832055556
20
-6.3178179005170643
30
0
10
7.8725450794091207
20
-6.3003101919090891
30
0
0
SPLINE
5
497
100
AcDbEntity
8
0
100
AcDbSpline
70
4
71
3
72
8
73
4
74
0
42
0.000000001
43
0.0000000001
44
0.0000000001
40
0
40
0
40
0
40
0
40
1
40
1
40
1
40
1
41
1
41
1
41
1
41
1
10
13.339724994717367
20
-6.4992614260906105
30
0
10
13.346091434211178
20
-6.7443693466022472
30
0
10
13.358824313198795
20
-6.9910688769873381
30
0
10
13.369965582312965
20
-7.048366832431614
30
0
0
LINE
5
498
100
AcDbEntity
8
0
100
AcDbLine
10
8.4041427771421517
20
-6.3082682412763491
30
0
11
8.5235135176510681
21
-6.2541535055789756
31
0
0
SPLINE
5
499
100
AcDbEntity
8
0
100
AcDbSpline
70
4
71
3
72
8
73
4
74
0
42
0.000000001
43
0.0000000001
44
0.0000000001
40
0
40
0
40
0
40
0
40
1
40
1
40
1
40
1
41
1
41
1
41
1
41
1
10
11.11624600150467
20
-5.3485274875846853
30
0
10
11.13216210023919
20
-5.3485274875846853
30
0
10
11.267448939482625
20
-5.2880463123935018
30
0
10
11.418651877460585
20
-5.2164238680881532
30
0
0
SPLINE
5
500
100
AcDbEntity
8
0
100
AcDbSpline
70
4
71
3
72
8
73
4
74
0
42
0.000000001
43
0.0000000001
44
0.0000000001
40
0
40
0
40
0
40
0
40
1
40
1
40
1
40
1
41
1
41
1
41
1
41
1
10
11.027115848591349
20
-5.3389778283439711
30
0
10
11.058948046060392
20
-5.3453442678377803
30
0
10
11.098738292896698
20
-5.3501190974581361
30
0
10
11.11624600150467
20
-5.3485274875846853
30
0
0
SPLINE
5
501
100
AcDbEntity
8
0
100
AcDbSpline
70
4
71
3
72
8
73
4
74
0
42
0.000000001
43
0.0000000001
44
0.0000000001
40
0
40
0
40
0
40
0
40
1
40
1
40
1
40
1
41
1
41
1
41
1
41
1
10
13.198071715980126
20
-5.7512047855680857
30
0
10
13.323808895982848
20
-5.9994959258266274
30
0
10
13.325400505856301
20
-6.0090455850673399
30
0
10
13.339724994717367
20
-6.4992614260906105
30
0
0
SPLINE
5
502
100
AcDbEntity
8
0
100
AcDbSpline
70
4
71
3
72
8
73
4
74
0
42
0.000000001
43
0.0000000001
44
0.0000000001
40
0
40
0
40
0
40
0
40
1
40
1
40
1
40
1
41
1
41
1
41
1
41
1
10
8.7606633887954377
20
-7.4001126144645468
30
0
10
8.7129150925918726
20
-7.5003840364920373
30
0
10
8.6747164556290262
20
-7.5911057992788109
30
0
10
8.6747164556290262
20
-7.6022470683929741
30
0
0
SPLINE
5
503
100
AcDbEntity
8
0
100
AcDbSpline
70
4
71
3
72
8
73
4
74
0
42
0.000000001
43
0.0000000001
44
0.0000000001
40
0
40
0
40
0
40
0
40
1
40
1
40
1
40
1
41
1
41
1
41
1
41
1
10
8.2895468662535947
20
-6.0217784640549565
30
0
10
8.3452532118244207
20
-6.0361029529160284
30
0
10
8.3245622834695432
20
-6.0631603207647133
30
0
10
8.214741202201342
20
-6.1252331058293494
30
0
0
SPLINE
5
504
100
AcDbEntity
8
0
100
AcDbSpline
70
4
71
3
72
8
73
4
74
0
42
0.000000001
43
0.0000000001
44
0.0000000001
40
0
40
0
40
0
40
0
40
1
40
1
40
1
40
1
41
1
41
1
41
1
41
1
10
8.6412926482865249
20
-6.523135574192394
30
0
10
8.6603919667679534
20
-6.523135574192394
30
0
10
8.854568371329119
20
-6.7411861268553439
30
0
10
8.8816257391778084
20
-6.7921176428058141
30
0
0
SPLINE
5
505
100
AcDbEntity
8
0
100
AcDbSpline
70
4
71
3
72
8
73
4
74
0
42
0.000000001
43
0.0000000001
44
0.0000000001
40
0
40
0
40
0
40
0
40
1
40
1
40
1
40
1
41
1
41
1
41
1
41
1
10
12.709447484830307
20
-5.187774890366013
30
0
10
12.803352467363986
20
-5.291229532140405
30
0
10
12.8861161807835
20
-5.3771764653068237
30
0
10
12.892482620277308
20
-5.3771764653068237
30
0
0
SPLINE
5
506
100
AcDbEntity
8
0
100
AcDbSpline
70
4
71
3
72
8
73
4
74
0
42
0.000000001
43
0.0000000001
44
0.0000000001
40
0
40
0
40
0
40
0
40
1
40
1
40
1
40
1
41
1
41
1
41
1
41
1
10
7.2788745966114572
20
-7.6499953645965393
30
0
10
6.6772460644465355
20
-7.6515869744699945
30
0
10
6.2379617393737314
20
-7.6468121448496351
30
0
10
6.2331869097533747
20
-7.6388540954823743
30
0
0
SPLINE
5
507
100
AcDbEntity
8
0
100
AcDbSpline
70
4
71
3
72
8
73
4
74
0
42
0.000000001
43
0.0000000001
44
0.0000000001
40
0
40
0
40
0
40
0
40
1
40
1
40
1
40
1
41
1
41
1
41
1
41
1
10
8.385043458660725
20
-7.5258497944672698
30
0
10
8.4980477596758277
20
-7.5258497944672698
30
0
10
8.5728534237280822
20
-7.4987924266185821
30
0
10
8.642884258159981
20
-7.4319448119335902
30
0
0
SPLINE
5
508
100
AcDbEntity
8
0
100
AcDbSpline
70
4
71
3
72
8
73
4
74
0
42
0.000000001
43
0.0000000001
44
0.0000000001
40
0
40
0
40
0
40
0
40
1
40
1
40
1
40
1
41
1
41
1
41
1
41
1
10
8.1001452913127867
20
-6.209588429122312
30
0
10
8.0794543629579039
20
-6.2461954562117139
30
0
10
8.1192446097942081
20
-6.3210011202639667
30
0
10
8.1733593454915869
20
-6.3448752683657501
30
0
0
SPLINE
5
509
100
AcDbEntity
8
0
100
AcDbSpline
70
4
71
3
72
8
73
4
74
0
42
0.000000001
43
0.0000000001
44
0.0000000001
40
0
40
0
40
0
40
0
40
1
40
1
40
1
40
1
41
1
41
1
41
1
41
1
10
8.214741202201342
20
-6.1252331058293494
30
0
10
8.1590348566305178
20
-6.1570653032983911
30
0
10
8.1081033406800476
20
-6.1936723303877921
30
0
10
8.1001452913127867
20
-6.209588429122312
30
0
0
SPLINE
5
510
100
AcDbEntity
8
0
100
AcDbSpline
70
0
71
2
72
6
73
3
74
0
42
0.000000001
43
0.0000000001
44
0.0000000001
40
0
40
0
40
0
40
1
40
1
40
1
10
6.9674615041901724
20
-9.5282317096543743
30
0
10
7.1411372528644073
20
-9.5282317096543743
30
0
10
7.2322458316283029
20
-9.5016583796230556
30
0
0
SPLINE
5
511
100
AcDbEntity
8
0
100
AcDbSpline
70
0
71
2
72
6
73
3
74
0
42
0.000000001
43
0.0000000001
44
0.0000000001
40
0
40
0
40
0
40
1
40
1
40
1
10
7.2322458316283029
20
-9.5016583796230556
30
0
10
7.3546730618834184
20
-9.4655945372675241
30
0
10
7.4419854879558658
20
-9.3735369203307677
30
0
0
SPLINE
5
512
100
AcDbEntity
8
0
100
AcDbSpline
70
0
71
2
72
6
73
3
74
0
42
0.000000001
43
0.0000000001
44
0.0000000001
40
0
40
0
40
0
40
1
40
1
40
1
10
7.4419854879558658
20
-9.3735369203307677
30
0
10
7.5292979140283123
20
-9.2814793033940113
30
0
10
7.5748521381124627
20
-9.1481379382575909
30
0
0
SPLINE
5
513
100
AcDbEntity
8
0
100
AcDbSpline
70
0
71
2
72
6
73
3
74
0
42
0.000000001
43
0.0000000001
44
0.0000000001
40
0
40
0
40
0
40
1
40
1
40
1
10
7.5748521381124627
20
-9.1481379382575909
30
0
10
7.6204064927922062
20
-9.0147967037167671
30
0
10
7.6204064927922062
20
-8.8192928811733182
30
0
0
SPLINE
5
514
100
AcDbEntity
8
0
100
AcDbSpline
70
0
71
2
72
6
73
3
74
0
42
0.000000001
43
0.0000000001
44
0.0000000001
40
0
40
0
40
0
40
1
40
1
40
1
10
7.6204064927922062
20
-8.8192928811733182
30
0
10
7.6204064927922062
20
-8.647515143547011
30
0
10
7.5776992526310503
20
-8.5231899675417644
30
0
0
SPLINE
5
515
100
AcDbEntity
8
0
100
AcDbSpline
70
0
71
2
72
6
73
3
74
0
42
0.000000001
43
0.0000000001
44
0.0000000001
40
0
40
0
40
0
40
1
40
1
40
1
10
7.5776992526310503
20
-8.5231899675417644
30
0
10
7.5255017613368649
20
-8.37134229273674
30
0
10
7.4286988229402064
20
-8.2773864688586674
30
0
0
SPLINE
5
516
100
AcDbEntity
8
0
100
AcDbSpline
70
0
71
2
72
6
73
3
74
0
42
0.000000001
43
0.0000000001
44
0.0000000001
40
0
40
0
40
0
40
1
40
1
40
1
10
7.4286988229402064
20
-8.2773864688586674
30
0
10
7.3556221000562809
20
-8.2062078223204669
30
0
10
7.2312967934554413
20
-8.1663479578690801
30
0
0
SPLINE
5
517
100
AcDbEntity
8
0
100
AcDbSpline
70
0
71
2
72
6
73
3
74
0
42
0.000000001
43
0.0000000001
44
0.0000000001
40
0
40
0
40
0
40
1
40
1
40
1
10
7.2312967934554413
20
-8.1663479578690801
30
0
10
7.1382901383458233
20
-8.1369273827235826
30
0
10
6.9826462455515559
20
-8.1369273827235826
30
0
0
LWPOLYLINE
5
518
100
AcDbEntity
8
0
100
AcDbPolyline
90
6
70
1
43
0.0
10
6.4540265635503618
20
-8.1369273827235826
10
6.4540265635503618
20
-9.5282317096543743
10
6.7349447358205339
20
-9.5282317096543743
10
6.7349447358205339
20
-9.2928678920639456
10
6.7349447358205339
20
-8.37134229273674
10
6.7349447358205339
20
-8.1369273827235826
0
LINE
5
519
100
AcDbEntity
8
0
100
AcDbLine
10
6.8887717837667006
20
-8.37134229273674
30
0
11
6.9446843268503011
21
-8.37134229273674
31
0
0
SPLINE
5
520
100
AcDbEntity
8
0
100
AcDbSpline
70
0
71
2
72
6
73
3
74
0
42
0.000000001
43
0.0000000001
44
0.0000000001
40
0
40
0
40
0
40
1
40
1
40
1
10
6.9446843268503011
20
-8.37134229273674
30
0
10
7.0623663009433102
20
-8.37134229273674
30
0
10
7.1145639228330895
20
-8.3846289577524029
30
0
0
SPLINE
5
521
100
AcDbEntity
8
0
100
AcDbSpline
70
0
71
2
72
6
73
3
74
0
42
0.000000001
43
0.0000000001
44
0.0000000001
40
0
40
0
40
0
40
1
40
1
40
1
10
7.1145639228330895
20
-8.3846289577524029
30
0
10
7.1828953895549077
20
-8.401711775459507
30
0
10
7.2279750945526269
20
-8.4425208086793493
30
0
0
SPLINE
5
522
100
AcDbEntity
8
0
100
AcDbSpline
70
0
71
2
72
6
73
3
74
0
42
0.000000001
43
0.0000000001
44
0.0000000001
40
0
40
0
40
0
40
1
40
1
40
1
10
7.2279750945526269
20
-8.4425208086793493
30
0
10
7.2730548648481435
20
-8.4833298418991916
30
0
10
7.3015262712251872
20
-8.5768110813930374
30
0
0
SPLINE
5
523
100
AcDbEntity
8
0
100
AcDbSpline
70
0
71
2
72
6
73
3
74
0
42
0.000000001
43
0.0000000001
44
0.0000000001
40
0
40
0
40
0
40
1
40
1
40
1
10
7.3015262712251872
20
-8.5768110813930374
30
0
10
7.3299978081978221
20
-8.6702923208868832
30
0
10
7.3299978081978221
20
-8.8316305080161168
30
0
0
SPLINE
5
524
100
AcDbEntity
8
0
100
AcDbSpline
70
0
71
2
72
6
73
3
74
0
42
0.000000001
43
0.0000000001
44
0.0000000001
40
0
40
0
40
0
40
1
40
1
40
1
10
7.3299978081978221
20
-8.8316305080161168
30
0
10
7.3299978081978221
20
-8.9929686951453505
30
0
10
7.3015262712251872
20
-9.0793320830449353
30
0
0
SPLINE
5
525
100
AcDbEntity
8
0
100
AcDbSpline
70
0
71
2
72
6
73
3
74
0
42
0.000000001
43
0.0000000001
44
0.0000000001
40
0
40
0
40
0
40
1
40
1
40
1
10
7.3015262712251872
20
-9.0793320830449353
30
0
10
7.2730548648481435
20
-9.1656954709445202
30
0
10
7.2218062811312285
20
-9.2140968095472573
30
0
0
SPLINE
5
526
100
AcDbEntity
8
0
100
AcDbSpline
70
0
71
2
72
6
73
3
74
0
42
0.000000001
43
0.0000000001
44
0.0000000001
40
0
40
0
40
0
40
1
40
1
40
1
10
7.2218062811312285
20
-9.2140968095472573
30
0
10
7.1705577627121091
20
-9.2624982787455874
30
0
10
7.0917867454932164
20
-9.279581227048288
30
0
0
LWPOLYLINE
5
527
100
AcDbEntity
8
0
100
AcDbPolyline
90
15
70
1
43
0.0
10
9.1411610891720052
20
-8.1369273827235826
10
8.8355676632162368
20
-8.1369273827235826
10
8.7140894711339829
20
-8.4529603591764246
10
8.5115846220767537
20
-8.4529603591764246
10
8.5115846220767537
20
-8.687375269189582
10
8.6239299305429498
20
-8.687375269189582
10
8.4322223912865422
20
-9.2036572590501837
10
8.2443107435303968
20
-8.687375269189582
10
8.3592817990638366
20
-8.687375269189582
10
8.3592817990638366
20
-8.4529603591764246
10
8.157947355630812
20
-8.4529603591764246
10
8.0431125613541834
20
-8.1369273827235826
10
7.7451114407813115
20
-8.1369273827235826
10
8.2870178530959606
20
-9.5282317096543743
10
8.5840700660915648
20
-9.5282317096543743
0
LWPOLYLINE
5
528
100
AcDbEntity
8
0
100
AcDbPolyline
90
10
70
1
43
0.0
10
9.320910773569473
20
-8.1369273827235826
10
9.320910773569473
20
-9.5282317096543743
10
9.5942366404567476
20
-9.5282317096543743
10
10.163665290379987
20
-8.5991138049442757
10
10.163665290379987
20
-9.5282317096543743
10
10.424653530424465
20
-9.5282317096543743
10
10.424653530424465
20
-8.1369273827235826
10
10.14278618938584
20
-8.1369273827235826
10
9.5818990136139508
20
-9.0442172788622663
10
9.5818990136139508
20
-8.1369273827235826
0
LWPOLYLINE
5
529
100
AcDbEntity
8
0
100
AcDbPolyline
90
10
70
1
43
0.0
10
11.196988552877714
20
-8.1369273827235826
10
11.196988552877714
20
-8.3903231867895727
10
11.92775552052578
20
-9.2928678920639456
10
11.279555788085851
20
-9.2928678920639456
10
11.279555788085851
20
-9.5282317096543743
10
12.297884325809715
20
-9.5282317096543743
10
12.297884325809715
20
-9.309950709771055
10
11.535798967861613
20
-8.37134229273674
10
12.327304900955212
20
-8.37134229273674
10
12.327304900955212
20
-8.1369273827235826
0
LWPOLYLINE
5
530
100
AcDbEntity
8
0
100
AcDbPolyline
90
12
70
1
43
0.0
10
12.532679007806731
20
-8.1369273827235826
10
12.532679007806731
20
-9.5282317096543743
10
13.564294341141846
20
-9.5282317096543743
10
13.564294341141846
20
-9.2928678920639456
10
12.813597441268088
20
-9.2928678920639456
10
12.813597441268088
20
-8.9844272209940002
10
13.512096327465292
20
-8.9844272209940002
10
13.512096327465292
20
-8.750012310980841
10
12.813597441268088
20
-8.750012310980841
10
12.813597441268088
20
-8.37134229273674
10
13.590867409981982
20
-8.37134229273674
10
13.590867409981982
20
-8.1369273827235826
0
LWPOLYLINE
5
531
100
AcDbEntity
8
0
100
AcDbPolyline
90
13
70
1
43
0.0
10
13.853183807205212
20
-8.1369273827235826
10
13.853183807205212
20
-9.5282317096543743
10
14.273612288628795
20
-9.5282317096543743
10
14.526058793330735
20
-8.5791837421229893
10
14.775658314109688
20
-9.5282317096543743
10
15.197035964301724
20
-9.5282317096543743
10
15.197035964301724
20
-8.1369273827235826
10
14.936047463066059
20
-8.1369273827235826
10
14.936047463066059
20
-9.2321287960228204
10
14.659874351064605
20
-8.1369273827235826
10
14.389395729291508
20
-8.1369273827235826
10
14.114171786058506
20
-9.2321287960228204
10
14.114171786058506
20
-8.1369273827235826
0
LWPOLYLINE
5
532
100
AcDbEntity
8
0
100
AcDbPolyline
90
7
70
1
43
0.0
10
15.503957547436244
20
-8.1369273827235826
10
15.503957547436244
20
-9.5282317096543743
10
15.784875980897603
20
-9.5282317096543743
10
15.784875980897603
20
-9.2928678920639456
10
15.784875980897603
20
-8.8980638330944153
10
15.784875980897603
20
-8.6617508467355329
10
15.784875980897603
20
-8.1369273827235826
0
SPLINE
5
533
100
AcDbEntity
8
0
100
AcDbSpline
70
0
71
2
72
6
73
3
74
0
42
0.000000001
43
0.0000000001
44
0.0000000001
40
0
40
0
40
0
40
1
40
1
40
1
10
15.954755772773778
20
-9.5282317096543743
30
0
10
16.210997907784797
20
-9.5282317096543743
30
0
10
16.288820343915404
20
-9.5073527392558201
30
0
0
SPLINE
5
534
100
AcDbEntity
8
0
100
AcDbSpline
70
0
71
2
72
6
73
3
74
0
42
0.000000001
43
0.0000000001
44
0.0000000001
40
0
40
0
40
0
40
1
40
1
40
1
10
16.288820343915404
20
-9.5073527392558201
30
0
10
16.408399937269564
20
-9.4760340877645977
30
0
10
16.489069357323164
20
-9.3711642596008158
30
0
0
SPLINE
5
535
100
AcDbEntity
8
0
100
AcDbSpline
70
0
71
2
72
6
73
3
74
0
42
0.000000001
43
0.0000000001
44
0.0000000001
40
0
40
0
40
0
40
1
40
1
40
1
10
16.489069357323164
20
-9.3711642596008158
30
0
10
16.569738777376763
20
-9.2662944314370339
30
0
10
16.569738777376763
20
-9.1002111840390842
30
0
0
SPLINE
5
536
100
AcDbEntity
8
0
100
AcDbSpline
70
0
71
2
72
6
73
3
74
0
42
0.000000001
43
0.0000000001
44
0.0000000001
40
0
40
0
40
0
40
1
40
1
40
1
10
16.569738777376763
20
-9.1002111840390842
30
0
10
16.569738777376763
20
-8.9720895941512033
30
0
10
16.523235253928565
20
-8.884777298674349
30
0
0
SPLINE
5
537
100
AcDbEntity
8
0
100
AcDbSpline
70
0
71
2
72
6
73
3
74
0
42
0.000000001
43
0.0000000001
44
0.0000000001
40
0
40
0
40
0
40
1
40
1
40
1
10
16.523235253928565
20
-8.884777298674349
30
0
10
16.476731730480367
20
-8.7974647420063086
30
0
10
16.405078630153529
20
-8.7476397808464821
30
0
0
SPLINE
5
538
100
AcDbEntity
8
0
100
AcDbSpline
70
0
71
2
72
6
73
3
74
0
42
0.000000001
43
0.0000000001
44
0.0000000001
40
0
40
0
40
0
40
1
40
1
40
1
10
16.405078630153529
20
-8.7476397808464821
30
0
10
16.333425529826695
20
-8.6978148196866574
30
0
10
16.259399768769907
20
-8.6816809095568193
30
0
0
SPLINE
5
539
100
AcDbEntity
8
0
100
AcDbSpline
70
0
71
2
72
6
73
3
74
0
42
0.000000001
43
0.0000000001
44
0.0000000001
40
0
40
0
40
0
40
1
40
1
40
1
10
16.259399768769907
20
-8.6816809095568193
30
0
10
16.158800416490614
20
-8.6617508467355329
30
0
10
15.96804204600266
20
-8.6617508467355329
30
0
0
LINE
5
540
100
AcDbEntity
8
0
100
AcDbLine
10
15.96804204600266
20
-8.6617508467355329
30
0
11
15.938621470857163
21
-8.6617508467355329
31
0
0
SPLINE
5
541
100
AcDbEntity
8
0
100
AcDbSpline
70
0
71
2
72
6
73
3
74
0
42
0.000000001
43
0.0000000001
44
0.0000000001
40
0
40
0
40
0
40
1
40
1
40
1
10
15.938621470857163
20
-8.8980638330944153
30
0
10
16.104704587659519
20
-8.8980638330944153
30
0
10
16.160698754027525
20
-8.9198919722614267
30
0
0
SPLINE
5
542
100
AcDbEntity
8
0
100
AcDbSpline
70
0
71
2
72
6
73
3
74
0
42
0.000000001
43
0.0000000001
44
0.0000000001
40
0
40
0
40
0
40
1
40
1
40
1
10
16.160698754027525
20
-8.9198919722614267
30
0
10
16.216692920395527
20
-8.9417201114284364
30
0
10
16.248486156270975
20
-8.9882233736854484
30
0
0
SPLINE
5
543
100
AcDbEntity
8
0
100
AcDbSpline
70
0
71
2
72
6
73
3
74
0
42
0.000000001
43
0.0000000001
44
0.0000000001
40
0
40
0
40
0
40
1
40
1
40
1
10
16.248486156270975
20
-8.9882233736854484
30
0
10
16.280278347381682
20
-9.0347267665380535
30
0
10
16.280278347381682
20
-9.096414900752043
30
0
0
SPLINE
5
544
100
AcDbEntity
8
0
100
AcDbSpline
70
0
71
2
72
6
73
3
74
0
42
0.000000001
43
0.0000000001
44
0.0000000001
40
0
40
0
40
0
40
1
40
1
40
1
10
16.280278347381682
20
-9.096414900752043
30
0
10
16.280278347381682
20
-9.1723387381545525
30
0
10
16.235673161470395
20
-9.2216892455257451
30
0
0
SPLINE
5
545
100
AcDbEntity
8
0
100
AcDbSpline
70
0
71
2
72
6
73
3
74
0
42
0.000000001
43
0.0000000001
44
0.0000000001
40
0
40
0
40
0
40
1
40
1
40
1
10
16.235673161470395
20
-9.2216892455257451
30
0
10
16.191067975559108
20
-9.2710397528969377
30
0
10
16.122737227113046
20
-9.2833773797397328
30
0
0
LWPOLYLINE
5
546
100
AcDbEntity
8
0
100
AcDbPolyline
90
8
70
1
43
0.0
10
17.141445536820768
20
-8.1369273827235826
10
17.141445536820768
20
-9.2928678920639456
10
16.728609883162452
20
-9.2928678920639456
10
16.728609883162452
20
-9.5282317096543743
10
17.834250977554355
20
-9.5282317096543743
10
17.834250977554355
20
-9.2928678920639456
10
17.422363970282124
20
-9.2928678920639456
10
17.422363970282124
20
-8.1369273827235826
0
LWPOLYLINE
5
547
100
AcDbEntity
8
0
100
AcDbPolyline
90
12
70
1
43
0.0
10
18.04342123709732
20
-8.1369273827235826
10
18.04342123709732
20
-9.5282317096543743
10
19.075036570432435
20
-9.5282317096543743
10
19.075036570432435
20
-9.2928678920639456
10
18.324339670558675
20
-9.2928678920639456
10
18.324339670558675
20
-8.9844272209940002
10
19.022839079138251
20
-8.9844272209940002
10
19.022839079138251
20
-8.750012310980841
10
18.324339670558675
20
-8.750012310980841
10
18.324339670558675
20
-8.37134229273674
10
19.101610161654943
20
-8.37134229273674
10
19.101610161654943
20
-8.1369273827235826
0
LWPOLYLINE
5
548
100
AcDbEntity
8
0
100
AcDbPolyline
90
7
70
1
43
0.0
10
19.368672925102818
20
-8.1369273827235826
10
19.368672925102818
20
-9.5282317096543743
10
19.649591358564177
20
-9.5282317096543743
10
19.649591358564177
20
-9.2928678920639456
10
19.649591358564177
20
-8.9398220350827113
10
19.649591358564177
20
-8.717744751912349
10
19.649591358564177
20
-8.1369273827235826
0
SPLINE
5
549
100
AcDbEntity
8
0
100
AcDbSpline
70
0
71
2
72
6
73
3
74
0
42
0.000000001
43
0.0000000001
44
0.0000000001
40
0
40
0
40
0
40
1
40
1
40
1
10
19.959929322406289
20
-9.5282317096543743
30
0
10
20.182956296727475
20
-9.5282317096543743
30
0
10
20.284029972199811
20
-9.4907443753373464
30
0
0
SPLINE
5
550
100
AcDbEntity
8
0
100
AcDbSpline
70
0
71
2
72
6
73
3
74
0
42
0.000000001
43
0.0000000001
44
0.0000000001
40
0
40
0
40
0
40
1
40
1
40
1
10
20.284029972199811
20
-9.4907443753373464
30
0
10
20.385103647672146
20
-9.4532569104247273
30
0
10
20.445842090735304
20
-9.3574031407965226
30
0
0
SPLINE
5
551
100
AcDbEntity
8
0
100
AcDbSpline
70
0
71
2
72
6
73
3
74
0
42
0.000000001
43
0.0000000001
44
0.0000000001
40
0
40
0
40
0
40
1
40
1
40
1
10
20.445842090735304
20
-9.3574031407965226
30
0
10
20.506581578563214
20
-9.2615492405727249
30
0
10
20.506581578563214
20
-9.1381729721447478
30
0
0
SPLINE
5
552
100
AcDbEntity
8
0
100
AcDbSpline
70
0
71
2
72
6
73
3
74
0
42
0.000000001
43
0.0000000001
44
0.0000000001
40
0
40
0
40
0
40
1
40
1
40
1
10
20.506581578563214
20
-9.1381729721447478
30
0
10
20.506581578563214
20
-8.9815801064754162
30
0
10
20.41452422281764
20
-8.8795573928302201
30
0
0
SPLINE
5
553
100
AcDbEntity
8
0
100
AcDbSpline
70
0
71
2
72
6
73
3
74
0
42
0.000000001
43
0.0000000001
44
0.0000000001
40
0
40
0
40
0
40
1
40
1
40
1
10
20.41452422281764
20
-8.8795573928302201
30
0
10
20.322465822307329
20
-8.777534809780617
30
0
10
20.13929975720227
20
-8.7509614797492965
30
0
0
SPLINE
5
554
100
AcDbEntity
8
0
100
AcDbSpline
70
0
71
2
72
6
73
3
74
0
42
0.000000001
43
0.0000000001
44
0.0000000001
40
0
40
0
40
0
40
1
40
1
40
1
10
20.13929975720227
20
-8.7509614797492965
30
0
10
20.230408466561759
20
-8.6978148196866574
30
0
10
20.289723940045796
20
-8.6342286091269447
30
0
0
SPLINE
5
555
100
AcDbEntity
8
0
100
AcDbSpline
70
0
71
2
72
6
73
3
74
0
42
0.000000001
43
0.0000000001
44
0.0000000001
40
0
40
0
40
0
40
1
40
1
40
1
10
20.289723940045796
20
-8.6342286091269447
30
0
10
20.349039413529834
20
-8.570642267971639
30
0
10
20.449638765809123
20
-8.4083551732651358
30
0
0
LINE
5
556
100
AcDbEntity
8
0
100
AcDbLine
10
20.449638765809123
20
-8.4083551732651358
30
0
11
20.619518557685304
21
-8.1369273827235826
31
0
0
LINE
5
557
100
AcDbEntity
8
0
100
AcDbLine
10
20.619518557685304
20
-8.1369273827235826
30
0
11
20.283555649006768
21
-8.1369273827235826
31
0
0
LINE
5
558
100
AcDbEntity
8
0
100
AcDbLine
10
20.283555649006768
20
-8.1369273827235826
30
0
11
20.080458606911275
21
-8.4396736941607653
31
0
0
SPLINE
5
559
100
AcDbEntity
8
0
100
AcDbSpline
70
0
71
2
72
6
73
3
74
0
42
0.000000001
43
0.0000000001
44
0.0000000001
40
0
40
0
40
0
40
1
40
1
40
1
10
20.080458606911275
20
-8.4396736941607653
30
0
10
19.972267994013826
20
-8.6019609194628597
30
0
10
19.932407084797703
20
-8.6441935752397914
30
0
0
SPLINE
5
560
100
AcDbEntity
8
0
100
AcDbSpline
70
0
71
2
72
6
73
3
74
0
42
0.000000001
43
0.0000000001
44
0.0000000001
40
0
40
0
40
0
40
1
40
1
40
1
10
19.932407084797703
20
-8.6441935752397914
30
0
10
19.892547220346312
20
-8.6864261004211283
30
0
10
19.847942034435025
20
-8.7020855567623308
30
0
0
LINE
5
561
100
AcDbEntity
8
0
100
AcDbLine
10
19.810019280638496
20
-8.9398220350827113
30
0
11
19.857432677354829
21
-8.9398220350827113
31
0
0
SPLINE
5
562
100
AcDbEntity
8
0
100
AcDbSpline
70
0
71
2
72
6
73
3
74
0
42
0.000000001
43
0.0000000001
44
0.0000000001
40
0
40
0
40
0
40
1
40
1
40
1
10
19.857432677354829
20
-8.9398220350827113
30
0
10
20.059580028299496
20
-8.9398220350827113
30
0
10
20.109879182056773
20
-8.956904852789819
30
0
0
SPLINE
5
563
100
AcDbEntity
8
0
100
AcDbSpline
70
0
71
2
72
6
73
3
74
0
42
0.000000001
43
0.0000000001
44
0.0000000001
40
0
40
0
40
0
40
1
40
1
40
1
10
20.109879182056773
20
-8.956904852789819
30
0
10
20.160179380578789
20
-8.9739876704969284
30
0
10
20.188650264573461
20
-9.0157458724852209
30
0
0
SPLINE
5
564
100
AcDbEntity
8
0
100
AcDbSpline
70
0
71
2
72
6
73
3
74
0
42
0.000000001
43
0.0000000001
44
0.0000000001
40
0
40
0
40
0
40
1
40
1
40
1
10
20.188650264573461
20
-9.0157458724852209
30
0
10
20.217122193332877
20
-9.0575039438779257
30
0
10
20.217122193332877
20
-9.1201411162647759
30
0
0
SPLINE
5
565
100
AcDbEntity
8
0
100
AcDbSpline
70
0
71
2
72
6
73
3
74
0
42
0.000000001
43
0.0000000001
44
0.0000000001
40
0
40
0
40
0
40
1
40
1
40
1
10
20.217122193332877
20
-9.1201411162647759
30
0
10
20.217122193332877
20
-9.1903707246301156
30
0
10
20.17963498961144
20
-9.2335522879843168
30
0
0
SPLINE
5
566
100
AcDbEntity
8
0
100
AcDbSpline
70
0
71
2
72
6
73
3
74
0
42
0.000000001
43
0.0000000001
44
0.0000000001
40
0
40
0
40
0
40
1
40
1
40
1
10
20.17963498961144
20
-9.2335522879843168
30
0
10
20.142146741125263
20
-9.2767339819341075
30
0
10
20.073815992679204
20
-9.2881225706040453
30
0
0
SPLINE
5
567
100
AcDbEntity
8
0
100
AcDbSpline
70
0
71
2
72
6
73
3
74
0
42
0.000000001
43
0.0000000001
44
0.0000000001
40
0
40
0
40
0
40
1
40
1
40
1
10
20.073815992679204
20
-9.2881225706040453
30
0
10
20.039650096073807
20
-9.2928678920639456
30
0
10
19.868821657811544
20
-9.2928678920639456
30
0
0
LINE
5
568
100
AcDbEntity
8
0
100
AcDbLine
10
19.868821657811544
20
-9.2928678920639456
30
0
11
19.817708867212001
21
-9.2928678920639456
31
0
0
LINE
5
569
100
AcDbEntity
8
0
100
AcDbLine
10
6.8887717837667006
20
-8.37134229273674
30
0
11
6.8887717837667006
21
-8.1369273827235826
31
0
0
LINE
5
570
100
AcDbEntity
8
0
100
AcDbLine
10
6.9826462455515559
20
-8.1369273827235826
30
0
11
6.8887717837667006
21
-8.1369273827235826
31
0
0
LINE
5
571
100
AcDbEntity
8
0
100
AcDbLine
10
6.8897386003666874
20
-9.5282317096543743
30
0
11
6.9674615041901724
21
-9.5282317096543743
31
0
0
LINE
5
572
100
AcDbEntity
8
0
100
AcDbLine
10
6.8897386003666874
20
-9.5282317096543743
30
0
11
6.8897386003666874
21
-9.2927706083307964
31
0
0
SPLINE
5
573
100
AcDbEntity
8
0
100
AcDbSpline
70
0
71
2
72
6
73
3
74
0
42
0.000000001
43
0.0000000001
44
0.0000000001
40
0
40
0
40
0
40
0.91443185423640805
40
0.91443185423640805
40
0.91443185423640805
10
7.0917867454932164
20
-9.279581227048288
30
0
10
7.0379807024583743
20
-9.2917309767751739
30
0
10
6.8897386003666874
20
-9.2927706083307964
30
0
0
LINE
5
574
100
AcDbEntity
8
0
100
AcDbLine
10
15.938621470857163
20
-8.8980638330944153
30
0
11
15.938621470857163
21
-8.6617508467355329
31
0
0
LINE
5
575
100
AcDbEntity
8
0
100
AcDbLine
10
15.938621470798328
20
-9.292833036972576
30
0
11
15.938621470857163
21
-9.5282317096543743
31
0
0
LINE
5
576
100
AcDbEntity
8
0
100
AcDbLine
10
15.938621470857163
20
-9.5282317096543743
30
0
11
15.954755772773778
21
-9.5282317096543743
31
0
0
SPLINE
5
577
100
AcDbEntity
8
0
100
AcDbSpline
70
0
71
2
72
6
73
3
74
0
42
0.000000001
43
0.0000000001
44
0.0000000001
40
0
40
0
40
0
40
0.93939781483442575
40
0.93939781483442575
40
0.93939781483442575
10
16.122737227113046
20
-9.2833773797397328
30
0
10
16.075485330535724
20
-9.2922927462787577
30
0
10
15.938621470798328
20
-9.292833036972576
30
0
0
CIRCLE
5
578
100
AcDbEntity
8
0
100
AcDbCircle
10
21.264954307463771
20
-8.8025704070300073
30
0
40
0.093913043478261043
210
0
220
0
230
1
0
CIRCLE
5
579
100
AcDbEntity
8
0
100
AcDbCircle
10
5.8161674867651554
20
-8.8073984866372541
30
0
40
0.093913043478260808
210
0
220
0
230
1
0
CIRCLE
5
580
100
AcDbEntity
8
0
100
AcDbCircle
10
13.569134595634582
20
-16.544125775348586
30
0
40
0.093913043478260891
210
0
220
0
230
1
0
CIRCLE
5
581
100
AcDbEntity
8
0
100
AcDbCircle
10
13.552353066582148
20
-1.0841398462157403
30
0
40
0.093913043478260266
210
0
220
0
230
1
0
LINE
5
582
100
AcDbEntity
8
0
100
AcDbLine
10
19.810019280638496
20
-8.9398220350827113
30
0
11
19.810019280635828
21
-8.7111779645659748
31
0
0
LINE
5
583
100
AcDbEntity
8
0
100
AcDbLine
10
19.817708867212001
20
-9.2928678920639456
30
0
11
19.817708867212001
21
-9.5282317096543743
31
0
0
LINE
5
584
100
AcDbEntity
8
0
100
AcDbLine
10
19.817708867212001
20
-9.5282317096543743
30
0
11
19.959929322406289
21
-9.5282317096543743
31
0
0
SPLINE
5
585
100
AcDbEntity
8
0
100
AcDbSpline
70
0
71
2
72
6
73
3
74
0
42
0.000000001
43
0.0000000001
44
0.0000000001
40
0
40
0
40
0
40
0.35242248916562091
40
0.35242248916562091
40
0.35242248916562091
10
19.847942034435025
20
-8.7020855567623308
30
0
10
19.832222163786476
20
-8.7076042092954307
30
0
10
19.810019280635828
20
-8.7111779645659748
30
0
0
ENDSEC
0
SECTION
2
OBJECTS
0
DICTIONARY
5
C
100
AcDbDictionary
3
ACAD_GROUP
350
D
3
ACAD_MLINESTYLE
350
17
0
DICTIONARY
5
D
100
AcDbDictionary
0
DICTIONARY
5
1A
330
C
100
AcDbDictionary
0
DICTIONARY
5
17
100
AcDbDictionary
0
ENDSEC
0
EOF
