0
SECTION
2
HEADER
9
$INSUNITS
70
1
9
$ACADVER
1
AC1014
9
$HANDSEED
5
FFFF
0
ENDSEC
0
SECTION
2
TABLES
0
TABLE
2
VPORT
5
8
100
AcDbSymbolTable
0
ENDTAB
0
TABLE
2
LTYPE
5
5
100
AcDbSymbolTable
0
LTYPE
5
14
100
AcDbSymbolTableRecord
100
AcDbLinetypeTableRecord
2
BYBLOCK
70
0
0
LTYPE
5
15
100
AcDbSymbolTableRecord
100
AcDbLinetypeTableRecord
2
BYLAYER
70
0
0
ENDTAB
0
TABLE
2
LAYER
5
2
100
AcDbSymbolTable
70
2
0
LAYER
5
50
100
AcDbSymbolTableRecord
100
AcDbLayerTableRecord
2
0
70
0
6
CONTINUOUS
0
ENDTAB
0
TABLE
2
STYLE
5
3
100
AcDbSymbolTable
70
1
0
STYLE
5
11
100
AcDbSymbolTableRecord
100
AcDbTextStyleTableRecord
2
STANDARD
70
0
0
ENDTAB
0
TABLE
2
VIEW
5
6
100
AcDbSymbolTable
70
0
0
ENDTAB
0
TABLE
2
UCS
5
7
100
AcDbSymbolTable
70
0
0
ENDTAB
0
TABLE
2
APPID
5
9
100
AcDbSymbolTable
70
2
0
APPID
5
12
100
AcDbSymbolTableRecord
100
AcDbRegAppTableRecord
2
ACAD
70
0
0
ENDTAB
0
TABLE
2
DIMSTYLE
5
A
100
AcDbSymbolTable
70
1
0
ENDTAB
0
TABLE
2
BLOCK_RECORD
5
1
100
AcDbSymbolTable
70
1
0
BLOCK_RECORD
5
1F
100
AcDbSymbolTableRecord
100
AcDbBlockTableRecord
2
*MODEL_SPACE
0
BLOCK_RECORD
5
1B
100
AcDbSymbolTableRecord
100
AcDbBlockTableRecord
2
*PAPER_SPACE
0
ENDTAB
0
ENDSEC
0
SECTION
2
BLOCKS
0
BLOCK
5
20
100
AcDbEntity
100
AcDbBlockBegin
2
*MODEL_SPACE
0
ENDBLK
5
21
100
AcDbEntity
100
AcDbBlockEnd
0
BLOCK
5
1C
100
AcDbEntity
100
AcDbBlockBegin
2
*PAPER_SPACE
0
ENDBLK
5
1D
100
AcDbEntity
100
AcDbBlockEnd
0
ENDSEC
0
SECTION
2
ENTITIES
0
LWPOLYLINE
5
100
100
AcDbEntity
8
0
100
AcDbPolyline
90
4
70
1
43
0.0
10
14.42230173957136
20
4.2840306949633495
10
20.384486409122438
20
4.2840297114591106
42
-0.99999999999999989
10
20.38448639262673
20
4.1840297114590417
10
14.422301723075657
20
4.1840306949633979
42
-0.99999999999999989
0
LWPOLYLINE
5
101
100
AcDbEntity
8
0
100
AcDbPolyline
90
4
70
1
43
0.0
10
6.7601170617723403
20
4.1840297032112241
10
0.80024603792587712
20
4.1840297032112241
42
-0.99999999999999989
10
0.80024603792587812
20
4.2840297032112247
10
6.760117061772343
20
4.2840297032112247
42
-0.99999999999999989
0
LWPOLYLINE
5
102
100
AcDbEntity
8
0
100
AcDbPolyline
90
4
70
1
43
0.0
10
13.572301731323511
20
6.4667717032112266
10
7.6101170617723817
20
6.4667717032112266
42
-0.99999999999999989
10
7.610117061772379
20
6.5667717032112263
10
13.572301731323506
20
6.5667717032112263
42
-0.99999999999999989
0
LWPOLYLINE
5
103
100
AcDbEntity
8
0
100
AcDbPolyline
90
4
70
1
43
0.0
10
21.234486400874594
20
6.5667717032112263
10
27.194357424721058
20
6.5667717032112227
42
-0.99999999999999989
10
27.194357424721058
20
6.4667717032112266
10
21.234486400874598
20
6.4667717032112266
42
-0.99999999999999989
0
LWPOLYLINE
5
104
100
AcDbEntity
8
0
100
AcDbPolyline
90
4
70
1
43
0.0
10
14.422301731323424
20
6.5667717032112263
10
20.38448640087455
20
6.5667717032112263
42
-0.99999999999999989
10
20.384486400874557
20
6.4667717032112266
10
14.422301731323429
20
6.4667717032112266
42
-0.99999999999999989
0
LWPOLYLINE
5
105
100
AcDbEntity
8
0
100
AcDbPolyline
90
4
70
1
43
0.0
10
6.7601170617723421
20
6.4667717032112266
10
0.80024603792587778
20
6.4667717032112266
42
-0.99999999999999989
10
0.80024603792587601
20
6.5667717032112263
10
6.7601170617723421
20
6.5667717032112263
42
-0.99999999999999989
0
LWPOLYLINE
5
106
100
AcDbEntity
8
0
100
AcDbPolyline
90
4
70
1
43
0.0
10
13.572301739571278
20
4.1840306949633508
10
7.6101170700202037
20
4.1840297114590888
42
-0.99999999999999989
10
7.6101170535245011
20
4.2840297114590635
10
13.572301723075576
20
4.2840306949633966
42
-0.99999999999999989
0
LWPOLYLINE
5
107
100
AcDbEntity
8
0
100
AcDbPolyline
90
4
70
1
43
0.0
10
27.194357424721058
20
4.1840297032112241
10
21.234486400874594
20
4.1840297032112241
42
-0.99999999999999989
10
21.234486400874594
20
4.2840297032112247
10
27.194357424721048
20
4.2840297032112247
42
-0.99999999999999989
0
LWPOLYLINE
5
108
100
AcDbEntity
8
0
100
AcDbPolyline
90
10
70
1
43
0.0
10
18.325547871637198
20
7.8489127946721764
42
0.40301615711104438
10
18.451806685948466
20
7.9768366422557841
10
18.451806685948469
20
8.3199823927633947
42
0.40301615711102001
10
18.325547871637198
20
8.4479062403470042
42
0.40695474218639477
10
18.194614810238217
20
8.3266042308161818
42
0.0063269320379603835
10
18.194531128321305
20
8.3243992967547626
42
0.0031600375847450424
10
18.194447373067746
20
8.3199823927634018
10
18.194447373067746
20
7.9768366422557904
42
0.0031600375848109194
10
18.194531128321305
20
7.9724197382644268
42
0.0063269320377113874
10
18.194614810238217
20
7.9702148042030014
42
0.40695474218640443
0
LWPOLYLINE
5
109
100
AcDbEntity
8
0
100
AcDbPolyline
90
15
70
1
43
0.0
10
3.7755597032112247
20
3.5212837032112256
42
0.14009893945944646
10
3.7203023026136375
20
3.5034424315070405
42
0.19848430520042543
10
3.6783943848352241
20
3.4406109109952241
42
0.012680794960708907
10
3.6764344044735808
20
3.429260287845417
42
0.018205713594017514
10
3.6755597032112237
20
3.4212837032112229
10
3.6755597032112242
20
1.4062727032112246
42
0.17553482210786325
10
3.7023761287746608
20
1.3393788875572818
42
0.35252336112035471
10
3.8245636269536716
20
1.3191384467796978
42
0.031939848590784171
10
3.8340188716561712
20
1.3253000351037876
42
0.024450100727371027
10
3.8453817032112223
20
1.3346837032112242
10
5.9113767032112259
20
3.3496947032112256
42
0.15913183362604835
10
5.9400239679937759
20
3.4090530391079414
42
0.31804897839402296
10
5.8870638787292879
20
3.5103250114872164
42
0.059267033727516627
10
5.8664392977252335
20
3.5179635787125259
42
0.051879184694693506
10
5.8415547032112247
20
3.5212837032112256
0
LWPOLYLINE
5
110
100
AcDbEntity
8
0
100
AcDbPolyline
90
10
70
1
43
0.0
10
5.6834045751068976
20
7.9875653462964049
42
0.0031600375860450234
10
5.6834883303604586
20
7.9831484423050814
42
0.006326932035731485
10
5.6835720122773674
20
7.9809435082436293
42
0.40695474218652627
10
5.814505073676334
20
7.8596414987127678
42
0.40301615711114158
10
5.9407638879876092
20
7.9875653462964102
10
5.9407638879876137
20
8.3307110968040199
42
0.4030161571111372
10
5.8145050736763366
20
8.4586349443876667
42
0.40695474218652783
10
5.6835720122773674
20
8.3373329348568106
42
0.0063269320357150311
10
5.6834883303604622
20
8.3351280007953594
42
0.0031600375853511149
10
5.6834045751069002
20
8.3307110968040252
0
LWPOLYLINE
5
111
100
AcDbEntity
8
0
100
AcDbPolyline
90
10
70
1
43
0.0
10
17.612251791811659
20
8.5525778226295639
42
0.40695474218638827
10
17.743184853210629
20
8.4312758130987415
42
0.40301615711110539
10
17.869443667521899
20
8.5591996606823351
10
17.869443667521903
20
8.9023454111899554
42
0.40301615711103828
10
17.743184853210639
20
9.0302692587735649
42
0.40695474218643563
10
17.612251791811659
20
8.9089672492427461
42
0.0063269320364258219
10
17.612168109894746
20
8.9067623151813127
42
0.0031600375849426742
10
17.612084354641187
20
8.9023454111899607
10
17.612084354641187
20
8.5591996606823422
42
0.0031600375849119319
10
17.612168109894746
20
8.554782756690992
42
0.0063269320364203376
0
LWPOLYLINE
5
112
100
AcDbEntity
8
0
100
AcDbPolyline
90
4
70
1
43
0.0
10
12.87709564551905
20
5.2783248398891356
42
0.83719288898866773
10
12.950649501807446
20
5.4602234095383517
42
0.088617320471360492
10
12.918041463038396
20
5.4734090382219192
42
0.08892371485709373
10
12.883003581976418
20
5.474464417140422
42
0.83667595141183426
0
LWPOLYLINE
5
113
100
AcDbEntity
8
0
100
AcDbPolyline
90
10
70
1
43
0.0
10
17.160807592887625
20
9.0136530734217537
42
0.40301615711113331
10
17.287066407198875
20
9.1415769210053721
10
17.287066407198886
20
9.4847226715129924
42
0.40301615711107208
10
17.160807592887618
20
9.6126465190966019
42
0.40695474218642008
10
17.029874531488638
20
9.4913445095657796
42
0.0063269320365574493
10
17.029790849571725
20
9.4891395755043586
42
0.0031600375848021361
10
17.029707094318169
20
9.484722671512996
10
17.029707094318169
20
9.1415769210053632
42
0.0031600375849119319
10
17.029790849571725
20
9.1371600170140113
42
0.0063269320364192404
10
17.029874531488634
20
9.134955082952585
42
0.40695474218639233
0
LWPOLYLINE
5
114
100
AcDbEntity
8
0
100
AcDbPolyline
90
10
70
1
43
0.0
10
17.866361140081125
20
1.8161684251459558
42
0.0063269320353585394
10
17.866444821998027
20
1.8183733592073039
42
0.003160037586769675
10
17.866528577251582
20
1.8227902631987372
10
17.866528577251582
20
2.1659360137063577
42
0.0031600375842333944
10
17.866444821998027
20
2.1703529176977905
42
0.0063269320353760896
10
17.866361140081125
20
2.1725578517591386
42
0.40695474218664218
10
17.735428078682176
20
2.2938598612900245
42
0.40301615711114636
10
17.609169264370877
20
2.1659360137063488
10
17.609169264370877
20
1.8227902631987287
42
0.40301615711116895
10
17.735428078682176
20
1.6948664156150606
42
0.40695474218661343
0
LWPOLYLINE
5
115
100
AcDbEntity
8
0
100
AcDbPolyline
90
10
70
1
43
0.0
10
5.3587862321396527
20
2.1346941535355191
42
0.0031600375853247636
10
5.3587024768860907
20
2.1391110575268497
42
0.0063269320358016867
10
5.3586187949691846
20
2.1413159915882995
42
0.40695474218652644
10
5.2276857335702127
20
2.2626180011191614
42
0.40301615711113215
10
5.1014269192589339
20
2.1346941535355093
10
5.1014269192589392
20
1.7915484030278899
42
0.40301615711114536
10
5.2276857335702163
20
1.6636245554442504
42
0.406954742186521
10
5.3586187949691828
20
1.7849265649751165
42
0.006326932036043004
10
5.358702476886088
20
1.7871314990365659
42
0.0031600375855355715
10
5.3587862321396509
20
1.791548403027899
0
LWPOLYLINE
5
116
100
AcDbEntity
8
0
100
AcDbPolyline
90
4
70
1
43
0.0
10
24.64032056323088
20
5.4743367198035946
42
0.075909895369853445
10
24.610346890799242
20
5.4744644171960344
42
0.85889172374648171
10
24.609508471494618
20
5.2776670894140176
42
0.85922494826066886
10
24.668965582476805
20
5.4652576371473964
42
0.075717062570054727
0
LWPOLYLINE
5
117
100
AcDbEntity
8
0
100
AcDbPolyline
90
10
70
1
43
0.0
10
4.5190639008323812
20
1.2091853846013372
10
4.5190639008323776
20
1.5523311351089473
42
-0.40301615711113647
10
4.6453227151436529
20
1.6802549826925968
42
-0.40695474218651961
10
4.7762557765426212
20
1.5589529731617382
42
-0.0063269320359859715
10
4.7763394584595282
20
1.5567480391002895
42
-0.0031600375855466017
10
4.7764232137130884
20
1.5523311351089566
10
4.7764232137130911
20
1.209185384601339
42
-0.0031600375856651749
10
4.77633945845953
20
1.2047684806100076
42
-0.0063269320357182855
10
4.776255776542623
20
1.2025635465485576
42
-0.40695474218651256
10
4.6453227151436565
20
1.081261537017695
42
-0.40301615711114619
0
LWPOLYLINE
5
118
100
AcDbEntity
8
0
100
AcDbPolyline
90
4
70
1
43
0.0
10
0.86227973210006448
20
5.4746521805750641
42
0.87155779767883745
10
0.86156739195895138
20
5.2774140746395783
42
0.87179948820933439
10
0.91558453951761054
20
5.4671048267740661
42
0.068490515462890728
10
0.88942494805899452
20
5.4745541436015523
42
0.068628498933026402
0
LWPOLYLINE
5
119
100
AcDbEntity
8
0
100
AcDbPolyline
90
10
70
1
43
0.0
10
5.9410797372091082
20
2.7214883178498681
42
0.0063269320360100972
10
5.9409960552922012
20
2.7236932519113179
42
0.40695474218652633
10
5.8100629938932338
20
2.8449952614421781
42
0.40301615711113103
10
5.6838041795819576
20
2.7170714138585308
10
5.6838041795819629
20
2.3739256633509216
42
0.40301615711113842
10
5.8100629938932364
20
2.2460018157672788
42
0.40695474218651506
10
5.9409960552922012
20
2.3673038252981358
42
0.0063269320360605542
10
5.9410797372091082
20
2.3695087593595856
42
0.0031600375856783059
10
5.9411634924626684
20
2.373925663350918
10
5.9411634924626693
20
2.7170714138585379
42
0.0031600375853598982
0
LWPOLYLINE
5
120
100
AcDbEntity
8
0
100
AcDbPolyline
90
10
70
1
43
0.0
10
5.1012089938508058
20
8.9196959532833713
42
0.0063269320353969314
10
5.1011253119338997
20
8.9174910192219272
42
0.0031600375855070245
10
5.1010415566803387
20
8.9130741152305912
10
5.1010415566803387
20
8.5699283647229727
42
0.0031600375853489187
10
5.1011253119338997
20
8.5655114607316225
42
0.0063269320361559848
10
5.1012089938508067
20
8.5633065266701927
42
0.40695474218649652
10
5.2321420552497742
20
8.4420045171393241
42
0.4030161571111599
10
5.3584008695610494
20
8.569928364722962
10
5.3584008695610565
20
8.9130741152305824
42
0.4030161571110974
10
5.2321420552497742
20
9.0409979628142256
42
0.40695474218649619
0
LWPOLYLINE
5
121
100
AcDbEntity
8
0
100
AcDbPolyline
90
10
70
1
43
0.0
10
18.448738400404149
20
2.3985456854689744
42
0.0063269320362963882
10
18.448822082321058
20
2.4007506195304464
42
0.0031600375868113973
10
18.448905837574614
20
2.4051675235217567
10
18.448905837574614
20
2.7483132740293761
42
0.0031600375842707248
10
18.448822082321058
20
2.7527301780206845
42
0.006326932038825837
10
18.448738400404149
20
2.7549351120821575
42
0.40695474218664723
10
18.317805339005169
20
2.8762371216130744
42
0.40301615711126959
10
18.191546524693909
20
2.7483132740293703
10
18.191546524693909
20
2.4051675235217602
42
0.40301615711104788
10
18.317805339005226
20
2.2772436759381058
42
0.40695474218665439
0
LWPOLYLINE
5
122
100
AcDbEntity
8
0
100
AcDbPolyline
90
10
70
1
43
0.0
10
4.5187480516108813
20
9.1478887210546613
42
0.0063269320357632955
10
4.5188317335277874
20
9.1456837869932137
42
0.40695474218652955
10
4.6497647949267575
20
9.0243817774623523
42
0.40301615711115552
10
4.7760236092380257
20
9.1523056250460026
10
4.7760236092380293
20
9.4954513755536194
42
0.40301615711114319
10
4.6497647949267575
20
9.6233752231372662
42
0.40695474218652794
10
4.5188317335277874
20
9.5020732136064066
42
0.0063269320357786513
10
4.5187480516108813
20
9.4998682795449572
42
0.0031600375853642901
10
4.5186642963573211
20
9.4954513755536247
10
4.5186642963573203
20
9.1523056250459902
42
0.0031600375860098887
0
LWPOLYLINE
5
123
100
AcDbEntity
8
0
100
AcDbPolyline
90
15
70
1
43
0.0
10
16.193400877710694
20
7.2742463674480868
42
0.19848430520040505
10
16.256232495427216
20
7.2323383848352254
42
0.012680794960703432
10
16.267583118577029
20
7.2303784044735826
42
0.018205713593902259
10
16.275559703211218
20
7.2295037032112264
10
18.341554703211216
20
7.2295037032112264
42
0.18107679390214559
10
18.409925468161326
20
7.2577333116171205
42
0.3633344164303261
10
18.425611696516238
20
7.3836400941894427
42
0.027799680760680508
10
18.419877894488639
20
7.3915265593225374
42
0.021174847889478703
10
18.411376703211229
20
7.4010917032112262
10
16.345381703211213
20
9.416102703211223
42
0.143175091696982
10
16.291471650394474
20
9.4425986031867595
42
0.28696465521419273
10
16.194589391113627
20
9.4031686125165947
42
0.078068933949917083
10
16.181372884814536
20
9.3771209268652189
42
0.068755448192683408
10
16.175559703211228
20
9.3445147032112246
10
16.175559703211228
20
7.3295037032112234
42
0.14009957671814607
0
LWPOLYLINE
5
124
100
AcDbEntity
8
0
100
AcDbPolyline
90
17
70
1
43
0.0
10
16.176167411585077
20
3.4315708071893742
42
0.0098346837675472882
10
16.175559703211228
20
3.4212837032112229
10
16.175559703211228
20
1.4062727032112248
42
0.17553482210784693
10
16.202376128774659
20
1.3393788875572763
42
0.35252336112044647
10
16.324563626953669
20
1.319138446779698
42
0.031939848590870339
10
16.33401887165617
20
1.3253000351037862
42
0.024450100727389231
10
16.345381703211213
20
1.3346837032112242
10
18.411376703211229
20
3.3496947032112234
42
0.021153304067046578
10
18.42356186310575
20
3.3650438387635826
42
0.029369435943064275
10
18.43118170321122
20
3.3769327032112235
42
0.12604613008335336
10
18.442290631170199
20
3.4186124199643038
42
0.21200328395653492
10
18.409354384757471
20
3.494784737534816
42
0.093338390904838461
10
18.379234138858518
20
3.5136151234895978
42
0.086115587785373732
10
18.341554703211216
20
3.5212837032112256
10
16.275559703211218
20
3.5212837032112256
42
0.17011625037257871
10
16.209735058920934
20
3.4956823221924327
42
0.17839825683607446
10
16.176777573653009
20
3.4367315285585915
42
0.019507805082346334
0
LWPOLYLINE
5
125
100
AcDbEntity
8
0
100
AcDbPolyline
90
15
70
1
43
0.0
10
5.8415547032112256
20
7.2295037032112264
42
0.18107679390210027
10
5.9099254681613447
20
7.2577333116171223
42
0.36333441643041936
10
5.9256116965162393
20
7.3836400941894427
42
0.027799680760662481
10
5.9198778944886454
20
7.3915265593225259
42
0.021174847889394336
10
5.9113767032112259
20
7.4010917032112262
10
3.8453817032112236
20
9.416102703211223
42
0.14104896514469595
10
3.7923219124889078
20
9.4424558576214821
42
0.28254925135374104
10
3.6960469355414154
20
9.4051130094586135
42
0.081183506567144542
10
3.6835155220068794
20
9.3815071792782057
42
0.05715193725605143
10
3.6755597032112237
20
9.3445147032112246
10
3.6755597032112242
20
7.3295037032112234
42
0.17011652358779616
10
3.7011610466432527
20
7.2636787719280385
42
0.17839991751528195
10
3.7601116853008394
20
7.2307215111143552
42
0.019507805083028178
10
3.7652722538835834
20
7.2301113932741039
42
0.0098340587093922859
10
3.7755597032112256
20
7.2295037032112264
0
LWPOLYLINE
5
126
100
AcDbEntity
8
0
100
AcDbPolyline
90
10
70
1
43
0.0
10
17.026806245944318
20
1.2404272447721767
10
17.026806245944321
20
1.5835729952797852
42
-0.4030161571110652
10
17.153065060255585
20
1.7114968428633917
42
-0.40695474218642896
10
17.283998121654555
20
1.5901948333325773
42
-0.0063269320364104263
10
17.284081803571468
20
1.5879898992710901
42
-0.0031600375848548148
10
17.284165558825023
20
1.5835729952797959
10
17.284165558825038
20
1.2404272447721829
42
-0.0031600375849075509
10
17.284081803571478
20
1.2360103407808396
42
-0.0063269320363764526
10
17.283998121654566
20
1.2338054067193964
42
-0.40695474218647326
10
17.15306506025561
20
1.1125033971885543
42
-0.4030161571110607
0
LWPOLYLINE
5
127
100
AcDbEntity
8
0
100
AcDbPolyline
90
154
70
1
43
0.0
10
27.860152651124277
20
3.4015839825848726
42
0.11123973314884589
10
27.943563715402814
20
3.4667863972826147
42
0.08563092784470426
10
27.984132714778081
20
3.538487126741638
42
0.079710829855333468
10
28.000393703211227
20
3.6253937032112229
10
28.000393703211227
20
7.1253937032112225
42
0.096898320668786647
10
27.977703401244913
20
7.2273030724358955
42
0.1938836224655559
10
27.84606470321123
20
7.3563637032112252
42
0.049075896862877215
10
27.802469292773477
20
7.3695833173220784
42
0.042641650310990382
10
27.750393703211223
20
7.3753937032112225
10
20.299859703211233
20
7.375393703211226
42
-0.04958055251145748
10
20.084398350030217
20
7.4001406836457404
42
-0.098670726014924104
10
19.72934404740726
20
7.5545172048639921
42
-0.020317459632856617
10
19.66849684415681
20
7.6005314031840188
42
-0.017383632832545601
10
19.601640703211217
20
7.6595087032112241
10
16.490810703211217
20
10.693570703211229
42
0.072437282202775691
10
16.435080840280886
20
10.731284785993321
42
0.080259387950657041
10
16.376816709745867
20
10.748680428638419
42
0.015817989997257816
10
16.367983519874723
20
10.749551816915139
42
0.0083374228186139342
10
16.351167703211228
20
10.750393703211218
10
14.564146703211218
20
10.750393703211218
42
0.097410876905085431
10
14.481381442553376
20
10.73182237710647
42
0.10385704007882365
10
14.416635855577088
20
10.685412916401187
42
0.012811886652192465
10
14.411997627639408
20
10.680084850911479
42
0.0066307674510702021
10
14.403443703211227
20
10.669450703211229
10
14.080817703211228
20
10.233973703211218
42
0.39197638380533789
10
14.089591673418468
20
10.165299757663005
42
0.004389141725409604
10
14.162153096519843
20
10.105679684125537
42
0.0044060964880046436
10
14.235468703211213
20
10.047569703211217
42
0.17668974908189905
10
14.270154486107977
20
10.036396479427619
42
0.18931660717150875
10
14.301453991168952
20
10.05008749582003
42
0.017491753074099361
10
14.302359586849647
20
10.051061012015269
42
0.0044078652607109593
10
14.305779703211217
20
10.055076703211217
10
14.463410703211226
20
10.250393703211218
10
15.263410703211218
20
10.250393703211218
42
-0.08352843386974286
10
15.336897117430887
20
10.23545196464106
42
-0.17137858175269408
10
15.436586391285699
20
10.15033287329851
42
-0.065691626360073418
10
15.455188450536159
20
10.10551502725896
42
-0.057137689185426763
10
15.463410703211229
20
10.050393703211219
10
15.463410703211229
20
7.6253937032112233
42
-0.096897998020965118
10
15.440720379030147
20
7.5234839270968221
42
-0.19388505966945296
10
15.309081703211227
20
7.3944237032112232
42
-0.049074828808214718
10
15.265485763475159
20
7.3812040300433797
42
-0.042641650310962217
10
15.213410703211228
20
7.3753937032112242
10
7.7998597032112231
20
7.3753937032112242
42
-0.049580552511457147
10
7.5843983500302175
20
7.4001406836457404
42
-0.098670726014928808
10
7.2293440474072614
20
7.5545172048639913
42
-0.020317459632805637
10
7.1684968441568184
20
7.6005314031840152
42
-0.017383632832589247
10
7.1016407032112303
20
7.6595087032112197
10
3.9908107032112272
20
10.693570703211229
42
0.072437282202784878
10
3.9350808402808934
20
10.731284785993321
42
0.080259387950549169
10
3.8768167097458628
20
10.748680428638421
42
0.015817989996965806
10
3.8679835198747314
20
10.749551816915139
42
0.0083374228186122706
10
3.8511677032112264
20
10.750393703211218
10
2.0641467032112248
20
10.750393703211218
42
0.097410876905107177
10
1.9813814425533731
20
10.73182237710647
42
0.10385704007882365
10
1.9166358555770819
20
10.685412916401189
42
0.01281188665309861
10
1.9119976276394131
20
10.68008485091149
42
0.0066307674511664949
10
1.903443703211225
20
10.669450703211229
10
1.5808177032112238
20
10.233973703211218
42
0.39197638380545624
10
1.5895916734184916
20
10.16529975766298
42
0.0043891417253590099
10
1.6621530965200559
20
10.105679684125372
42
0.0044060964880125184
10
1.7354687032112446
20
10.047569703211199
42
0.17668974908181553
10
1.7701544861079808
20
10.036396479427619
42
0.18931660717151452
10
1.8014539911689604
20
10.05008749582003
42
0.017491753074293979
10
1.8023595868496614
20
10.051061012015269
42
0.0044078652605676954
10
1.8057797032112246
20
10.055076703211219
10
1.963410703211226
20
10.250393703211218
10
2.7634107032112243
20
10.250393703211218
42
-0.083528433869720614
10
2.8368971174308961
20
10.235451964641047
42
-0.17137858175272974
10
2.936586391285696
20
10.15033287329851
42
-0.065691626359939165
10
2.9551884505361565
20
10.105515027258951
42
-0.057137689185490143
10
2.9634107032112253
20
10.050393703211219
10
2.9634107032112249
20
7.6253937032112233
42
-0.096897998020965465
10
2.9407203790301444
20
7.5234839270968221
42
-0.1938850596694397
10
2.8090817032112247
20
7.3944237032112232
42
-0.049074828808219277
10
2.7654857634751506
20
7.3812040300433797
42
-0.042641650310980238
10
2.7134107032112245
20
7.3753937032112242
10
0.25039370321122445
20
7.3753937032112242
42
0.096898536258557294
10
0.14848460586715281
20
7.3527034160891533
42
0.19388266214182143
10
0.019423703211225073
20
7.2210647032112218
42
0.049076610525549381
10
0.0062041285608534624
20
7.177469646438122
42
0.042641650310991368
10
0.00039370321122391658
20
7.1253937032112233
10
0.00039370321122509673
20
3.6253937032112238
42
0.096898213609214676
10
0.023084012548855684
20
3.5234841989739771
42
0.19388409935201339
10
0.15472270321122467
20
3.3944237032112237
42
0.049075542465755628
10
0.19831828927702419
20
3.3812040695044923
42
0.042641650310995462
10
0.25039370321122462
20
3.3753937032112238
10
2.7134107032112236
20
3.3753937032112229
42
-0.096898213609217299
10
2.8153202074484707
20
3.3527033938735924
42
-0.1938840993520142
10
2.9443807032112241
20
3.2210647032112254
42
-0.049075542465754587
10
2.9576003369179551
20
3.177469117145427
42
-0.042641650310979905
10
2.9634107032112245
20
3.1253937032112233
10
2.9634107032112249
20
0.70039370321122463
42
-0.083527044775880591
10
2.9484690226879646
20
0.62690653610675273
42
-0.17138091158151439
10
2.8633504983379652
20
0.5272177262091442
42
-0.065691808910102928
10
2.8185327350313436
20
0.50861590614904117
42
-0.05713693357823333
10
2.7634107032112256
20
0.50039370321122378
10
1.963410703211226
20
0.50039370321122345
10
1.8057797032112239
20
0.6957097032112235
42
0.19356803598319494
10
1.7721338345748345
20
0.71360359541378993
42
0.19357071109371346
10
1.735468703211225
20
0.70321770321122545
42
0.0051462155383425042
10
1.6614132030892579
20
0.64469905457679955
42
0.0052182420424973022
10
1.5895917032112268
20
0.58548670321122542
42
0.18812797921855004
10
1.5718113192148537
20
0.55286130440728631
42
0.18812901755447839
10
1.5808177032112247
20
0.51681370321122411
10
1.9034437032112261
20
0.081335703211224561
42
0.094915157258862501
10
1.9658467059131499
20
0.0268918346667197
42
0.10117716606386606
10
2.0395222371134576
20
0.0019475283611035123
42
0.015443861202789098
10
2.0478225945317816
20
0.0011658043384791951
42
0.0078773274437157377
10
2.064146703211224
20
0.00039370321122409141
10
3.8511677032112237
20
0.00039370321122365431
42
0.072438456412648594
10
3.9173976549010505
20
0.012306472109261009
42
0.080263166973689265
10
3.9712530441803366
20
0.040534338675779595
42
0.015817989997166923
10
3.9781838343135156
20
0.046077259517472477
42
0.0083354583971400557
10
3.9908107032112228
20
0.057216703211224636
10
7.1016407032112259
20
3.0912787032112243
42
-0.049580629583138629
10
7.2731652575458536
20
3.2240017315859313
42
-0.098670854975516406
10
7.63513225508036
20
3.3613909998613813
42
-0.020317459632812857
10
7.7108191294335429
20
3.3709345629915233
42
-0.017383428170930953
10
7.7998597032112231
20
3.3753937032112238
10
15.213410703211228
20
3.3753937032112229
42
-0.096898213609234674
10
15.315320207448464
20
3.3527033938735924
42
-0.19388409935199785
10
15.444380703211229
20
3.2210647032112241
42
-0.049075542465709186
10
15.457600336917958
20
3.1774691171454288
42
-0.042641650310990917
10
15.463410703211229
20
3.1253937032112238
10
15.463410703211229
20
0.70039370321122452
42
-0.083527044775945997
10
15.448469022687966
20
0.6269065361067605
42
-0.17138091158147314
10
15.363350498337969
20
0.52721772620914464
42
-0.065691808910154442
10
15.318532735031349
20
0.50861590614904195
42
-0.05713693357822186
10
15.263410703211218
20
0.50039370321122334
10
14.463410703211226
20
0.50039370321122345
10
14.305779703211217
20
0.6957097032112235
42
0.19356803598320238
10
14.272133834574829
20
0.71360359541378937
42
0.19357071109371835
10
14.235468703211216
20
0.70321770321122579
42
0.005146215538362732
10
14.161413203089316
20
0.64469905457685028
42
0.0052182420425238999
10
14.089591703211241
20
0.58548670321123486
42
0.18812797921872446
10
14.071811319214858
20
0.55286130440728787
42
0.18812901755438724
10
14.080817703211228
20
0.51681370321122444
10
14.403443703211227
20
0.081335703211224533
42
0.094915157258841878
10
14.46584670591316
20
0.026891834666718649
42
0.10117716606386855
10
14.539522237113456
20
0.0019475283611038621
42
0.015443861202738279
10
14.54782259453178
20
0.0011658043384791077
42
0.0078773274436919494
10
14.56414670321122
20
0.0003937032112237417
10
16.351167703211228
20
0.000393703211223698
42
0.072438456412659932
10
16.417397654901048
20
0.012306472109260376
42
0.08026316697370639
10
16.471253044180337
20
0.040534338675779644
42
0.015817989997526993
10
16.478183834313509
20
0.046077259517465004
42
0.008335458397141721
10
16.490810703211217
20
0.05721670321122499
10
19.601640703211221
20
3.0912787032112239
42
-0.04958062958314019
10
19.773165257545859
20
3.2240017315859348
42
-0.098670854975521458
10
20.135132255080368
20
3.3613909998613809
42
-0.020317459632801193
10
20.210819129433546
20
3.3709345629915224
42
-0.017383428170912631
10
20.299859703211229
20
3.3753937032112229
10
27.75039370321122
20
3.3753937032112229
42
0.10421355232153375
0
ENDSEC
0
SECTION
2
OBJECTS
0
DICTIONARY
5
C
100
AcDbDictionary
3
ACAD_GROUP
350
D
3
ACAD_MLINESTYLE
350
17
0
DICTIONARY
5
D
100
AcDbDictionary
0
DICTIONARY
5
1A
330
C
100
AcDbDictionary
0
DICTIONARY
5
17
100
AcDbDictionary
0
ENDSEC
0
EOF
