0
SECTION
2
HEADER
9
$INSUNITS
70
1
9
$ACADVER
1
AC1014
9
$HANDSEED
5
FFFF
0
ENDSEC
0
SECTION
2
TABLES
0
TABLE
2
VPORT
5
8
100
AcDbSymbolTable
0
ENDTAB
0
TABLE
2
LTYPE
5
5
100
AcDbSymbolTable
0
LTYPE
5
14
100
AcDbSymbolTableRecord
100
AcDbLinetypeTableRecord
2
BYBLOCK
70
0
0
LTYPE
5
15
100
AcDbSymbolTableRecord
100
AcDbLinetypeTableRecord
2
BYLAYER
70
0
0
ENDTAB
0
TABLE
2
LAYER
5
2
100
AcDbSymbolTable
70
2
0
LAYER
5
50
100
AcDbSymbolTableRecord
100
AcDbLayerTableRecord
2
0
70
0
6
CONTINUOUS
0
ENDTAB
0
TABLE
2
STYLE
5
3
100
AcDbSymbolTable
70
1
0
STYLE
5
11
100
AcDbSymbolTableRecord
100
AcDbTextStyleTableRecord
2
STANDARD
70
0
0
ENDTAB
0
TABLE
2
VIEW
5
6
100
AcDbSymbolTable
70
0
0
ENDTAB
0
TABLE
2
UCS
5
7
100
AcDbSymbolTable
70
0
0
ENDTAB
0
TABLE
2
APPID
5
9
100
AcDbSymbolTable
70
2
0
APPID
5
12
100
AcDbSymbolTableRecord
100
AcDbRegAppTableRecord
2
ACAD
70
0
0
ENDTAB
0
TABLE
2
DIMSTYLE
5
A
100
AcDbSymbolTable
70
1
0
ENDTAB
0
TABLE
2
BLOCK_RECORD
5
1
100
AcDbSymbolTable
70
1
0
BLOCK_RECORD
5
1F
100
AcDbSymbolTableRecord
100
AcDbBlockTableRecord
2
*MODEL_SPACE
0
BLOCK_RECORD
5
1B
100
AcDbSymbolTableRecord
100
AcDbBlockTableRecord
2
*PAPER_SPACE
0
ENDTAB
0
ENDSEC
0
SECTION
2
BLOCKS
0
BLOCK
5
20
100
AcDbEntity
100
AcDbBlockBegin
2
*MODEL_SPACE
0
ENDBLK
5
21
100
AcDbEntity
100
AcDbBlockEnd
0
BLOCK
5
1C
100
AcDbEntity
100
AcDbBlockBegin
2
*PAPER_SPACE
0
ENDBLK
5
1D
100
AcDbEntity
100
AcDbBlockEnd
0
ENDSEC
0
SECTION
2
ENTITIES
0
CIRCLE
5
100
100
AcDbEntity
8
0
100
AcDbCircle
10
-0.49999999249075339
20
0
30
0
40
11.999999819778081
210
0
220
0
230
1
0
LWPOLYLINE
5
101
100
AcDbEntity
8
0
100
AcDbPolyline
90
21
70
1
43
0.0
10
8.6956619082739195
20
1.0140414035247771
10
10.446560514556882
20
1.0829632639520645
42
0.12357271147768688
10
8.6378458327178826
20
6.1237055807935272
10
8.1349808643115615
20
6.1237055807935272
10
3.0333266266919754
20
6.1237055807935272
10
3.0333266266919754
20
6.0000001914857872
10
2.7751402562813641
20
5.9815667567545567
10
2.7571962416599147
20
5.7396050140399941
10
4.0000001276571915
20
5.8000001851029275
10
4.4177143445821514
20
5.6832552634589044
42
-0.32300546250106699
10
4.4906794655287188
20
5.5917998599789565
10
4.5000001436143409
20
5.4000001723372089
10
5.5505923577166412
20
5.2311302616945552
10
7.5963930172173137
20
5.2311302616945543
42
-0.41254204639365577
10
7.7963897564926876
20
5.0322723121393595
10
7.8000002489315241
20
4.400000140422911
10
7.9000002521229531
20
4.0000001276571915
10
8.0278649508172357
20
3.7276707845120303
10
8.000000255314383
20
2.1000000670200256
10
7.8000002489315241
20
2.0000000638285957
10
7.8000002489315241
20
1.3050527545720694
0
LINE
5
102
100
AcDbEntity
8
0
100
AcDbLine
10
4.2490544489588462
20
-0.042620457047140764
30
0
11
4.1663643492272247
21
-0.81163838455122217
31
0
0
LINE
5
103
100
AcDbEntity
8
0
100
AcDbLine
10
4.1663643492272247
20
-0.81163838455122217
30
0
11
9.8300656121116585
21
-0.67373198442269355
31
0
0
SPLINE
5
104
100
AcDbEntity
8
0
100
AcDbSpline
70
4
71
5
72
26
73
20
74
0
42
0.000000001
43
0.0000000001
44
0.0000000001
40
0
40
0
40
0
40
0
40
0
40
0
40
0.066666666666666666
40
0.13333333333333333
40
0.20000000000000001
40
0.26666666666666666
40
0.33333333333333331
40
0.39999999999999997
40
0.46666666666666662
40
0.53333333333333333
40
0.59999999999999998
40
0.66666666666666663
40
0.73333333333333328
40
0.79999999999999993
40
0.86666666666666659
40
0.93333333333333324
40
1
40
1
40
1
40
1
40
1
40
1
41
1
41
1
41
1
41
1
41
1
41
1
41
1
41
1
41
1
41
1
41
1
41
1
41
1
41
1
41
1
41
1
41
1
41
1
41
1
41
1
10
10.464668545456632
20
0.88093144935994505
30
0
10
10.449512589995448
20
0.87662070416497351
30
0
10
10.419362293314981
20
0.86645197118937922
30
0
10
10.374621689621852
20
0.84655718103518218
30
0
10
10.315944287481951
20
0.81067959738605178
30
0
10
10.244368563698943
20
0.75003220156311723
30
0
10
10.174921003514518
20
0.67365179954392351
30
0
10
10.10826218489516
20
0.58226609233902327
30
0
10
10.045444597453129
20
0.47768260426035136
30
0
10
9.9877606736404605
20
0.36237296673895397
30
0
10
9.9365955438801787
20
0.23912233707596153
30
0
10
9.8932543025313677
20
0.1106932220306933
30
0
10
9.8588036227572111
20
-0.020456237772473025
30
0
10
9.8338101535449365
20
-0.1525313043269545
30
0
10
9.8183841580080404
20
-0.28441064850857328
30
0
10
9.8123997429091308
20
-0.41544748072053039
30
0
10
9.8149782036573363
20
-0.5193680695824775
30
0
10
9.8209593991051829
20
-0.59676124430166178
30
0
10
9.826732583069175
20
-0.64811530568176023
30
0
10
9.8300656121116585
20
-0.67373198442269355
30
0
0
SPLINE
5
105
100
AcDbEntity
8
0
100
AcDbSpline
70
4
71
5
72
26
73
20
74
0
42
0.000000001
43
0.0000000001
44
0.0000000001
40
0
40
0
40
0
40
0
40
0
40
0
40
0.066666666666666666
40
0.13333333333333333
40
0.20000000000000001
40
0.26666666666666666
40
0.33333333333333331
40
0.39999999999999997
40
0.46666666666666662
40
0.53333333333333333
40
0.59999999999999998
40
0.66666666666666663
40
0.73333333333333328
40
0.79999999999999993
40
0.86666666666666659
40
0.93333333333333324
40
1
40
1
40
1
40
1
40
1
40
1
41
1
41
1
41
1
41
1
41
1
41
1
41
1
41
1
41
1
41
1
41
1
41
1
41
1
41
1
41
1
41
1
41
1
41
1
41
1
41
1
10
-9.7542569494203715
20
-1.7818226648799598
30
0
10
-9.7407148880939083
20
-1.7553315293888452
30
0
10
-9.7137795429774805
20
-1.7027570701085633
30
0
10
-9.6738228677428868
20
-1.6251187920822987
30
0
10
-9.6214463842368669
20
-1.5240659080179726
30
0
10
-9.5575824413017436
20
-1.4019320369078676
30
0
10
-9.4955808940674533
20
-1.284017870416855
30
0
10
-9.4359054195564447
20
-1.1702391365284799
30
0
10
-9.3792748011935441
20
-1.0603092212675782
30
0
10
-9.3267409482454244
20
-0.95360245641928953
30
0
10
-9.2796672693093818
20
-0.84913378907942061
30
0
10
-9.2395315495691825
20
-0.74576305623156736
30
0
10
-9.2077415412120942
20
-0.64234537036463324
30
0
10
-9.185452430846242
20
-0.5378800529212393
30
0
10
-9.1732751360821592
20
-0.43170348785317042
30
0
10
-9.1713236971862298
20
-0.32348620553575097
30
0
10
-9.1778480424559419
20
-0.23517744051187528
30
0
10
-9.1872018878227522
20
-0.16796680542801865
30
0
10
-9.1954061099623416
20
-0.12272761646675945
30
0
10
-9.2000002936115415
20
-0.10000000319142979
30
0
0
LINE
5
106
100
AcDbEntity
8
0
100
AcDbLine
10
-9.2000002936115415
20
-0.10000000319142979
30
0
11
-10.900000347865847
21
0.10000000319142979
31
0
0
LINE
5
107
100
AcDbEntity
8
0
100
AcDbLine
10
-10.900000347865847
20
0.10000000319142979
30
0
11
-11.478263101584711
21
0.6911841093597233
31
0
0
LINE
5
108
100
AcDbEntity
8
0
100
AcDbLine
10
-9.2000002936115415
20
-0.10000000319142979
30
0
11
-10.050000320738693
21
0
31
0
0
LINE
5
109
100
AcDbEntity
8
0
100
AcDbLine
10
-9.0000002872286817
20
-0.10000000319142979
30
0
11
-2.5000000797857447
21
-0.70000002234000858
31
0
0
SPLINE
5
110
100
AcDbEntity
8
0
100
AcDbSpline
70
4
71
5
72
31
73
25
74
0
42
0.000000001
43
0.0000000001
44
0.0000000001
40
0
40
0
40
0
40
0
40
0
40
0
40
0.050000000000000003
40
0.10000000000000001
40
0.15000000000000002
40
0.20000000000000001
40
0.25
40
0.29999999999999999
40
0.34999999999999998
40
0.39999999999999997
40
0.44999999999999996
40
0.49999999999999994
40
0.54999999999999993
40
0.59999999999999998
40
0.65000000000000002
40
0.70000000000000007
40
0.75000000000000011
40
0.80000000000000016
40
0.8500000000000002
40
0.90000000000000024
40
0.95000000000000029
40
1
40
1
40
1
40
1
40
1
40
1
41
1
41
1
41
1
41
1
41
1
41
1
41
1
41
1
41
1
41
1
41
1
41
1
41
1
41
1
41
1
41
1
41
1
41
1
41
1
41
1
41
1
41
1
41
1
41
1
41
1
10
-9.6000003063772592
20
1.4000000446800172
30
0
10
-9.6059605406038244
20
1.4078808289973275
30
0
10
-9.6195939936502963
20
1.4230611140754266
30
0
10
-9.6451826786749653
20
1.4440876717021061
30
0
10
-9.689623776245833
20
1.4686212807217049
30
0
10
-9.7621890474615896
20
1.4933278798022915
30
0
10
-9.8508302197051236
20
1.5118515434746089
30
0
10
-9.9531786960884805
20
1.5238539421635831
30
0
10
-10.065594485970436
20
1.5289119487460843
30
0
10
-10.183868017032099
20
1.5265812604267406
30
0
10
-10.303748023210135
20
1.5164584298081656
30
0
10
-10.421507705145224
20
1.4982481546540436
30
0
10
-10.534550395712298
20
1.4718474315478274
30
0
10
-10.641856534299755
20
1.4374071937569384
30
0
10
-10.74350449716585
20
1.3952431454056373
30
0
10
-10.840338373793625
20
1.3457761185766406
30
0
10
-10.933590377109903
20
1.28947078052372
30
0
10
-11.024557125427819
20
1.22678603331974
30
0
10
-11.114207705399938
20
1.1581241317620732
30
0
10
-11.203168787111274
20
1.0838150185170328
30
0
10
-11.291819719560845
20
1.0041134335857254
30
0
10
-11.362641934894691
20
0.93617993450901493
30
0
10
-11.415731704971682
20
0.88292873662573512
30
0
10
-11.451112936974141
20
0.84640939915823654
30
0
10
-11.468800568511725
20
0.82789509541168183
30
0
0
LINE
5
111
100
AcDbEntity
8
0
100
AcDbLine
10
-11.200000357440137
20
0.80000002553143834
30
0
11
-3.1692784254986597
21
0.15175775045835813
31
0
0
LINE
5
112
100
AcDbEntity
8
0
100
AcDbLine
10
-2.4536850108393087
20
-0.55607166646651973
30
0
11
-2.8000000893600343
21
0.10000000319142979
31
0
0
SPLINE
5
113
100
AcDbEntity
8
0
100
AcDbSpline
70
4
71
5
72
21
73
15
74
0
42
0.000000001
43
0.0000000001
44
0.0000000001
40
0
40
0
40
0
40
0
40
0
40
0
40
0.10000000000000001
40
0.20000000000000001
40
0.30000000000000004
40
0.40000000000000002
40
0.5
40
0.59999999999999998
40
0.69999999999999996
40
0.79999999999999993
40
0.89999999999999991
40
1
40
1
40
1
40
1
40
1
40
1
41
1
41
1
41
1
41
1
41
1
41
1
41
1
41
1
41
1
41
1
41
1
41
1
41
1
41
1
41
1
10
-2.4000000765943148
20
0.80000002553143834
30
0
10
-2.411972310926457
20
0.79100241359431744
30
0
10
-2.4357422800974708
20
0.77274154413268614
30
0
10
-2.4708737393275344
20
0.74455330919635865
30
0
10
-2.5166514369840014
20
0.70534886069476466
30
0
10
-2.5719814241276069
20
0.65346284875835225
30
0
10
-2.6252580479062879
20
0.59845094283475975
30
0
10
-2.6763259191125419
20
0.54007658947439352
30
0
10
-2.725122906111169
20
0.478245203906567
30
0
10
-2.7717637736448362
20
0.41313149579376951
30
0
10
-2.8164218670394048
20
0.34499935370152951
30
0
10
-2.8506975147253635
20
0.28828500440085997
30
0
10
-2.8756408260488273
20
0.2445870594883327
30
0
10
-2.8919359627324153
20
0.21494703798993675
30
0
10
-2.9000000925514637
20
0.20000000638285959
30
0
0
SPLINE
5
114
100
AcDbEntity
8
0
100
AcDbSpline
70
4
71
5
72
36
73
30
74
0
42
0.000000001
43
0.0000000001
44
0.0000000001
40
0
40
0
40
0
40
0
40
0
40
0
40
0.040000000000000001
40
0.080000000000000002
40
0.12
40
0.16
40
0.20000000000000001
40
0.24000000000000002
40
0.28000000000000003
40
0.32000000000000001
40
0.35999999999999999
40
0.39999999999999997
40
0.43999999999999995
40
0.47999999999999993
40
0.51999999999999991
40
0.55999999999999994
40
0.59999999999999998
40
0.64000000000000001
40
0.68000000000000005
40
0.72000000000000008
40
0.76000000000000012
40
0.80000000000000016
40
0.84000000000000019
40
0.88000000000000023
40
0.92000000000000026
40
0.9600000000000003
40
1
40
1
40
1
40
1
40
1
40
1
41
1
41
1
41
1
41
1
41
1
41
1
41
1
41
1
41
1
41
1
41
1
41
1
41
1
41
1
41
1
41
1
41
1
41
1
41
1
41
1
41
1
41
1
41
1
41
1
41
1
41
1
41
1
41
1
41
1
41
1
10
-3.5271803189645454
20
1.0297575467536302
30
0
10
-3.525639876129159
20
1.0880002358982936
30
0
10
-3.5227741096357565
20
1.2018626643988635
30
0
10
-3.5191208129614773
20
1.3647874661396149
30
0
10
-3.5155438649541542
20
1.5662417243940556
30
0
10
-3.513161756513099
20
1.7915560964668913
30
0
10
-3.5126310384713553
20
1.990168935448174
30
0
10
-3.5134466572712273
20
2.1620090819523363
30
0
10
-3.5147401691125086
20
2.3072591987015421
30
0
10
-3.5151710231788242
20
2.4264982320093131
30
0
10
-3.5128359096352098
20
2.5208438570388352
30
0
10
-3.5051231727076653
20
2.5921343925426661
30
0
10
-3.4886817394104503
20
2.6430610987109202
30
0
10
-3.4590842852044426
20
2.677475022500885
30
0
10
-3.4123369547522104
20
2.6997026042871437
30
0
10
-3.3467342105519444
20
2.713653803215915
30
0
10
-3.2649318131786904
20
2.721903424057198
30
0
10
-3.1726524856474168
20
2.7258530671570345
30
0
10
-3.0768722078959425
20
2.7260644076860476
30
0
10
-2.9842584250205348
20
2.7225194393304486
30
0
10
-2.8994071859382835
20
2.7149144312437614
30
0
10
-2.8234357896943667
20
2.7029126677647168
30
0
10
-2.7552378264637736
20
2.6861687675340646
30
0
10
-2.69249033159991
20
2.6643751476886663
30
0
10
-2.6327013279753197
20
2.6372999603842895
30
0
10
-2.5743228129854785
20
2.6048381080415441
30
0
10
-2.5281434352217742
20
2.5745448621813996
30
0
10
-2.4936863785439924
20
2.549402798236172
30
0
10
-2.4707940242271831
20
2.5315677464315733
30
0
10
-2.4593675815426344
20
2.5223818001267571
30
0
0
SPLINE
5
115
100
AcDbEntity
8
0
100
AcDbSpline
70
4
71
5
72
46
73
40
74
0
42
0.000000001
43
0.0000000001
44
0.0000000001
40
0
40
0
40
0
40
0
40
0
40
0
40
0.028571428571428571
40
0.057142857142857141
40
0.085714285714285715
40
0.11428571428571428
40
0.14285714285714285
40
0.17142857142857143
40
0.20000000000000001
40
0.22857142857142859
40
0.25714285714285717
40
0.28571428571428575
40
0.31428571428571433
40
0.34285714285714292
40
0.3714285714285715
40
0.40000000000000008
40
0.42857142857142866
40
0.45714285714285724
40
0.48571428571428582
40
0.51428571428571435
40
0.54285714285714293
40
0.57142857142857151
40
0.60000000000000009
40
0.62857142857142867
40
0.65714285714285725
40
0.68571428571428583
40
0.71428571428571441
40
0.74285714285714299
40
0.77142857142857157
40
0.80000000000000016
40
0.82857142857142874
40
0.85714285714285732
40
0.8857142857142859
40
0.91428571428571448
40
0.94285714285714306
40
0.97142857142857164
40
1
40
1
40
1
40
1
40
1
40
1
41
1
41
1
41
1
41
1
41
1
41
1
41
1
41
1
41
1
41
1
41
1
41
1
41
1
41
1
41
1
41
1
41
1
41
1
41
1
41
1
41
1
41
1
41
1
41
1
41
1
41
1
41
1
41
1
41
1
41
1
41
1
41
1
41
1
41
1
41
1
41
1
41
1
41
1
41
1
41
1
10
-2.4593675815426344
20
2.5223818001267571
30
0
10
-2.4515525434699583
20
2.526771120350106
30
0
10
-2.4355041317186568
20
2.5355948137955791
30
0
10
-2.4101765442933392
20
2.5489653284487166
30
0
10
-2.3738928287852654
20
2.5670645921756119
30
0
10
-2.3243558791339423
20
2.5899771460338501
30
0
10
-2.2706855140891302
20
2.6127098126562256
30
0
10
-2.2130170911387732
20
2.6342634460742369
30
0
10
-2.1515453171675332
20
2.6532293646057741
30
0
10
-2.0864270219162364
20
2.6682045092505389
30
0
10
-2.0177256915987214
20
2.6780899405461112
30
0
10
-1.9452902314426344
20
2.6825122991273491
30
0
10
-1.8688253842179519
20
2.6819462520801491
30
0
10
-1.7882713413254228
20
2.6773457191139762
30
0
10
-1.704138253644633
20
2.6698857235349243
30
0
10
-1.6178127010328827
20
2.660666231142915
30
0
10
-1.531998254415031
20
2.6504225359408409
30
0
10
-1.450730330027022
20
2.639266961585593
30
0
10
-1.3783560078787787
20
2.6265734379422776
30
0
10
-1.3186565767879863
20
2.6107900571425731
30
0
10
-1.2740343451415783
20
2.5893609890941018
30
0
10
-1.2443623431505513
20
2.5583883306344273
30
0
10
-1.2272053694081599
20
2.5132427570425637
30
0
10
-1.2191372127583853
20
2.4498616826830228
30
0
10
-1.2168680181457781
20
2.3660352674278955
30
0
10
-1.2180496366858791
20
2.2621549532129435
30
0
10
-1.2209883859765367
20
2.1404927358091328
30
0
10
-1.2245945145656778
20
2.0047982103095761
30
0
10
-1.2282392857495985
20
1.8597767394883862
30
0
10
-1.2316553513977435
20
1.7106328467413077
30
0
10
-1.2348182463757953
20
1.5625757894147232
30
0
10
-1.237843327562683
20
1.4203771641294667
30
0
10
-1.2408631084455435
20
1.2878209257769369
30
0
10
-1.2439628704663737
20
1.1674908016935364
30
0
10
-1.2472016514296067
20
1.0610669656597751
30
0
10
-1.2506129039143075
20
0.9694959065242631
30
0
10
-1.2534931476689826
20
0.90846367615308421
30
0
10
-1.2557405709433105
20
0.86961088549550769
30
0
10
-1.2572775849652293
20
0.84678116564494665
30
0
10
-1.2580557743689149
20
0.8361343375814223
30
0
0
LINE
5
116
100
AcDbEntity
8
0
100
AcDbLine
10
-3.7204191800540634
20
2.25305166719974
30
0
11
-3.7204191800540634
21
2.5500000925514636
31
0
0
LINE
5
117
100
AcDbEntity
8
0
100
AcDbLine
10
-0.29342668405034644
20
0.054873586840655748
30
0
11
-0.90836228123474083
21
0.086958531823873919
31
0
0
ARC
5
118
100
AcDbEntity
8
0
100
AcDbCircle
10
-1.3682928174433784
20
2.5145748590666179
30
0
40
0.34999999999999948
210
-0
220
0
230
1
100
AcDbArc
50
-0.95077264434423836
51
89.049227355655859
0
LINE
5
119
100
AcDbEntity
8
0
100
AcDbLine
10
-3.4277414716969563
20
2.8952741212313042
30
0
11
-1.7081101617739822
21
3.6212481530163845
31
0
0
LINE
5
120
100
AcDbEntity
8
0
100
AcDbLine
10
-1.7081101617739822
20
3.6212481530163845
30
0
11
-1.6000000510628767
21
3.6212481530163845
31
0
0
LINE
5
121
100
AcDbEntity
8
0
100
AcDbLine
10
-1.6000000510628767
20
3.6212481530163845
30
0
11
-1.4000000446800172
21
4.8000001531886296
31
0
0
LINE
5
122
100
AcDbEntity
8
0
100
AcDbLine
10
-1.4000000446800172
20
4.8000001531886296
30
0
11
-1.5434196122303596
21
4.8681416305147316
31
0
0
LINE
5
123
100
AcDbEntity
8
0
100
AcDbLine
10
-1.5434196122303596
20
4.8681416305147316
30
0
11
-1.0000000319142979
21
5.2000001659543491
31
0
0
LINE
5
124
100
AcDbEntity
8
0
100
AcDbLine
10
3.3000001053171832
20
1.3000000414885873
30
0
11
2.1000000670200256
21
1.1000000351057277
31
0
0
SPLINE
5
125
100
AcDbEntity
8
0
100
AcDbSpline
70
4
71
5
72
41
73
35
74
0
42
0.000000001
43
0.0000000001
44
0.0000000001
40
0
40
0
40
0
40
0
40
0
40
0
40
0.033333333333333333
40
0.066666666666666666
40
0.10000000000000001
40
0.13333333333333333
40
0.16666666666666666
40
0.19999999999999998
40
0.23333333333333331
40
0.26666666666666666
40
0.29999999999999999
40
0.33333333333333331
40
0.36666666666666664
40
0.39999999999999997
40
0.43333333333333329
40
0.46666666666666662
40
0.49999999999999994
40
0.53333333333333333
40
0.56666666666666665
40
0.59999999999999998
40
0.6333333333333333
40
0.66666666666666663
40
0.69999999999999996
40
0.73333333333333328
40
0.76666666666666661
40
0.79999999999999993
40
0.83333333333333326
40
0.86666666666666659
40
0.89999999999999991
40
0.93333333333333324
40
0.96666666666666656
40
1
40
1
40
1
40
1
40
1
40
1
41
1
41
1
41
1
41
1
41
1
41
1
41
1
41
1
41
1
41
1
41
1
41
1
41
1
41
1
41
1
41
1
41
1
41
1
41
1
41
1
41
1
41
1
41
1
41
1
41
1
41
1
41
1
41
1
41
1
41
1
41
1
41
1
41
1
41
1
41
1
10
2.1000000670200256
20
1.1000000351057277
30
0
10
2.0864702201245655
20
1.0912323255516299
30
0
10
2.0610265618296588
20
1.0760981788553308
30
0
10
2.0277087861183225
20
1.0606005320222209
30
0
10
1.993001509248689
20
1.0543723671418725
30
0
10
1.9648462030610463
20
1.070049648938697
30
0
10
1.9489049918315666
20
1.1071714511179469
30
0
10
1.9388584066197412
20
1.1614034106299196
30
0
10
1.9267396892214446
20
1.2269796617102497
30
0
10
1.9048418349209117
20
1.2977341333916019
30
0
10
1.8675059389912507
20
1.3680588264844877
30
0
10
1.8130448202004676
20
1.4339271851614328
30
0
10
1.742804341187312
20
1.4925713152879869
30
0
10
1.6601700171264155
20
1.5421333286304244
30
0
10
1.5695947064833677
20
1.5813253965150966
30
0
10
1.475673711195451
20
1.609114180587033
30
0
10
1.3821017814345469
20
1.6243492489209395
30
0
10
1.2910030899235132
20
1.6255778527571609
30
0
10
1.203396278870323
20
1.6114284477243557
30
0
10
1.119448070908498
20
1.5808880597679593
30
0
10
1.0388111096408237
20
1.5336453261856926
30
0
10
0.96090093998496739
20
1.4703712861857801
30
0
10
0.88524375548309442
20
1.3931421031495179
30
0
10
0.81160455892321615
20
1.3054022345615035
30
0
10
0.73990371414128009
20
1.2114699511668043
30
0
10
0.67019079306232399
20
1.116172129399976
30
0
10
0.60259622977467253
20
1.0244393972623476
30
0
10
0.53729145045842874
20
0.94090482883284732
30
0
10
0.47444840480388373
20
0.8695361004931379
30
0
10
0.41419139216841072
20
0.81315756311972975
30
0
10
0.35657824963016521
20
0.77332830964815502
30
0
10
0.31261810297495463
20
0.75528123131935743
30
0
10
0.28084454601318964
20
0.74959387395054489
30
0
10
0.26019304361438778
20
0.74928431789025385
30
0
10
0.25000000797857447
20
0.7500000239357234
30
0
0
LINE
5
126
100
AcDbEntity
8
0
100
AcDbLine
10
-0.88707902117405457
20
2.8739835366966493
30
0
11
1.3225494111268747
21
3.4479129996319564
31
0
0
SPLINE
5
127
100
AcDbEntity
8
0
100
AcDbSpline
70
4
71
5
72
26
73
20
74
0
42
0.000000001
43
0.0000000001
44
0.0000000001
40
0
40
0
40
0
40
0
40
0
40
0
40
0.066666666666666666
40
0.13333333333333333
40
0.20000000000000001
40
0.26666666666666666
40
0.33333333333333331
40
0.39999999999999997
40
0.46666666666666662
40
0.53333333333333333
40
0.59999999999999998
40
0.66666666666666663
40
0.73333333333333328
40
0.79999999999999993
40
0.86666666666666659
40
0.93333333333333324
40
1
40
1
40
1
40
1
40
1
40
1
41
1
41
1
41
1
41
1
41
1
41
1
41
1
41
1
41
1
41
1
41
1
41
1
41
1
41
1
41
1
41
1
41
1
41
1
41
1
41
1
10
0.032074753011467831
20
1.3407367157596086
30
0
10
0.035017589263788118
20
1.3537887045617401
30
0
10
0.042239075582957551
20
1.3803363602653036
30
0
10
0.057078637432317232
20
1.4214887472529174
30
0
10
0.084938597459549334
20
1.4790409086136751
30
0
10
0.1334544991310459
20
1.5552752805764074
30
0
10
0.19576309232279421
20
1.6350848724555795
30
0
10
0.27153647706034184
20
1.7168117818818693
30
0
10
0.35978858564672817
20
1.7975960670649669
30
0
10
0.45917071667383474
20
1.8739194296340613
30
0
10
0.56815496575953106
20
1.9420250106399437
30
0
10
0.68521641972960756
20
1.9983981642233903
30
0
10
0.80897510900837977
20
2.040222650860422
30
0
10
0.93833813076441042
20
2.0659733702108474
30
0
10
1.0724915610911485
20
2.0750853499143891
30
0
10
1.2108699979140183
20
2.0675740149452491
30
0
10
1.3246737113156992
20
2.0485131101613492
30
0
10
1.4116933474049602
20
2.0270310229430963
30
0
10
1.4704419030436078
20
2.0095388518010684
30
0
10
1.5000000478714468
20
2.0000000638285957
30
0
0
LINE
5
128
100
AcDbEntity
8
0
100
AcDbLine
10
-4.5681549831183395
20
1.0932228002505628
30
0
11
-9.6000003063772592
21
1.4000000446800172
31
0
0
SPLINE
5
129
100
AcDbEntity
8
0
100
AcDbSpline
70
4
71
5
72
21
73
15
74
0
42
0.000000001
43
0.0000000001
44
0.0000000001
40
0
40
0
40
0
40
0
40
0
40
0
40
0.10000000000000001
40
0.20000000000000001
40
0.30000000000000004
40
0.40000000000000002
40
0.5
40
0.59999999999999998
40
0.69999999999999996
40
0.79999999999999993
40
0.89999999999999991
40
1
40
1
40
1
40
1
40
1
40
1
41
1
41
1
41
1
41
1
41
1
41
1
41
1
41
1
41
1
41
1
41
1
41
1
41
1
41
1
41
1
10
-4.5681549831183395
20
1.0932228002505628
30
0
10
-4.5686133962395914
20
1.1220510172216576
30
0
10
-4.5679528849476965
20
1.1791973190400682
30
0
10
-4.5622299631322898
20
1.2633863293829106
30
0
10
-4.5449806188722759
20
1.3725275000589572
30
0
10
-4.5063522951772237
20
1.5034343819329747
30
0
10
-4.4493349053296702
20
1.6283939930633149
30
0
10
-4.3727484407990049
20
1.7470247028573667
30
0
10
-4.2765322341845398
20
1.8593068906636561
30
0
10
-4.1620029475813842
20
1.9656663826711496
30
0
10
-4.0307932039691625
20
2.0666311910585637
30
0
10
-3.9136915461026685
20
2.1434787836661022
30
0
10
-3.8194927896923341
20
2.1990535219059648
30
0
10
-3.7539080146365613
20
2.2352024456502062
30
0
10
-3.7204191800540634
20
2.25305166719974
30
0
0
ARC
5
130
100
AcDbEntity
8
0
100
AcDbCircle
10
-3.3704191800540637
20
2.5500000925514645
30
0
40
0.34999999999999948
210
0
220
0
230
1
100
AcDbArc
50
99.426251978145203
51
180
0
LINE
5
131
100
AcDbEntity
8
0
100
AcDbLine
10
-1.0000000319142979
20
2.3000000734028854
30
0
11
-1.0000000319142979
21
1.0000000319142979
31
0
0
LINE
5
132
100
AcDbEntity
8
0
100
AcDbLine
10
-3.7241726691151622
20
1.9482593016557732
30
0
11
-3.7241726691151622
21
1.2500000398928723
31
0
0
LINE
5
133
100
AcDbEntity
8
0
100
AcDbLine
10
0.32780445882957682
20
5.6215465383978875
30
0
11
0.26466600304543203
21
5.2287425758397976
31
0
0
LINE
5
134
100
AcDbEntity
8
0
100
AcDbLine
10
3.3000001053171832
20
1.3000000414885873
30
0
11
3.3500001069128982
21
1.7391989965785581
31
0
0
LINE
5
135
100
AcDbEntity
8
0
100
AcDbLine
10
3.3500001069128982
20
1.9793316544196609
30
0
11
3.4000001085086127
21
4.9000001563800595
31
0
0
LINE
5
136
100
AcDbEntity
8
0
100
AcDbLine
10
-1.0000000319142979
20
5.2000001659543491
30
0
11
0.26466600304543203
21
5.2287425758397976
31
0
0
LINE
5
137
100
AcDbEntity
8
0
100
AcDbLine
10
3.2000001021257534
20
5.2000001659543491
30
0
11
0.59354454673455403
21
5.2362170881963692
31
0
0
LINE
5
138
100
AcDbEntity
8
0
100
AcDbLine
10
4.6000001468057707
20
4.0000001276571915
30
0
11
7.6000002425486644
21
3.8000001212743322
31
0
0
LINE
5
139
100
AcDbEntity
8
0
100
AcDbLine
10
4.5000001436143409
20
3.0000000957428936
30
0
11
7.6000002425486644
21
2.9469300503784868
31
0
0
LINE
5
140
100
AcDbEntity
8
0
100
AcDbLine
10
4.6000001468057707
20
2.1000000670200256
30
0
11
7.6000002425486644
21
2.3000000734028854
31
0
0
LINE
5
141
100
AcDbEntity
8
0
100
AcDbLine
10
4.8000001531886296
20
5.0000001595714894
30
0
11
4.7575392478667125
21
4.3630865797427365
31
0
0
LINE
5
142
100
AcDbEntity
8
0
100
AcDbLine
10
4.230265408367833
20
2.128097765846714
30
0
11
4.230265408367833
21
4.7378656994015511
31
0
0
LINE
5
143
100
AcDbEntity
8
0
100
AcDbLine
10
2.4999999624537668
20
0
30
0
11
3.6002610183107189
21
0.23209056524841298
31
0
0
LINE
5
144
100
AcDbEntity
8
0
100
AcDbLine
10
0.59354454673455403
20
5.6344604166437868
30
0
11
0.59354454673455403
21
5.8677493825443134
31
0
0
LINE
5
145
100
AcDbEntity
8
0
100
AcDbLine
10
0.59354454673455403
20
5.8677493825443134
30
0
11
0.37307476958004759
21
5.9031872156709371
31
0
0
LINE
5
146
100
AcDbEntity
8
0
100
AcDbLine
10
0.37307476958004759
20
5.9031872156709371
30
0
11
0.39123092156890976
21
6.0161422817627326
31
0
0
LINE
5
147
100
AcDbEntity
8
0
100
AcDbLine
10
0.39123092156890976
20
6.0161422817627326
30
0
11
1.8978073231499251
21
6.1237055807935423
31
0
0
LWPOLYLINE
5
148
100
AcDbEntity
8
0
100
AcDbPolyline
90
6
70
1
43
0.0
10
1.0623748334347487
20
5.8605858853972759
10
0.93806395273630305
20
5.7107733617504071
10
0.9409520247827855
20
5.6513429950631728
10
2.4446108791452388
20
5.7244146476004056
10
2.4416336526127411
20
5.7856796235738415
10
2.320360384178159
20
5.9504008299490767
0
LINE
5
149
100
AcDbEntity
8
0
100
AcDbLine
10
0.59354454673455403
20
5.6344604166437868
30
0
11
0.32780445882957682
21
5.6215465383978875
31
0
0
LINE
5
150
100
AcDbEntity
8
0
100
AcDbLine
10
-10.424784248721764
20
-4.7432745896472976
30
0
11
-10.137082234258296
21
-4.7181202635729598
31
0
0
SPLINE
5
151
100
AcDbEntity
8
0
100
AcDbSpline
70
0
71
2
72
6
73
3
74
0
42
0.000000001
43
0.0000000001
44
0.0000000001
40
0
40
0
40
0
40
1
40
1
40
1
10
-10.137082234258296
20
-4.7181202635729598
30
0
10
-10.112696143701829
20
-4.9244642222699406
30
0
10
-10.023593113294305
20
-5.0567118166677787
30
0
0
SPLINE
5
152
100
AcDbEntity
8
0
100
AcDbSpline
70
0
71
2
72
6
73
3
74
0
42
0.000000001
43
0.0000000001
44
0.0000000001
40
0
40
0
40
0
40
1
40
1
40
1
10
-10.023593113294305
20
-5.0567118166677787
30
0
10
-9.9344901767523659
20
-5.1889594110656159
30
0
10
-9.7469049730859787
20
-5.2705590145533669
30
0
0
SPLINE
5
153
100
AcDbEntity
8
0
100
AcDbSpline
70
0
71
2
72
6
73
3
74
0
42
0.000000001
43
0.0000000001
44
0.0000000001
40
0
40
0
40
0
40
1
40
1
40
1
10
-9.7469049730859787
20
-5.2705590145533669
30
0
10
-9.5593196755540095
20
-5.3521586180411171
30
0
10
-9.3248380067062566
20
-5.3521586180411171
30
0
0
SPLINE
5
154
100
AcDbEntity
8
0
100
AcDbSpline
70
0
71
2
72
6
73
3
74
0
42
0.000000001
43
0.0000000001
44
0.0000000001
40
0
40
0
40
0
40
1
40
1
40
1
10
-9.3248380067062566
20
-5.3521586180411171
30
0
10
-9.1166184259432885
20
-5.3521586180411171
30
0
10
-8.9571710262932562
20
-5.2902553928857898
30
0
0
SPLINE
5
155
100
AcDbEntity
8
0
100
AcDbSpline
70
0
71
2
72
6
73
3
74
0
42
0.000000001
43
0.0000000001
44
0.0000000001
40
0
40
0
40
0
40
1
40
1
40
1
10
-8.9571710262932562
20
-5.2902553928857898
30
0
10
-8.7977234389120582
20
-5.2283523554616274
30
0
10
-8.7198756427497752
20
-5.1204908516202572
30
0
0
SPLINE
5
156
100
AcDbEntity
8
0
100
AcDbSpline
70
0
71
2
72
6
73
3
74
0
42
0.000000001
43
0.0000000001
44
0.0000000001
40
0
40
0
40
0
40
1
40
1
40
1
10
-8.7198756427497752
20
-5.1204908516202572
30
0
10
-8.6420276588563283
20
-5.012629347778887
30
0
10
-8.6420276588563283
20
-4.8850712778739291
30
0
0
SPLINE
5
157
100
AcDbEntity
8
0
100
AcDbSpline
70
0
71
2
72
6
73
3
74
0
42
0.000000001
43
0.0000000001
44
0.0000000001
40
0
40
0
40
0
40
1
40
1
40
1
10
-8.6420276588563283
20
-4.8850712778739291
30
0
10
-8.6420276588563283
20
-4.7556373981718192
30
0
10
-8.7170617403228832
20
-4.6590311285756894
30
0
0
SPLINE
5
158
100
AcDbEntity
8
0
100
AcDbSpline
70
0
71
2
72
6
73
3
74
0
42
0.000000001
43
0.0000000001
44
0.0000000001
40
0
40
0
40
0
40
1
40
1
40
1
10
-8.7170617403228832
20
-4.6590311285756894
30
0
10
-8.792095821789438
20
-4.5624246712483947
30
0
10
-8.9646742654818627
20
-4.4967698264987641
30
0
0
SPLINE
5
159
100
AcDbEntity
8
0
100
AcDbSpline
70
0
71
2
72
6
73
3
74
0
42
0.000000001
43
0.0000000001
44
0.0000000001
40
0
40
0
40
0
40
1
40
1
40
1
10
-8.9646742654818627
20
-4.4967698264987641
30
0
10
-9.075349671750125
20
-4.4536250747772836
30
0
10
-9.4542718864083675
20
-4.36264623457261
30
0
0
SPLINE
5
160
100
AcDbEntity
8
0
100
AcDbSpline
70
0
71
2
72
6
73
3
74
0
42
0.000000001
43
0.0000000001
44
0.0000000001
40
0
40
0
40
0
40
1
40
1
40
1
10
-9.4542718864083675
20
-4.36264623457261
30
0
10
-9.8331941010666082
20
-4.2716673943679355
30
0
10
-9.985138261528034
20
-4.1910056957787605
30
0
0
SPLINE
5
161
100
AcDbEntity
8
0
100
AcDbSpline
70
0
71
2
72
6
73
3
74
0
42
0.000000001
43
0.0000000001
44
0.0000000001
40
0
40
0
40
0
40
1
40
1
40
1
10
-9.985138261528034
20
-4.1910056957787605
30
0
10
-10.182102701911345
20
-4.0878339041614344
30
0
10
-10.278709159238639
20
-3.9349520265325975
30
0
0
SPLINE
5
162
100
AcDbEntity
8
0
100
AcDbSpline
70
0
71
2
72
6
73
3
74
0
42
0.000000001
43
0.0000000001
44
0.0000000001
40
0
40
0
40
0
40
1
40
1
40
1
10
-10.278709159238639
20
-3.9349520265325975
30
0
10
-10.375315522700351
20
-3.7820699611725956
30
0
10
-10.375315522700351
20
-3.5926088538434753
30
0
0
SPLINE
5
163
100
AcDbEntity
8
0
100
AcDbSpline
70
0
71
2
72
6
73
3
74
0
42
0.000000001
43
0.0000000001
44
0.0000000001
40
0
40
0
40
0
40
1
40
1
40
1
10
-10.375315522700351
20
-3.5926088538434753
30
0
10
-10.375315522700351
20
-3.3843892730805067
30
0
10
-10.257136877243482
20
-3.2033693098385694
30
0
0
SPLINE
5
164
100
AcDbEntity
8
0
100
AcDbSpline
70
0
71
2
72
6
73
3
74
0
42
0.000000001
43
0.0000000001
44
0.0000000001
40
0
40
0
40
0
40
1
40
1
40
1
10
-10.257136877243482
20
-3.2033693098385694
30
0
10
-10.13895813792103
20
-3.0223495343277964
30
0
10
-9.9119799898586312
20
-2.9285569794273942
30
0
0
SPLINE
5
165
100
AcDbEntity
8
0
100
AcDbSpline
70
0
71
2
72
6
73
3
74
0
42
0.000000001
43
0.0000000001
44
0.0000000001
40
0
40
0
40
0
40
1
40
1
40
1
10
-9.9119799898586312
20
-2.9285569794273942
30
0
10
-9.6850017479306505
20
-2.8347644245269921
30
0
10
-9.4073755150925837
20
-2.8347644245269921
30
0
0
SPLINE
5
166
100
AcDbEntity
8
0
100
AcDbSpline
70
0
71
2
72
6
73
3
74
0
42
0.000000001
43
0.0000000001
44
0.0000000001
40
0
40
0
40
0
40
1
40
1
40
1
10
-9.4073755150925837
20
-2.8347644245269921
30
0
10
-9.1016115721037458
20
-2.8347644245269921
30
0
10
-8.8680679958857329
20
-2.9332466916514384
30
0
0
SPLINE
5
167
100
AcDbEntity
8
0
100
AcDbSpline
70
0
71
2
72
6
73
3
74
0
42
0.000000001
43
0.0000000001
44
0.0000000001
40
0
40
0
40
0
40
1
40
1
40
1
10
-8.8680679958857329
20
-2.9332466916514384
30
0
10
-8.634524231936556
20
-3.0317289587758847
30
0
10
-8.5088421595599151
20
-3.2230658759021571
30
0
0
SPLINE
5
168
100
AcDbEntity
8
0
100
AcDbSpline
70
0
71
2
72
6
73
3
74
0
42
0.000000001
43
0.0000000001
44
0.0000000001
40
0
40
0
40
0
40
1
40
1
40
1
10
-8.5088421595599151
20
-3.2230658759021571
30
0
10
-8.3831600871832741
20
-3.41440279302843
30
0
10
-8.3737806627351858
20
-3.6563878887959542
30
0
0
LINE
5
169
100
AcDbEntity
8
0
100
AcDbLine
10
-8.3737806627351841
20
-3.6563878887959542
30
0
11
-8.7226893574455033
21
-3.6826497891495737
31
0
0
SPLINE
5
170
100
AcDbEntity
8
0
100
AcDbSpline
70
0
71
2
72
6
73
3
74
0
42
0.000000001
43
0.0000000001
44
0.0000000001
40
0
40
0
40
0
40
1
40
1
40
1
10
-8.7226893574455033
20
-3.6826497891495737
30
0
10
-8.7508270675962745
20
-3.4219062199482018
30
0
10
-8.9130883696732006
20
-3.2887207206517881
30
0
0
SPLINE
5
171
100
AcDbEntity
8
0
100
AcDbSpline
70
0
71
2
72
6
73
3
74
0
42
0.000000001
43
0.0000000001
44
0.0000000001
40
0
40
0
40
0
40
1
40
1
40
1
10
-8.9130883696732006
20
-3.2887207206517881
30
0
10
-9.075349671750125
20
-3.1555352213553745
30
0
10
-9.3923686612530393
20
-3.1555352213553745
30
0
0
SPLINE
5
172
100
AcDbEntity
8
0
100
AcDbSpline
70
0
71
2
72
6
73
3
74
0
42
0.000000001
43
0.0000000001
44
0.0000000001
40
0
40
0
40
0
40
1
40
1
40
1
10
-9.3923686612530393
20
-3.1555352213553745
30
0
10
-9.7225188825295099
20
-3.1555352213553745
30
0
10
-9.8735249503611957
20
-3.2765275815079722
30
0
0
SPLINE
5
173
100
AcDbEntity
8
0
100
AcDbSpline
70
0
71
2
72
6
73
3
74
0
42
0.000000001
43
0.0000000001
44
0.0000000001
40
0
40
0
40
0
40
1
40
1
40
1
10
-9.8735249503611957
20
-3.2765275815079722
30
0
10
-10.024531112058463
20
-3.3975201293917343
30
0
10
-10.024531112058463
20
-3.5682227632870074
30
0
0
SPLINE
5
174
100
AcDbEntity
8
0
100
AcDbSpline
70
0
71
2
72
6
73
3
74
0
42
0.000000001
43
0.0000000001
44
0.0000000001
40
0
40
0
40
0
40
1
40
1
40
1
10
-10.024531112058463
20
-3.5682227632870074
30
0
10
-10.024531112058463
20
-3.7164151164229651
30
0
10
-9.9176075131156693
20
-3.8120836688516837
30
0
0
SPLINE
5
175
100
AcDbEntity
8
0
100
AcDbSpline
70
0
71
2
72
6
73
3
74
0
42
0.000000001
43
0.0000000001
44
0.0000000001
40
0
40
0
40
0
40
1
40
1
40
1
10
-9.9176075131156693
20
-3.8120836688516837
30
0
10
-9.8125598178356093
20
-3.9077520335492375
30
0
10
-9.3689206633263122
20
-4.0081102982020003
30
0
0
SPLINE
5
176
100
AcDbEntity
8
0
100
AcDbSpline
70
0
71
2
72
6
73
3
74
0
42
0.000000001
43
0.0000000001
44
0.0000000001
40
0
40
0
40
0
40
1
40
1
40
1
10
-9.3689206633263122
20
-4.0081102982020003
30
0
10
-8.925281508817017
20
-4.1084681873924342
30
0
10
-8.7602063043131988
20
-4.1835024565901531
30
0
0
SPLINE
5
177
100
AcDbEntity
8
0
100
AcDbSpline
70
0
71
2
72
6
73
3
74
0
42
0.000000001
43
0.0000000001
44
0.0000000001
40
0
40
0
40
0
40
1
40
1
40
1
10
-8.7602063043131988
20
-4.1835024565901531
30
0
10
-8.5200972060739915
20
-4.2941776751272513
30
0
10
-8.4056701802114251
20
-4.4639424041239479
30
0
0
SPLINE
5
178
100
AcDbEntity
8
0
100
AcDbSpline
70
0
71
2
72
6
73
3
74
0
42
0.000000001
43
0.0000000001
44
0.0000000001
40
0
40
0
40
0
40
1
40
1
40
1
10
-8.4056701802114251
20
-4.4639424041239479
30
0
10
-8.2912431543488587
20
-4.6337069453894815
30
0
10
-8.2912431543488587
20
-4.8550575701948411
30
0
0
SPLINE
5
179
100
AcDbEntity
8
0
100
AcDbSpline
70
0
71
2
72
6
73
3
74
0
42
0.000000001
43
0.0000000001
44
0.0000000001
40
0
40
0
40
0
40
1
40
1
40
1
10
-8.2912431543488587
20
-4.8550575701948411
30
0
10
-8.2912431543488587
20
-5.0745323852030495
30
0
10
-8.4169254144566654
20
-5.2686832047562149
30
0
0
SPLINE
5
180
100
AcDbEntity
8
0
100
AcDbSpline
70
0
71
2
72
6
73
3
74
0
42
0.000000001
43
0.0000000001
44
0.0000000001
40
0
40
0
40
0
40
1
40
1
40
1
10
-8.4169254144566654
20
-5.2686832047562149
30
0
10
-8.5426074868333064
20
-5.4628340243093803
30
0
10
-8.7780270605796353
20
-5.5706953404195856
30
0
0
LINE
5
181
100
AcDbEntity
8
0
100
AcDbLine
10
-7.7828870599885072
20
-5.5989707234477404
30
0
11
-7.7828870599885072
21
-2.881660608111611
31
0
0
LINE
5
182
100
AcDbEntity
8
0
100
AcDbLine
10
-7.7828870599885072
20
-2.881660608111611
30
0
11
-7.4189716991698091
21
-2.881660608111611
31
0
0
LINE
5
183
100
AcDbEntity
8
0
100
AcDbLine
10
-7.4189716991698091
20
-2.881660608111611
30
0
11
-7.4189716991698091
21
-4.0109240128977284
31
0
0
LINE
5
184
100
AcDbEntity
8
0
100
AcDbLine
10
-7.4189716991698091
20
-4.0109240128977284
30
0
11
-5.9895719685174731
21
-4.0109240128977284
31
0
0
LINE
5
185
100
AcDbEntity
8
0
100
AcDbLine
10
-5.9895719685174731
20
-4.0109240128977284
30
0
11
-5.9895719685174731
21
-2.881660608111611
31
0
0
LINE
5
186
100
AcDbEntity
8
0
100
AcDbLine
10
-5.9895719685174731
20
-2.881660608111611
30
0
11
-5.625656607698776
21
-2.881660608111611
31
0
0
LINE
5
187
100
AcDbEntity
8
0
100
AcDbLine
10
-5.625656607698776
20
-2.881660608111611
30
0
11
-5.625656607698776
21
-5.5989707246696643
31
0
0
LWPOLYLINE
5
188
100
AcDbEntity
8
0
100
AcDbPolyline
90
4
70
1
43
0.0
10
-5.9895719685174731
20
-4.335446429320414
10
-5.9895719685174731
20
-5.5989707215571052
10
-7.4189716991698091
20
-5.5989707215571052
10
-7.4189716991698091
20
-4.335446429320414
0
LINE
5
189
100
AcDbEntity
8
0
100
AcDbLine
10
-5.0122525364616166
20
-5.5989707246696643
30
0
11
-5.0122525364616166
21
-2.881660608111611
31
0
0
LINE
5
190
100
AcDbEntity
8
0
100
AcDbLine
10
-5.0122525364616166
20
-2.881660608111611
30
0
11
-3.5519048956925681
21
-2.881660608111611
31
0
0
LWPOLYLINE
5
191
100
AcDbEntity
8
0
100
AcDbPolyline
90
13
70
1
43
0.0
10
-3.0238490960011717
20
-3.2061832122654614
10
-3.0238490960011717
20
-2.881660608111611
10
-3.0238490960011717
20
-2.8399999656780497
10
-2.4573410206174673
20
-2.9290682657195259
10
-2.4573410206174673
20
-5.5989707246696643
10
-2.9600700610486927
20
-5.5989707246696643
10
-2.9600700610486927
20
-5.3071380565224855
10
-4.6483371756429195
20
-5.3071380565224855
10
-4.6483371756429195
20
-4.3710875663909574
10
-3.1270201366938393
20
-4.3710875663909574
10
-3.1270201366938393
20
-4.048440959765423
10
-4.6483371756429195
20
-4.048440959765423
10
-4.6483371756429195
20
-3.2061832122654614
0
SPLINE
5
192
100
AcDbEntity
8
0
100
AcDbSpline
70
0
71
2
72
6
73
3
74
0
42
0.000000001
43
0.0000000001
44
0.0000000001
40
0
40
0
40
0
40
1
40
1
40
1
10
-1.0204376753141948
20
-2.9210535525076224
30
0
10
-0.78408038440045535
20
-2.9754531630120131
30
0
10
-0.61712955783065038
20
-3.118018086756515
30
0
0
SPLINE
5
193
100
AcDbEntity
8
0
100
AcDbSpline
70
0
71
2
72
6
73
3
74
0
42
0.000000001
43
0.0000000001
44
0.0000000001
40
0
40
0
40
0
40
1
40
1
40
1
10
-0.61712955783065038
20
-3.118018086756515
30
0
10
-0.39953036488842908
20
-3.3018515769630157
30
0
10
-0.29166904877822358
20
-3.5879191416194307
30
0
0
SPLINE
5
194
100
AcDbEntity
8
0
100
AcDbSpline
70
0
71
2
72
6
73
3
74
0
42
0.000000001
43
0.0000000001
44
0.0000000001
40
0
40
0
40
0
40
1
40
1
40
1
10
-0.29166904877822358
20
-3.5879191416194307
30
0
10
-0.18380773266801814
20
-3.8739867062758462
30
0
10
-0.18380773266801814
20
-4.2416536866888475
30
0
0
SPLINE
5
195
100
AcDbEntity
8
0
100
AcDbSpline
70
0
71
2
72
6
73
3
74
0
42
0.000000001
43
0.0000000001
44
0.0000000001
40
0
40
0
40
0
40
1
40
1
40
1
10
-0.18380773266801814
20
-4.2416536866888475
30
0
10
-0.18380773266801814
20
-4.5549212443286224
30
0
10
-0.25696581660625634
20
-4.7969061523649827
30
0
0
SPLINE
5
196
100
AcDbEntity
8
0
100
AcDbSpline
70
0
71
2
72
6
73
3
74
0
42
0.000000001
43
0.0000000001
44
0.0000000001
40
0
40
0
40
0
40
1
40
1
40
1
10
-0.25696581660625634
20
-4.7969061523649827
30
0
10
-0.33012390054449453
20
-5.038891248132507
30
0
10
-0.4445513018693899
20
-5.1974007428839641
30
0
0
SPLINE
5
197
100
AcDbEntity
8
0
100
AcDbSpline
70
0
71
2
72
6
73
3
74
0
42
0.000000001
43
0.0000000001
44
0.0000000001
40
0
40
0
40
0
40
1
40
1
40
1
10
-0.4445513018693899
20
-5.1974007428839641
30
0
10
-0.55897795226962677
20
-5.3559102376354213
30
0
10
-0.69497716626176809
20
-5.4468892655712597
30
0
0
SPLINE
5
198
100
AcDbEntity
8
0
100
AcDbSpline
70
0
71
2
72
6
73
3
74
0
42
0.000000001
43
0.0000000001
44
0.0000000001
40
0
40
0
40
0
40
1
40
1
40
1
10
-0.69497716626176809
20
-5.4468892655712597
30
0
10
-0.83097638025390941
20
-5.5378679180447694
30
0
10
-1.0232513900099227
20
-5.5847642893605531
30
0
0
LINE
5
199
100
AcDbEntity
8
0
100
AcDbLine
10
-1.7998546682225824
20
-5.3071380565224855
30
0
11
-1.5062836766463952
21
-5.3071380565224855
31
0
0
SPLINE
5
200
100
AcDbEntity
8
0
100
AcDbSpline
70
0
71
2
72
6
73
3
74
0
42
0.000000001
43
0.0000000001
44
0.0000000001
40
0
40
0
40
0
40
1
40
1
40
1
10
-1.5062836766463952
20
-5.3071380565224855
30
0
10
-1.2342852486621125
20
-5.3071380565224855
30
0
10
-1.0795271857737945
20
-5.2564900656123985
30
0
0
SPLINE
5
201
100
AcDbEntity
8
0
100
AcDbSpline
70
0
71
2
72
6
73
3
74
0
42
0.000000001
43
0.0000000001
44
0.0000000001
40
0
40
0
40
0
40
1
40
1
40
1
10
-1.0795271857737945
20
-5.2564900656123985
30
0
10
-0.9247691228854763
20
-5.2058420747023115
30
0
10
-0.83285219005106126
20
-5.113925329599061
30
0
0
SPLINE
5
202
100
AcDbEntity
8
0
100
AcDbSpline
70
0
71
2
72
6
73
3
74
0
42
0.000000001
43
0.0000000001
44
0.0000000001
40
0
40
0
40
0
40
1
40
1
40
1
10
-0.83285219005106126
20
-5.113925329599061
30
0
10
-0.7034183103489513
20
-4.984491449896951
30
0
10
-0.6311988822339476
20
-4.7659545397873186
30
0
0
SPLINE
5
203
100
AcDbEntity
8
0
100
AcDbSpline
70
0
71
2
72
6
73
3
74
0
42
0.000000001
43
0.0000000001
44
0.0000000001
40
0
40
0
40
0
40
1
40
1
40
1
10
-0.6311988822339476
20
-4.7659545397873186
30
0
10
-0.55897795226962677
20
-4.5474178174088511
30
0
10
-0.55897795226962677
20
-4.2360262572973921
30
0
0
SPLINE
5
204
100
AcDbEntity
8
0
100
AcDbSpline
70
0
71
2
72
6
73
3
74
0
42
0.000000001
43
0.0000000001
44
0.0000000001
40
0
40
0
40
0
40
1
40
1
40
1
10
-0.55897795226962677
20
-4.2360262572973921
30
0
10
-0.55897795226962677
20
-3.8045800542007471
30
0
10
-0.7006053465778822
20
-3.5729122877798871
30
0
0
SPLINE
5
205
100
AcDbEntity
8
0
100
AcDbSpline
70
0
71
2
72
6
73
3
74
0
42
0.000000001
43
0.0000000001
44
0.0000000001
40
0
40
0
40
0
40
1
40
1
40
1
10
-0.7006053465778822
20
-3.5729122877798871
30
0
10
-0.84223198996147897
20
-3.3412445213590272
30
0
10
-1.0448239536018271
20
-3.2624586325670042
30
0
0
SPLINE
5
206
100
AcDbEntity
8
0
100
AcDbSpline
70
0
71
2
72
6
73
3
74
0
42
0.000000001
43
0.0000000001
44
0.0000000001
40
0
40
0
40
0
40
1
40
1
40
1
10
-1.0448239536018271
20
-3.2624586325670042
30
0
10
-1.1911408724029622
20
-3.2061832122654614
30
0
10
-1.5156627256321544
20
-3.2061832122654614
30
0
0
LINE
5
207
100
AcDbEntity
8
0
100
AcDbLine
10
-1.5156627256321544
20
-3.2061832122654614
30
0
11
-1.804544192715462
21
-3.2061832122654614
31
0
0
LINE
5
208
100
AcDbEntity
8
0
100
AcDbLine
10
-2.0934256597987697
20
-3.2061832122654614
30
0
11
-2.0934256597987697
21
-5.3071380565224855
31
0
0
LINE
5
209
100
AcDbEntity
8
0
100
AcDbLine
10
2.3298359676387901
20
-5.5989707138388001
30
0
11
2.3298359676387914
21
-4.9732364033828755
31
0
0
LINE
5
210
100
AcDbEntity
8
0
100
AcDbLine
10
2.3298359676387914
20
-4.9732364033828755
30
0
11
1.1367924015132072
21
-4.9732364033828755
31
0
0
LINE
5
211
100
AcDbEntity
8
0
100
AcDbLine
10
1.1367924015132072
20
-4.9732364033828755
30
0
11
1.1367924015132072
21
-4.6637206530685686
31
0
0
LINE
5
212
100
AcDbEntity
8
0
100
AcDbLine
10
2.3917391927941187
20
-2.881660608111611
30
0
11
2.6674877385233877
21
-2.881660608111611
31
0
0
LINE
5
213
100
AcDbEntity
8
0
100
AcDbLine
10
2.6674877385233877
20
-2.881660608111611
30
0
11
2.6674877385233877
21
-4.6637206530685686
31
0
0
LINE
5
214
100
AcDbEntity
8
0
100
AcDbLine
10
2.6674877385233877
20
-4.6637206530685686
30
0
11
3.0389070894553516
21
-4.6637206530685686
31
0
0
LINE
5
215
100
AcDbEntity
8
0
100
AcDbLine
10
3.0389070894553516
20
-4.6637206530685686
30
0
11
3.0389070894553516
21
-4.9732364033828755
31
0
0
LINE
5
216
100
AcDbEntity
8
0
100
AcDbLine
10
3.0389070894553516
20
-4.9732364033828755
30
0
11
2.6674877385233877
21
-4.9732364033828755
31
0
0
LINE
5
217
100
AcDbEntity
8
0
100
AcDbLine
10
2.6674877385233877
20
-4.9732364033828755
30
0
11
2.6674877385233891
21
-5.5989707092429333
31
0
0
LWPOLYLINE
5
218
100
AcDbEntity
8
0
100
AcDbPolyline
90
4
70
1
43
0.0
10
2.3298359676387914
20
-3.4237820297453538
10
2.3298359676387914
20
-4.6637206530685686
10
1.4688182448556653
20
-4.6637206530685686
10
2.0055809398618458
20
-3.8907367997909486
0
LINE
5
219
100
AcDbEntity
8
0
100
AcDbLine
10
4.4664298839235475
20
-5.5989707092429333
30
0
11
4.4664298839235475
21
-4.9732364033828755
31
0
0
LINE
5
220
100
AcDbEntity
8
0
100
AcDbLine
10
4.4664298839235475
20
-4.9732364033828755
30
0
11
3.2733878196472803
21
-4.9732364033828755
31
0
0
LINE
5
221
100
AcDbEntity
8
0
100
AcDbLine
10
3.2733878196472803
20
-4.9732364033828755
30
0
11
3.2733878196472803
21
-4.6637206530685686
31
0
0
LINE
5
222
100
AcDbEntity
8
0
100
AcDbLine
10
4.5283331090788748
20
-2.881660608111611
30
0
11
4.8040846585067785
21
-2.881660608111611
31
0
0
LINE
5
223
100
AcDbEntity
8
0
100
AcDbLine
10
4.8040846585067785
20
-2.881660608111611
30
0
11
4.8040846585067785
21
-4.6637206530685686
31
0
0
LINE
5
224
100
AcDbEntity
8
0
100
AcDbLine
10
4.8040846585067785
20
-4.6637206530685686
30
0
11
5.1755040094387423
21
-4.6637206530685686
31
0
0
LINE
5
225
100
AcDbEntity
8
0
100
AcDbLine
10
5.1755040094387423
20
-4.6637206530685686
30
0
11
5.1755040094387423
21
-4.9732364033828755
31
0
0
LINE
5
226
100
AcDbEntity
8
0
100
AcDbLine
10
5.1755040094387423
20
-4.9732364033828755
30
0
11
4.8040846585067785
21
-4.9732364033828755
31
0
0
LINE
5
227
100
AcDbEntity
8
0
100
AcDbLine
10
4.8040846585067785
20
-4.9732364033828755
30
0
11
4.8040846585067785
21
-5.5989707051675905
31
0
0
LWPOLYLINE
5
228
100
AcDbEntity
8
0
100
AcDbPolyline
90
4
70
1
43
0.0
10
4.4664298839235475
20
-3.4237820297453538
10
4.4664298839235475
20
-4.6637206530685686
10
3.6054136629897386
20
-4.6637206530685686
10
4.156665604544135
20
-3.869869669896727
0
SPLINE
5
229
100
AcDbEntity
8
0
100
AcDbSpline
70
0
71
2
72
6
73
3
74
0
42
0.000000001
43
0.0000000001
44
0.0000000001
40
0
40
0
40
0
40
1
40
1
40
1
10
6.0402718499668548
20
-4.1403577048686735
30
0
10
5.8301751452885817
20
-4.0634476258738026
30
0
10
5.7288784125437493
20
-3.9208830775916295
30
0
0
SPLINE
5
230
100
AcDbEntity
8
0
100
AcDbSpline
70
0
71
2
72
6
73
3
74
0
42
0.000000001
43
0.0000000001
44
0.0000000001
40
0
40
0
40
0
40
1
40
1
40
1
10
5.7288784125437493
20
-3.9208830775916295
30
0
10
5.6275846834975507
20
-3.7783183415782924
30
0
10
5.6275846834975507
20
-3.5794778098010829
30
0
0
SPLINE
5
231
100
AcDbEntity
8
0
100
AcDbSpline
70
0
71
2
72
6
73
3
74
0
42
0.000000001
43
0.0000000001
44
0.0000000001
40
0
40
0
40
0
40
1
40
1
40
1
10
5.6275846834975507
20
-3.5794778098010829
30
0
10
5.6275846834975507
20
-3.2793414839348642
30
0
10
5.8433073157179622
20
-3.0748735227661999
30
0
0
SPLINE
5
232
100
AcDbEntity
8
0
100
AcDbSpline
70
0
71
2
72
6
73
3
74
0
42
0.000000001
43
0.0000000001
44
0.0000000001
40
0
40
0
40
0
40
1
40
1
40
1
10
6.9969558724047234
20
-3.0795630472590791
30
0
10
7.2164301242194382
20
-3.2887207206517881
30
0
10
7.2164301242194382
20
-3.5888570465180067
30
0
0
SPLINE
5
233
100
AcDbEntity
8
0
100
AcDbSpline
70
0
71
2
72
6
73
3
74
0
42
0.000000001
43
0.0000000001
44
0.0000000001
40
0
40
0
40
0
40
1
40
1
40
1
10
7.2164301242194382
20
-3.5888570465180067
30
0
10
7.2164301242194382
20
-3.780194151375444
30
0
10
7.1160735491471572
20
-3.9218209824902055
30
0
0
SPLINE
5
234
100
AcDbEntity
8
0
100
AcDbSpline
70
0
71
2
72
6
73
3
74
0
42
0.000000001
43
0.0000000001
44
0.0000000001
40
0
40
0
40
0
40
1
40
1
40
1
10
7.1160735491471572
20
-3.9218209824902055
30
0
10
7.0157139703762414
20
-4.0634476258738026
30
0
10
6.8112461969387414
20
-4.1403577048686735
30
0
0
SPLINE
5
235
100
AcDbEntity
8
0
100
AcDbSpline
70
0
71
2
72
6
73
3
74
0
42
0.000000001
43
0.0000000001
44
0.0000000001
40
0
40
0
40
0
40
1
40
1
40
1
10
6.8112461969387414
20
-4.1403577048686735
30
0
10
7.0644880288008238
20
-4.2228952132549997
30
0
10
7.1967348722740025
20
-4.4067287034615008
30
0
0
SPLINE
5
236
100
AcDbEntity
8
0
100
AcDbSpline
70
0
71
2
72
6
73
3
74
0
42
0.000000001
43
0.0000000001
44
0.0000000001
40
0
40
0
40
0
40
1
40
1
40
1
10
7.1967348722740025
20
-4.4067287034615008
30
0
10
7.3289817157471822
20
-4.5905623813991658
30
0
10
7.3289817157471822
20
-4.8456783334779177
30
0
0
SPLINE
5
237
100
AcDbEntity
8
0
100
AcDbSpline
70
0
71
2
72
6
73
3
74
0
42
0.000000001
43
0.0000000001
44
0.0000000001
40
0
40
0
40
0
40
1
40
1
40
1
10
7.3289817157471822
20
-4.8456783334779177
30
0
10
7.3289817157471822
20
-5.1983386477825402
30
0
10
7.0794945071780377
20
-5.4384477460217475
30
0
0
SPLINE
5
238
100
AcDbEntity
8
0
100
AcDbSpline
70
0
71
2
72
6
73
3
74
0
42
0.000000001
43
0.0000000001
44
0.0000000001
40
0
40
0
40
0
40
1
40
1
40
1
10
5.7663976121854201
20
-5.4375098411231715
30
0
10
5.5169073999176419
20
-5.1964628379853881
30
0
10
5.5169073999176419
20
-4.8362990967609942
30
0
0
SPLINE
5
239
100
AcDbEntity
8
0
100
AcDbSpline
70
0
71
2
72
6
73
3
74
0
42
0.000000001
43
0.0000000001
44
0.0000000001
40
0
40
0
40
0
40
1
40
1
40
1
10
5.5169073999176419
20
-4.8362990967609942
30
0
10
5.5169073999176419
20
-4.56805210063985
30
0
10
5.6529088666837595
20
-4.387032325129077
30
0
0
SPLINE
5
240
100
AcDbEntity
8
0
100
AcDbSpline
70
0
71
2
72
6
73
3
74
0
42
0.000000001
43
0.0000000001
44
0.0000000001
40
0
40
0
40
0
40
1
40
1
40
1
10
5.6529088666837595
20
-4.387032325129077
30
0
10
5.7889073297512423
20
-4.2060125496183041
30
0
10
6.0402718499668548
20
-4.1403577048686735
30
0
0
SPLINE
5
241
100
AcDbEntity
8
0
100
AcDbSpline
70
0
71
2
72
6
73
3
74
0
42
0.000000001
43
0.0000000001
44
0.0000000001
40
0
40
0
40
0
40
1
40
1
40
1
10
5.9727396935707544
20
-3.5682227632870074
30
0
10
5.9727396935707544
20
-3.7633114877387484
30
0
10
6.098423455527878
20
-3.8871177503182381
30
0
0
SPLINE
5
242
100
AcDbEntity
8
0
100
AcDbSpline
70
0
71
2
72
6
73
3
74
0
42
0.000000001
43
0.0000000001
44
0.0000000001
40
0
40
0
40
0
40
1
40
1
40
1
10
6.098423455527878
20
-3.8871177503182381
30
0
10
6.2241042137863678
20
-4.0109240128977284
30
0
10
6.4248203676295637
20
-4.0109240128977284
30
0
0
SPLINE
5
243
100
AcDbEntity
8
0
100
AcDbSpline
70
0
71
2
72
6
73
3
74
0
42
0.000000001
43
0.0000000001
44
0.0000000001
40
0
40
0
40
0
40
1
40
1
40
1
10
6.4248203676295637
20
-4.0109240128977284
30
0
10
6.619910593930622
20
-4.0109240128977284
30
0
10
6.7446541982151933
20
-3.8880556552168142
30
0
0
SPLINE
5
244
100
AcDbEntity
8
0
100
AcDbSpline
70
0
71
2
72
6
73
3
74
0
42
0.000000001
43
0.0000000001
44
0.0000000001
40
0
40
0
40
0
40
1
40
1
40
1
10
6.7446541982151933
20
-3.8880556552168142
30
0
10
6.8693978024997655
20
-3.7651872975359
30
0
10
6.8693978024997655
20
-3.5869812367208551
30
0
0
SPLINE
5
245
100
AcDbEntity
8
0
100
AcDbSpline
70
0
71
2
72
6
73
3
74
0
42
0.000000001
43
0.0000000001
44
0.0000000001
40
0
40
0
40
0
40
1
40
1
40
1
10
6.8693978024997655
20
-3.5869812367208551
30
0
10
6.8693978024997655
20
-3.4012719367172024
30
0
10
6.74090257862089
20
-3.2746517717108201
30
0
0
SPLINE
5
246
100
AcDbEntity
8
0
100
AcDbSpline
70
0
71
2
72
6
73
3
74
0
42
0.000000001
43
0.0000000001
44
0.0000000001
40
0
40
0
40
0
40
1
40
1
40
1
10
6.1002977634757132
20
-3.2718380570150924
30
0
10
5.9727396935707544
20
-3.3956443195945822
30
0
10
5.9727396935707544
20
-3.5682227632870074
30
0
0
SPLINE
5
247
100
AcDbEntity
8
0
100
AcDbSpline
70
0
71
2
72
6
73
3
74
0
42
0.000000001
43
0.0000000001
44
0.0000000001
40
0
40
0
40
0
40
1
40
1
40
1
10
5.8639397216373146
20
-4.8381749065581454
30
0
10
5.8639397216373146
20
-4.9826156400997998
30
0
10
5.9324090320073317
20
-5.11767713692453
30
0
0
SPLINE
5
248
100
AcDbEntity
8
0
100
AcDbSpline
70
0
71
2
72
6
73
3
74
0
42
0.000000001
43
0.0000000001
44
0.0000000001
40
0
40
0
40
0
40
1
40
1
40
1
10
5.9324090320073317
20
-5.11767713692453
30
0
10
6.0008783423773489
20
-5.2527384460180953
30
0
10
6.135939651470915
20
-5.3268344348549093
30
0
0
SPLINE
5
249
100
AcDbEntity
8
0
100
AcDbSpline
70
0
71
2
72
6
73
3
74
0
42
0.000000001
43
0.0000000001
44
0.0000000001
40
0
40
0
40
0
40
1
40
1
40
1
10
6.8262526753159563
20
-5.245235019098323
30
0
10
6.9838237019753437
20
-5.089539239042594
30
0
10
6.9838237019753437
20
-4.8494301408033857
30
0
0
SPLINE
5
250
100
AcDbEntity
8
0
100
AcDbSpline
70
0
71
2
72
6
73
3
74
0
42
0.000000001
43
0.0000000001
44
0.0000000001
40
0
40
0
40
0
40
1
40
1
40
1
10
6.9838237019753437
20
-4.8494301408033857
30
0
10
6.9838237019753437
20
-4.6055692352387094
30
0
10
6.8215639017477354
20
-4.4461218355886771
30
0
0
SPLINE
5
251
100
AcDbEntity
8
0
100
AcDbSpline
70
0
71
2
72
6
73
3
74
0
42
0.000000001
43
0.0000000001
44
0.0000000001
40
0
40
0
40
0
40
1
40
1
40
1
10
6.8215639017477354
20
-4.4461218355886771
30
0
10
6.6593010978214933
20
-4.2866742482074791
30
0
10
6.415442820493122
20
-4.2866742482074791
30
0
0
SPLINE
5
252
100
AcDbEntity
8
0
100
AcDbSpline
70
0
71
2
72
6
73
3
74
0
42
0.000000001
43
0.0000000001
44
0.0000000001
40
0
40
0
40
0
40
1
40
1
40
1
10
6.415442820493122
20
-4.2866742482074791
30
0
10
6.1772074670082544
20
-4.2866742482074791
30
0
10
6.0205735943227845
20
-4.4442458380603602
30
0
0
SPLINE
5
253
100
AcDbEntity
8
0
100
AcDbSpline
70
0
71
2
72
6
73
3
74
0
42
0.000000001
43
0.0000000001
44
0.0000000001
40
0
40
0
40
0
40
1
40
1
40
1
10
6.0205735943227845
20
-4.4442458380603602
30
0
10
5.8639397216373146
20
-4.6018174279132413
30
0
10
5.8639397216373146
20
-4.8381749065581454
30
0
0
LINE
5
254
100
AcDbEntity
8
0
100
AcDbLine
10
8.7396237238903289
20
-5.5989707246696643
30
0
11
8.7396237238903289
21
-4.9732364033828755
31
0
0
LINE
5
255
100
AcDbEntity
8
0
100
AcDbLine
10
8.7396237238903289
20
-4.9732364033828755
30
0
11
7.5465816596140618
21
-4.9732364033828755
31
0
0
LINE
5
256
100
AcDbEntity
8
0
100
AcDbLine
10
7.5465816596140618
20
-4.9732364033828755
30
0
11
7.5465816596140618
21
-4.6637206530685686
31
0
0
LINE
5
257
100
AcDbEntity
8
0
100
AcDbLine
10
8.8015269490456554
20
-2.881660608111611
30
0
11
9.0772754947749252
21
-2.881660608111611
31
0
0
LINE
5
258
100
AcDbEntity
8
0
100
AcDbLine
10
9.0772754947749252
20
-2.881660608111611
30
0
11
9.0772754947749252
21
-4.6637206530685686
31
0
0
LINE
5
259
100
AcDbEntity
8
0
100
AcDbLine
10
9.0772754947749252
20
-4.6637206530685686
30
0
11
9.4486948457068891
21
-4.6637206530685686
31
0
0
LINE
5
260
100
AcDbEntity
8
0
100
AcDbLine
10
9.4486948457068891
20
-4.6637206530685686
30
0
11
9.4486948457068909
21
-4.6929167243777394
31
0
0
LWPOLYLINE
5
261
100
AcDbEntity
8
0
100
AcDbPolyline
90
3
70
1
43
0.0
10
9.0772754947749252
20
-4.9732364033828755
10
9.3115705261159327
20
-4.9732364033828951
42
-0.011280162357478219
10
9.077275494774927
20
-5.4107107302594422
0
LWPOLYLINE
5
262
100
AcDbEntity
8
0
100
AcDbPolyline
90
4
70
1
43
0.0
10
8.7396237238903289
20
-3.4237820297453538
10
8.7396237238903289
20
-4.6637206530685686
10
7.8786075029565197
20
-4.6637206530685686
10
8.4256930089246858
20
-3.8758697013471841
0
SPLINE
5
263
100
AcDbEntity
8
0
100
AcDbSpline
70
4
71
5
72
31
73
25
74
0
42
0.000000001
43
0.0000000001
44
0.0000000001
40
0.54651706026273927
40
0.54651706026273927
40
0.54651706026273927
40
0.54651706026273927
40
0.54651706026273927
40
0.54651706026273927
40
0.55555555555555536
40
0.57777777777777761
40
0.59999999999999987
40
0.62222222222222212
40
0.64444444444444438
40
0.66666666666666663
40
0.68888888888888888
40
0.71111111111111114
40
0.73333333333333339
40
0.75555555555555565
40
0.7777777777777779
40
0.80000000000000016
40
0.82222222222222241
40
0.84444444444444466
40
0.86666666666666692
40
0.88888888888888917
40
0.91111111111111143
40
0.93333333333333368
40
0.95555555555555594
40
0.97018258956351988
40
0.97018258956351988
40
0.97018258956351988
40
0.97018258956351988
40
0.97018258956351988
40
0.97018258956351988
41
1
41
1
41
1
41
1
41
1
41
1
41
1
41
1
41
1
41
1
41
1
41
1
41
1
41
1
41
1
41
1
41
1
41
1
41
1
41
1
41
1
41
1
41
1
41
1
41
1
10
-0.90836228123474083
20
0.086958531823873919
30
0
10
-0.90565012523476929
20
0.076519451934497038
30
0
10
-0.89642632001901545
20
0.040252509074632556
30
0
10
-0.88154610606126937
20
-0.022763133055080476
30
0
10
-0.86245761734523363
20
-0.11437324983828052
30
0
10
-0.84087751566042901
20
-0.23743508540150191
30
0
10
-0.82042741853867496
20
-0.38288520648489055
30
0
10
-0.80454117288245675
20
-0.53343239636887885
30
0
10
-0.79408208376944289
20
-0.68807867504473985
30
0
10
-0.79001839497492599
20
-0.84568959392293652
30
0
10
-0.79315510654272114
20
-1.0051588992246259
30
0
10
-0.80390023550792755
20
-1.1655517181668487
30
0
10
-0.82196648255595672
20
-1.3262827463737183
30
0
10
-0.84647315275254087
20
-1.4870834682439606
30
0
10
-0.87614288153620001
20
-1.647919956759867
30
0
10
-0.90946188148502205
20
-1.8089291646473611
30
0
10
-0.94485984302064574
20
-1.9703461626801821
30
0
10
-0.9808678893731001
20
-2.1324401998023532
30
0
10
-1.0163180436268546
20
-2.2954359480125746
30
0
10
-1.0503990443299123
20
-2.4594852856187503
30
0
10
-1.0803711876923661
20
-2.6133959484947917
30
0
10
-1.1024193596657073
20
-2.7350762279218306
30
0
10
-1.1176055216911447
20
-2.8239304494174045
30
0
10
-1.1267488659308775
20
-2.8795288941283781
30
0
10
-1.1303260639214101
20
-2.9016251667624173
30
0
0
LINE
5
264
100
AcDbEntity
8
0
100
AcDbLine
10
1.1367924015132072
20
-4.6637206530685686
30
0
11
2.0055809398618458
21
-3.4300162821227702
31
0
0
LINE
5
265
100
AcDbEntity
8
0
100
AcDbLine
10
2.3298359676387914
20
-2.9695649439525633
30
0
11
2.3917391927941187
21
-2.881660608111611
31
0
0
LINE
5
266
100
AcDbEntity
8
0
100
AcDbLine
10
7.5465816596140618
20
-4.6637206530685686
30
0
11
8.4256930089246858
21
-3.415356103738902
31
0
0
LINE
5
267
100
AcDbEntity
8
0
100
AcDbLine
10
8.7396237238903289
20
-2.9695650491516248
30
0
11
8.8015269490456554
21
-2.881660608111611
31
0
0
LINE
5
268
100
AcDbEntity
8
0
100
AcDbLine
10
3.2733878196472803
20
-4.6637206530685686
30
0
11
4.156665604544135
21
-3.4094396399291735
31
0
0
LINE
5
269
100
AcDbEntity
8
0
100
AcDbLine
10
4.4664298839235475
20
-2.9695650491516248
30
0
11
4.5283331090788748
21
-2.881660608111611
31
0
0
SPLINE
5
270
100
AcDbEntity
8
0
100
AcDbSpline
70
0
71
2
72
6
73
3
74
0
42
0.000000001
43
0.0000000001
44
0.0000000001
40
0
40
0
40
0
40
0.58953861610415437
40
0.58953861610415437
40
0.58953861610415437
10
6.135939651470915
20
-5.3268344348549093
30
0
10
6.2155635087231511
20
-5.3705171029221752
30
0
10
6.302359321858269
20
-5.3884471513093288
30
0
0
SPLINE
5
271
100
AcDbEntity
8
0
100
AcDbSpline
70
0
71
2
72
6
73
3
74
0
42
0.000000001
43
0.0000000001
44
0.0000000001
40
0.15882621060838878
40
0.15882621060838878
40
0.15882621060838878
40
1
40
1
40
1
10
6.5014350919744901
20
-5.397003253967438
30
0
10
6.693708057722553
20
-5.3762022284000839
30
0
10
6.8262526753159563
20
-5.245235019098323
30
0
0
SPLINE
5
272
100
AcDbEntity
8
0
100
AcDbSpline
70
0
71
2
72
6
73
3
74
0
42
0.000000001
43
0.0000000001
44
0.0000000001
40
0
40
0
40
0
40
0.83317520264182221
40
0.83317520264182221
40
0.83317520264182221
10
5.8433073157179622
20
-3.0748735227661999
30
0
10
6.0230420635326301
20
-2.9045158877857373
30
0
10
6.301742400390447
20
-2.8760960098517034
30
0
0
SPLINE
5
273
100
AcDbEntity
8
0
100
AcDbSpline
70
0
71
2
72
6
73
3
74
0
42
0.000000001
43
0.0000000001
44
0.0000000001
40
0.11956952429193751
40
0.11956952429193751
40
0.11956952429193751
40
1
40
1
40
1
10
6.5014350921905457
20
-2.8733958592178794
30
0
10
6.8037240524738234
20
-2.8954144226601839
30
0
10
6.9969558724047234
20
-3.0795630472590791
30
0
0
SPLINE
5
274
100
AcDbEntity
8
0
100
AcDbSpline
70
0
71
2
72
6
73
3
74
0
42
0.000000001
43
0.0000000001
44
0.0000000001
40
0.32695781061354667
40
0.32695781061354667
40
0.32695781061354667
40
1
40
1
40
1
10
6.3017424003917002
20
-3.1612668584624246
30
0
10
6.1861497261184564
20
-3.1885112189888387
30
0
10
6.1002977634757132
20
-3.2718380570150924
30
0
0
SPLINE
5
275
100
AcDbEntity
8
0
100
AcDbSpline
70
0
71
2
72
6
73
3
74
0
42
0.000000001
43
0.0000000001
44
0.0000000001
40
0
40
0
40
0
40
0.78219904720348432
40
0.78219904720348432
40
0.78219904720348432
10
6.74090257862089
20
-3.2746517717108201
30
0
10
6.6403937369326353
20
-3.1756097461292181
30
0
10
6.5014350921515129
20
-3.1540382985906481
30
0
0
LWPOLYLINE
5
276
100
AcDbEntity
8
0
100
AcDbPolyline
90
2
70
1
43
0.0
10
-9.4824641561941103
20
-6.3494357161333372
10
8.4824641712126052
20
-6.3494357161333372
42
-0.51773812106653272
0
LINE
5
277
100
AcDbEntity
8
0
100
AcDbLine
10
8.9684488345250397
20
-5.5989707246696652
30
0
11
8.9707078402629001
21
-5.5989707246696643
31
0
0
SPLINE
5
278
100
AcDbEntity
8
0
100
AcDbSpline
70
0
71
2
72
6
73
3
74
0
42
0.000000001
43
0.0000000001
44
0.0000000001
40
0
40
0
40
0
40
0.42427512792683303
40
0.42427512792683303
40
0.42427512792683303
10
7.0794945071780377
20
-5.4384477460217475
30
0
10
6.9736420154516328
20
-5.5403201440432479
30
0
10
6.8394258009460245
20
-5.598970617361962
30
0
0
LINE
5
279
100
AcDbEntity
8
0
100
AcDbLine
10
6.3023593168326073
20
-5.6746850653750203
30
0
11
6.3023593175405859
21
-5.6729418030276237
31
0
0
SPLINE
5
280
100
AcDbEntity
8
0
100
AcDbSpline
70
0
71
2
72
6
73
3
74
0
42
0.000000001
43
0.0000000001
44
0.0000000001
40
0.57460333192363244
40
0.57460333192363244
40
0.57460333192363244
40
1
40
1
40
1
10
6.0071746296177686
20
-5.5989707246677103
30
0
10
5.8725286394384071
20
-5.5400505129679898
30
0
10
5.7663976121854201
20
-5.4375098411231715
30
0
0
LINE
5
281
100
AcDbEntity
8
0
100
AcDbLine
10
2.6674877385233891
20
-5.5989707092429333
30
0
11
4.4664298839235475
21
-5.5989707092429333
31
0
0
SPLINE
5
282
100
AcDbEntity
8
0
100
AcDbSpline
70
0
71
2
72
6
73
3
74
0
42
0.000000001
43
0.0000000001
44
0.0000000001
40
0
40
0
40
0
40
0.16509432047011613
40
0.16509432047011613
40
0.16509432047011613
10
-1.0232513900099227
20
-5.5847642893605531
30
0
10
-1.0549949020889766
20
-5.5925066139154476
30
0
10
-1.0882978384971962
20
-5.5989707246590923
30
0
0
LINE
5
283
100
AcDbEntity
8
0
100
AcDbLine
10
-1.088297838497196
20
-5.5989707138282272
30
0
11
2.3298359676387901
21
-5.5989707138388001
31
0
0
LINE
5
284
100
AcDbEntity
8
0
100
AcDbLine
10
-5.625656607698776
20
-5.5989707246696643
30
0
11
-5.0122525364616166
21
-5.5989707246696643
31
0
0
SPLINE
5
285
100
AcDbEntity
8
0
100
AcDbSpline
70
0
71
2
72
6
73
3
74
0
42
0.000000001
43
0.0000000001
44
0.0000000001
40
0.85527452290271067
40
0.85527452290271067
40
0.85527452290271067
40
1
40
1
40
1
10
-9.8579889286790543
20
-5.5989707245348077
30
0
10
-9.8970377237605582
20
-5.5855035090282836
30
0
10
-9.9335522718537899
20
-5.5697574355210095
30
0
0
SPLINE
5
286
100
AcDbEntity
8
0
100
AcDbSpline
70
0
71
2
72
6
73
3
74
0
42
0.000000001
43
0.0000000001
44
0.0000000001
40
0
40
0
40
0
40
0.14101503128027212
40
0.14101503128027212
40
0.14101503128027212
10
-8.7780270605796353
20
-5.5706953404195856
30
0
10
-8.811224732662545
20
-5.5859054602306291
30
0
10
-8.8455974137861126
20
-5.5989707245207425
30
0
0
LINE
5
287
100
AcDbEntity
8
0
100
AcDbLine
10
-9.9684488195065466
20
-5.5989707246696643
30
0
11
-9.8579889286790543
21
-5.5989707245348077
31
0
0
LINE
5
288
100
AcDbEntity
8
0
100
AcDbLine
10
-8.8455974137861126
20
-5.5989707232988177
30
0
11
-7.7828870599885072
21
-5.5989707234477404
31
0
0
SPLINE
5
289
100
AcDbEntity
8
0
100
AcDbSpline
70
0
71
2
72
6
73
3
74
0
42
0.000000001
43
0.0000000001
44
0.0000000001
40
0
40
0
40
0
40
0.14814889467459613
40
0.14814889467459613
40
0.14814889467459613
10
-9.9335522718537899
20
-5.5697574355210095
30
0
10
-9.9709305555399297
20
-5.5536389511871009
30
0
10
-10.005920899467831
20
-5.5351119295081199
30
0
0
LINE
5
290
100
AcDbEntity
8
0
100
AcDbLine
10
4.8040846585067785
20
-5.5989707051675905
30
0
11
6.0071746296177686
21
-5.5989707051656366
31
0
0
LINE
5
291
100
AcDbEntity
8
0
100
AcDbLine
10
6.8394258009460227
20
-5.5989707041495729
30
0
11
8.7396237238903289
21
-5.5989707246696643
31
0
0
SPLINE
5
292
100
AcDbEntity
8
0
100
AcDbSpline
70
0
71
2
72
6
73
3
74
0
42
0.000000001
43
0.0000000001
44
0.0000000001
40
0.711902692362545
40
0.711902692362545
40
0.711902692362545
40
1
40
1
40
1
10
-1.1303260639180592
20
-2.9016251667627886
30
0
10
-1.069076174709003
20
-2.9097045512872195
30
0
10
-1.0204376753141948
20
-2.9210535525076224
30
0
0
LINE
5
293
100
AcDbEntity
8
0
100
AcDbLine
10
2.1061559651878645
20
3.2582611371238444
30
0
11
2.1061559651878645
21
1.6000000510628767
31
0
0
LINE
5
294
100
AcDbEntity
8
0
100
AcDbLine
10
2.1061559651878645
20
1.6000000510628767
30
0
11
2.9688477584987143
21
1.6708057610604465
31
0
0
SPLINE
5
295
100
AcDbEntity
8
0
100
AcDbSpline
70
4
71
5
72
16
73
10
74
0
42
0.000000001
43
0.0000000001
44
0.0000000001
40
0
40
0
40
0
40
0
40
0
40
0
40
0.20000000000000001
40
0.40000000000000002
40
0.60000000000000009
40
0.80000000000000004
40
1
40
1
40
1
40
1
40
1
40
1
41
1
41
1
41
1
41
1
41
1
41
1
41
1
41
1
41
1
41
1
10
2.4000000765943148
20
4.7000001499971997
30
0
10
2.4235737216591779
20
4.6977096464454275
30
0
10
2.4707210117889766
20
4.6931286393421647
30
0
10
2.5414419469839076
20
4.6862571286881556
30
0
10
2.635736527244231
20
4.6770951144843744
30
0
10
2.7536047525701357
20
4.6656425967314616
30
0
10
2.8478993328311102
20
4.656480582530067
30
0
10
2.9186202680269431
20
4.6496090718794107
30
0
10
2.9657675581575358
20
4.6450280647791375
30
0
10
2.9893412032228426
20
4.6427375612290414
30
0
0
SPLINE
5
296
100
AcDbEntity
8
0
100
AcDbSpline
70
4
71
5
72
36
73
30
74
0
42
0.000000001
43
0.0000000001
44
0.0000000001
40
0
40
0
40
0
40
0
40
0
40
0
40
0.040000000000000001
40
0.080000000000000002
40
0.12
40
0.16
40
0.20000000000000001
40
0.24000000000000002
40
0.28000000000000003
40
0.32000000000000001
40
0.35999999999999999
40
0.39999999999999997
40
0.43999999999999995
40
0.47999999999999993
40
0.51999999999999991
40
0.55999999999999994
40
0.59999999999999998
40
0.64000000000000001
40
0.68000000000000005
40
0.72000000000000008
40
0.76000000000000012
40
0.80000000000000016
40
0.84000000000000019
40
0.88000000000000023
40
0.92000000000000026
40
0.9600000000000003
40
1
40
1
40
1
40
1
40
1
40
1
41
1
41
1
41
1
41
1
41
1
41
1
41
1
41
1
41
1
41
1
41
1
41
1
41
1
41
1
41
1
41
1
41
1
41
1
41
1
41
1
41
1
41
1
41
1
41
1
41
1
41
1
41
1
41
1
41
1
41
1
10
2.9309850030670921
20
3.4756135581140408
30
0
10
2.9207136104547109
20
3.4762912075536265
30
0
10
2.9005667470413665
20
3.477558734093297
30
0
10
2.8715342163081319
20
3.479196704560469
30
0
10
2.8352059106715206
20
3.4808526745475694
30
0
10
2.7937868903770893
20
3.4819666555367341
30
0
10
2.7563614066736983
20
3.4819105434209221
30
0
10
2.7228845985442178
20
3.4802646557708541
30
0
10
2.6932356327343734
20
3.4763376969934652
30
0
10
2.6671866515301921
20
3.4690929964609794
30
0
10
2.6443704087318607
20
3.4570883168272895
30
0
10
2.6243024459454785
20
3.4389245229574192
30
0
10
2.6063990404002371
20
3.4137209641374966
30
0
10
2.5899969618266678
20
3.3815211861428791
30
0
10
2.5743640687081935
20
3.3439024898190839
30
0
10
2.5587417266129271
20
3.3037712958242351
30
0
10
2.5424091314389163
20
3.2646208572339797
30
0
10
2.5247397083065599
20
3.2299710693848622
30
0
10
2.5052652124267483
20
3.2027084625386224
30
0
10
2.4837307865530343
20
3.1845248472329653
30
0
10
2.4601771726940416
20
3.1751372521423535
30
0
10
2.4348700345759493
20
3.1727323739996667
30
0
10
2.4081835980307931
20
3.174772750391933
30
0
10
2.3805097536721451
20
3.1786134713587684
30
0
10
2.3521386757152238
20
3.1823253950673558
30
0
10
2.3232399162050932
20
3.1848153272579034
30
0
10
2.2997702480931532
20
3.1853903296666162
30
0
10
2.2819846858382924
20
3.1849498508553733
30
0
10
2.2700464332043837
20
3.1842694359486119
30
0
10
2.264057001287092
20
3.1838325573352906
30
0
0
LINE
5
297
100
AcDbEntity
8
0
100
AcDbLine
10
2.1000000670200256
20
4.8000001531886296
30
0
11
1.94534290656783
21
3.5557249804851829
31
0
0
LINE
5
298
100
AcDbEntity
8
0
100
AcDbLine
10
3.0648620247011027
20
3.3797142017200086
30
0
11
3.0500000973386086
21
1.8500000590414512
31
0
0
LINE
5
299
100
AcDbEntity
8
0
100
AcDbLine
10
-3.5519048956925681
20
-2.7569772614143928
30
0
11
-3.5519048956925681
21
-2.881660608111611
31
0
0
LINE
5
300
100
AcDbEntity
8
0
100
AcDbLine
10
-9.7542569494203715
20
-1.7818226648799598
30
0
11
-3.5519048956925681
21
-2.7569772614143928
31
0
0
SPLINE
5
301
100
AcDbEntity
8
0
100
AcDbSpline
70
4
71
5
72
26
73
20
74
0
42
0.000000001
43
0.0000000001
44
0.0000000001
40
0
40
0
40
0
40
0
40
0
40
0
40
0.066666666666666666
40
0.13333333333333333
40
0.20000000000000001
40
0.26666666666666666
40
0.33333333333333331
40
0.39999999999999997
40
0.46666666666666662
40
0.53333333333333333
40
0.59999999999999998
40
0.66666666666666663
40
0.73333333333333328
40
0.79999999999999993
40
0.86666666666666659
40
0.93333333333333324
40
1
40
1
40
1
40
1
40
1
40
1
41
1
41
1
41
1
41
1
41
1
41
1
41
1
41
1
41
1
41
1
41
1
41
1
41
1
41
1
41
1
41
1
41
1
41
1
41
1
41
1
10
-1.3500000430843022
20
3.6500001164871874
30
0
10
-1.3296868446328505
20
3.6515584269840002
30
0
10
-1.2878632382405768
20
3.6545907227771663
30
0
10
-1.2215362757588799
20
3.6588861599193945
30
0
10
-1.1258643521880136
20
3.6641039896581837
30
0
10
-0.99387835397054836
20
3.6697157452957287
30
0
10
-0.84902801126439842
20
3.6742756364236362
30
0
10
-0.69083976405542447
20
3.6775199969491781
30
0
10
-0.51888858448385022
20
3.679082302885968
30
0
10
-0.33280500985255573
20
3.6785569055130782
30
0
10
-0.13234857640363193
20
3.6755563144677876
30
0
10
0.082510629965089566
20
3.6697717908116032
30
0
10
0.31141441335052938
20
3.6610589029063494
30
0
10
0.55374773291007451
20
3.6494030659758638
30
0
10
0.80881532572405501
20
3.6348623562306028
30
0
10
1.0759543009738108
20
3.6175303523729951
30
0
10
1.2988933516286152
20
3.6015078073277969
30
0
10
1.4711314505714186
20
3.5883098589888767
30
0
10
1.5881779118031134
20
3.5789901162051372
30
0
10
1.6472564104403802
20
3.5741999667081119
30
0
0
LINE
5
302
100
AcDbEntity
8
0
100
AcDbLine
10
4.3044894026699696
20
0.47292461246630146
30
0
11
4.2641407199133523
21
0.097681862829765834
31
0
0
LINE
5
303
100
AcDbEntity
8
0
100
AcDbLine
10
4.7741145843753001
20
0.85967476210598559
30
0
11
7.9386738393040659
21
0.98424354667147695
31
0
0
ARC
5
304
100
AcDbEntity
8
0
100
AcDbCircle
10
-0.49999999249075339
20
0
30
0
40
10.999999834796576
210
0
220
0
230
1
100
AcDbArc
50
176.39745100836035
51
205.54417030336151
0
ARC
5
305
100
AcDbEntity
8
0
100
AcDbCircle
10
-0.49999999249075339
20
0
30
0
40
10.999999834631227
210
0
220
0
230
1
100
AcDbArc
50
210.21140675326478
51
210.59706653325668
0
ARC
5
306
100
AcDbEntity
8
0
100
AcDbCircle
10
-0.49999999249075339
20
0
30
0
40
10.999999834796578
210
0
220
0
230
1
100
AcDbArc
50
-25.253804740665117
51
4.5934330687239386
0
LINE
5
307
100
AcDbEntity
8
0
100
AcDbLine
10
-2.0934256597987697
20
-3.2061832122654614
30
0
11
-1.804544192715462
21
-3.2061832122654614
31
0
0
LINE
5
308
100
AcDbEntity
8
0
100
AcDbLine
10
-2.0934256597987697
20
-5.3071380565224855
30
0
11
-1.7998546682225824
21
-5.3071380565224855
31
0
0
LINE
5
309
100
AcDbEntity
8
0
100
AcDbLine
10
2.3298359676387914
20
-2.9695649439525633
30
0
11
2.0055809398618458
21
-3.4300162821227702
31
0
0
LINE
5
310
100
AcDbEntity
8
0
100
AcDbLine
10
4.4664298839235475
20
-2.9695650491516248
30
0
11
4.156665604544135
21
-3.4094396399291735
31
0
0
LINE
5
311
100
AcDbEntity
8
0
100
AcDbLine
10
6.301742400390447
20
-2.8760960098517034
30
0
11
6.5014350921905457
21
-2.8733958592178794
31
0
0
LINE
5
312
100
AcDbEntity
8
0
100
AcDbLine
10
6.3017424003917002
20
-3.1612668584624246
30
0
11
6.5014350921515129
21
-3.154038298590649
31
0
0
LINE
5
313
100
AcDbEntity
8
0
100
AcDbLine
10
8.4256930089246858
20
-3.415356103738902
30
0
11
8.4505809958783882
21
-3.3800144139273129
31
0
0
LINE
5
314
100
AcDbEntity
8
0
100
AcDbLine
10
8.4505809958783882
20
-3.3800144139273129
30
0
11
8.7396237238903289
21
-2.9695650491516248
31
0
0
LINE
5
315
100
AcDbEntity
8
0
100
AcDbLine
10
6.5014350919744901
20
-5.397003253967438
30
0
11
6.302359321858269
21
-5.3884471513093288
31
0
0
SPLINE
5
316
100
AcDbEntity
8
0
100
AcDbSpline
70
4
71
5
72
16
73
10
74
0
42
0.000000001
43
0.0000000001
44
0.0000000001
40
0
40
0
40
0
40
0
40
0
40
0
40
0.20000000000000001
40
0.40000000000000002
40
0.60000000000000009
40
0.80000000000000004
40
1
40
1
40
1
40
1
40
1
40
1
41
1
41
1
41
1
41
1
41
1
41
1
41
1
41
1
41
1
41
1
10
4.2490544489588462
20
-0.042620457047140764
30
0
10
4.1660146243307432
20
-0.058988597645004921
30
0
10
3.999934975074634
20
-0.09172487884073173
30
0
10
3.7508155011907673
20
-0.14082930063431687
30
0
10
3.418656202679478
20
-0.20630186302575787
30
0
10
3.0034570795409414
20
-0.28814256601506005
30
0
10
2.6712977810302965
20
-0.35361512840650799
30
0
10
2.4221783071473135
20
-0.40271955020010025
30
0
10
2.2560986578919722
20
-0.43545583139582955
30
0
10
2.1730588332642968
20
-0.45182397199369451
30
0
0
LINE
5
317
100
AcDbEntity
8
0
100
AcDbLine
10
-3.6394948799779092
20
9.5000000450554793
30
0
11
-3.3086626313802761
21
9.5000000450554793
31
0
0
LINE
5
318
100
AcDbEntity
8
0
100
AcDbLine
10
-3.3086626313802761
20
9.5000000450554793
30
0
11
-3.3086626313802761
21
8.0555936482947637
31
0
0
SPLINE
5
319
100
AcDbEntity
8
0
100
AcDbSpline
70
0
71
2
72
6
73
3
74
0
42
0.000000001
43
0.0000000001
44
0.0000000001
40
0
40
0
40
0
40
1
40
1
40
1
10
-3.3086626313802761
20
8.0555936482947637
30
0
10
-3.3086626313802761
20
7.6787177033311735
30
0
10
-3.3939286245135807
20
7.4570259709996494
30
0
0
SPLINE
5
320
100
AcDbEntity
8
0
100
AcDbSpline
70
0
71
2
72
6
73
3
74
0
42
0.000000001
43
0.0000000001
44
0.0000000001
40
0
40
0
40
0
40
1
40
1
40
1
10
-3.3939286245135807
20
7.4570259709996494
30
0
10
-3.4791948053780501
20
7.2353342386681261
30
0
10
-3.7017390249282354
20
7.0963508500827572
30
0
0
SPLINE
5
321
100
AcDbEntity
8
0
100
AcDbSpline
70
0
71
2
72
6
73
3
74
0
42
0.000000001
43
0.0000000001
44
0.0000000001
40
0
40
0
40
0
40
1
40
1
40
1
10
-4.8605043822386129
20
7.0784446761364066
30
0
10
-5.0839013706042069
20
7.1995226417000833
30
0
10
-5.1793993458034482
20
7.4288880731177134
30
0
0
SPLINE
5
322
100
AcDbEntity
8
0
100
AcDbSpline
70
0
71
2
72
6
73
3
74
0
42
0.000000001
43
0.0000000001
44
0.0000000001
40
0
40
0
40
0
40
1
40
1
40
1
10
-5.1793993458034482
20
7.4288880731177134
30
0
10
-5.2748972975362936
20
7.6582538799976732
30
0
10
-5.2748972975362936
20
8.0555936482947637
30
0
0
LINE
5
323
100
AcDbEntity
8
0
100
AcDbLine
10
-5.2748972975362936
20
8.0555936482947637
30
0
11
-5.2748972975362936
21
9.5000000450554793
31
0
0
LINE
5
324
100
AcDbEntity
8
0
100
AcDbLine
10
-5.2748972975362936
20
9.5000000450554793
30
0
11
-4.9440651193378473
21
9.5000000450554793
31
0
0
LINE
5
325
100
AcDbEntity
8
0
100
AcDbLine
10
-4.9440651193378473
20
9.5000000450554793
30
0
11
-4.9440651193378473
21
8.0572988104632515
31
0
0
SPLINE
5
326
100
AcDbEntity
8
0
100
AcDbSpline
70
0
71
2
72
6
73
3
74
0
42
0.000000001
43
0.0000000001
44
0.0000000001
40
0
40
0
40
0
40
1
40
1
40
1
10
-4.9440651193378473
20
8.0572988104632515
30
0
10
-4.9440651193378473
20
7.7315826115645754
30
0
10
-4.8835262304215918
20
7.5772510738823353
30
0
0
SPLINE
5
327
100
AcDbEntity
8
0
100
AcDbSpline
70
0
71
2
72
6
73
3
74
0
42
0.000000001
43
0.0000000001
44
0.0000000001
40
0
40
0
40
0
40
1
40
1
40
1
10
-4.8835262304215918
20
7.5772510738823353
30
0
10
-4.8229873415053355
20
7.4229197239312592
30
0
10
-4.6754771095561223
20
7.339358705235278
30
0
0
SPLINE
5
328
100
AcDbEntity
8
0
100
AcDbSpline
70
0
71
2
72
6
73
3
74
0
42
0.000000001
43
0.0000000001
44
0.0000000001
40
0
40
0
40
0
40
1
40
1
40
1
10
-4.6754771095561223
20
7.339358705235278
30
0
10
-4.52796687760691
20
7.2557980620016256
30
0
10
-4.3148018009080662
20
7.2557980620016256
30
0
0
SPLINE
5
329
100
AcDbEntity
8
0
100
AcDbSpline
70
0
71
2
72
6
73
3
74
0
42
0.000000001
43
0.0000000001
44
0.0000000001
40
0
40
0
40
0
40
1
40
1
40
1
10
-4.3148018009080662
20
7.2557980620016256
30
0
10
-3.9498633052420424
20
7.2557980620016256
30
0
10
-3.794679092609976
20
7.4212143740316066
30
0
0
SPLINE
5
330
100
AcDbEntity
8
0
100
AcDbSpline
70
0
71
2
72
6
73
3
74
0
42
0.000000001
43
0.0000000001
44
0.0000000001
40
0
40
0
40
0
40
1
40
1
40
1
10
-3.794679092609976
20
7.4212143740316066
30
0
10
-3.6394948799779092
20
7.5866303105992587
30
0
10
-3.6394948799779092
20
8.0572988104632515
30
0
0
LINE
5
331
100
AcDbEntity
8
0
100
AcDbLine
10
-3.6394948799779092
20
8.0572988104632515
30
0
11
-3.6394948799779092
21
9.5000000450554793
31
0
0
LINE
5
332
100
AcDbEntity
8
0
100
AcDbLine
10
-2.7578441880819362
20
7.0000000826017121
30
0
11
-2.7578441880819362
21
9.5000000450554793
31
0
0
LINE
5
333
100
AcDbEntity
8
0
100
AcDbLine
10
-2.7578441880819362
20
9.5000000450554793
30
0
11
-1.896657507250628
21
9.5000000450554793
31
0
0
SPLINE
5
334
100
AcDbEntity
8
0
100
AcDbSpline
70
0
71
2
72
6
73
3
74
0
42
0.000000001
43
0.0000000001
44
0.0000000001
40
0
40
0
40
0
40
1
40
1
40
1
10
-1.896657507250628
20
9.5000000450554793
30
0
10
-1.6050475554203423
20
9.5000000450554793
30
0
10
-1.4515686926879281
20
9.4641882603562717
30
0
0
SPLINE
5
335
100
AcDbEntity
8
0
100
AcDbSpline
70
0
71
2
72
6
73
3
74
0
42
0.000000001
43
0.0000000001
44
0.0000000001
40
0
40
0
40
0
40
1
40
1
40
1
10
-1.4515686926879281
20
9.4641882603562717
30
0
10
-1.2366983599550141
20
9.4147340519221743
30
0
10
-1.0849244716599231
20
9.2851297123225649
30
0
0
SPLINE
5
336
100
AcDbEntity
8
0
100
AcDbSpline
70
0
71
2
72
6
73
3
74
0
42
0.000000001
43
0.0000000001
44
0.0000000001
40
0
40
0
40
0
40
1
40
1
40
1
10
-1.0849244716599231
20
9.2851297123225649
30
0
10
-0.88710763792353342
20
9.1180082381240961
30
0
10
-0.78905152054283556
20
8.8579468839750515
30
0
0
SPLINE
5
337
100
AcDbEntity
8
0
100
AcDbSpline
70
0
71
2
72
6
73
3
74
0
42
0.000000001
43
0.0000000001
44
0.0000000001
40
0
40
0
40
0
40
1
40
1
40
1
10
-0.78905152054283556
20
8.8579468839750515
30
0
10
-0.6909954031621377
20
8.5978855298260051
30
0
10
-0.6909954031621377
20
8.2636425814290675
30
0
0
SPLINE
5
338
100
AcDbEntity
8
0
100
AcDbSpline
70
0
71
2
72
6
73
3
74
0
42
0.000000001
43
0.0000000001
44
0.0000000001
40
0
40
0
40
0
40
1
40
1
40
1
10
-0.6909954031621377
20
8.2636425814290675
30
0
10
-0.6909954031621377
20
7.9788540291973922
30
0
10
-0.75750329832392405
20
7.7588676467655207
30
0
0
SPLINE
5
339
100
AcDbEntity
8
0
100
AcDbSpline
70
0
71
2
72
6
73
3
74
0
42
0.000000001
43
0.0000000001
44
0.0000000001
40
0
40
0
40
0
40
1
40
1
40
1
10
-0.75750329832392405
20
7.7588676467655207
30
0
10
-0.82401044256105194
20
7.5388812643336491
30
0
10
-0.9280352845905333
20
7.3947818260493232
30
0
0
SPLINE
5
340
100
AcDbEntity
8
0
100
AcDbSpline
70
0
71
2
72
6
73
3
74
0
42
0.000000001
43
0.0000000001
44
0.0000000001
40
0
40
0
40
0
40
1
40
1
40
1
10
-0.9280352845905333
20
7.3947818260493232
30
0
10
-1.0320597511576854
20
7.2506820123026685
30
0
10
-1.1556953661085112
20
7.1679740440188429
30
0
0
SPLINE
5
341
100
AcDbEntity
8
0
100
AcDbSpline
70
0
71
2
72
6
73
3
74
0
42
0.000000001
43
0.0000000001
44
0.0000000001
40
0
40
0
40
0
40
1
40
1
40
1
10
-1.1556953661085112
20
7.1679740440188429
30
0
10
-1.2793313565216664
20
7.0852660757350163
30
0
10
-1.4541267175374066
20
7.0426330791683638
30
0
0
LINE
5
342
100
AcDbEntity
8
0
100
AcDbLine
10
-2.427011939484303
20
7.2950203587689728
30
0
11
-1.8932468074513231
21
7.2950203587689728
31
0
0
SPLINE
5
343
100
AcDbEntity
8
0
100
AcDbSpline
70
0
71
2
72
6
73
3
74
0
42
0.000000001
43
0.0000000001
44
0.0000000001
40
0
40
0
40
0
40
1
40
1
40
1
10
-1.8932468074513231
20
7.2950203587689728
30
0
10
-1.6459752020873422
20
7.2950203587689728
30
0
10
-1.5052860881399919
20
7.3410640551349307
30
0
0
SPLINE
5
344
100
AcDbEntity
8
0
100
AcDbSpline
70
0
71
2
72
6
73
3
74
0
42
0.000000001
43
0.0000000001
44
0.0000000001
40
0
40
0
40
0
40
1
40
1
40
1
10
-1.5052860881399919
20
7.3410640551349307
30
0
10
-1.364597349654971
20
7.3871077515008876
30
0
10
-1.2810367064213188
20
7.47066839473454
30
0
0
SPLINE
5
345
100
AcDbEntity
8
0
100
AcDbSpline
70
0
71
2
72
6
73
3
74
0
42
0.000000001
43
0.0000000001
44
0.0000000001
40
0
40
0
40
0
40
1
40
1
40
1
10
-1.2810367064213188
20
7.47066839473454
30
0
10
-1.1633694406569473
20
7.5883356604989114
30
0
10
-1.0977145959073162
20
7.7870055446474566
30
0
0
SPLINE
5
346
100
AcDbEntity
8
0
100
AcDbSpline
70
0
71
2
72
6
73
3
74
0
42
0.000000001
43
0.0000000001
44
0.0000000001
40
0
40
0
40
0
40
1
40
1
40
1
10
-1.0977145959073162
20
7.7870055446474566
30
0
10
-1.0320597511576854
20
7.9856754287960019
30
0
10
-1.0320597511576854
20
8.2687586311280246
30
0
0
SPLINE
5
347
100
AcDbEntity
8
0
100
AcDbSpline
70
0
71
2
72
6
73
3
74
0
42
0.000000001
43
0.0000000001
44
0.0000000001
40
0
40
0
40
0
40
1
40
1
40
1
10
-1.0320597511576854
20
8.2687586311280246
30
0
10
-1.0320597511576854
20
8.660982349726158
30
0
10
-1.1608114158074685
20
8.8715894954411052
30
0
0
SPLINE
5
348
100
AcDbEntity
8
0
100
AcDbSpline
70
0
71
2
72
6
73
3
74
0
42
0.000000001
43
0.0000000001
44
0.0000000001
40
0
40
0
40
0
40
1
40
1
40
1
10
-1.1608114158074685
20
8.8715894954411052
30
0
10
-1.2895630804572518
20
9.0821964534248885
30
0
10
-1.4737378659210805
20
9.1538200228233038
30
0
0
SPLINE
5
349
100
AcDbEntity
8
0
100
AcDbSpline
70
0
71
2
72
6
73
3
74
0
42
0.000000001
43
0.0000000001
44
0.0000000001
40
0
40
0
40
0
40
1
40
1
40
1
10
-1.4737378659210805
20
9.1538200228233038
30
0
10
-1.6067529053199947
20
9.2049795811570529
30
0
10
-1.901773181487256
20
9.2049795811570529
30
0
0
LINE
5
350
100
AcDbEntity
8
0
100
AcDbLine
10
-1.901773181487256
20
9.2049795811570529
30
0
11
-2.427011939484303
21
9.2049795811570529
31
0
0
LINE
5
351
100
AcDbEntity
8
0
100
AcDbLine
10
-2.427011939484303
20
9.2049795811570529
30
0
11
-2.427011939484303
21
7.2950203587689728
31
0
0
SPLINE
5
352
100
AcDbEntity
8
0
100
AcDbSpline
70
0
71
2
72
6
73
3
74
0
42
0.000000001
43
0.0000000001
44
0.0000000001
40
0
40
0
40
0
40
1
40
1
40
1
10
-0.33628900689402902
20
8.2175988850631114
30
0
10
-0.33628900689402902
20
8.8400410854910287
30
0
10
-0.0020460584970909777
20
9.1921896446408233
30
0
0
SPLINE
5
353
100
AcDbEntity
8
0
100
AcDbSpline
70
0
71
2
72
6
73
3
74
0
42
0.000000001
43
0.0000000001
44
0.0000000001
40
0
40
0
40
0
40
1
40
1
40
1
10
-0.0020460584970909777
20
9.1921896446408233
30
0
10
0.33219651443751774
20
9.5443383915217836
30
0
10
0.86084597223386983
20
9.5443383915217836
30
0
0
SPLINE
5
354
100
AcDbEntity
8
0
100
AcDbSpline
70
0
71
2
72
6
73
3
74
0
42
0.000000001
43
0.0000000001
44
0.0000000001
40
0
40
0
40
0
40
1
40
1
40
1
10
0.86084597223386983
20
9.5443383915217836
30
0
10
1.2070256190037163
20
9.5443383915217836
30
0
10
1.4849938980237705
20
9.3789222672229666
30
0
0
SPLINE
5
355
100
AcDbEntity
8
0
100
AcDbSpline
70
0
71
2
72
6
73
3
74
0
42
0.000000001
43
0.0000000001
44
0.0000000001
40
0
40
0
40
0
40
1
40
1
40
1
10
1.4849938980237705
20
9.3789222672229666
30
0
10
1.7629606751945073
20
9.2135061429241496
30
0
10
1.9087662143031441
20
8.9176330040758973
30
0
0
SPLINE
5
356
100
AcDbEntity
8
0
100
AcDbSpline
70
0
71
2
72
6
73
3
74
0
42
0.000000001
43
0.0000000001
44
0.0000000001
40
0
40
0
40
0
40
1
40
1
40
1
10
1.9087662143031441
20
8.9176330040758973
30
0
10
2.0545702515624638
20
8.6217600529588108
30
0
10
2.0545702515624638
20
8.2465894578948724
30
0
0
SPLINE
5
357
100
AcDbEntity
8
0
100
AcDbSpline
70
0
71
2
72
6
73
3
74
0
42
0.000000001
43
0.0000000001
44
0.0000000001
40
0
40
0
40
0
40
1
40
1
40
1
10
2.0545702515624638
20
8.2465894578948724
30
0
10
2.0545702515624638
20
7.8663028131319779
30
0
10
1.9010917642923788
20
7.5661664872657592
30
0
0
SPLINE
5
358
100
AcDbEntity
8
0
100
AcDbSpline
70
0
71
2
72
6
73
3
74
0
42
0.000000001
43
0.0000000001
44
0.0000000001
40
0
40
0
40
0
40
1
40
1
40
1
10
1.9010917642923788
20
7.5661664872657592
30
0
10
1.7476132770222941
20
7.2660301613995406
30
0
10
1.466234298202935
20
7.1116986237172997
30
0
0
SPLINE
5
359
100
AcDbEntity
8
0
100
AcDbSpline
70
0
71
2
72
6
73
3
74
0
42
0.000000001
43
0.0000000001
44
0.0000000001
40
0
40
0
40
0
40
1
40
1
40
1
10
0.22817204787036563
20
7.1278990723016689
30
0
10
-0.049795104762700597
20
7.2984310585682781
30
0
10
-0.19304224355952945
20
7.5934517101978685
30
0
0
SPLINE
5
360
100
AcDbEntity
8
0
100
AcDbSpline
70
0
71
2
72
6
73
3
74
0
42
0.000000001
43
0.0000000001
44
0.0000000001
40
0
40
0
40
0
40
1
40
1
40
1
10
-0.19304224355952945
20
7.5934517101978685
30
0
10
-0.33628900689402902
20
7.88847198636513
30
0
10
-0.33628900689402902
20
8.2175988850631114
30
0
0
SPLINE
5
361
100
AcDbEntity
8
0
100
AcDbSpline
70
0
71
2
72
6
73
3
74
0
42
0.000000001
43
0.0000000001
44
0.0000000001
40
0
40
0
40
0
40
1
40
1
40
1
10
0.0047749656391894721
20
8.2124830230953183
30
0
10
0.0047749656391894721
20
7.7605729966651733
30
0
10
0.24778319625403936
20
7.5005116425161278
30
0
0
SPLINE
5
362
100
AcDbEntity
8
0
100
AcDbSpline
70
0
71
2
72
6
73
3
74
0
42
0.000000001
43
0.0000000001
44
0.0000000001
40
0
40
0
40
0
40
1
40
1
40
1
10
0.24778319625403936
20
7.5005116425161278
30
0
10
0.49079142686888921
20
7.2404502883670832
30
0
10
0.85743527243456497
20
7.2404502883670832
30
0
0
SPLINE
5
363
100
AcDbEntity
8
0
100
AcDbSpline
70
0
71
2
72
6
73
3
74
0
42
0.000000001
43
0.0000000001
44
0.0000000001
40
0
40
0
40
0
40
1
40
1
40
1
10
0.85743527243456497
20
7.2404502883670832
30
0
10
1.2309005175988503
20
7.2404502883670832
30
0
10
1.4722041492387063
20
7.5030696673656063
30
0
0
SPLINE
5
364
100
AcDbEntity
8
0
100
AcDbSpline
70
0
71
2
72
6
73
3
74
0
42
0.000000001
43
0.0000000001
44
0.0000000001
40
0
40
0
40
0
40
1
40
1
40
1
10
1.4722041492387063
20
7.5030696673656063
30
0
10
1.7135062790292452
20
7.7656890463641304
30
0
10
1.7135062790292452
20
8.248294807794526
30
0
0
SPLINE
5
365
100
AcDbEntity
8
0
100
AcDbSpline
70
0
71
2
72
6
73
3
74
0
42
0.000000001
43
0.0000000001
44
0.0000000001
40
0
40
0
40
0
40
1
40
1
40
1
10
1.7135062790292452
20
8.248294807794526
30
0
10
1.7135062790292452
20
8.5535471833597008
30
0
10
1.6103352383365781
20
8.7812074526088431
30
0
0
SPLINE
5
366
100
AcDbEntity
8
0
100
AcDbSpline
70
0
71
2
72
6
73
3
74
0
42
0.000000001
43
0.0000000001
44
0.0000000001
40
0
40
0
40
0
40
1
40
1
40
1
10
1.6103352383365781
20
8.7812074526088431
30
0
10
1.5071626957945936
20
9.0088677218579871
30
0
10
1.3084920607213897
20
9.1342088744396293
30
0
0
SPLINE
5
367
100
AcDbEntity
8
0
100
AcDbSpline
70
0
71
2
72
6
73
3
74
0
42
0.000000001
43
0.0000000001
44
0.0000000001
40
0
40
0
40
0
40
1
40
1
40
1
10
1.3084920607213897
20
9.1342088744396293
30
0
10
1.1098229274975033
20
9.2595498392901074
30
0
10
0.86255132213352226
20
9.2595498392901074
30
0
0
SPLINE
5
368
100
AcDbEntity
8
0
100
AcDbSpline
70
0
71
2
72
6
73
3
74
0
42
0.000000001
43
0.0000000001
44
0.0000000001
40
0
40
0
40
0
40
1
40
1
40
1
10
0.86255132213352226
20
9.2595498392901074
30
0
10
0.51125525020238916
20
9.2595498392901074
30
0
10
0.25801529565195397
20
9.0182469585749097
30
0
0
SPLINE
5
369
100
AcDbEntity
8
0
100
AcDbSpline
70
0
71
2
72
6
73
3
74
0
42
0.000000001
43
0.0000000001
44
0.0000000001
40
0
40
0
40
0
40
1
40
1
40
1
10
0.25801529565195397
20
9.0182469585749097
30
0
10
0.0047749656391894721
20
8.7769440778597119
30
0
10
0.0047749656391894721
20
8.2124830230953183
30
0
0
LINE
5
370
100
AcDbEntity
8
0
100
AcDbLine
10
3.1169844659294665
20
7.0000000826017121
30
0
11
3.1169844659294665
21
9.2049795811570529
31
0
0
LINE
5
371
100
AcDbEntity
8
0
100
AcDbLine
10
3.1169844659294665
20
9.2049795811570529
30
0
11
2.2933147319658533
21
9.2049795811570529
31
0
0
LINE
5
372
100
AcDbEntity
8
0
100
AcDbLine
10
2.2933147319658533
20
9.2049795811570529
30
0
11
2.2933147319658533
21
9.5000000450554793
31
0
0
LINE
5
373
100
AcDbEntity
8
0
100
AcDbLine
10
2.2933147319658533
20
9.5000000450554793
30
0
11
4.2748982746770059
21
9.5000000450554793
31
0
0
LINE
5
374
100
AcDbEntity
8
0
100
AcDbLine
10
4.2748982746770059
20
9.5000000450554793
30
0
11
4.2748982746770059
21
9.2049795811570529
31
0
0
LINE
5
375
100
AcDbEntity
8
0
100
AcDbLine
10
4.2748982746770059
20
9.2049795811570529
30
0
11
3.4478178409140878
21
9.2049795811570529
31
0
0
LINE
5
376
100
AcDbEntity
8
0
100
AcDbLine
10
3.4478178409140878
20
9.2049795811570529
30
0
11
3.4478178409140878
21
7.0000000826017121
31
0
0
ARC
5
377
100
AcDbEntity
8
0
100
AcDbCircle
10
-0.49999999249075339
20
0
30
0
40
10.999999834796576
210
0
220
0
230
1
100
AcDbArc
50
146.17173417863796
51
175.68365518427362
0
ARC
5
378
100
AcDbEntity
8
0
100
AcDbCircle
10
-0.49999999249075339
20
0
30
0
40
10.999999834796574
210
0
220
-0
230
1
100
AcDbArc
50
39.467961683589635
51
140.53203831641036
0
SPLINE
5
379
100
AcDbEntity
8
0
100
AcDbSpline
70
0
71
2
72
6
73
3
74
0
42
0.000000001
43
0.0000000001
44
0.0000000001
40
0.53569891359954103
40
0.53569891359954103
40
0.53569891359954103
40
1
40
1
40
1
10
-4.6254855447052625
20
6.9921131247743489
30
0
10
-4.7567809178418772
20
7.0222282195136012
30
0
10
-4.8605043822386129
20
7.0784446761364066
30
0
0
SPLINE
5
380
100
AcDbEntity
8
0
100
AcDbSpline
70
0
71
2
72
6
73
3
74
0
42
0.000000001
43
0.0000000001
44
0.0000000001
40
0
40
0
40
0
40
0.49999999999998951
40
0.49999999999998951
40
0.49999999999998951
10
-3.7017390249282354
20
7.0963508500827572
30
0
10
-3.8130112285689073
20
7.0268589680589102
30
0
10
-3.9590293028223158
20
6.9921130270469858
30
0
0
LINE
5
381
100
AcDbEntity
8
0
100
AcDbLine
10
-8.9917814182296745
20
6.9921130270469858
30
0
11
-4.6254855447052625
21
6.9921131247743489
31
0
0
LINE
5
382
100
AcDbEntity
8
0
100
AcDbLine
10
-1.6499005887218976
20
7.009830570102582
30
0
11
-1.6499005892369649
21
6.992113036185045
31
0
0
LINE
5
383
100
AcDbEntity
8
0
100
AcDbLine
10
-2.7578441880819362
20
7.0000000826017121
30
0
11
-2.7578441883167488
21
6.992113069170812
31
0
0
SPLINE
5
384
100
AcDbEntity
8
0
100
AcDbSpline
70
0
71
2
72
6
73
3
74
0
42
0.000000001
43
0.0000000001
44
0.0000000001
40
0
40
0
40
0
40
0.51980835642889689
40
0.51980835642889689
40
0.51980835642889689
10
-1.4541267175374066
20
7.0426330791683638
30
0
10
-1.5449868068583945
20
7.0204720912934144
30
0
10
-1.649900588721898
20
7.009830570102582
30
0
0
LINE
5
385
100
AcDbEntity
8
0
100
AcDbLine
10
-3.9590278075943379
20
6.9921131049325274
30
0
11
-2.7578441883167488
21
6.992113069170812
31
0
0
SPLINE
5
386
100
AcDbEntity
8
0
100
AcDbSpline
70
0
71
2
72
6
73
3
74
0
42
0.000000001
43
0.0000000001
44
0.0000000001
40
0.45138851222986059
40
0.45138851222986059
40
0.45138851222986059
40
1
40
1
40
1
10
0.55574740068023953
20
6.992113249207617
30
0
10
0.38066802102762143
20
7.0343432656035461
30
0
10
0.22817204787036563
20
7.1278990723016689
30
0
0
SPLINE
5
387
100
AcDbEntity
8
0
100
AcDbSpline
70
0
71
2
72
6
73
3
74
0
42
0.000000001
43
0.0000000001
44
0.0000000001
40
0
40
0
40
0
40
0.52551116258657138
40
0.52551116258657138
40
0.52551116258657138
10
1.466234298202935
20
7.1116986237172997
30
0
10
1.3183672931547323
20
7.030595677926132
30
0
10
1.1582556187792339
20
6.992113235466876
30
0
0
LINE
5
388
100
AcDbEntity
8
0
100
AcDbLine
10
-1.6499005892369649
20
6.992113036185045
30
0
11
0.55574740068023132
21
6.9921129712929027
31
0
0
LINE
5
389
100
AcDbEntity
8
0
100
AcDbLine
10
3.1169844659294665
20
7.0000000826017121
30
0
11
3.1169844656889105
21
6.9921128938260999
31
0
0
LINE
5
390
100
AcDbEntity
8
0
100
AcDbLine
10
3.4478178409140878
20
7.0000000826017121
30
0
11
3.4478178406735314
21
6.9921128837358095
31
0
0
LINE
5
391
100
AcDbEntity
8
0
100
AcDbLine
10
1.1582556187792259
20
6.9921129535665703
30
0
11
3.1169844656889105
21
6.9921128938260999
31
0
0
LINE
5
392
100
AcDbEntity
8
0
100
AcDbLine
10
3.4478178406735314
20
6.9921128837358095
30
0
11
7.9917814332481658
21
6.9921130270469858
31
0
0
SPLINE
5
393
100
AcDbEntity
8
0
100
AcDbSpline
70
4
71
5
72
36
73
30
74
0
42
0.000000001
43
0.0000000001
44
0.0000000001
40
0
40
0
40
0
40
0
40
0
40
0
40
0.040000000000000001
40
0.080000000000000002
40
0.12
40
0.16
40
0.20000000000000001
40
0.24000000000000002
40
0.28000000000000003
40
0.32000000000000001
40
0.35999999999999999
40
0.39999999999999997
40
0.43999999999999995
40
0.47999999999999993
40
0.51999999999999991
40
0.55999999999999994
40
0.59999999999999998
40
0.64000000000000001
40
0.68000000000000005
40
0.72000000000000008
40
0.76000000000000012
40
0.80000000000000016
40
0.84000000000000019
40
0.88000000000000023
40
0.92000000000000026
40
0.9600000000000003
40
1
40
1
40
1
40
1
40
1
40
1
41
1
41
1
41
1
41
1
41
1
41
1
41
1
41
1
41
1
41
1
41
1
41
1
41
1
41
1
41
1
41
1
41
1
41
1
41
1
41
1
41
1
41
1
41
1
41
1
41
1
41
1
41
1
41
1
41
1
41
1
10
-0.99999998791480615
20
4.8899999409034018
30
0
10
-0.98463425882289657
20
4.8912315243344757
30
0
10
-0.95408426520352918
20
4.8936679726098085
30
0
10
-0.90880315090559483
20
4.8972425096132861
30
0
10
-0.84952342316293195
20
4.9018476931037052
30
0
10
-0.77684164517275323
20
4.9073474380214632
30
0
10
-0.70440793231064547
20
4.9126256382720772
30
0
10
-0.62969087960568393
20
4.9177625534287559
30
0
10
-0.54909375919689762
20
4.9228695500259763
30
0
10
-0.45925722027172844
20
4.9280350513810243
30
0
10
-0.35796380805614997
20
4.9332869559127301
30
0
10
-0.24552283041680956
20
4.9385341644783312
30
0
10
-0.12452768520114117
20
4.9435807065224138
30
0
10
0.0012637455904887325
20
4.9481792407700844
30
0
10
0.12778421851079005
20
4.952072996774179
30
0
10
0.25156892711722822
20
4.9550402583707394
30
0
10
0.37075025503985187
20
4.956943453816776
30
0
10
0.48571056647422228
20
4.9577615295913677
30
0
10
0.59831445584210263
20
4.9575524423234896
30
0
10
0.71138069725956998
20
4.9564277889868409
30
0
10
0.82806812713444355
20
4.9545235801881065
30
0
10
0.95131640115735827
20
4.9519739667492217
30
0
10
1.08322832103778
20
4.9488827629509133
30
0
10
1.2251943425378258
20
4.9453262600895176
30
0
10
1.3780516592459935
20
4.9413577625021814
30
0
10
1.542220412122314
20
4.9370114642447254
30
0
10
1.6827158095753472
20
4.9332475532787772
30
0
10
1.7932334833719916
20
4.9302669631569112
30
0
10
1.8691931477848533
20
4.9282100161836446
30
0
10
1.9077432837905979
20
4.9271640709412896
30
0
0
LINE
5
394
100
AcDbEntity
8
0
100
AcDbLine
10
-1.3624851444112631
20
2.8645266713693287
30
0
11
-3.0622510898815745
21
2.8927353689538879
31
0
0
LINE
5
395
100
AcDbEntity
8
0
100
AcDbLine
10
-9.1232810043516324
20
6.123705580793569
30
0
11
-9.123280881105309
21
6.1248626357592366
31
0
0
LINE
5
396
100
AcDbEntity
8
0
100
AcDbLine
10
1.8978073231499251
20
6.1237055807935423
30
0
11
-9.1232810043516324
21
6.123705580793569
31
0
0
LINE
5
397
100
AcDbEntity
8
0
100
AcDbLine
10
-9.1232810043516324
20
6.123705580793569
30
0
11
-9.637809084501141
21
6.1237603940305316
31
0
0
SPLINE
5
398
100
AcDbEntity
8
0
100
AcDbSpline
70
4
71
5
72
36
73
30
74
0
42
0.000000001
43
0.0000000001
44
0.0000000001
40
0
40
0
40
0
40
0
40
0
40
0
40
0.040000000000000001
40
0.080000000000000002
40
0.12
40
0.16
40
0.20000000000000001
40
0.24000000000000002
40
0.28000000000000003
40
0.32000000000000001
40
0.35999999999999999
40
0.39999999999999997
40
0.43999999999999995
40
0.47999999999999993
40
0.51999999999999991
40
0.55999999999999994
40
0.59999999999999998
40
0.64000000000000001
40
0.68000000000000005
40
0.72000000000000008
40
0.76000000000000012
40
0.80000000000000016
40
0.84000000000000019
40
0.88000000000000023
40
0.92000000000000026
40
0.9600000000000003
40
1
40
1
40
1
40
1
40
1
40
1
41
1
41
1
41
1
41
1
41
1
41
1
41
1
41
1
41
1
41
1
41
1
41
1
41
1
41
1
41
1
41
1
41
1
41
1
41
1
41
1
41
1
41
1
41
1
41
1
41
1
41
1
41
1
41
1
41
1
41
1
10
1.7470705938194315
20
-0.53579133858597272
30
0
10
1.7475397524176588
20
-0.54201159756981354
30
0
10
1.7481938124299896
20
-0.55498929819038301
30
0
10
1.7483222662596545
20
-0.57606726253752327
30
0
10
1.7467826392379706
20
-0.60740362092301969
30
0
10
1.7420976121071825
20
-0.65185738282391092
30
0
10
1.7349492663543911
20
-0.70121735478191205
30
0
10
1.7260143443070328
20
-0.75461550839605818
30
0
10
1.7161071592493871
20
-0.81087830249128878
30
0
10
1.7057869242799975
20
-0.86884887633002839
30
0
10
1.6950648112924482
20
-0.92762652966170023
30
0
10
1.682945542694253
20
-0.98692431889643306
30
0
10
1.6674794700843758
20
-1.0470698679021297
30
0
10
1.6463625614087085
20
-1.1086259619095682
30
0
10
1.617414364281355
20
-1.172097522134818
30
0
10
1.5790545634434752
20
-1.2376367322953692
30
0
10
1.5309199961333124
20
-1.3046621682962365
30
0
10
1.4738556304980779
20
-1.3718741798895309
30
0
10
1.4094450206372555
20
-1.4375633878172864
30
0
10
1.339690600718453
20
-1.4998263852339229
30
0
10
1.266637516529362
20
-1.5568201771953052
30
0
10
1.1920349110780011
20
-1.6069946336013785
30
0
10
1.1169597895579391
20
-1.6493545218280521
30
0
10
1.0415124523000767
20
-1.6836721085847499
30
0
10
0.96514395119671637
20
-1.7102351936709992
30
0
10
0.88692428472570817
20
-1.729641989021153
30
0
10
0.82204781364198232
20
-1.7399967999364874
30
0
10
0.77171726706237886
20
-1.7451162503800608
30
0
10
0.73736977228850975
20
-1.7473879733806761
30
0
10
0.71999757307975543
20
-1.7482385253207093
30
0
0
SPLINE
5
399
100
AcDbEntity
8
0
100
AcDbSpline
70
4
71
5
72
41
73
35
74
0
42
0.000000001
43
0.0000000001
44
0.0000000001
40
0
40
0
40
0
40
0
40
0
40
0
40
0.033333333333333333
40
0.066666666666666666
40
0.10000000000000001
40
0.13333333333333333
40
0.16666666666666666
40
0.19999999999999998
40
0.23333333333333331
40
0.26666666666666666
40
0.29999999999999999
40
0.33333333333333331
40
0.36666666666666664
40
0.39999999999999997
40
0.43333333333333329
40
0.46666666666666662
40
0.49999999999999994
40
0.53333333333333333
40
0.56666666666666665
40
0.59999999999999998
40
0.6333333333333333
40
0.66666666666666663
40
0.69999999999999996
40
0.73333333333333328
40
0.76666666666666661
40
0.79999999999999993
40
0.83333333333333326
40
0.86666666666666659
40
0.89999999999999991
40
0.93333333333333324
40
0.96666666666666656
40
1
40
1
40
1
40
1
40
1
40
1
41
1
41
1
41
1
41
1
41
1
41
1
41
1
41
1
41
1
41
1
41
1
41
1
41
1
41
1
41
1
41
1
41
1
41
1
41
1
41
1
41
1
41
1
41
1
41
1
41
1
41
1
41
1
41
1
41
1
41
1
41
1
41
1
41
1
41
1
41
1
10
-0.29342668405034644
20
0.054873586840655748
30
0
10
-0.29771297079092662
20
0.045361253220380621
30
0
10
-0.30604953820914454
20
0.025827251589032579
30
0
10
-0.31784636640057901
20
-0.0050017709512734368
30
0
10
-0.33215690255751568
20
-0.049168560400045899
30
0
10
-0.34763439246613764
20
-0.1095551973131821
30
0
10
-0.36058862009140608
20
-0.17528864424741974
30
0
10
-0.37081235544771385
20
-0.24666908858499301
30
0
10
-0.37798147685605016
20
-0.32414429803339151
30
0
10
-0.38170227208005136
20
-0.40805734538657229
30
0
10
-0.38155375480022807
20
-0.49842059033646186
30
0
10
-0.37713234716962424
20
-0.59465963095166685
30
0
10
-0.368096300896393
20
-0.6954029774064282
30
0
10
-0.35421174629620977
20
-0.79814627804838045
30
0
10
-0.33540061549302702
20
-0.89961081596761705
30
0
10
-0.31179459385314223
20
-0.99632670422291403
30
0
10
-0.28378223084038606
20
-1.085125806282059
30
0
10
-0.2520779671600647
20
-1.1637037831684605
30
0
10
-0.21774738557136639
20
-1.2310907980263013
30
0
10
-0.18235330321826537
20
-1.288349987910421
30
0
10
-0.14738284685981809
20
-1.3380550080078963
30
0
10
-0.11333828225407994
20
-1.383325385039158
30
0
10
-0.079097289830038497
20
-1.4270841148697126
30
0
10
-0.040755263588599613
20
-1.4710581851817865
30
0
10
0.0074696941356803765
20
-1.515660820037618
30
0
10
0.07106450786640521
20
-1.5603824507813351
30
0
10
0.1534759135549503
20
-1.604020089187453
30
0
10
0.25407571254862127
20
-1.6449707367298594
30
0
10
0.36649897071135701
20
-1.6814848065443089
30
0
10
0.48090908649153974
20
-1.711803645814199
30
0
10
0.58598423552877699
20
-1.7343012350103688
30
0
10
0.65399126859210799
20
-1.7449614320782381
30
0
10
0.69232052405514988
20
-1.7484101889999724
30
0
10
0.71178639349194683
20
-1.7486405489588479
30
0
10
0.71999757307975543
20
-1.7482385253207093
30
0
0
SPLINE
5
400
100
AcDbEntity
8
0
100
AcDbSpline
70
4
71
5
72
26
73
20
74
0
42
0.000000001
43
0.0000000001
44
0.0000000001
40
0
40
0
40
0
40
0
40
0
40
0
40
0.066666666666666666
40
0.13333333333333333
40
0.20000000000000001
40
0.26666666666666666
40
0.33333333333333331
40
0.39999999999999997
40
0.46666666666666662
40
0.53333333333333333
40
0.59999999999999998
40
0.66666666666666663
40
0.73333333333333328
40
0.79999999999999993
40
0.86666666666666659
40
0.93333333333333324
40
1
40
1
40
1
40
1
40
1
40
1
41
1
41
1
41
1
41
1
41
1
41
1
41
1
41
1
41
1
41
1
41
1
41
1
41
1
41
1
41
1
41
1
41
1
41
1
41
1
41
1
10
0.95933318894303898
20
0.54525094440035748
30
0
10
0.96902611803779815
20
0.54566310253610484
30
0
10
0.98869649512808444
20
0.54594199674145116
30
0
10
1.019055678717379
20
0.54472405565653015
30
0
10
1.0612537118209096
20
0.539803921741696
30
0
10
1.1168355601652498
20
0.52802031915225256
30
0
10
1.1750154435187283
20
0.51043864526157456
30
0
10
1.235226733279569
20
0.48692632244437245
30
0
10
1.2963604848550279
20
0.45748377340383156
30
0
10
1.3568373168574119
20
0.42224353610038162
30
0
10
1.4148670183157617
20
0.38140433513918282
30
0
10
1.4686551838954223
20
0.33520648862991298
30
0
10
1.516616274194865
20
0.28390904057779831
30
0
10
1.5576499646175761
20
0.22779201649644043
30
0
10
1.591260488750563
20
0.1671472791060391
30
0
10
1.6173064348636337
20
0.10223412187978408
30
0
10
1.6321492494594541
20
0.047050870813068559
30
0
10
1.6399702693864562
20
0.0038909001334289477
30
0
10
1.6437234387306634
20
-0.025664490036759104
30
0
10
1.6452348048144421
20
-0.040637706033987558
30
0
0
LINE
5
401
100
AcDbEntity
8
0
100
AcDbLine
10
2.1730588332642968
20
-0.45182397199369451
30
0
11
1.7470705938194315
21
-0.53579133858597272
31
0
0
SPLINE
5
402
100
AcDbEntity
8
0
100
AcDbSpline
70
4
71
5
72
26
73
20
74
0
42
0.000000001
43
0.0000000001
44
0.0000000001
40
0
40
0
40
0
40
0
40
0
40
0
40
0.066666666666666666
40
0.13333333333333333
40
0.20000000000000001
40
0.26666666666666666
40
0.33333333333333331
40
0.39999999999999997
40
0.46666666666666662
40
0.53333333333333333
40
0.59999999999999998
40
0.66666666666666663
40
0.73333333333333328
40
0.79999999999999993
40
0.86666666666666659
40
0.93333333333333324
40
1
40
1
40
1
40
1
40
1
40
1
41
1
41
1
41
1
41
1
41
1
41
1
41
1
41
1
41
1
41
1
41
1
41
1
41
1
41
1
41
1
41
1
41
1
41
1
41
1
41
1
10
0.20000000638285959
20
0
30
0
10
0.19690015136769984
20
-0.007378137609066155
30
0
10
0.19075010578221002
20
-0.022950646119694874
30
0
10
0.18167414611506569
20
-0.048757940350084364
30
0
10
0.16987223989371952
20
-0.088101796054992895
30
0
10
0.15577593215972177
20
-0.1455936890589021
30
0
10
0.14276839988587214
20
-0.21131097508976687
30
0
10
0.13174043661715745
20
-0.28472109800581724
30
0
10
0.12404944609275333
20
-0.36478494069404421
30
0
10
0.12127467517732121
20
-0.45021452286689662
30
0
10
0.12502195474159861
20
-0.53962941140534126
30
0
10
0.13671440940915136
20
-0.63172168787851779
30
0
10
0.15731889353153464
20
-0.72542228141731624
30
0
10
0.18720890729982131
20
-0.81999721144241222
30
0
10
0.22641277681358801
20
-0.91496098801690928
30
0
10
0.27474930908927941
20
-1.0100299847598209
30
0
10
0.32052479384298288
20
-1.0860575587530932
30
0
10
0.35875660902885115
20
-1.14304257969325
30
0
10
0.38596539336422619
20
-1.1810168431742911
30
0
10
0.40000001276571917
20
-1.2000000382971574
30
0
0
LINE
5
403
100
AcDbEntity
8
0
100
AcDbLine
10
4.2385690087447259
20
1.6420556018626338
30
0
11
7.5284405361586888
21
1.9704284351549604
31
0
0
LINE
5
404
100
AcDbEntity
8
0
100
AcDbLine
10
7.4132309201250175
20
4.5428619517841886
30
0
11
6.0752212723629926
21
5.0370854272805543
31
0
0
LINE
5
405
100
AcDbEntity
8
0
100
AcDbLine
10
5.0983225581478688
20
4.8016165024023021
30
0
11
6.93567142721583
21
4.5355177006752179
31
0
0
ENDSEC
0
SECTION
2
OBJECTS
0
DICTIONARY
5
C
100
AcDbDictionary
3
ACAD_GROUP
350
D
3
ACAD_MLINESTYLE
350
17
0
DICTIONARY
5
D
100
AcDbDictionary
0
DICTIONARY
5
1A
330
C
100
AcDbDictionary
0
DICTIONARY
5
17
100
AcDbDictionary
0
ENDSEC
0
EOF
