0
SECTION
2
HEADER
9
$INSUNITS
70
1
9
$ACADVER
1
AC1014
9
$HANDSEED
5
FFFF
0
ENDSEC
0
SECTION
2
TABLES
0
TABLE
2
VPORT
5
8
100
AcDbSymbolTable
0
ENDTAB
0
TABLE
2
LTYPE
5
5
100
AcDbSymbolTable
0
LTYPE
5
14
100
AcDbSymbolTableRecord
100
AcDbLinetypeTableRecord
2
BYBLOCK
70
0
0
LTYPE
5
15
100
AcDbSymbolTableRecord
100
AcDbLinetypeTableRecord
2
BYLAYER
70
0
0
ENDTAB
0
TABLE
2
LAYER
5
2
100
AcDbSymbolTable
70
2
0
LAYER
5
50
100
AcDbSymbolTableRecord
100
AcDbLayerTableRecord
2
0
70
0
6
CONTINUOUS
0
ENDTAB
0
TABLE
2
STYLE
5
3
100
AcDbSymbolTable
70
1
0
STYLE
5
11
100
AcDbSymbolTableRecord
100
AcDbTextStyleTableRecord
2
STANDARD
70
0
0
ENDTAB
0
TABLE
2
VIEW
5
6
100
AcDbSymbolTable
70
0
0
ENDTAB
0
TABLE
2
UCS
5
7
100
AcDbSymbolTable
70
0
0
ENDTAB
0
TABLE
2
APPID
5
9
100
AcDbSymbolTable
70
2
0
APPID
5
12
100
AcDbSymbolTableRecord
100
AcDbRegAppTableRecord
2
ACAD
70
0
0
ENDTAB
0
TABLE
2
DIMSTYLE
5
A
100
AcDbSymbolTable
70
1
0
ENDTAB
0
TABLE
2
BLOCK_RECORD
5
1
100
AcDbSymbolTable
70
1
0
BLOCK_RECORD
5
1F
100
AcDbSymbolTableRecord
100
AcDbBlockTableRecord
2
*MODEL_SPACE
0
BLOCK_RECORD
5
1B
100
AcDbSymbolTableRecord
100
AcDbBlockTableRecord
2
*PAPER_SPACE
0
ENDTAB
0
ENDSEC
0
SECTION
2
BLOCKS
0
BLOCK
5
20
100
AcDbEntity
100
AcDbBlockBegin
2
*MODEL_SPACE
0
ENDBLK
5
21
100
AcDbEntity
100
AcDbBlockEnd
0
BLOCK
5
1C
100
AcDbEntity
100
AcDbBlockBegin
2
*PAPER_SPACE
0
ENDBLK
5
1D
100
AcDbEntity
100
AcDbBlockEnd
0
ENDSEC
0
SECTION
2
ENTITIES
0
LWPOLYLINE
5
100
100
AcDbEntity
8
0
100
AcDbPolyline
90
12
70
1
43
0.0
10
2.3796876894810404
20
-6.205988121926814
10
2.3796876894810421
20
-6.4406404384032303
10
1.2732756729804042
20
-6.4406404384032303
10
1.2732756729804042
20
-7.1214043288273432
10
2.5011065748397163
20
-7.1214043288273432
10
2.5011065748397177
20
-7.3574206999460836
10
1.0086098365560647
20
-7.3574206999460836
10
1.008609836556065
20
-5.3574207299830698
10
2.454721770947597
20
-5.3574207299830698
10
2.454721770947597
20
-5.593437101101812
10
1.2732756729804042
20
-5.5934371011018111
10
1.2732756729804042
20
-6.205988121926814
0
CIRCLE
5
101
100
AcDbEntity
8
0
100
AcDbCircle
10
9.196659251521174
20
-4.3574207525108113
30
0
40
0.10500000000000004
210
0
220
0
230
1
0
LINE
5
102
100
AcDbEntity
8
0
100
AcDbLine
10
4.9779957045384622
20
-7.3574206999460836
30
0
11
4.6505745312024631
21
-7.3574206999460836
31
0
0
LINE
5
103
100
AcDbEntity
8
0
100
AcDbLine
10
3.9643532958220655
20
-6.6602855255777733
30
0
11
3.4623068459054958
21
-7.3574206999460836
31
0
0
LINE
5
104
100
AcDbEntity
8
0
100
AcDbLine
10
3.4623068459054958
20
-7.3574206999460836
30
0
11
3.144435181452756
21
-7.3574206999460836
31
0
0
LWPOLYLINE
5
105
100
AcDbEntity
8
0
100
AcDbPolyline
90
8
70
1
43
0.0
10
7.7230432212486368
20
-5.593437101101812
10
7.7230432212486368
20
-7.3574206999460836
10
7.4583783234801206
20
-7.3574206999460836
10
7.4583783234801206
20
-5.593437101101812
10
6.7994419355695035
20
-5.593437101101812
10
6.7994419355695035
20
-5.3574207299830707
10
8.3847084693685616
20
-5.3574207299830716
10
8.3847084693685616
20
-5.593437101101812
0
LINE
5
106
100
AcDbEntity
8
0
100
AcDbLine
10
4.6355673019005907
20
-5.3574207299830707
30
0
11
4.9234256341365734
21
-5.3574207299830707
31
0
0
LINE
5
107
100
AcDbEntity
8
0
100
AcDbLine
10
3.9179686796611097
20
-6.315128638192923
30
0
11
3.2358403591323439
21
-5.3574207299830707
31
0
0
LINE
5
108
100
AcDbEntity
8
0
100
AcDbLine
10
3.5509835388381057
20
-5.3574207299830698
30
0
11
3.913875764809478
21
-5.8703811188875514
31
0
0
CIRCLE
5
109
100
AcDbEntity
8
0
100
AcDbCircle
10
0.19665925152117653
20
-4.3574207525108095
30
0
40
0.10499999999999997
210
0
220
0
230
1
0
SPLINE
5
110
100
AcDbEntity
8
0
100
AcDbSpline
70
0
71
2
72
6
73
3
74
0
42
0.000000001
43
0.0000000001
44
0.0000000001
40
0
40
0
40
0
40
1
40
1
40
1
10
3.913875764809478
20
-5.8703811188875514
30
0
10
4.0271091959272187
20
-6.0299991661662489
30
0
10
4.0748582421928283
20
-6.1159473743518804
30
0
0
LINE
5
111
100
AcDbEntity
8
0
100
AcDbLine
10
4.9234256341365734
20
-5.3574207299830707
30
0
11
4.2208334902743063
21
-6.3001217843533812
31
0
0
SPLINE
5
112
100
AcDbEntity
8
0
100
AcDbSpline
70
0
71
2
72
6
73
3
74
0
42
0.000000001
43
0.0000000001
44
0.0000000001
40
0
40
0
40
0
40
1
40
1
40
1
10
4.0598513883532847
20
-6.5102173626446644
30
0
10
3.9930025733964998
20
-6.6193578789107734
30
0
10
3.9643532958220655
20
-6.6602855255777733
30
0
0
SPLINE
5
113
100
AcDbEntity
8
0
100
AcDbSpline
70
0
71
2
72
6
73
3
74
0
42
0.000000001
43
0.0000000001
44
0.0000000001
40
0
40
0
40
0
40
1
40
1
40
1
10
4.1471636511812395
20
-6.6439146170959056
30
0
10
4.1048715744095867
20
-6.5825231470954053
30
0
10
4.0598513883532847
20
-6.5102173626446644
30
0
0
LINE
5
114
100
AcDbEntity
8
0
100
AcDbLine
10
4.2331118593668711
20
-5.8881164574740739
30
0
11
4.6355673019005907
21
-5.3574207299830707
31
0
0
LINE
5
115
100
AcDbEntity
8
0
100
AcDbLine
10
4.6505745312024631
20
-7.3574206999460836
30
0
11
4.1471636511812395
21
-6.6439146170959056
31
0
0
LINE
5
116
100
AcDbEntity
8
0
100
AcDbLine
10
3.144435181452756
20
-7.3574206999460836
30
0
11
3.9179686796611097
21
-6.315128638192923
31
0
0
CIRCLE
5
117
100
AcDbEntity
8
0
100
AcDbCircle
10
0.19665925152117586
20
-8.3574207525108086
30
0
40
0.10499999999999997
210
0
220
0
230
1
0
LINE
5
118
100
AcDbEntity
8
0
100
AcDbLine
10
4.2208334902743063
20
-6.3001217843533812
30
0
11
4.9779957045384622
21
-7.3574206999460836
31
0
0
LINE
5
119
100
AcDbEntity
8
0
100
AcDbLine
10
3.2358403591323439
20
-5.3574207299830707
30
0
11
3.5509835388381057
21
-5.3574207299830698
31
0
0
CIRCLE
5
120
100
AcDbEntity
8
0
100
AcDbCircle
10
9.196659251521174
20
-8.3574207525108104
30
0
40
0.10500000000000004
210
0
220
0
230
1
0
LWPOLYLINE
5
121
100
AcDbEntity
8
0
100
AcDbPolyline
90
8
70
1
43
0.0
10
-0.30334074847882386
20
-8.6074207525108086
42
0.41421356237309609
10
-0.053340748478823856
20
-8.8574207525108086
10
9.4466592515211723
20
-8.8574207525108104
42
0.41421356237309176
10
9.6966592515211723
20
-8.6074207525108104
10
9.6966592515211705
20
-4.1074207525108122
42
0.41421356237309176
10
9.4466592515211723
20
-3.8574207525108122
10
-0.053340748478822753
20
-3.8574207525108108
42
0.41421356237309731
10
-0.30334074847882342
20
-4.1074207525108104
0
LWPOLYLINE
5
122
100
AcDbEntity
8
0
100
AcDbPolyline
90
4
70
1
43
0.0
10
6.0019524389028875
20
-7.3574206999460836
10
5.7372867902097147
20
-7.3574206999460836
10
5.7372867902097155
20
-5.3574207299830707
10
6.0019524389028893
20
-5.3574207299830707
0
SPLINE
5
123
100
AcDbEntity
8
0
100
AcDbSpline
70
0
71
2
72
6
73
3
74
0
42
0.000000001
43
0.0000000001
44
0.0000000001
40
0
40
0
40
0
40
1
40
1
40
1
10
4.0748582421928283
20
-6.1159473743518804
30
0
10
4.1417066816872845
20
-6.0068068580857705
30
0
10
4.2331118593668711
20
-5.8881164574740739
30
0
0
ENDSEC
0
SECTION
2
OBJECTS
0
DICTIONARY
5
C
100
AcDbDictionary
3
ACAD_GROUP
350
D
3
ACAD_MLINESTYLE
350
17
0
DICTIONARY
5
D
100
AcDbDictionary
0
DICTIONARY
5
1A
330
C
100
AcDbDictionary
0
DICTIONARY
5
17
100
AcDbDictionary
0
ENDSEC
0
EOF
