0
SECTION
2
HEADER
9
$INSUNITS
70
1
9
$ACADVER
1
AC1014
9
$HANDSEED
5
FFFF
0
ENDSEC
0
SECTION
2
TABLES
0
TABLE
2
VPORT
5
8
100
AcDbSymbolTable
0
ENDTAB
0
TABLE
2
LTYPE
5
5
100
AcDbSymbolTable
0
LTYPE
5
14
100
AcDbSymbolTableRecord
100
AcDbLinetypeTableRecord
2
BYBLOCK
70
0
0
LTYPE
5
15
100
AcDbSymbolTableRecord
100
AcDbLinetypeTableRecord
2
BYLAYER
70
0
0
ENDTAB
0
TABLE
2
LAYER
5
2
100
AcDbSymbolTable
70
2
0
LAYER
5
50
100
AcDbSymbolTableRecord
100
AcDbLayerTableRecord
2
0
70
0
6
CONTINUOUS
0
ENDTAB
0
TABLE
2
STYLE
5
3
100
AcDbSymbolTable
70
1
0
STYLE
5
11
100
AcDbSymbolTableRecord
100
AcDbTextStyleTableRecord
2
STANDARD
70
0
0
ENDTAB
0
TABLE
2
VIEW
5
6
100
AcDbSymbolTable
70
0
0
ENDTAB
0
TABLE
2
UCS
5
7
100
AcDbSymbolTable
70
0
0
ENDTAB
0
TABLE
2
APPID
5
9
100
AcDbSymbolTable
70
2
0
APPID
5
12
100
AcDbSymbolTableRecord
100
AcDbRegAppTableRecord
2
ACAD
70
0
0
ENDTAB
0
TABLE
2
DIMSTYLE
5
A
100
AcDbSymbolTable
70
1
0
ENDTAB
0
TABLE
2
BLOCK_RECORD
5
1
100
AcDbSymbolTable
70
1
0
BLOCK_RECORD
5
1F
100
AcDbSymbolTableRecord
100
AcDbBlockTableRecord
2
*MODEL_SPACE
0
BLOCK_RECORD
5
1B
100
AcDbSymbolTableRecord
100
AcDbBlockTableRecord
2
*PAPER_SPACE
0
ENDTAB
0
ENDSEC
0
SECTION
2
BLOCKS
0
BLOCK
5
20
100
AcDbEntity
100
AcDbBlockBegin
2
*MODEL_SPACE
0
ENDBLK
5
21
100
AcDbEntity
100
AcDbBlockEnd
0
BLOCK
5
1C
100
AcDbEntity
100
AcDbBlockBegin
2
*PAPER_SPACE
0
ENDBLK
5
1D
100
AcDbEntity
100
AcDbBlockEnd
0
ENDSEC
0
SECTION
2
ENTITIES
0
SPLINE
5
100
100
AcDbEntity
8
0
100
AcDbSpline
70
4
71
3
72
8
73
4
74
0
42
0.000000001
43
0.0000000001
44
0.0000000001
40
0
40
0
40
0
40
0
40
1
40
1
40
1
40
1
41
1
41
1
41
1
41
1
10
2.4322916666666665
20
-1.0718749999999999
30
0
10
2.885416666666667
20
-1.1114583333333334
30
0
10
3.2510416666666671
20
-1.1499999999999999
30
0
10
3.5208333333333339
20
-1.1854166666666663
30
0
0
LINE
5
101
100
AcDbEntity
8
0
100
AcDbLine
10
3.5208332509155769
20
-1.1854166299144822
30
0
11
3.734375018075931
21
-1.2135416400031642
31
0
0
SPLINE
5
102
100
AcDbEntity
8
0
100
AcDbSpline
70
4
71
3
72
8
73
4
74
0
42
0.000000001
43
0.0000000001
44
0.0000000001
40
0
40
0
40
0
40
0
40
1
40
1
40
1
40
1
41
1
41
1
41
1
41
1
10
3.7247613599206315
20
-1.4628484253967584
30
0
10
3.698719693253965
20
-1.4628484253967584
30
0
10
3.0330946932539646
20
-1.5034734253967581
30
0
10
2.9487196932539645
20
-1.5107650920634246
30
0
0
SPLINE
5
103
100
AcDbEntity
8
0
100
AcDbSpline
70
4
71
3
72
8
73
4
74
0
42
0.000000001
43
0.0000000001
44
0.0000000001
40
0
40
0
40
0
40
0
40
1
40
1
40
1
40
1
41
1
41
1
41
1
41
1
10
2.7008030265872978
20
-1.5305567587300917
30
0
10
2.6497613599206313
20
-1.5336817587300919
30
0
10
2.5820530265872979
20
-1.538890092063425
30
0
10
2.5528863599206311
20
-1.5430567587300916
30
0
0
LINE
5
104
100
AcDbEntity
8
0
100
AcDbLine
10
2.5528863599206311
20
-1.5430567587300912
30
0
11
2.4976780265872978
21
-1.5482650920634251
31
0
0
LINE
5
105
100
AcDbEntity
8
0
100
AcDbLine
10
2.4976780265872978
20
-1.5482650920634251
30
0
11
2.4976780265872973
21
-1.5920150920634246
31
0
0
SPLINE
5
106
100
AcDbEntity
8
0
100
AcDbSpline
70
4
71
3
72
8
73
4
74
0
42
0.000000001
43
0.0000000001
44
0.0000000001
40
0
40
0
40
0
40
0
40
1
40
1
40
1
40
1
41
1
41
1
41
1
41
1
10
2.6139575417634675
20
-2.2397381829848433
30
0
10
2.6295825417634671
20
-2.2491131829848428
30
0
10
3.7597908750968001
20
-1.5001548496515096
30
0
10
3.7681242084301347
20
-1.4741131829848428
30
0
0
SPLINE
5
107
100
AcDbEntity
8
0
100
AcDbSpline
70
4
71
3
72
8
73
4
74
0
42
0.000000001
43
0.0000000001
44
0.0000000001
40
0
40
0
40
0
40
0
40
1
40
1
40
1
40
1
41
1
41
1
41
1
41
1
10
3.7681242084301214
20
-1.4741131829848408
30
0
10
3.7686698506812171
20
-1.467547739183269
30
0
10
3.7596137530823688
20
-1.4611759306878442
30
0
10
3.7467292913316399
20
-1.4610967448684442
30
0
0
SPLINE
5
108
100
AcDbEntity
8
0
100
AcDbSpline
70
4
71
3
72
8
73
4
74
0
42
0.000000001
43
0.0000000001
44
0.0000000001
40
0
40
0
40
0
40
0
40
1
40
1
40
1
40
1
41
1
41
1
41
1
41
1
10
3.7666666738737336
20
-1.2187499752340873
30
0
10
3.7927077613524154
20
-1.2189236580064691
30
0
10
4.5960853911847321
20
-1.3399094104229687
30
0
10
4.6137516468048645
20
-1.3462773757030726
30
0
0
LINE
5
109
100
AcDbEntity
8
0
100
AcDbLine
10
5.7318033442763197
20
-1.5131308005462727
30
0
11
5.876452287506722
21
-1.5406326605665945
31
0
0
LINE
5
110
100
AcDbEntity
8
0
100
AcDbLine
10
5.876452287506722
20
-1.5406326605665945
30
0
11
5.7760163609338484
21
-1.575625369132992
31
0
0
SPLINE
5
111
100
AcDbEntity
8
0
100
AcDbSpline
70
4
71
3
72
8
73
4
74
0
42
0.000000001
43
0.0000000001
44
0.0000000001
40
0
40
0
40
0
40
0
40
1
40
1
40
1
40
1
41
1
41
1
41
1
41
1
10
5.776016443063976
20
-1.5756253413032568
30
0
10
5.7488724016051735
20
-1.5848230900890885
30
0
10
5.7123944183698505
20
-1.5877096855799584
30
0
10
5.6676241377661967
20
-1.5842919374254003
30
0
0
SPLINE
5
112
100
AcDbEntity
8
0
100
AcDbSpline
70
4
71
3
72
8
73
4
74
0
42
0.000000001
43
0.0000000001
44
0.0000000001
40
0
40
0
40
0
40
0
40
1
40
1
40
1
40
1
41
1
41
1
41
1
41
1
10
5.6676242478635031
20
-1.5842919463325116
30
0
10
5.5124324482626941
20
-1.5715883219373641
30
0
10
4.9916596970751383
20
-1.5250716886101243
30
0
10
4.9385415761935967
20
-1.519793659136446
30
0
0
SPLINE
5
113
100
AcDbEntity
8
0
100
AcDbSpline
70
4
71
3
72
8
73
4
74
0
42
0.000000001
43
0.0000000001
44
0.0000000001
40
0
40
0
40
0
40
0
40
1
40
1
40
1
40
1
41
1
41
1
41
1
41
1
10
4.9385416857243341
20
-1.5197936702310413
30
0
10
4.8770833528556761
20
-1.5135436656617312
30
0
10
4.0031250181283191
20
-1.5322936006845986
30
0
10
3.9312500174313052
20
-1.5416685953408293
30
0
0
SPLINE
5
114
100
AcDbEntity
8
0
100
AcDbSpline
70
4
71
3
72
8
73
4
74
0
42
0.000000001
43
0.0000000001
44
0.0000000001
40
0
40
0
40
0
40
0
40
1
40
1
40
1
40
1
41
1
41
1
41
1
41
1
10
3.931250125992257
20
-1.5416685844850304
30
0
10
3.8957422524689136
20
-1.5449689339724491
30
0
10
3.8218041629515045
20
-1.5858834904579402
30
0
10
3.577358120168693
20
-1.739333526032468
30
0
0
SPLINE
5
115
100
AcDbEntity
8
0
100
AcDbSpline
70
4
71
3
72
8
73
4
74
0
42
0.000000001
43
0.0000000001
44
0.0000000001
40
0
40
0
40
0
40
0
40
1
40
1
40
1
40
1
41
1
41
1
41
1
41
1
10
3.5773581939213281
20
-1.7393334816397483
30
0
10
3.036080317054068
20
-2.0607969936095527
30
0
10
2.6414507866708816
20
-2.2992839758412673
30
0
10
2.6335961979507325
20
-2.3114381454474184
30
0
0
SPLINE
5
116
100
AcDbEntity
8
0
100
AcDbSpline
70
4
71
3
72
8
73
4
74
0
42
0.000000001
43
0.0000000001
44
0.0000000001
40
0
40
0
40
0
40
0
40
1
40
1
40
1
40
1
41
1
41
1
41
1
41
1
10
2.6335962049927164
20
-2.3114381345486334
30
0
10
2.623441049984951
20
-2.3289293897158245
30
0
10
2.63646028271739
20
-2.3352474576037436
30
0
10
2.7007696460435651
20
-2.3428697401595002
30
0
0
SPLINE
5
117
100
AcDbEntity
8
0
100
AcDbSpline
70
4
71
3
72
8
73
4
74
0
42
0.000000001
43
0.0000000001
44
0.0000000001
40
0
40
0
40
0
40
0
40
1
40
1
40
1
40
1
41
1
41
1
41
1
41
1
10
2.8521759432348546
20
-2.3995171357117604
30
0
10
2.8625926061102227
20
-2.3995260230835802
30
0
10
2.9314172350109362
20
-2.3120847115845016
30
0
10
3.060738494935161
20
-2.1309449809636662
30
0
0
SPLINE
5
118
100
AcDbEntity
8
0
100
AcDbSpline
70
4
71
3
72
8
73
4
74
0
42
0.000000001
43
0.0000000001
44
0.0000000001
40
0
40
0
40
0
40
0
40
1
40
1
40
1
40
1
41
1
41
1
41
1
41
1
10
3.1053165471224173
20
-2.1457048403758106
30
0
10
3.102673479540587
20
-2.1862972669666867
30
0
10
3.0811955350546043
20
-2.227962162570265
30
0
10
2.9868480133425361
20
-2.3759756989524017
30
0
0
SPLINE
5
119
100
AcDbEntity
8
0
100
AcDbSpline
70
4
71
3
72
8
73
4
74
0
42
0.000000001
43
0.0000000001
44
0.0000000001
40
0
40
0
40
0
40
0
40
1
40
1
40
1
40
1
41
1
41
1
41
1
41
1
10
2.9868480353227738
20
-2.3759756931703082
30
0
10
2.946280701761562
20
-2.4208195943778437
30
0
10
2.9140413334438651
20
-2.4614861099845062
30
0
10
2.9150870201419936
20
-2.46460976709978
30
0
0
SPLINE
5
120
100
AcDbEntity
8
0
100
AcDbSpline
70
4
71
3
72
8
73
4
74
0
42
0.000000001
43
0.0000000001
44
0.0000000001
40
0
40
0
40
0
40
0
40
1
40
1
40
1
40
1
41
1
41
1
41
1
41
1
10
2.915087020141776
20
-2.4646097670997089
30
0
10
2.9777099574642705
20
-2.4923819306511006
30
0
10
2.9796321724663128
20
-2.4948458126462292
30
0
10
2.9780247585045458
20
-2.5198809179612334
30
0
0
SPLINE
5
121
100
AcDbEntity
8
0
100
AcDbSpline
70
4
71
3
72
8
73
4
74
0
42
0.000000001
43
0.0000000001
44
0.0000000001
40
0
40
0
40
0
40
0
40
1
40
1
40
1
40
1
41
1
41
1
41
1
41
1
10
2.9780247585045436
20
-2.5198809179612347
30
0
10
2.9657984651932061
20
-2.528098681693177
30
0
10
2.9560375010014508
20
-2.5399843334185208
30
0
10
2.9548349421276323
20
-2.5461175505315046
30
0
0
SPLINE
5
122
100
AcDbEntity
8
0
100
AcDbSpline
70
4
71
3
72
8
73
4
74
0
42
0.000000001
43
0.0000000001
44
0.0000000001
40
0
40
0
40
0
40
0
40
1
40
1
40
1
40
1
41
1
41
1
41
1
41
1
10
2.9548349365462148
20
-2.5461175375082923
30
0
10
2.9550211345788404
20
-2.5513225414855967
30
0
10
3.0063687463896382
20
-2.6172373316838766
30
0
10
3.0694652838027072
20
-2.6910704925740681
30
0
0
SPLINE
5
123
100
AcDbEntity
8
0
100
AcDbSpline
70
4
71
3
72
8
73
4
74
0
42
0.000000001
43
0.0000000001
44
0.0000000001
40
0
40
0
40
0
40
0
40
1
40
1
40
1
40
1
41
1
41
1
41
1
41
1
10
3.0694652778937037
20
-2.6910704856604375
30
0
10
3.1333262721404629
20
-2.7651058503138977
30
0
10
3.1822112713010502
20
-2.8271144455636472
30
0
10
3.1791879066422086
20
-2.8303378779174673
30
0
0
SPLINE
5
124
100
AcDbEntity
8
0
100
AcDbSpline
70
4
71
3
72
8
73
4
74
0
42
0.000000001
43
0.0000000001
44
0.0000000001
40
0
40
0
40
0
40
0
40
1
40
1
40
1
40
1
41
1
41
1
41
1
41
1
10
2.8413291615694938
20
-2.679544358417242
30
0
10
2.8140447374828752
20
-2.7486322613182681
30
0
10
2.7636928995156116
20
-2.8055005886141338
30
0
10
2.7314036345606469
20
-2.8058944220550255
30
0
0
SPLINE
5
125
100
AcDbEntity
8
0
100
AcDbSpline
70
4
71
3
72
8
73
4
74
0
42
0.000000001
43
0.0000000001
44
0.0000000001
40
0
40
0
40
0
40
0
40
1
40
1
40
1
40
1
41
1
41
1
41
1
41
1
10
2.7314036595016096
20
-2.8058944217516855
30
0
10
2.7022377807355387
20
-2.8061088051635874
30
0
10
2.6972745977123416
20
-2.8394795207912225
30
0
10
2.724510330432194
20
-2.8601132210273641
30
0
0
SPLINE
5
126
100
AcDbEntity
8
0
100
AcDbSpline
70
4
71
3
72
8
73
4
74
0
42
0.000000001
43
0.0000000001
44
0.0000000001
40
0
40
0
40
0
40
0
40
1
40
1
40
1
40
1
41
1
41
1
41
1
41
1
10
3.0031197409723398
20
-3.033325173872929
30
0
10
3.0093729226908295
20
-3.0020758103850826
30
0
10
3.0447919224579048
20
-2.9791627498215352
30
0
10
3.0864585889086027
20
-2.9791669921560482
30
0
0
SPLINE
5
127
100
AcDbEntity
8
0
100
AcDbSpline
70
4
71
3
72
8
73
4
74
0
42
0.000000001
43
0.0000000001
44
0.0000000001
40
0
40
0
40
0
40
0
40
1
40
1
40
1
40
1
41
1
41
1
41
1
41
1
10
3.0864585482609392
20
-2.9791668807896099
30
0
10
3.1239585482609198
20
-2.9791668424277291
30
0
10
3.1520835216207099
20
-2.9531251469896658
30
0
10
3.2250000806609513
20
-2.8479167390638418
30
0
0
SPLINE
5
128
100
AcDbEntity
8
0
100
AcDbSpline
70
4
71
3
72
8
73
4
74
0
42
0.000000001
43
0.0000000001
44
0.0000000001
40
0
40
0
40
0
40
0
40
1
40
1
40
1
40
1
41
1
41
1
41
1
41
1
10
3.2250000806609558
20
-2.8479167390638436
30
0
10
3.2885416831405507
20
-2.7562500279039002
30
0
10
3.2968750113680927
20
-2.7489583554020478
30
0
10
3.3218750157444776
20
-2.7552083378964856
30
0
0
SPLINE
5
129
100
AcDbEntity
8
0
100
AcDbSpline
70
4
71
3
72
8
73
4
74
0
42
0.000000001
43
0.0000000001
44
0.0000000001
40
0
40
0
40
0
40
0
40
1
40
1
40
1
40
1
41
1
41
1
41
1
41
1
10
3.3218750000000004
20
-2.7552083333333335
30
0
10
3.3781250000000007
20
-2.7687499999999994
30
0
10
3.3791666666666678
20
-2.7791666666666663
30
0
10
3.334375000000001
20
-2.9020833333333336
30
0
0
SPLINE
5
130
100
AcDbEntity
8
0
100
AcDbSpline
70
4
71
3
72
8
73
4
74
0
42
0.000000001
43
0.0000000001
44
0.0000000001
40
0
40
0
40
0
40
0
40
1
40
1
40
1
40
1
41
1
41
1
41
1
41
1
10
3.334375000000001
20
-2.9020833333333336
30
0
10
3.2062500000000003
20
-3.2572916666666667
30
0
10
3.1927083333333339
20
-3.2812500000000004
30
0
10
3.125
20
-3.2812500000000004
30
0
0
SPLINE
5
131
100
AcDbEntity
8
0
100
AcDbSpline
70
4
71
3
72
8
73
4
74
0
42
0.000000001
43
0.0000000001
44
0.0000000001
40
0
40
0
40
0
40
0
40
1
40
1
40
1
40
1
41
1
41
1
41
1
41
1
10
3.125
20
-3.2812500000000004
30
0
10
3.072916666666667
20
-3.2812500000000004
30
0
10
3.0437499999999997
20
-3.25
30
0
10
3.0166666666666671
20
-3.1656249999999999
30
0
0
LINE
5
132
100
AcDbEntity
8
0
100
AcDbLine
10
3.016666721131263
20
-3.1656252779248231
30
0
11
2.9947916262524554
21
-3.0999999912504888
31
0
0
LINE
5
133
100
AcDbEntity
8
0
100
AcDbLine
10
2.9947916262524554
20
-3.0999999912504888
30
0
11
2.7968749779582103
21
-2.9937500003025437
31
0
0
SPLINE
5
134
100
AcDbEntity
8
0
100
AcDbSpline
70
4
71
3
72
8
73
4
74
0
42
0.000000001
43
0.0000000001
44
0.0000000001
40
0
40
0
40
0
40
0
40
1
40
1
40
1
40
1
41
1
41
1
41
1
41
1
10
2.7968750000000004
20
-2.9937499999999999
30
0
10
2.6760416666666673
20
-2.9281250000000005
30
0
10
2.5864583333333337
20
-2.886458333333334
30
0
10
2.5677083333333335
20
-2.886458333333334
30
0
0
SPLINE
5
135
100
AcDbEntity
8
0
100
AcDbSpline
70
4
71
3
72
8
73
4
74
0
42
0.000000001
43
0.0000000001
44
0.0000000001
40
0
40
0
40
0
40
0
40
1
40
1
40
1
40
1
41
1
41
1
41
1
41
1
10
2.5677083333333335
20
-2.886458333333334
30
0
10
2.5312500000000004
20
-2.885416666666667
30
0
10
2.4979166666666672
20
-2.9125000000000005
30
0
10
2.3843749999999999
20
-3.0364583333333335
30
0
0
SPLINE
5
136
100
AcDbEntity
8
0
100
AcDbSpline
70
4
71
3
72
8
73
4
74
0
42
0.000000001
43
0.0000000001
44
0.0000000001
40
0
40
0
40
0
40
0
40
1
40
1
40
1
40
1
41
1
41
1
41
1
41
1
10
2.3843749999999999
20
-3.0364583333333335
30
0
10
2.3416666666666668
20
-3.0822916666666664
30
0
10
2.3041666666666667
20
-3.1187499999999999
30
0
10
2.3010416666666669
20
-3.1177083333333337
30
0
0
SPLINE
5
137
100
AcDbEntity
8
0
100
AcDbSpline
70
4
71
3
72
8
73
4
74
0
42
0.000000001
43
0.0000000001
44
0.0000000001
40
0
40
0
40
0
40
0
40
1
40
1
40
1
40
1
41
1
41
1
41
1
41
1
10
2.3010416667471301
20
-3.1177083332426974
30
0
10
2.2979202452748706
20
-3.1166559918356613
30
0
10
2.2947810224281864
20
-3.1208119533405325
30
0
10
2.2937144399216112
20
-3.1281000171423177
30
0
0
SPLINE
5
138
100
AcDbEntity
8
0
100
AcDbSpline
70
4
71
3
72
8
73
4
74
0
42
0.000000001
43
0.0000000001
44
0.0000000001
40
0
40
0
40
0
40
0
40
1
40
1
40
1
40
1
41
1
41
1
41
1
41
1
10
2.2937144375112601
20
-3.128100019740665
30
0
10
2.2944839143635276
20
-3.1353509719644492
30
0
10
2.2843790205003471
20
-3.1783239383763231
30
0
10
2.2736779773779214
20
-3.2255502313235396
30
0
0
SPLINE
5
139
100
AcDbEntity
8
0
100
AcDbSpline
70
4
71
3
72
8
73
4
74
0
42
0.000000001
43
0.0000000001
44
0.0000000001
40
0
40
0
40
0
40
0
40
1
40
1
40
1
40
1
41
1
41
1
41
1
41
1
10
2.2736779773779645
20
-3.225550231323302
30
0
10
2.2605813092284532
20
-3.2985184026001866
30
0
10
2.2539234025293746
20
-3.3154802282208675
30
0
10
2.2258650657435619
20
-3.3370920308895879
30
0
0
SPLINE
5
140
100
AcDbEntity
8
0
100
AcDbSpline
70
4
71
3
72
8
73
4
74
0
42
0.000000001
43
0.0000000001
44
0.0000000001
40
0
40
0
40
0
40
0
40
1
40
1
40
1
40
1
41
1
41
1
41
1
41
1
10
2.2258650657435934
20
-3.3370920308895626
30
0
10
2.1703471793105895
20
-3.3903028639805259
30
0
10
2.1089695186648827
20
-3.3716360169934694
30
0
10
2.048867599982803
20
-3.283438407056972
30
0
0
SPLINE
5
141
100
AcDbEntity
8
0
100
AcDbSpline
70
4
71
3
72
8
73
4
74
0
42
0.000000001
43
0.0000000001
44
0.0000000001
40
0
40
0
40
0
40
0
40
1
40
1
40
1
40
1
41
1
41
1
41
1
41
1
10
2.0488675999828545
20
-3.2834384070570479
30
0
10
2.0383421704035611
20
-3.2477333792216454
30
0
10
2.030227226141005
20
-3.1995872968362624
30
0
10
2.030828318866813
20
-3.1766785147069982
30
0
0
SPLINE
5
142
100
AcDbEntity
8
0
100
AcDbSpline
70
4
71
3
72
8
73
4
74
0
42
0.000000001
43
0.0000000001
44
0.0000000001
40
0
40
0
40
0
40
0
40
1
40
1
40
1
40
1
41
1
41
1
41
1
41
1
10
2.0308283188668099
20
-3.1766785147070782
30
0
10
2.0296276867263994
20
-3.1287768923242418
30
0
10
2.0439193336789039
20
-3.1169567467551773
30
0
10
2.1174890367053303
20
-3.1005248425088987
30
0
0
SPLINE
5
143
100
AcDbEntity
8
0
100
AcDbSpline
70
4
71
3
72
8
73
4
74
0
42
0.000000001
43
0.0000000001
44
0.0000000001
40
0
40
0
40
0
40
0
40
1
40
1
40
1
40
1
41
1
41
1
41
1
41
1
10
2.1174890367051518
20
-3.1005248425089538
30
0
10
2.1600083043176532
20
-3.0872727171646575
30
0
10
2.176001307477792
20
-3.0529407254444645
30
0
10
2.1728878898427606
20
-2.9799046135235883
30
0
0
SPLINE
5
144
100
AcDbEntity
8
0
100
AcDbSpline
70
4
71
3
72
8
73
4
74
0
42
0.000000001
43
0.0000000001
44
0.0000000001
40
0
40
0
40
0
40
0
40
1
40
1
40
1
40
1
41
1
41
1
41
1
41
1
10
2.1728878898427761
20
-2.9799046135239333
30
0
10
2.1914591890092447
20
-2.9222622543642682
30
0
10
2.1861346822665326
20
-2.9134312615830265
30
0
10
2.1143460775379013
20
-2.8956483681019098
30
0
0
SPLINE
5
145
100
AcDbEntity
8
0
100
AcDbSpline
70
4
71
3
72
8
73
4
74
0
42
0.000000001
43
0.0000000001
44
0.0000000001
40
0
40
0
40
0
40
0
40
1
40
1
40
1
40
1
41
1
41
1
41
1
41
1
10
2.1143460775379048
20
-2.8956483681019107
30
0
10
2.0321820334536547
20
-2.8723014881354985
30
0
10
2.0211710022765446
20
-2.8767530294634498
30
0
10
2.013812231965419
20
-2.933138802881508
30
0
0
SPLINE
5
146
100
AcDbEntity
8
0
100
AcDbSpline
70
4
71
3
72
8
73
4
74
0
42
0.000000001
43
0.0000000001
44
0.0000000001
40
0
40
0
40
0
40
0
40
1
40
1
40
1
40
1
41
1
41
1
41
1
41
1
10
2.0138122319654181
20
-2.933138802881508
30
0
10
2.0158519185427739
20
-2.99939867707899
30
0
10
1.9668050115227349
20
-3.0914020824845077
30
0
10
1.9171002068374023
20
-3.1141554040264916
30
0
0
SPLINE
5
147
100
AcDbEntity
8
0
100
AcDbSpline
70
4
71
3
72
8
73
4
74
0
42
0.000000001
43
0.0000000001
44
0.0000000001
40
0
40
0
40
0
40
0
40
1
40
1
40
1
40
1
41
1
41
1
41
1
41
1
10
1.9171002091634826
20
-3.1141554018703603
30
0
10
1.8167922830490457
20
-3.1719576313809816
30
0
10
1.7185368621594901
20
-3.0391430648930697
30
0
10
1.7629932918926636
20
-2.9060436053406091
30
0
0
SPLINE
5
148
100
AcDbEntity
8
0
100
AcDbSpline
70
4
71
3
72
8
73
4
74
0
42
0.000000001
43
0.0000000001
44
0.0000000001
40
0
40
0
40
0
40
0
40
1
40
1
40
1
40
1
41
1
41
1
41
1
41
1
10
1.7629932918926579
20
-2.9060436053405994
30
0
10
1.7788412017025141
20
-2.8602868700538342
30
0
10
1.7788412017025141
20
-2.8602868700538342
30
0
10
1.7498117797078521
20
-2.8320202337470453
30
0
0
SPLINE
5
149
100
AcDbEntity
8
0
100
AcDbSpline
70
4
71
3
72
8
73
4
74
0
42
0.000000001
43
0.0000000001
44
0.0000000001
40
0
40
0
40
0
40
0
40
1
40
1
40
1
40
1
41
1
41
1
41
1
41
1
10
1.7498117797078521
20
-2.8320202337470453
30
0
10
1.7342508946669244
20
-2.8173685071302215
30
0
10
1.7156198665366957
20
-2.7902031940406382
30
0
10
1.708401372477607
20
-2.7735047053642803
30
0
0
SPLINE
5
150
100
AcDbEntity
8
0
100
AcDbSpline
70
4
71
3
72
8
73
4
74
0
42
0.000000001
43
0.0000000001
44
0.0000000001
40
0
40
0
40
0
40
0
40
1
40
1
40
1
40
1
41
1
41
1
41
1
41
1
10
1.7084013724776073
20
-2.7735047053642812
30
0
10
1.6929918751914652
20
-2.7348763726558563
30
0
10
1.7077727866521826
20
-2.6995417077320263
30
0
10
1.7833126733340627
20
-2.6030871010764143
30
0
0
SPLINE
5
151
100
AcDbEntity
8
0
100
AcDbSpline
70
4
71
3
72
8
73
4
74
0
42
0.000000001
43
0.0000000001
44
0.0000000001
40
0
40
0
40
0
40
0
40
1
40
1
40
1
40
1
41
1
41
1
41
1
41
1
10
1.7833126733340623
20
-2.6030871010764138
30
0
10
1.8482991510811495
20
-2.5190222137602949
30
0
10
1.8693217223302856
20
-2.4795390584452681
30
0
10
1.8652947177342181
20
-2.4503527810269534
30
0
0
SPLINE
5
152
100
AcDbEntity
8
0
100
AcDbSpline
70
4
71
3
72
8
73
4
74
0
42
0.000000001
43
0.0000000001
44
0.0000000001
40
0
40
0
40
0
40
0
40
1
40
1
40
1
40
1
41
1
41
1
41
1
41
1
10
1.8652947177342187
20
-2.4503527810269534
30
0
10
1.8612299496063098
20
-2.42117173896842
30
0
10
1.8320889291317513
20
-2.413778243656759
30
0
10
1.7112599711857344
20
-2.4123145375494306
30
0
0
LINE
5
153
100
AcDbEntity
8
0
100
AcDbLine
10
1.7112599733367937
20
-2.4123145514126145
30
0
11
1.6272228169613336
21
-2.4116872039048758
31
0
0
LINE
5
154
100
AcDbEntity
8
0
100
AcDbLine
10
1.6272228169613336
20
-2.4116872039048758
30
0
11
1.4741180784395254
21
-2.1800984043031026
31
0
0
SPLINE
5
155
100
AcDbEntity
8
0
100
AcDbSpline
70
4
71
3
72
8
73
4
74
0
42
0.000000001
43
0.0000000001
44
0.0000000001
40
0
40
0
40
0
40
0
40
1
40
1
40
1
40
1
41
1
41
1
41
1
41
1
10
1.4741181021216418
20
-2.1800984709201461
30
0
10
1.3229856102530382
20
-1.9509916921419053
30
0
10
1.2458581031287685
20
-1.8395639218509316
30
0
10
1.1968749998958348
20
-1.777083332861634
30
0
0
SPLINE
5
156
100
AcDbEntity
8
0
100
AcDbSpline
70
4
71
3
72
8
73
4
74
0
42
0.000000001
43
0.0000000001
44
0.0000000001
40
0
40
0
40
0
40
0
40
1
40
1
40
1
40
1
41
1
41
1
41
1
41
1
10
1.1968750000000001
20
-1.7770833333333333
30
0
10
1.1770833333333335
20
-1.7520833333333332
30
0
10
1.16875
20
-1.7489583333333334
30
0
10
1.138541666666667
20
-1.7531249999999998
30
0
0
SPLINE
5
157
100
AcDbEntity
8
0
100
AcDbSpline
70
4
71
3
72
8
73
4
74
0
42
0.000000001
43
0.0000000001
44
0.0000000001
40
0
40
0
40
0
40
0
40
1
40
1
40
1
40
1
41
1
41
1
41
1
41
1
10
1.0697916666666669
20
-1.765625
30
0
10
0.96354166666666674
20
-1.7906249999999999
30
0
10
0.74375000000000013
20
-1.838541666666667
30
0
10
0.64583333333333337
20
-1.8593750000000002
30
0
0
SPLINE
5
158
100
AcDbEntity
8
0
100
AcDbSpline
70
4
71
3
72
8
73
4
74
0
42
0.000000001
43
0.0000000001
44
0.0000000001
40
0
40
0
40
0
40
0
40
1
40
1
40
1
40
1
41
1
41
1
41
1
41
1
10
0.64583333333333337
20
-1.8593750000000002
30
0
10
0.58020833333333344
20
-1.8739583333333334
30
0
10
0.5
20
-1.8916666666666666
30
0
10
0.46770833333333345
20
-1.9000000000000001
30
0
0
SPLINE
5
159
100
AcDbEntity
8
0
100
AcDbSpline
70
4
71
3
72
8
73
4
74
0
42
0.000000001
43
0.0000000001
44
0.0000000001
40
0
40
0
40
0
40
0
40
1
40
1
40
1
40
1
41
1
41
1
41
1
41
1
10
0.46770833333333345
20
-1.9000000000000001
30
0
10
0.43125000000000002
20
-1.9083333333333334
30
0
10
0.40312500000000001
20
-1.9104166666666667
30
0
10
0.39479166666666665
20
-1.9052083333333332
30
0
0
SPLINE
5
160
100
AcDbEntity
8
0
100
AcDbSpline
70
4
71
3
72
8
73
4
74
0
42
0.000000001
43
0.0000000001
44
0.0000000001
40
0
40
0
40
0
40
0
40
1
40
1
40
1
40
1
41
1
41
1
41
1
41
1
10
0.39479166666666665
20
-1.9052083333333332
30
0
10
0.37187500000000007
20
-1.8895833333333329
30
0
10
0.41666666666666674
20
-1.8593750000000002
30
0
10
0.62708333333333344
20
-1.7437499999999999
30
0
0
SPLINE
5
161
100
AcDbEntity
8
0
100
AcDbSpline
70
4
71
3
72
8
73
4
74
0
42
0.000000001
43
0.0000000001
44
0.0000000001
40
0
40
0
40
0
40
0
40
1
40
1
40
1
40
1
41
1
41
1
41
1
41
1
10
0.62708333333333344
20
-1.7437499999999999
30
0
10
0.82291666666666663
20
-1.6364583333333329
30
0
10
0.90625000000000011
20
-1.590625
30
0
10
0.96875
20
-1.5552083333333335
30
0
0
SPLINE
5
162
100
AcDbEntity
8
0
100
AcDbSpline
70
4
71
3
72
8
73
4
74
0
42
0.000000001
43
0.0000000001
44
0.0000000001
40
0
40
0
40
0
40
0
40
1
40
1
40
1
40
1
41
1
41
1
41
1
41
1
10
0.96875
20
-1.5552083333333335
30
0
10
0.98854166666666687
20
-1.54375
30
0
10
1.0406250000000001
20
-1.515625
30
0
10
1.0833333333333333
20
-1.4927083333333335
30
0
0
SPLINE
5
163
100
AcDbEntity
8
0
100
AcDbSpline
70
4
71
3
72
8
73
4
74
0
42
0.000000001
43
0.0000000001
44
0.0000000001
40
0
40
0
40
0
40
0
40
1
40
1
40
1
40
1
41
1
41
1
41
1
41
1
10
1.0833333333333333
20
-1.4927083333333335
30
0
10
1.1260416666666668
20
-1.4697916666666664
30
0
10
1.2020833333333336
20
-1.4291666666666667
30
0
10
1.2510416666666668
20
-1.4020833333333329
30
0
0
SPLINE
5
164
100
AcDbEntity
8
0
100
AcDbSpline
70
4
71
3
72
8
73
4
74
0
42
0.000000001
43
0.0000000001
44
0.0000000001
40
0
40
0
40
0
40
0
40
1
40
1
40
1
40
1
41
1
41
1
41
1
41
1
10
1.2510416666666668
20
-1.4020833333333329
30
0
10
1.3083333333333336
20
-1.3708333333333331
30
0
10
1.3479166666666667
20
-1.35625
30
0
10
1.3604166666666666
20
-1.3604166666666664
30
0
0
SPLINE
5
165
100
AcDbEntity
8
0
100
AcDbSpline
70
4
71
3
72
8
73
4
74
0
42
0.000000001
43
0.0000000001
44
0.0000000001
40
0
40
0
40
0
40
0
40
1
40
1
40
1
40
1
41
1
41
1
41
1
41
1
10
1.3604166666666666
20
-1.3604166666666664
30
0
10
1.3739583333333334
20
-1.3645833333333335
30
0
10
1.3760416666666668
20
-1.3635416666666664
30
0
10
1.3666666666666669
20
-1.357291666666667
30
0
0
SPLINE
5
166
100
AcDbEntity
8
0
100
AcDbSpline
70
4
71
3
72
8
73
4
74
0
42
0.000000001
43
0.0000000001
44
0.0000000001
40
0
40
0
40
0
40
0
40
1
40
1
40
1
40
1
41
1
41
1
41
1
41
1
10
1.3666666666666669
20
-1.357291666666667
30
0
10
1.3531250000000001
20
-1.3468750000000003
30
0
10
1.5489583333333334
20
-1.247916666666667
30
0
10
1.7895833333333335
20
-1.1416666666666664
30
0
0
SPLINE
5
167
100
AcDbEntity
8
0
100
AcDbSpline
70
4
71
3
72
8
73
4
74
0
42
0.000000001
43
0.0000000001
44
0.0000000001
40
0
40
0
40
0
40
0
40
1
40
1
40
1
40
1
41
1
41
1
41
1
41
1
10
1.7895833333333335
20
-1.1416666666666664
30
0
10
1.8489583333333335
20
-1.1156249999999996
30
0
10
1.9104166666666667
20
-1.0854166666666667
30
0
10
1.9260416666666669
20
-1.0729166666666667
30
0
0
SPLINE
5
168
100
AcDbEntity
8
0
100
AcDbSpline
70
4
71
3
72
8
73
4
74
0
42
0.000000001
43
0.0000000001
44
0.0000000001
40
0
40
0
40
0
40
0
40
1
40
1
40
1
40
1
41
1
41
1
41
1
41
1
10
1.9260416666666669
20
-1.0729166666666667
30
0
10
1.9718750000000003
20
-1.0406249999999999
30
0
10
2.0020833333333337
20
-1.03125
30
0
10
2.041666666666667
20
-1.0364583333333333
30
0
0
SPLINE
5
169
100
AcDbEntity
8
0
100
AcDbSpline
70
4
71
3
72
8
73
4
74
0
42
0.000000001
43
0.0000000001
44
0.0000000001
40
0
40
0
40
0
40
0
40
1
40
1
40
1
40
1
41
1
41
1
41
1
41
1
10
2.041666666666667
20
-1.0364583333333333
30
0
10
2.0614583333333334
20
-1.0385416666666665
30
0
10
2.2375000000000003
20
-1.0541666666666665
30
0
10
2.4322916666666665
20
-1.0718749999999999
30
0
0
SPLINE
5
170
100
AcDbEntity
8
0
100
AcDbSpline
70
4
71
3
72
8
73
4
74
0
42
0.000000001
43
0.0000000001
44
0.0000000001
40
0
40
0
40
0
40
0
40
1
40
1
40
1
40
1
41
1
41
1
41
1
41
1
10
1.9739583333333335
20
-1.5312500000000002
30
0
10
1.9708333333333337
20
-1.5364583333333335
30
0
10
1.9729166666666669
20
-1.5416666666666667
30
0
10
1.9781250000000004
20
-1.5416666666666667
30
0
0
SPLINE
5
171
100
AcDbEntity
8
0
100
AcDbSpline
70
4
71
3
72
8
73
4
74
0
42
0.000000001
43
0.0000000001
44
0.0000000001
40
0
40
0
40
0
40
0
40
1
40
1
40
1
40
1
41
1
41
1
41
1
41
1
10
1.9781250000000004
20
-1.5416666666666667
30
0
10
1.984375
20
-1.5416666666666667
30
0
10
1.9895833333333335
20
-1.5364583333333335
30
0
10
1.9895833333333335
20
-1.5312500000000002
30
0
0
SPLINE
5
172
100
AcDbEntity
8
0
100
AcDbSpline
70
4
71
3
72
8
73
4
74
0
42
0.000000001
43
0.0000000001
44
0.0000000001
40
0
40
0
40
0
40
0
40
1
40
1
40
1
40
1
41
1
41
1
41
1
41
1
10
1.9895833333333335
20
-1.5312500000000002
30
0
10
1.9895833333333335
20
-1.5249999999999999
30
0
10
1.9875000000000003
20
-1.5208333333333335
30
0
10
1.9854166666666671
20
-1.5208333333333335
30
0
0
SPLINE
5
173
100
AcDbEntity
8
0
100
AcDbSpline
70
4
71
3
72
8
73
4
74
0
42
0.000000001
43
0.0000000001
44
0.0000000001
40
0
40
0
40
0
40
0
40
1
40
1
40
1
40
1
41
1
41
1
41
1
41
1
10
1.9854166666666671
20
-1.5208333333333335
30
0
10
1.9822916666666668
20
-1.5208333333333335
30
0
10
1.9770833333333337
20
-1.5249999999999999
30
0
10
1.9739583333333335
20
-1.5312500000000002
30
0
0
SPLINE
5
174
100
AcDbEntity
8
0
100
AcDbSpline
70
4
71
3
72
8
73
4
74
0
42
0.000000001
43
0.0000000001
44
0.0000000001
40
0
40
0
40
0
40
0
40
1
40
1
40
1
40
1
41
1
41
1
41
1
41
1
10
2.3255088845023861
20
-1.6043513617851726
30
0
10
2.3213422178357193
20
-1.6147680284518393
30
0
10
2.3119672178357193
20
-1.6335180284518394
30
0
10
2.303633884502386
20
-1.6460180284518391
30
0
0
SPLINE
5
175
100
AcDbEntity
8
0
100
AcDbSpline
70
4
71
3
72
8
73
4
74
0
42
0.000000001
43
0.0000000001
44
0.0000000001
40
0
40
0
40
0
40
0
40
1
40
1
40
1
40
1
41
1
41
1
41
1
41
1
10
2.303633884502386
20
-1.6460180284518391
30
0
10
2.2963422178357189
20
-1.658518028451839
30
0
10
2.288008884502386
20
-1.6751846951185059
30
0
10
2.2869672178357194
20
-1.6824763617851726
30
0
0
SPLINE
5
176
100
AcDbEntity
8
0
100
AcDbSpline
70
4
71
3
72
8
73
4
74
0
42
0.000000001
43
0.0000000001
44
0.0000000001
40
0
40
0
40
0
40
0
40
1
40
1
40
1
40
1
41
1
41
1
41
1
41
1
10
2.2869672178357194
20
-1.6824763617851726
30
0
10
2.2859255511690524
20
-1.689768028451839
30
0
10
2.241133884502386
20
-1.7845596951185061
30
0
10
2.1869672178357193
20
-1.8939346951185061
30
0
0
SPLINE
5
177
100
AcDbEntity
8
0
100
AcDbSpline
70
4
71
3
72
8
73
4
74
0
42
0.000000001
43
0.0000000001
44
0.0000000001
40
0
40
0
40
0
40
0
40
1
40
1
40
1
40
1
41
1
41
1
41
1
41
1
10
2.1869672178357193
20
-1.8939346951185061
30
0
10
2.1338422178357193
20
-2.0022680284518386
30
0
10
2.0588422178357195
20
-2.1543513617851722
30
0
10
2.0213422178357194
20
-2.2314346951185051
30
0
0
LINE
5
178
100
AcDbEntity
8
0
100
AcDbLine
10
2.021342217835719
20
-2.2314346951185051
30
0
11
1.9535209318562929
21
-2.3818270186136212
31
0
0
LINE
5
179
100
AcDbEntity
8
0
100
AcDbLine
10
1.9535209318562929
20
-2.3818270186136212
30
0
11
1.8140505511690526
21
-2.3647680284518384
31
0
0
SPLINE
5
180
100
AcDbEntity
8
0
100
AcDbSpline
70
4
71
3
72
8
73
4
74
0
42
0.000000001
43
0.0000000001
44
0.0000000001
40
0
40
0
40
0
40
0
40
1
40
1
40
1
40
1
41
1
41
1
41
1
41
1
10
1.8140505511690526
20
-2.3647680284518389
30
0
10
1.7369672178357194
20
-2.3616430284518386
30
0
10
1.6734255511690526
20
-2.3574763617851722
30
0
10
1.6703005511690523
20
-2.355393028451839
30
0
0
SPLINE
5
181
100
AcDbEntity
8
0
100
AcDbSpline
70
4
71
3
72
8
73
4
74
0
42
0.000000001
43
0.0000000001
44
0.0000000001
40
0
40
0
40
0
40
0
40
1
40
1
40
1
40
1
41
1
41
1
41
1
41
1
10
1.6703005511690523
20
-2.355393028451839
30
0
10
1.6671755511690527
20
-2.3512263617851721
30
0
10
1.9119672178357194
20
-2.0303930284518392
30
0
10
2.0171755511690526
20
-1.900184695118506
30
0
0
SPLINE
5
182
100
AcDbEntity
8
0
100
AcDbSpline
70
4
71
3
72
8
73
4
74
0
42
0.000000001
43
0.0000000001
44
0.0000000001
40
0
40
0
40
0
40
0
40
1
40
1
40
1
40
1
41
1
41
1
41
1
41
1
10
2.0171755511690526
20
-1.900184695118506
30
0
10
2.0338422178357192
20
-1.8803930284518393
30
0
10
2.053633884502386
20
-1.8543513617851726
30
0
10
2.0619672178357193
20
-1.8408096951185058
30
0
0
SPLINE
5
183
100
AcDbEntity
8
0
100
AcDbSpline
70
4
71
3
72
8
73
4
74
0
42
0.000000001
43
0.0000000001
44
0.0000000001
40
0
40
0
40
0
40
0
40
1
40
1
40
1
40
1
41
1
41
1
41
1
41
1
10
2.0619672178357193
20
-1.8408096951185058
30
0
10
2.0869672178357193
20
-1.8043513617851723
30
0
10
2.2515505511690526
20
-1.6033096951185057
30
0
10
2.2640505511690523
20
-1.5949763617851727
30
0
0
SPLINE
5
184
100
AcDbEntity
8
0
100
AcDbSpline
70
4
71
3
72
8
73
4
74
0
42
0.000000001
43
0.0000000001
44
0.0000000001
40
0
40
0
40
0
40
0
40
1
40
1
40
1
40
1
41
1
41
1
41
1
41
1
10
2.2640505511690523
20
-1.5949763617851727
30
0
10
2.2703005511690524
20
-1.5908096951185058
30
0
10
2.288008884502386
20
-1.5866430284518394
30
0
10
2.303633884502386
20
-1.5866430284518394
30
0
0
SPLINE
5
185
100
AcDbEntity
8
0
100
AcDbSpline
70
4
71
3
72
8
73
4
74
0
42
0.000000001
43
0.0000000001
44
0.0000000001
40
0
40
0
40
0
40
0
40
1
40
1
40
1
40
1
41
1
41
1
41
1
41
1
10
2.303633884502386
20
-1.5866430284518394
30
0
10
2.3265505511690527
20
-1.5866430284518394
30
0
10
2.3307172178357192
20
-1.5908096951185058
30
0
10
2.3255088845023861
20
-1.6043513617851726
30
0
0
SPLINE
5
186
100
AcDbEntity
8
0
100
AcDbSpline
70
4
71
3
72
8
73
4
74
0
42
0.000000001
43
0.0000000001
44
0.0000000001
40
0
40
0
40
0
40
0
40
1
40
1
40
1
40
1
41
1
41
1
41
1
41
1
10
2.4524856290930139
20
-1.8098015901673929
30
0
10
2.4883456774748907
20
-2.0067726725050594
30
0
10
2.4968928531195473
20
-2.1597157093671879
30
0
10
2.4729166666662419
20
-2.1958333333329771
30
0
0
SPLINE
5
187
100
AcDbEntity
8
0
100
AcDbSpline
70
4
71
3
72
8
73
4
74
0
42
0.000000001
43
0.0000000001
44
0.0000000001
40
0
40
0
40
0
40
0
40
1
40
1
40
1
40
1
41
1
41
1
41
1
41
1
10
2.4729166666666669
20
-2.1958333333333333
30
0
10
2.4593750000000005
20
-2.2156250000000002
30
0
10
2.3875000000000002
20
-2.2604166666666665
30
0
10
2.370833333333334
20
-2.2604166666666665
30
0
0
SPLINE
5
188
100
AcDbEntity
8
0
100
AcDbSpline
70
4
71
3
72
8
73
4
74
0
42
0.000000001
43
0.0000000001
44
0.0000000001
40
0
40
0
40
0
40
0
40
1
40
1
40
1
40
1
41
1
41
1
41
1
41
1
10
2.370833333333334
20
-2.2604166666666665
30
0
10
2.3677083333333337
20
-2.2604166666666665
30
0
10
2.3645833333333335
20
-2.2406250000000001
30
0
10
2.3625000000000003
20
-2.2166666666666668
30
0
0
SPLINE
5
189
100
AcDbEntity
8
0
100
AcDbSpline
70
4
71
3
72
8
73
4
74
0
42
0.000000001
43
0.0000000001
44
0.0000000001
40
0
40
0
40
0
40
0
40
1
40
1
40
1
40
1
41
1
41
1
41
1
41
1
10
2.3625000000000003
20
-2.2166666666666668
30
0
10
2.3572916666666672
20
-2.1406250000000004
30
0
10
2.2739583333333337
20
-2.104166666666667
30
0
10
2.2072916666666669
20
-2.1489583333333333
30
0
0
SPLINE
5
190
100
AcDbEntity
8
0
100
AcDbSpline
70
4
71
3
72
8
73
4
74
0
42
0.000000001
43
0.0000000001
44
0.0000000001
40
0
40
0
40
0
40
0
40
1
40
1
40
1
40
1
41
1
41
1
41
1
41
1
10
2.2072916666666669
20
-2.1489583333333333
30
0
10
2.1614583333333335
20
-2.1802083333333333
30
0
10
2.1531250000000002
20
-2.2364583333333332
30
0
10
2.1885416666666671
20
-2.2843749999999998
30
0
0
LINE
5
191
100
AcDbEntity
8
0
100
AcDbLine
10
2.1885416666666671
20
-2.2843749999999998
30
0
11
2.2114583333333333
21
-2.3166666666666664
31
0
0
LINE
5
192
100
AcDbEntity
8
0
100
AcDbLine
10
2.2114583333333333
20
-2.3166666666666664
30
0
11
2.1540369388085625
21
-2.3674111548513483
31
0
0
SPLINE
5
193
100
AcDbEntity
8
0
100
AcDbSpline
70
4
71
3
72
8
73
4
74
0
42
0.000000001
43
0.0000000001
44
0.0000000001
40
0
40
0
40
0
40
0
40
1
40
1
40
1
40
1
41
1
41
1
41
1
41
1
10
2.0150651284108205
20
-2.3828523227268663
30
0
10
2.0213151284108206
20
-2.373477322726866
30
0
10
2.0400651284108204
20
-2.3318106560601994
30
0
10
2.0588151284108207
20
-2.2922273227268661
30
0
0
SPLINE
5
194
100
AcDbEntity
8
0
100
AcDbSpline
70
4
71
3
72
8
73
4
74
0
42
0.000000001
43
0.0000000001
44
0.0000000001
40
0
40
0
40
0
40
0
40
1
40
1
40
1
40
1
41
1
41
1
41
1
41
1
10
2.0588151284108207
20
-2.2922273227268661
30
0
10
2.1171484617441538
20
-2.1672273227268666
30
0
10
2.3400651284108203
20
-1.7099356560601995
30
0
10
2.3504817950774868
20
-1.6932689893935331
30
0
0
SPLINE
5
195
100
AcDbEntity
8
0
100
AcDbSpline
70
4
71
3
72
8
73
4
74
0
42
0.000000001
43
0.0000000001
44
0.0000000001
40
0
40
0
40
0
40
0
40
1
40
1
40
1
40
1
41
1
41
1
41
1
41
1
10
2.3504817950774868
20
-1.6932689893935331
30
0
10
2.3567317950774873
20
-1.6849356560601996
30
0
10
2.3692317950774875
20
-1.6620189893935331
30
0
10
2.3786067950774874
20
-1.6432689893935328
30
0
0
SPLINE
5
196
100
AcDbEntity
8
0
100
AcDbSpline
70
4
71
3
72
8
73
4
74
0
42
0.000000001
43
0.0000000001
44
0.0000000001
40
0
40
0
40
0
40
0
40
1
40
1
40
1
40
1
41
1
41
1
41
1
41
1
10
2.3786067950756555
20
-1.6432689893924866
30
0
10
2.398765849963584
20
-1.5946389588852312
30
0
10
2.4026256886445303
20
-1.6037360955422828
30
0
10
2.4524856290915507
20
-1.8098015901665179
30
0
0
SPLINE
5
197
100
AcDbEntity
8
0
100
AcDbSpline
70
4
71
3
72
8
73
4
74
0
42
0.000000001
43
0.0000000001
44
0.0000000001
40
0
40
0
40
0
40
0
40
1
40
1
40
1
40
1
41
1
41
1
41
1
41
1
10
2.1713887159241785
20
-1.6101150777093505
30
0
10
2.1620137159241781
20
-1.6267817443760175
30
0
10
1.855763715924178
20
-2.026781744376017
30
0
10
1.7630553825908446
20
-2.1444900777093503
30
0
0
SPLINE
5
198
100
AcDbEntity
8
0
100
AcDbSpline
70
4
71
3
72
8
73
4
74
0
42
0.000000001
43
0.0000000001
44
0.0000000001
40
0
40
0
40
0
40
0
40
1
40
1
40
1
40
1
41
1
41
1
41
1
41
1
10
1.7630553825908446
20
-2.1444900777093503
30
0
10
1.7588887159241782
20
-2.1496984110426838
30
0
10
1.7390970492575111
20
-2.1757400777093503
30
0
10
1.7193053825908444
20
-2.2017817443760173
30
0
0
SPLINE
5
199
100
AcDbEntity
8
0
100
AcDbSpline
70
4
71
3
72
8
73
4
74
0
42
0.000000001
43
0.0000000001
44
0.0000000001
40
0
40
0
40
0
40
0
40
1
40
1
40
1
40
1
41
1
41
1
41
1
41
1
10
1.7193053825908444
20
-2.2017817443760173
30
0
10
1.6578470492575113
20
-2.2809484110426839
30
0
10
1.6255553825908444
20
-2.3121984110426834
30
0
10
1.6172220492575113
20
-2.3007400777093503
30
0
0
SPLINE
5
200
100
AcDbEntity
8
0
100
AcDbSpline
70
4
71
3
72
8
73
4
74
0
42
0.000000001
43
0.0000000001
44
0.0000000001
40
0
40
0
40
0
40
0
40
1
40
1
40
1
40
1
41
1
41
1
41
1
41
1
10
1.6172220492575113
20
-2.3007400777093503
30
0
10
1.5880553825908448
20
-2.261156744376017
30
0
10
1.3255553825908448
20
-1.8621984110426837
30
0
10
1.2870137159241779
20
-1.7996984110426835
30
0
0
SPLINE
5
201
100
AcDbEntity
8
0
100
AcDbSpline
70
4
71
3
72
8
73
4
74
0
42
0.000000001
43
0.0000000001
44
0.0000000001
40
0
40
0
40
0
40
0
40
1
40
1
40
1
40
1
41
1
41
1
41
1
41
1
10
1.2870137159241779
20
-1.7996984110426835
30
0
10
1.2411803825908447
20
-1.7226150777093505
30
0
10
1.2401387159241779
20
-1.7215734110426837
30
0
10
1.2640970492575114
20
-1.7132400777093502
30
0
0
SPLINE
5
202
100
AcDbEntity
8
0
100
AcDbSpline
70
4
71
3
72
8
73
4
74
0
42
0.000000001
43
0.0000000001
44
0.0000000001
40
0
40
0
40
0
40
0
40
1
40
1
40
1
40
1
41
1
41
1
41
1
41
1
10
1.2640970492575114
20
-1.7132400777093502
30
0
10
1.2849303825908449
20
-1.7049067443760173
30
0
10
1.5411803825908448
20
-1.6674067443760168
30
0
10
1.9015970492575114
20
-1.6194900777093506
30
0
0
SPLINE
5
203
100
AcDbEntity
8
0
100
AcDbSpline
70
4
71
3
72
8
73
4
74
0
42
0.000000001
43
0.0000000001
44
0.0000000001
40
0
40
0
40
0
40
0
40
1
40
1
40
1
40
1
41
1
41
1
41
1
41
1
10
1.9015970492575114
20
-1.6194900777093506
30
0
10
2.0828470492575115
20
-1.5955317443760173
30
0
10
2.181805382590845
20
-1.5924067443760175
30
0
10
2.1713887159241785
20
-1.6101150777093505
30
0
0
SPLINE
5
204
100
AcDbEntity
8
0
100
AcDbSpline
70
4
71
3
72
8
73
4
74
0
42
0.000000001
43
0.0000000001
44
0.0000000001
40
0
40
0
40
0
40
0
40
1
40
1
40
1
40
1
41
1
41
1
41
1
41
1
10
2.2731672232412174
20
-2.8735607125857672
30
0
10
2.2562008293449058
20
-2.8762589281153557
30
0
10
2.2533083386356223
20
-2.8854166789459077
30
0
10
2.2516487670278278
20
-2.9521928077468056
30
0
0
SPLINE
5
205
100
AcDbEntity
8
0
100
AcDbSpline
70
4
71
3
72
8
73
4
74
0
42
0.000000001
43
0.0000000001
44
0.0000000001
40
0
40
0
40
0
40
0
40
1
40
1
40
1
40
1
41
1
41
1
41
1
41
1
10
2.2516487670278278
20
-2.9521928077468056
30
0
10
2.251221173410241
20
-2.9929355790528693
30
0
10
2.2545812421065876
20
-3.0381923105290971
30
0
10
2.2617026305743106
20
-3.052408744921987
30
0
0
LINE
5
206
100
AcDbEntity
8
0
100
AcDbLine
10
2.2617026305743106
20
-3.052408744921987
30
0
11
2.2719761707317661
21
-3.0784030591586262
31
0
0
LINE
5
207
100
AcDbEntity
8
0
100
AcDbLine
10
2.2719761707317661
20
-3.0784030591586262
30
0
11
2.2927429276576485
21
-3.0561700646933638
31
0
0
SPLINE
5
208
100
AcDbEntity
8
0
100
AcDbSpline
70
4
71
3
72
8
73
4
74
0
42
0.000000001
43
0.0000000001
44
0.0000000001
40
0
40
0
40
0
40
0
40
1
40
1
40
1
40
1
41
1
41
1
41
1
41
1
10
2.292742927657649
20
-3.0561700646933638
30
0
10
2.3274147140221397
20
-3.018423272044251
30
0
10
2.4028283305814133
20
-2.8974523375475441
30
0
10
2.3971468371105127
20
-2.8906813972922976
30
0
0
SPLINE
5
209
100
AcDbEntity
8
0
100
AcDbSpline
70
4
71
3
72
8
73
4
74
0
42
0.000000001
43
0.0000000001
44
0.0000000001
40
0
40
0
40
0
40
0
40
1
40
1
40
1
40
1
41
1
41
1
41
1
41
1
10
2.3971468371105127
20
-2.8906813972922976
30
0
10
2.3895715124826449
20
-2.8816534769519695
30
0
10
2.2976698985072006
20
-2.8683848992488445
30
0
10
2.2731672232412174
20
-2.8735607125857672
30
0
0
ARC
5
210
100
AcDbEntity
8
0
100
AcDbCircle
10
3.7459382622538548
20
-1.5898028196389631
30
0
40
0.1287085055846576
210
0
220
-0
230
1
100
AcDbArc
50
89.647863886304819
51
99.470154312734437
0
LINE
5
211
100
AcDbEntity
8
0
100
AcDbLine
10
3.734375018075931
20
-1.2135416400031642
30
0
11
3.7666666993085132
21
-1.2187499754037627
31
0
0
LINE
5
212
100
AcDbEntity
8
0
100
AcDbLine
10
4.6137516299609613
20
-1.3462773696315835
30
0
11
5.7318033442763197
21
-1.5131308005462727
31
0
0
LINE
5
213
100
AcDbEntity
8
0
100
AcDbLine
10
2.7008030265872978
20
-1.5305567587300914
30
0
11
2.9487196932539645
21
-1.5107650920634246
31
0
0
LINE
5
214
100
AcDbEntity
8
0
100
AcDbLine
10
2.4976780265872973
20
-1.5920150920634246
30
0
11
2.4976780265872973
21
-1.6136700929223757
31
0
0
LINE
5
215
100
AcDbEntity
8
0
100
AcDbLine
10
2.4976780265872973
20
-1.6136700929223757
30
0
11
2.5846152156166289
21
-2.205250587638341
31
0
0
ARC
5
216
100
AcDbEntity
8
0
100
AcDbCircle
10
2.6268488109323798
20
-2.1990440441634482
30
0
40
0.042687208332243147
210
0
220
0
230
1
100
AcDbArc
50
188.36020337803288
51
252.42260954520444
0
LINE
5
217
100
AcDbEntity
8
0
100
AcDbLine
10
1.1385416651396927
20
-1.7531249673254019
30
0
11
1.0697916968252081
21
-1.7656249619602604
31
0
0
ARC
5
218
100
AcDbEntity
8
0
100
AcDbCircle
10
2.227161103560154
20
-2.4369944639250001
30
0
40
0.66032783887848423
210
0
220
0
230
1
100
AcDbArc
50
338.44973174588682
51
345.64781441557108
0
ARC
5
219
100
AcDbEntity
8
0
100
AcDbCircle
10
2.6607541060146183
20
-2.6804847403819143
30
0
40
0.33997813432347612
210
0
220
-0
230
1
100
AcDbArc
50
55.73358317446673
51
83.240599199157572
0
ARC
5
220
100
AcDbEntity
8
0
100
AcDbCircle
10
3.0811058187917202
20
-2.1441288782492576
30
0
40
0.024261966706131038
210
0
220
0
230
1
100
AcDbArc
50
-3.7243313925815369
51
147.08476301383277
0
ARC
5
221
100
AcDbEntity
8
0
100
AcDbCircle
10
3.1361819273395546
20
-2.7900036418284682
30
0
40
0.058960706044132498
210
0
220
0
230
1
100
AcDbArc
50
258.55259290508616
51
316.83617476923877
0
ARC
5
222
100
AcDbEntity
8
0
100
AcDbCircle
10
2.8691475584790558
20
-2.601257623131116
30
0
40
0.0023402483041511306
210
0
220
-0
230
1
100
AcDbArc
50
58.846488748599754
51
165.64781444552395
0
ARC
5
223
100
AcDbEntity
8
0
100
AcDbCircle
10
2.4680090813444453
20
-3.264830475084588
30
0
40
0.77773757077154815
210
0
220
-0
230
1
100
AcDbArc
50
32.426736869770281
51
58.846488758323218
0
SPLINE
5
224
100
AcDbEntity
8
0
100
AcDbSpline
70
4
71
3
72
8
73
4
74
0
42
0.000000001
43
0.0000000001
44
0.0000000001
40
0
40
0
40
0
40
0
40
0.89594060309334078
40
0.89594060309334078
40
0.89594060309334078
40
0.89594060309334078
41
1
41
1
41
1
41
1
10
2.7245103267055235
20
-2.8601132181956088
30
0
10
2.7954496726831071
20
-2.915162429411069
30
0
10
2.9558674509983933
20
-3.0203635752483753
30
0
10
2.9944778330110657
20
-3.0386640682232327
30
0
0
ARC
5
225
100
AcDbEntity
8
0
100
AcDbCircle
10
2.997069637842849
20
-3.0331956992651747
30
0
40
0.0060514883745219515
210
0
220
0
230
1
100
AcDbArc
50
244.6407773401416
51
358.77403471415658
0
ARC
5
226
100
AcDbEntity
8
0
100
AcDbCircle
10
2.0200850931908381
20
-2.386198965913545
30
0
40
0.006033246805125788
210
0
220
0
230
1
100
AcDbArc
50
146.30993247401787
51
292.31871726826563
0
ARC
5
227
100
AcDbEntity
8
0
100
AcDbCircle
10
2.0679132819629578
20
-2.2699554378944806
30
0
40
0.13005729904944419
210
0
220
0
230
1
100
AcDbArc
50
249.50470950589431
51
311.46770541610937
0
ENDSEC
0
SECTION
2
OBJECTS
0
DICTIONARY
5
C
100
AcDbDictionary
3
ACAD_GROUP
350
D
3
ACAD_MLINESTYLE
350
17
0
DICTIONARY
5
D
100
AcDbDictionary
0
DICTIONARY
5
1A
330
C
100
AcDbDictionary
0
DICTIONARY
5
17
100
AcDbDictionary
0
ENDSEC
0
EOF
