0
SECTION
2
HEADER
9
$INSUNITS
70
1
9
$ACADVER
1
AC1014
9
$HANDSEED
5
FFFF
0
ENDSEC
0
SECTION
2
TABLES
0
TABLE
2
VPORT
5
8
100
AcDbSymbolTable
0
ENDTAB
0
TABLE
2
LTYPE
5
5
100
AcDbSymbolTable
0
LTYPE
5
14
100
AcDbSymbolTableRecord
100
AcDbLinetypeTableRecord
2
BYBLOCK
70
0
0
LTYPE
5
15
100
AcDbSymbolTableRecord
100
AcDbLinetypeTableRecord
2
BYLAYER
70
0
0
ENDTAB
0
TABLE
2
LAYER
5
2
100
AcDbSymbolTable
70
2
0
LAYER
5
50
100
AcDbSymbolTableRecord
100
AcDbLayerTableRecord
2
0
70
0
6
CONTINUOUS
0
ENDTAB
0
TABLE
2
STYLE
5
3
100
AcDbSymbolTable
70
1
0
STYLE
5
11
100
AcDbSymbolTableRecord
100
AcDbTextStyleTableRecord
2
STANDARD
70
0
0
ENDTAB
0
TABLE
2
VIEW
5
6
100
AcDbSymbolTable
70
0
0
ENDTAB
0
TABLE
2
UCS
5
7
100
AcDbSymbolTable
70
0
0
ENDTAB
0
TABLE
2
APPID
5
9
100
AcDbSymbolTable
70
2
0
APPID
5
12
100
AcDbSymbolTableRecord
100
AcDbRegAppTableRecord
2
ACAD
70
0
0
ENDTAB
0
TABLE
2
DIMSTYLE
5
A
100
AcDbSymbolTable
70
1
0
ENDTAB
0
TABLE
2
BLOCK_RECORD
5
1
100
AcDbSymbolTable
70
1
0
BLOCK_RECORD
5
1F
100
AcDbSymbolTableRecord
100
AcDbBlockTableRecord
2
*MODEL_SPACE
0
BLOCK_RECORD
5
1B
100
AcDbSymbolTableRecord
100
AcDbBlockTableRecord
2
*PAPER_SPACE
0
ENDTAB
0
ENDSEC
0
SECTION
2
BLOCKS
0
BLOCK
5
20
100
AcDbEntity
100
AcDbBlockBegin
2
*MODEL_SPACE
0
ENDBLK
5
21
100
AcDbEntity
100
AcDbBlockEnd
0
BLOCK
5
1C
100
AcDbEntity
100
AcDbBlockBegin
2
*PAPER_SPACE
0
ENDBLK
5
1D
100
AcDbEntity
100
AcDbBlockEnd
0
ENDSEC
0
SECTION
2
ENTITIES
0
LINE
5
100
100
AcDbEntity
8
0
100
AcDbLine
10
308.44921848587359
20
-351.66115114555674
30
0
11
308.60730433873425
21
-351.64235140863809
31
0
0
SPLINE
5
101
100
AcDbEntity
8
0
100
AcDbSpline
70
0
71
3
72
8
73
4
74
0
42
0.000000001
43
0.0000000001
44
0.0000000001
40
0
40
0
40
0
40
0
40
1
40
1
40
1
40
1
10
308.79828101837563
20
-352.05700949339439
30
0
10
308.86343443174115
20
-352.12749979401207
30
0
10
308.94164358693007
20
-352.17994391163239
30
0
10
309.03000214734266
20
-352.21698666324755
30
0
0
SPLINE
5
102
100
AcDbEntity
8
0
100
AcDbSpline
70
0
71
3
72
8
73
4
74
0
42
0.000000001
43
0.0000000001
44
0.0000000001
40
0
40
0
40
0
40
0
40
1
40
1
40
1
40
1
10
307.82391448128988
20
-356.12446734099683
30
0
10
307.85517685872492
20
-356.08661439983973
30
0
10
307.87080332930526
20
-356.02256637863053
30
0
10
307.87080332930526
20
-355.93142683129128
30
0
0
SPLINE
5
103
100
AcDbEntity
8
0
100
AcDbSpline
70
0
71
3
72
8
73
4
74
0
42
0.000000001
43
0.0000000001
44
0.0000000001
40
0
40
0
40
0
40
0
40
1
40
1
40
1
40
1
10
309.35376198377901
20
-350.57287400068583
30
0
10
309.30124104589726
20
-350.57593404970396
30
0
10
309.24878885801547
20
-350.58363404970009
30
0
10
309.19743934823765
20
-350.59412179479273
30
0
0
LINE
5
104
100
AcDbEntity
8
0
100
AcDbLine
10
308.75679780761243
20
-352.01212654570486
30
0
11
308.79828101837563
21
-352.05700949339439
31
0
0
LINE
5
105
100
AcDbEntity
8
0
100
AcDbLine
10
307.78690677869434
20
-352.24573225146821
30
0
11
308.64283730440241
21
-352.24573225146821
31
0
0
LINE
5
106
100
AcDbEntity
8
0
100
AcDbLine
10
308.6446935544015
20
-352.00490240355163
30
0
11
308.6468881622435
21
-352.00490240355163
31
0
0
SPLINE
5
107
100
AcDbEntity
8
0
100
AcDbSpline
70
0
71
3
72
8
73
4
74
0
42
0.000000001
43
0.0000000001
44
0.0000000001
40
0
40
0
40
0
40
0
40
1
40
1
40
1
40
1
10
309.40279958832923
20
-350.8741741557613
30
0
10
309.3425678661377
20
-350.8741741557613
30
0
10
309.2973910458993
20
-350.89913714594462
30
0
10
309.26812511454159
20
-350.94904288774921
30
0
0
LINE
5
108
100
AcDbEntity
8
0
100
AcDbLine
10
308.44921848587359
20
-351.90164533170883
30
0
11
308.44921848587359
21
-351.66115114555674
31
0
0
LINE
5
109
100
AcDbEntity
8
0
100
AcDbLine
10
308.44921848587359
20
-351.22695997257512
30
0
11
308.44921848587359
21
-350.6178701836696
31
0
0
SPLINE
5
110
100
AcDbEntity
8
0
100
AcDbSpline
70
0
71
3
72
8
73
4
74
0
42
0.000000001
43
0.0000000001
44
0.0000000001
40
0
40
0
40
0
40
0
40
1
40
1
40
1
40
1
10
307.87080332930526
20
-355.93142683129128
30
0
10
307.87080332930526
20
-355.83468211892222
30
0
10
307.85663543715555
20
-355.76317404869712
30
0
10
307.82781705481739
20
-355.71737039022372
30
0
0
LINE
5
111
100
AcDbEntity
8
0
100
AcDbLine
10
307.65982985392247
20
-355.64866624156593
30
0
11
307.65982985392247
21
-355.64866624156593
31
0
0
LINE
5
112
100
AcDbEntity
8
0
100
AcDbLine
10
307.75332172969183
20
-351.16921133861763
30
0
11
307.99599704329387
21
-351.16921133861763
31
0
0
SPLINE
5
113
100
AcDbEntity
8
0
100
AcDbSpline
70
0
71
3
72
8
73
4
74
0
42
0.000000001
43
0.0000000001
44
0.0000000001
40
0
40
0
40
0
40
0
40
1
40
1
40
1
40
1
10
309.11224465383663
20
-351.37715846596274
30
0
10
309.11224465383663
20
-351.29105247907836
30
0
10
309.11487737442349
20
-351.20385323239083
30
0
10
309.12392676167383
20
-351.11818807230372
30
0
0
LINE
5
114
100
AcDbEntity
8
0
100
AcDbLine
10
308.64283730440241
20
-352.24573225146821
30
0
11
308.64283730440241
21
-352.09452272866946
31
0
0
LINE
5
115
100
AcDbEntity
8
0
100
AcDbLine
10
308.60730433873425
20
-351.64235140863809
30
0
11
308.62596794166592
21
-351.71972749356615
31
0
0
SPLINE
5
116
100
AcDbEntity
8
0
100
AcDbSpline
70
0
71
3
72
8
73
4
74
0
42
0.000000001
43
0.0000000001
44
0.0000000001
40
0
40
0
40
0
40
0
40
1
40
1
40
1
40
1
10
308.53884553321359
20
-351.90164533170883
30
0
10
308.53884553321359
20
-351.93864764214737
30
0
10
308.54444528811263
20
-351.96488992154588
30
0
10
308.55606134202839
20
-351.98081296075333
30
0
0
LINE
5
117
100
AcDbEntity
8
0
100
AcDbLine
10
309.93168375799468
20
-352.2341768593173
30
0
11
309.94102432171536
21
-352.22786264363424
31
0
0
LINE
5
118
100
AcDbEntity
8
0
100
AcDbLine
10
309.43691711282167
20
-350.57211505460788
30
0
11
309.43691711282167
21
-350.78652198587122
31
0
0
SPLINE
5
119
100
AcDbEntity
8
0
100
AcDbSpline
70
0
71
3
72
8
73
4
74
0
42
0.000000001
43
0.0000000001
44
0.0000000001
40
0
40
0
40
0
40
0
40
1
40
1
40
1
40
1
10
308.00099826878153
20
-350.83115824238439
30
0
10
307.9253422818918
20
-350.89231471947744
30
0
10
307.8409806577518
20
-350.94305759363471
30
0
10
307.75332172969183
20
-350.98560710341684
30
0
0
SPLINE
5
120
100
AcDbEntity
8
0
100
AcDbSpline
70
0
71
3
72
8
73
4
74
0
42
0.000000001
43
0.0000000001
44
0.0000000001
40
0
40
0
40
0
40
0
40
1
40
1
40
1
40
1
10
309.94102432171536
20
-352.22786264363424
30
0
10
309.93794000799141
20
-352.22997502108416
30
0
10
309.93482334132631
20
-352.2320766142202
30
0
10
309.93168375799468
20
-352.2341768593173
30
0
0
LINE
5
121
100
AcDbEntity
8
0
100
AcDbLine
10
308.53884553321359
20
-351.7407474510718
30
0
11
308.53884553321359
21
-351.90164533170883
31
0
0
SPLINE
5
122
100
AcDbEntity
8
0
100
AcDbSpline
70
0
71
3
72
8
73
4
74
0
42
0.000000001
43
0.0000000001
44
0.0000000001
40
0
40
0
40
0
40
0
40
1
40
1
40
1
40
1
10
307.49036653211323
20
-356.11230937531684
30
0
10
307.51528234092416
20
-356.15858349947626
30
0
10
307.57192693076462
20
-356.18148938181747
30
0
10
307.65982985392247
20
-356.18148938181747
30
0
0
SPLINE
5
123
100
AcDbEntity
8
0
100
AcDbSpline
70
0
71
3
72
8
73
4
74
0
42
0.000000001
43
0.0000000001
44
0.0000000001
40
0
40
0
40
0
40
0
40
1
40
1
40
1
40
1
10
309.12392676167383
20
-351.11818807230372
30
0
10
309.13189500349989
20
-351.0427909089434
30
0
10
309.15217086133271
20
-350.96886310832735
30
0
10
309.19103483190105
20
-350.90332415574647
30
0
0
SPLINE
5
124
100
AcDbEntity
8
0
100
AcDbSpline
70
0
71
3
72
8
73
4
74
0
42
0.000000001
43
0.0000000001
44
0.0000000001
40
0
40
0
40
0
40
0
40
1
40
1
40
1
40
1
10
309.81389077929651
20
-352.20165541325542
30
0
10
309.89924456029883
20
-352.15274452439138
30
0
10
309.98984084783427
20
-352.0888542237704
30
0
10
310.04865714682393
20
-352.00869039374572
30
0
0
LINE
5
125
100
AcDbEntity
8
0
100
AcDbLine
10
308.62568620146993
20
-351.17007138763677
30
0
11
308.60611941226426
21
-351.24667639413366
31
0
0
SPLINE
5
126
100
AcDbEntity
8
0
100
AcDbSpline
70
0
71
3
72
8
73
4
74
0
42
0.000000001
43
0.0000000001
44
0.0000000001
40
0
40
0
40
0
40
0
40
1
40
1
40
1
40
1
10
310.0362093527126
20
-350.865433487465
30
0
10
309.95923093935312
20
-350.76240421627568
30
0
10
309.86283806521925
20
-350.67934210193886
30
0
10
309.74074484142517
20
-350.6353717767978
30
0
0
LINE
5
127
100
AcDbEntity
8
0
100
AcDbLine
10
309.11224465383663
20
-351.55313279920648
30
0
11
309.11224465383663
21
-351.37715846596274
31
0
0
LINE
5
128
100
AcDbEntity
8
0
100
AcDbLine
10
309.35376198377901
20
-352.288490689355
30
0
11
309.35376198377901
21
-352.0729325326019
31
0
0
SPLINE
5
129
100
AcDbEntity
8
0
100
AcDbSpline
70
0
71
3
72
8
73
4
74
0
42
0.000000001
43
0.0000000001
44
0.0000000001
40
0
40
0
40
0
40
0
40
1
40
1
40
1
40
1
10
308.77022427819367
20
-350.86549819334738
30
0
10
308.70164819326135
20
-350.9571378632354
30
0
10
308.65400176518102
20
-351.05920328638598
30
0
10
308.62568620146993
20
-351.17007138763677
30
0
0
LINE
5
130
100
AcDbEntity
8
0
100
AcDbLine
10
307.75332172969183
20
-350.98560710341684
30
0
11
307.75332172969183
21
-351.16921133861763
31
0
0
SPLINE
5
131
100
AcDbEntity
8
0
100
AcDbSpline
70
0
71
3
72
8
73
4
74
0
42
0.000000001
43
0.0000000001
44
0.0000000001
40
0
40
0
40
0
40
0
40
1
40
1
40
1
40
1
10
307.45227770206736
20
-355.93142683129128
30
0
10
307.45227770206736
20
-356.00574689334485
30
0
10
307.46497488343346
20
-356.06604062534035
30
0
10
307.49036653211323
20
-356.11230937531684
30
0
0
SPLINE
5
132
100
AcDbEntity
8
0
100
AcDbSpline
70
0
71
3
72
8
73
4
74
0
42
0.000000001
43
0.0000000001
44
0.0000000001
40
0
40
0
40
0
40
0
40
1
40
1
40
1
40
1
10
307.94569163931419
20
-352.05138711332108
30
0
10
307.90630828963032
20
-352.08777690551665
30
0
10
307.84929131945404
20
-352.09453056428436
30
0
10
307.79795396006125
20
-352.09452812082623
30
0
0
LINE
5
133
100
AcDbEntity
8
0
100
AcDbLine
10
308.60611941226426
20
-351.24667639413366
30
0
11
308.44921848587359
21
-351.22695997257512
31
0
0
SPLINE
5
134
100
AcDbEntity
8
0
100
AcDbSpline
70
0
71
3
72
8
73
4
74
0
42
0.000000001
43
0.0000000001
44
0.0000000001
40
0
40
0
40
0
40
0
40
1
40
1
40
1
40
1
10
308.48365412964688
20
-352.03363585941929
30
0
10
308.4559789025368
20
-351.99569529571312
30
0
10
308.44921848587359
20
-351.94744224998601
30
0
10
308.44921848587359
20
-351.90164533170883
30
0
0
SPLINE
5
135
100
AcDbEntity
8
0
100
AcDbSpline
70
0
71
3
72
8
73
4
74
0
42
0.000000001
43
0.0000000001
44
0.0000000001
40
0
40
0
40
0
40
0
40
1
40
1
40
1
40
1
10
309.03000214734266
20
-352.21698666324755
30
0
10
309.13361105742052
20
-352.26042046878104
30
0
10
309.24229265703838
20
-352.28335735602417
30
0
10
309.35376198377901
20
-352.288490689355
30
0
0
LINE
5
136
100
AcDbEntity
8
0
100
AcDbLine
10
308.72307527658376
20
-351.95769678429463
30
0
11
308.75679780761243
21
-352.01212654570486
31
0
0
SPLINE
5
137
100
AcDbEntity
8
0
100
AcDbSpline
70
0
71
3
72
8
73
4
74
0
42
0.000000001
43
0.0000000001
44
0.0000000001
40
0
40
0
40
0
40
0
40
1
40
1
40
1
40
1
10
309.74074484142517
20
-350.6353717767978
30
0
10
309.64303090683444
20
-350.60018662322102
30
0
10
309.54078889054654
20
-350.57644495656649
30
0
10
309.43691711282167
20
-350.57211505460788
30
0
0
SPLINE
5
138
100
AcDbEntity
8
0
100
AcDbSpline
70
0
71
3
72
8
73
4
74
0
42
0.000000001
43
0.0000000001
44
0.0000000001
40
0
40
0
40
0
40
0
40
1
40
1
40
1
40
1
10
312.29942636953433
20
-348.42953133511037
30
0
10
312.27174170614967
20
-348.39159211944343
30
0
10
312.26498533360422
20
-348.3433336815595
30
0
10
312.26498533360422
20
-348.29753811132133
30
0
0
LINE
5
139
100
AcDbEntity
8
0
100
AcDbLine
10
312.56136244946629
20
-347.56516605613871
30
0
11
312.80403639303995
21
-347.56516605613871
31
0
0
SPLINE
5
140
100
AcDbEntity
8
0
100
AcDbSpline
70
0
71
3
72
8
73
4
74
0
42
0.000000001
43
0.0000000001
44
0.0000000001
40
0
40
0
40
0
40
0
40
1
40
1
40
1
40
1
10
309.21306042666117
20
-351.12760143014208
30
0
10
309.2057365296061
20
-351.19687712945324
30
0
10
309.20187170117669
20
-351.28034769967218
30
0
10
309.20187170117669
20
-351.37715576988421
30
0
0
SPLINE
5
141
100
AcDbEntity
8
0
100
AcDbSpline
70
0
71
3
72
8
73
4
74
0
42
0.000000001
43
0.0000000001
44
0.0000000001
40
0
40
0
40
0
40
0
40
1
40
1
40
1
40
1
10
307.35423887205195
20
-355.38020025967649
30
0
10
307.25944883451854
20
-355.40261275966503
30
0
10
307.17022078881223
20
-355.4383519573592
30
0
10
307.08676102088089
20
-355.48852056681085
30
0
0
SPLINE
5
142
100
AcDbEntity
8
0
100
AcDbSpline
70
0
71
3
72
8
73
4
74
0
42
0.000000001
43
0.0000000001
44
0.0000000001
40
0
40
0
40
0
40
0
40
1
40
1
40
1
40
1
10
309.59169892156643
20
-351.1172714056375
30
0
10
309.58308631699566
20
-351.04585095796142
30
0
10
309.56372173367214
20
-350.98776801027861
30
0
10
309.53446119447142
20
-350.94215575539982
30
0
0
LINE
5
143
100
AcDbEntity
8
0
100
AcDbLine
10
312.56136244946629
20
-347.38153890427139
30
0
11
312.56136244946629
21
-347.56516605613871
31
0
0
SPLINE
5
144
100
AcDbEntity
8
0
100
AcDbSpline
70
0
71
3
72
8
73
4
74
0
42
0.000000001
43
0.0000000001
44
0.0000000001
40
0
40
0
40
0
40
0
40
1
40
1
40
1
40
1
10
312.80904438071281
20
-347.22708330304283
30
0
10
312.73338300166631
20
-347.28824517229265
30
0
10
312.6490294657616
20
-347.33899478664591
30
0
10
312.56136244946629
20
-347.38153890427139
30
0
0
SPLINE
5
145
100
AcDbEntity
8
0
100
AcDbSpline
70
0
71
3
72
8
73
4
74
0
42
0.000000001
43
0.0000000001
44
0.0000000001
40
0
40
0
40
0
40
0
40
1
40
1
40
1
40
1
10
309.60459830881473
20
-351.37715576988421
30
0
10
309.60459830881473
20
-351.27518470947871
30
0
10
309.60029267156204
20
-351.18826991703918
30
0
10
309.59169892156643
20
-351.1172714056375
30
0
0
SPLINE
5
146
100
AcDbEntity
8
0
100
AcDbSpline
70
0
71
3
72
8
73
4
74
0
42
0.000000001
43
0.0000000001
44
0.0000000001
40
0
40
0
40
0
40
0
40
1
40
1
40
1
40
1
10
307.20524958781408
20
-356.42022301078094
30
0
10
307.2948119292717
20
-356.44788612351192
30
0
10
307.38850063674033
20
-356.45923389964992
30
0
10
307.48206397656202
20
-356.45923389964992
30
0
0
LINE
5
147
100
AcDbEntity
8
0
100
AcDbLine
10
312.80403639303995
20
-347.56516605613871
30
0
11
312.80403641502915
21
-348.29753811132133
31
0
0
LINE
5
148
100
AcDbEntity
8
0
100
AcDbLine
10
307.59987987192687
20
-356.45358293723456
30
0
11
307.59987987192687
21
-356.26758052229656
31
0
0
LINE
5
149
100
AcDbEntity
8
0
100
AcDbLine
10
312.60598524356124
20
-348.49042764063483
30
0
11
312.46046040213213
21
-348.49042764063483
31
0
0
LINE
5
150
100
AcDbEntity
8
0
100
AcDbLine
10
309.60459830881473
20
-351.55313010312796
30
0
11
309.60459830881473
21
-351.37715576988421
31
0
0
SPLINE
5
151
100
AcDbEntity
8
0
100
AcDbSpline
70
0
71
3
72
8
73
4
74
0
42
0.000000001
43
0.0000000001
44
0.0000000001
40
0
40
0
40
0
40
0
40
1
40
1
40
1
40
1
10
308.6468881622435
20
-352.00490240355163
30
0
10
308.59852322926162
20
-351.92684016666323
30
0
10
308.56250227339763
20
-351.83880784971467
30
0
10
308.53884553321359
20
-351.7407474510718
30
0
0
LINE
5
152
100
AcDbEntity
8
0
100
AcDbLine
10
312.26498533360422
20
-348.29753811132133
30
0
11
312.26498533360422
21
-347.01378715609252
31
0
0
SPLINE
5
153
100
AcDbEntity
8
0
100
AcDbSpline
70
0
71
3
72
8
73
4
74
0
42
0.000000001
43
0.0000000001
44
0.0000000001
40
0
40
0
40
0
40
0
40
1
40
1
40
1
40
1
10
313.00337631198647
20
-347.01380198452387
30
0
10
312.94916221887678
20
-347.09390650082304
30
0
10
312.8846437319815
20
-347.16597939947911
30
0
10
312.80904438071281
20
-347.22708330304283
30
0
0
SPLINE
5
154
100
AcDbEntity
8
0
100
AcDbSpline
70
0
71
3
72
8
73
4
74
0
42
0.000000001
43
0.0000000001
44
0.0000000001
40
0
40
0
40
0
40
0
40
1
40
1
40
1
40
1
10
309.23758260802117
20
-351.86894864054892
30
0
10
309.26124743644056
20
-351.94768624508407
30
0
10
309.31632290863467
20
-351.98683463395287
30
0
10
309.40279958832923
20
-351.98683463395287
30
0
0
SPLINE
5
155
100
AcDbEntity
8
0
100
AcDbSpline
70
0
71
3
72
8
73
4
74
0
42
0.000000001
43
0.0000000001
44
0.0000000001
40
0
40
0
40
0
40
0
40
1
40
1
40
1
40
1
10
308.55606134202839
20
-351.98081296075333
30
0
10
308.56767874398315
20
-351.99673733002641
30
0
10
308.59735717534062
20
-352.00490240355163
30
0
10
308.6446935544015
20
-352.00490240355163
30
0
0
SPLINE
5
156
100
AcDbEntity
8
0
100
AcDbSpline
70
0
71
3
72
8
73
4
74
0
42
0.000000001
43
0.0000000001
44
0.0000000001
40
0
40
0
40
0
40
0
40
1
40
1
40
1
40
1
10
312.80403641502915
20
-348.29753811132133
30
0
10
312.80403641502915
20
-348.35097571586937
30
0
10
312.79497759150428
20
-348.40912876159126
30
0
10
312.75372893956444
20
-348.44725938085298
30
0
0
LINE
5
157
100
AcDbEntity
8
0
100
AcDbLine
10
309.6942267221678
20
-351.37715576988421
30
0
11
309.6942267221678
21
-351.55313145116719
31
0
0
SPLINE
5
158
100
AcDbEntity
8
0
100
AcDbSpline
70
0
71
3
72
8
73
4
74
0
42
0.000000001
43
0.0000000001
44
0.0000000001
40
0
40
0
40
0
40
0
40
1
40
1
40
1
40
1
10
309.43691711282167
20
-350.78652198587122
30
0
10
309.5082526340272
20
-350.79494857900414
30
0
10
309.56880923366958
20
-350.83045591395347
30
0
10
309.60963862743967
20
-350.8933513616339
30
0
0
SPLINE
5
159
100
AcDbEntity
8
0
100
AcDbSpline
70
0
71
3
72
8
73
4
74
0
42
0.000000001
43
0.0000000001
44
0.0000000001
40
0
40
0
40
0
40
0
40
1
40
1
40
1
40
1
10
310.21200439674078
20
-351.43137388913766
30
0
10
310.21200439674078
20
-351.22451597747835
30
0
10
310.16069130199571
20
-351.03203355600766
30
0
10
310.0362093527126
20
-350.865433487465
30
0
0
SPLINE
5
160
100
AcDbEntity
8
0
100
AcDbSpline
70
0
71
3
72
8
73
4
74
0
42
0.000000001
43
0.0000000001
44
0.0000000001
40
0
40
0
40
0
40
0
40
1
40
1
40
1
40
1
10
309.35376198377901
20
-352.0729325326019
30
0
10
309.25528236291422
20
-352.05820790025649
30
0
10
309.18266350837592
20
-351.99759333492784
30
0
10
309.15175296917596
20
-351.89474471896722
30
0
0
LINE
5
161
100
AcDbEntity
8
0
100
AcDbLine
10
307.79795396006125
20
-352.09452812082623
30
0
11
307.78690677869434
21
-352.09452812082623
31
0
0
LINE
5
162
100
AcDbEntity
8
0
100
AcDbLine
10
312.26498533360422
20
-347.01378715609252
30
0
11
312.01109839582494
21
-347.01378715609252
31
0
0
SPLINE
5
163
100
AcDbEntity
8
0
100
AcDbSpline
70
0
71
3
72
8
73
4
74
0
42
0.000000001
43
0.0000000001
44
0.0000000001
40
0
40
0
40
0
40
0
40
1
40
1
40
1
40
1
10
309.53446119447142
20
-350.94215575539982
30
0
10
309.5047787369702
20
-350.89697623908307
30
0
10
309.46088792816897
20
-350.8741741557613
30
0
10
309.40279958832923
20
-350.8741741557613
30
0
0
SPLINE
5
164
100
AcDbEntity
8
0
100
AcDbSpline
70
0
71
3
72
8
73
4
74
0
42
0.000000001
43
0.0000000001
44
0.0000000001
40
0
40
0
40
0
40
0
40
1
40
1
40
1
40
1
10
307.59987987192687
20
-355.34653837243872
30
0
10
307.51710219386445
20
-355.34963347047636
30
0
10
307.43497561874284
20
-355.36110393615684
30
0
10
307.35423887205195
20
-355.38020025967649
30
0
0
LINE
5
165
100
AcDbEntity
8
0
100
AcDbLine
10
311.60265070975834
20
-348.64162501310693
30
0
11
313.45088611241221
21
-348.64162501310693
31
0
0
SPLINE
5
166
100
AcDbEntity
8
0
100
AcDbSpline
70
0
71
3
72
8
73
4
74
0
42
0.000000001
43
0.0000000001
44
0.0000000001
40
0
40
0
40
0
40
0
40
1
40
1
40
1
40
1
10
309.6806775800178
20
-351.10652214093705
30
0
10
309.69145784962024
20
-351.1957313140943
30
0
10
309.6942267221678
20
-351.28735345947246
30
0
10
309.6942267221678
20
-351.37715576988421
30
0
0
SPLINE
5
167
100
AcDbEntity
8
0
100
AcDbSpline
70
0
71
3
72
8
73
4
74
0
42
0.000000001
43
0.0000000001
44
0.0000000001
40
0
40
0
40
0
40
0
40
1
40
1
40
1
40
1
10
309.20187170117669
20
-351.55313010312796
30
0
10
309.20187170117669
20
-351.68522442985812
30
0
10
309.21392182371949
20
-351.79020429581777
30
0
10
309.23758260802117
20
-351.86894864054892
30
0
0
SPLINE
5
168
100
AcDbEntity
8
0
100
AcDbSpline
70
0
71
3
72
8
73
4
74
0
42
0.000000001
43
0.0000000001
44
0.0000000001
40
0
40
0
40
0
40
0
40
1
40
1
40
1
40
1
10
309.56888876798325
20
-351.86894864054892
30
0
10
309.59255357842875
20
-351.79020429581777
30
0
10
309.60459830881473
20
-351.68522442985812
30
0
10
309.60459830881473
20
-351.55313010312796
30
0
0
SPLINE
5
169
100
AcDbEntity
8
0
100
AcDbSpline
70
0
71
3
72
8
73
4
74
0
42
0.000000001
43
0.0000000001
44
0.0000000001
40
0
40
0
40
0
40
0
40
1
40
1
40
1
40
1
10
309.19743934823765
20
-350.59412179479273
30
0
10
309.11888779108818
20
-350.61017153171269
30
0
10
309.04323045615934
20
-350.64295584542145
30
0
10
308.9737336604432
20
-350.68236844997659
30
0
0
SPLINE
5
170
100
AcDbEntity
8
0
100
AcDbSpline
70
0
71
3
72
8
73
4
74
0
42
0.000000001
43
0.0000000001
44
0.0000000001
40
0
40
0
40
0
40
0
40
1
40
1
40
1
40
1
10
313.45088611241221
20
-348.49043707690947
30
0
10
313.39288269904307
20
-348.49022139063504
30
0
10
313.32831703077522
20
-348.47973903769912
30
0
10
313.29170024157816
20
-348.42954211942407
30
0
0
SPLINE
5
171
100
AcDbEntity
8
0
100
AcDbSpline
70
0
71
3
72
8
73
4
74
0
42
0.000000001
43
0.0000000001
44
0.0000000001
40
0
40
0
40
0
40
0
40
1
40
1
40
1
40
1
10
309.26812511454159
20
-350.94904288774921
30
0
10
309.23844804919725
20
-350.99852399720118
30
0
10
309.2203762354809
20
-351.05832840893549
30
0
10
309.21306042666117
20
-351.12760143014208
30
0
0
SPLINE
5
172
100
AcDbEntity
8
0
100
AcDbSpline
70
0
71
3
72
8
73
4
74
0
42
0.000000001
43
0.0000000001
44
0.0000000001
40
0
40
0
40
0
40
0
40
1
40
1
40
1
40
1
10
306.82695484290849
20
-355.94358477899749
30
0
10
306.82695484290849
20
-356.01635056981013
30
0
10
306.83981646708509
20
-356.08739356650597
30
0
10
306.87107614844172
20
-356.15342050928285
30
0
0
SPLINE
5
173
100
AcDbEntity
8
0
100
AcDbSpline
70
0
71
3
72
8
73
4
74
0
42
0.000000001
43
0.0000000001
44
0.0000000001
40
0
40
0
40
0
40
0
40
1
40
1
40
1
40
1
10
312.46046040213213
20
-348.49042764063483
30
0
10
312.40199191523374
20
-348.49042764063483
30
0
10
312.33643409010375
20
-348.48025938083617
30
0
10
312.29942636953433
20
-348.42953133511037
30
0
0
SPLINE
5
174
100
AcDbEntity
8
0
100
AcDbSpline
70
0
71
3
72
8
73
4
74
0
42
0.000000001
43
0.0000000001
44
0.0000000001
40
0
40
0
40
0
40
0
40
1
40
1
40
1
40
1
10
313.517502148326
20
-348.73127364704828
30
0
10
312.5262959233404
20
-349.24096443437048
30
0
10
311.64839370646712
20
-349.94002099447215
30
0
10
310.93154439474057
20
-350.78059735352127
30
0
0
SPLINE
5
175
100
AcDbEntity
8
0
100
AcDbSpline
70
0
71
3
72
8
73
4
74
0
42
0.000000001
43
0.0000000001
44
0.0000000001
40
0
40
0
40
0
40
0
40
1
40
1
40
1
40
1
10
310.90349171665019
20
-350.29994870507318
30
0
10
311.46465736342338
20
-349.69184163675521
30
0
10
312.11016710982676
20
-349.16274852101162
30
0
10
312.82143149508562
20
-348.73127364704828
30
0
0
LINE
5
176
100
AcDbEntity
8
0
100
AcDbLine
10
312.3546137289834
20
-346.95478754174349
30
0
11
312.3546137289834
21
-348.29753811132133
31
0
0
SPLINE
5
177
100
AcDbEntity
8
0
100
AcDbSpline
70
0
71
3
72
8
73
4
74
0
42
0.000000001
43
0.0000000001
44
0.0000000001
40
0
40
0
40
0
40
0
40
1
40
1
40
1
40
1
10
309.60963862743967
20
-350.8933513616339
30
0
10
309.65098973035975
20
-350.95703945637268
30
0
10
309.67163762904215
20
-351.03171946287063
30
0
10
309.6806775800178
20
-351.10652214093705
30
0
0
SPLINE
5
178
100
AcDbEntity
8
0
100
AcDbSpline
70
0
71
3
72
8
73
4
74
0
42
0.000000001
43
0.0000000001
44
0.0000000001
40
0
40
0
40
0
40
0
40
1
40
1
40
1
40
1
10
309.65472245094605
20
-351.89474337092793
30
0
10
309.62218482841371
20
-352.00299897218008
30
0
10
309.54319244446685
20
-352.06421206692016
30
0
10
309.43691711282167
20
-352.07480630711086
30
0
0
LINE
5
179
100
AcDbEntity
8
0
100
AcDbLine
10
307.78690677869434
20
-352.09452812082623
30
0
11
307.78690677869434
21
-352.24573225146821
31
0
0
SPLINE
5
180
100
AcDbEntity
8
0
100
AcDbSpline
70
0
71
3
72
8
73
4
74
0
42
0.000000001
43
0.0000000001
44
0.0000000001
40
0
40
0
40
0
40
0
40
1
40
1
40
1
40
1
10
307.82781705481739
20
-355.71737039022372
30
0
10
307.79950150908007
20
-355.67155592946267
30
0
10
307.7433408653178
20
-355.64866624156593
30
0
10
307.65982985392247
20
-355.64866624156593
30
0
0
SPLINE
5
181
100
AcDbEntity
8
0
100
AcDbSpline
70
0
71
3
72
8
73
4
74
0
42
0.000000001
43
0.0000000001
44
0.0000000001
40
0
40
0
40
0
40
0
40
1
40
1
40
1
40
1
10
310.93154439474057
20
-350.78059735352127
30
0
10
310.95142932120092
20
-351.04401223247214
30
0
10
310.97935528360506
20
-351.30676387612925
30
0
10
311.01852525907537
20
-351.56834407370843
30
0
0
LINE
5
182
100
AcDbEntity
8
0
100
AcDbLine
10
309.20187170117669
20
-351.37715576988421
30
0
11
309.20187170117669
21
-351.55313010312796
31
0
0
LINE
5
183
100
AcDbEntity
8
0
100
AcDbLine
10
309.40279958832923
20
-350.8741741557613
30
0
11
309.40279958832923
21
-350.8741741557613
31
0
0
LINE
5
184
100
AcDbEntity
8
0
100
AcDbLine
10
313.45088611241221
20
-348.64162501310693
30
0
11
313.45088611241221
21
-348.49043707690947
31
0
0
LINE
5
185
100
AcDbEntity
8
0
100
AcDbLine
10
313.25726324976569
20
-347.01380198452387
30
0
11
313.00337631198647
21
-347.01380198452387
31
0
0
SPLINE
5
186
100
AcDbEntity
8
0
100
AcDbSpline
70
0
71
3
72
8
73
4
74
0
42
0.000000001
43
0.0000000001
44
0.0000000001
40
0
40
0
40
0
40
0
40
1
40
1
40
1
40
1
10
308.64283730440241
20
-352.09452272866946
30
0
10
308.58483389103327
20
-352.09430704239503
30
0
10
308.52027631100077
20
-352.08383142965516
30
0
10
308.48365412964688
20
-352.03363585941929
30
0
0
SPLINE
5
187
100
AcDbEntity
8
0
100
AcDbSpline
70
0
71
3
72
8
73
4
74
0
42
0.000000001
43
0.0000000001
44
0.0000000001
40
0
40
0
40
0
40
0
40
1
40
1
40
1
40
1
10
312.75372893956444
20
-348.44725938085298
30
0
10
312.7143473399114
20
-348.48366317985398
30
0
10
312.65733069124764
20
-348.49042764063483
30
0
10
312.60598524356124
20
-348.49042764063483
30
0
0
LINE
5
188
100
AcDbEntity
8
0
100
AcDbLine
10
313.25726324976569
20
-348.29755293975273
30
0
11
313.25726324976569
21
-347.01380198452387
31
0
0
SPLINE
5
189
100
AcDbEntity
8
0
100
AcDbSpline
70
0
71
3
72
8
73
4
74
0
42
0.000000001
43
0.0000000001
44
0.0000000001
40
0
40
0
40
0
40
0
40
1
40
1
40
1
40
1
10
313.29170024157816
20
-348.42954211942407
30
0
10
313.26401962231125
20
-348.39160155571784
30
0
10
313.25726324976569
20
-348.34334311783397
30
0
10
313.25726324976569
20
-348.29755293975273
30
0
0
SPLINE
5
190
100
AcDbEntity
8
0
100
AcDbSpline
70
0
71
3
72
8
73
4
74
0
42
0.000000001
43
0.0000000001
44
0.0000000001
40
0
40
0
40
0
40
0
40
1
40
1
40
1
40
1
10
306.99827574478218
20
-356.31368885560647
30
0
10
307.05949018756149
20
-356.36315918074473
30
0
10
307.13031210582608
20
-356.39707852549861
30
0
10
307.20524958781408
20
-356.42022301078094
30
0
0
SPLINE
5
191
100
AcDbEntity
8
0
100
AcDbSpline
70
0
71
3
72
8
73
4
74
0
42
0.000000001
43
0.0000000001
44
0.0000000001
40
0
40
0
40
0
40
0
40
1
40
1
40
1
40
1
10
307.48206397656202
20
-356.45923389964992
30
0
10
307.52151567425437
20
-356.45923389964992
30
0
10
307.5608514405742
20
-356.45743024115416
30
0
10
307.59987987192687
20
-356.45358293723456
30
0
0
SPLINE
5
192
100
AcDbEntity
8
0
100
AcDbSpline
70
0
71
3
72
8
73
4
74
0
42
0.000000001
43
0.0000000001
44
0.0000000001
40
0
40
0
40
0
40
0
40
1
40
1
40
1
40
1
10
309.40279958832923
20
-351.98683463395287
30
0
10
309.48972113893865
20
-351.98683463395287
30
0
10
309.54522663564234
20
-351.94768624508407
30
0
10
309.56888876798325
20
-351.86894864054892
30
0
0
LINE
5
193
100
AcDbEntity
8
0
100
AcDbLine
10
308.53884553321359
20
-351.7407474510718
30
0
11
308.53884553321359
21
-351.7407474510718
31
0
0
SPLINE
5
194
100
AcDbEntity
8
0
100
AcDbSpline
70
0
71
3
72
8
73
4
74
0
42
0.000000001
43
0.0000000001
44
0.0000000001
40
0
40
0
40
0
40
0
40
1
40
1
40
1
40
1
10
309.15175296917596
20
-351.89474471896722
30
0
10
309.1195685508917
20
-351.78764708340077
30
0
10
309.11224465383663
20
-351.66443227300596
30
0
10
309.11224465383663
20
-351.55313279920648
30
0
0
SPLINE
5
195
100
AcDbEntity
8
0
100
AcDbSpline
70
0
71
3
72
8
73
4
74
0
42
0.000000001
43
0.0000000001
44
0.0000000001
40
0
40
0
40
0
40
0
40
1
40
1
40
1
40
1
10
308.19533020005503
20
-350.6178701836696
30
0
10
308.14111747295851
20
-350.69797604800777
30
0
10
308.0766016821417
20
-350.77004894666391
30
0
10
308.00099826878153
20
-350.83115824238439
30
0
0
SPLINE
5
196
100
AcDbEntity
8
0
100
AcDbSpline
70
0
71
3
72
8
73
4
74
0
42
0.000000001
43
0.0000000001
44
0.0000000001
40
0
40
0
40
0
40
0
40
1
40
1
40
1
40
1
10
319.27766727938041
20
-350.98545747106402
30
0
10
319.36164444273635
20
-351.25380212942429
30
0
10
319.38874204402981
20
-351.55971931881095
30
0
10
319.5905640945806
20
-351.77345088242754
30
0
0
SPLINE
5
197
100
AcDbEntity
8
0
100
AcDbSpline
70
0
71
3
72
8
73
4
74
0
42
0.000000001
43
0.0000000001
44
0.0000000001
40
0
40
0
40
0
40
0
40
1
40
1
40
1
40
1
10
308.2014044647579
20
-360.66609041548219
30
0
10
308.2014044647579
20
-360.57444533546351
30
0
10
308.23237699578783
20
-360.4922621606687
30
0
10
308.2943328601354
20
-360.4204089924047
30
0
0
SPLINE
5
198
100
AcDbEntity
8
0
100
AcDbSpline
70
0
71
3
72
8
73
4
74
0
42
0.000000001
43
0.0000000001
44
0.0000000001
40
0
40
0
40
0
40
0
40
1
40
1
40
1
40
1
10
318.82269662111543
20
-352.25901715995826
30
0
10
318.9253469494945
20
-352.294949145234
30
0
10
319.03745120270543
20
-352.35757094095368
30
0
10
319.06578051641645
20
-352.47130901769327
30
0
0
SPLINE
5
199
100
AcDbEntity
8
0
100
AcDbSpline
70
0
71
3
72
8
73
4
74
0
42
0.000000001
43
0.0000000001
44
0.0000000001
40
0
40
0
40
0
40
0
40
1
40
1
40
1
40
1
10
319.5905640945806
20
-351.77345088242754
30
0
10
319.49386521554493
20
-351.44720930579621
30
0
10
319.48359854888349
20
-351.09427385662963
30
0
10
319.32838360615204
20
-350.7865098535184
30
0
0
LINE
5
200
100
AcDbEntity
8
0
100
AcDbLine
10
309.35376198377901
20
-350.78878938783083
30
0
11
309.35376198377901
21
-350.57287400068583
31
0
0
SPLINE
5
201
100
AcDbEntity
8
0
100
AcDbSpline
70
0
71
3
72
8
73
4
74
0
42
0.000000001
43
0.0000000001
44
0.0000000001
40
0
40
0
40
0
40
0
40
1
40
1
40
1
40
1
10
312.14446122745636
20
-357.74314654768915
30
0
10
312.43723638253613
20
-357.92895347896712
30
0
10
312.74623116342457
20
-358.09279547724969
30
0
10
313.07186342633071
20
-358.21393159320121
30
0
0
SPLINE
5
202
100
AcDbEntity
8
0
100
AcDbSpline
70
0
71
3
72
8
73
4
74
0
42
0.000000001
43
0.0000000001
44
0.0000000001
40
0
40
0
40
0
40
0
40
1
40
1
40
1
40
1
10
308.57717568025282
20
-355.79142221044748
30
0
10
308.6446935544015
20
-354.57082559832367
30
0
10
308.96023709182248
20
-353.41639883910756
30
0
10
309.47410275659365
20
-352.37755831839462
30
0
0
SPLINE
5
203
100
AcDbEntity
8
0
100
AcDbSpline
70
0
71
3
72
8
73
4
74
0
42
0.000000001
43
0.0000000001
44
0.0000000001
40
0
40
0
40
0
40
0
40
1
40
1
40
1
40
1
10
318.69088040386225
20
-350.60644824740081
30
0
10
318.90091481715399
20
-350.74935115255681
30
0
10
319.02164585630823
20
-350.97950318185144
30
0
10
319.15981822225086
20
-351.1852260444918
30
0
0
SPLINE
5
204
100
AcDbEntity
8
0
100
AcDbSpline
70
0
71
3
72
8
73
4
74
0
42
0.000000001
43
0.0000000001
44
0.0000000001
40
0
40
0
40
0
40
0
40
1
40
1
40
1
40
1
10
307.88486470838313
20
-351.98554590846345
30
0
10
307.89906764955231
20
-351.9722057303656
30
0
10
307.90638750248968
20
-351.9442420048897
30
0
10
307.90638750248968
20
-351.90163993955184
30
0
0
SPLINE
5
205
100
AcDbEntity
8
0
100
AcDbSpline
70
0
71
3
72
8
73
4
74
0
42
0.000000001
43
0.0000000001
44
0.0000000001
40
0
40
0
40
0
40
0
40
1
40
1
40
1
40
1
10
307.90638750248968
20
-351.5462214021511
30
0
10
307.28237403285783
20
-352.79266618860362
30
0
10
306.89674776232408
20
-354.17921489027032
30
0
10
306.80931909165815
20
-355.64605288996336
30
0
0
SPLINE
5
206
100
AcDbEntity
8
0
100
AcDbSpline
70
0
71
3
72
8
73
4
74
0
42
0.000000001
43
0.0000000001
44
0.0000000001
40
0
40
0
40
0
40
0
40
1
40
1
40
1
40
1
10
308.9737336604432
20
-350.68236844997659
30
0
10
308.89284997747774
20
-350.72824626858062
30
0
10
308.82577291215239
20
-350.79125495155506
30
0
10
308.77022427819367
20
-350.86549819334738
30
0
0
SPLINE
5
207
100
AcDbEntity
8
0
100
AcDbSpline
70
0
71
3
72
8
73
4
74
0
42
0.000000001
43
0.0000000001
44
0.0000000001
40
0
40
0
40
0
40
0
40
1
40
1
40
1
40
1
10
307.90593995347041
20
-356.47080951238922
30
0
10
307.77895199928668
20
-356.5226820613824
30
0
10
307.63782311373762
20
-356.54885961692452
30
0
10
307.48203027558162
20
-356.54885961692452
30
0
0
SPLINE
5
208
100
AcDbEntity
8
0
100
AcDbSpline
70
0
71
3
72
8
73
4
74
0
42
0.000000001
43
0.0000000001
44
0.0000000001
40
0
40
0
40
0
40
0
40
1
40
1
40
1
40
1
10
315.96288107028374
20
-351.56587716194502
30
0
10
316.04541877939198
20
-351.41353528620567
30
0
10
316.17004766494949
20
-351.28624267515914
30
0
10
316.31992532500385
20
-351.19939661474604
30
0
0
SPLINE
5
209
100
AcDbEntity
8
0
100
AcDbSpline
70
0
71
3
72
8
73
4
74
0
42
0.000000001
43
0.0000000001
44
0.0000000001
40
0
40
0
40
0
40
0
40
1
40
1
40
1
40
1
10
308.84765293665106
20
-360.85153202813279
30
0
10
308.87217375199816
20
-360.89283460164125
30
0
10
308.91908686471925
20
-360.91349463267647
30
0
10
308.98835314572983
20
-360.91349463267647
30
0
0
SPLINE
5
210
100
AcDbEntity
8
0
100
AcDbSpline
70
0
71
3
72
8
73
4
74
0
42
0.000000001
43
0.0000000001
44
0.0000000001
40
0
40
0
40
0
40
0
40
1
40
1
40
1
40
1
10
317.66780523771638
20
-350.37485653019854
30
0
10
317.49965815937054
20
-350.47977169027581
30
0
10
317.29577752712152
20
-350.54526885364118
30
0
10
317.09785805009801
20
-350.49701715595324
30
0
0
SPLINE
5
211
100
AcDbEntity
8
0
100
AcDbSpline
70
0
71
3
72
8
73
4
74
0
42
0.000000001
43
0.0000000001
44
0.0000000001
40
0
40
0
40
0
40
0
40
1
40
1
40
1
40
1
10
307.65980019705967
20
-356.89052950237158
30
0
10
307.82388482442724
20
-356.89052950237158
30
0
10
307.90593995347041
20
-356.76806826387178
30
0
10
307.90593995347041
20
-356.52361355647997
30
0
0
SPLINE
5
212
100
AcDbEntity
8
0
100
AcDbSpline
70
0
71
3
72
8
73
4
74
0
42
0.000000001
43
0.0000000001
44
0.0000000001
40
0
40
0
40
0
40
0
40
1
40
1
40
1
40
1
10
308.82657229940691
20
-361.64408046400393
30
0
10
308.84120256900724
20
-361.67764529241822
30
0
10
308.86184913762423
20
-361.70087064207962
30
0
10
308.88853355591129
20
-361.71334944109282
30
0
0
SPLINE
5
213
100
AcDbEntity
8
0
100
AcDbSpline
70
0
71
3
72
8
73
4
74
0
42
0.000000001
43
0.0000000001
44
0.0000000001
40
0
40
0
40
0
40
0
40
1
40
1
40
1
40
1
10
309.43691711282167
20
-352.28921728249179
30
0
10
309.56491609641671
20
-352.28621924327774
30
0
10
309.70282047216352
20
-352.26530845897457
30
0
10
309.81389077929651
20
-352.20165541325542
30
0
0
SPLINE
5
214
100
AcDbEntity
8
0
100
AcDbSpline
70
0
71
3
72
8
73
4
74
0
42
0.000000001
43
0.0000000001
44
0.0000000001
40
0
40
0
40
0
40
0
40
1
40
1
40
1
40
1
10
306.94190750298083
20
-356.38339864151868
30
0
10
306.87636855039972
20
-356.33043822487889
30
0
10
306.82627677918344
20
-356.26731630661038
30
0
10
306.79068045567209
20
-356.19311217592923
30
0
0
SPLINE
5
215
100
AcDbEntity
8
0
100
AcDbSpline
70
0
71
3
72
8
73
4
74
0
42
0.000000001
43
0.0000000001
44
0.0000000001
40
0
40
0
40
0
40
0
40
1
40
1
40
1
40
1
10
309.41173708832474
20
-360.25131841242529
30
0
10
309.45345620595043
20
-360.26562380457489
30
0
10
309.49163939874154
20
-360.2817813846321
30
0
10
309.52630960133831
20
-360.29982758560323
30
0
0
LINE
5
216
100
AcDbEntity
8
0
100
AcDbLine
10
307.6972554486747
20
-352.33535255861221
30
0
11
307.6972554486747
21
-352.0048970113948
31
0
0
LINE
5
217
100
AcDbEntity
8
0
100
AcDbLine
10
316.48048080368039
20
-349.07563017465071
30
0
11
316.48048080368039
21
-349.07563017465071
31
0
0
LINE
5
218
100
AcDbEntity
8
0
100
AcDbLine
10
309.43691711282167
20
-352.07480630711086
30
0
11
309.43691711282167
21
-352.28921728249179
31
0
0
LINE
5
219
100
AcDbEntity
8
0
100
AcDbLine
10
307.99599704329387
20
-351.16921133861763
30
0
11
307.99599704329387
21
-351.90164533170883
31
0
0
SPLINE
5
220
100
AcDbEntity
8
0
100
AcDbSpline
70
0
71
3
72
8
73
4
74
0
42
0.000000001
43
0.0000000001
44
0.0000000001
40
0
40
0
40
0
40
0
40
1
40
1
40
1
40
1
10
310.04865714682393
20
-352.00869039374572
30
0
10
310.17162659610784
20
-351.84109008010557
30
0
10
310.21200439674078
20
-351.63574062432787
30
0
10
310.21200439674078
20
-351.43137388913766
30
0
0
SPLINE
5
221
100
AcDbEntity
8
0
100
AcDbSpline
70
0
71
3
72
8
73
4
74
0
42
0.000000001
43
0.0000000001
44
0.0000000001
40
0
40
0
40
0
40
0
40
1
40
1
40
1
40
1
10
314.76714089932381
20
-351.38705576987923
30
0
10
314.90080029958261
20
-351.10125669976333
30
0
10
315.14121762952567
20
-350.88854964595009
30
0
10
315.37075770293802
20
-350.68057016566377
30
0
0
SPLINE
5
222
100
AcDbEntity
8
0
100
AcDbSpline
70
0
71
3
72
8
73
4
74
0
42
0.000000001
43
0.0000000001
44
0.0000000001
40
0
40
0
40
0
40
0
40
1
40
1
40
1
40
1
10
314.64579448925485
20
-352.27913664524203
30
0
10
314.62053897456178
20
-351.9783514411468
30
0
10
314.63162929318366
20
-351.66299391516367
30
0
10
314.76714089932381
20
-351.38705576987923
30
0
0
SPLINE
5
223
100
AcDbEntity
8
0
100
AcDbSpline
70
0
71
3
72
8
73
4
74
0
42
0.000000001
43
0.0000000001
44
0.0000000001
40
0
40
0
40
0
40
0
40
1
40
1
40
1
40
1
10
309.6942267221678
20
-351.55313145116719
30
0
10
309.6942267221678
20
-351.66443092496684
30
0
10
309.68691226138725
20
-351.78764573536159
30
0
10
309.65472245094605
20
-351.89474337092793
30
0
0
SPLINE
5
224
100
AcDbEntity
8
0
100
AcDbSpline
70
0
71
3
72
8
73
4
74
0
42
0.000000001
43
0.0000000001
44
0.0000000001
40
0
40
0
40
0
40
0
40
1
40
1
40
1
40
1
10
306.83889980041891
20
-356.90968379157755
30
0
10
306.80764687723206
20
-356.84237621154637
30
0
10
306.78419638704798
20
-356.77274191583018
30
0
10
306.76955398509466
20
-356.70029561031168
30
0
0
SPLINE
5
225
100
AcDbEntity
8
0
100
AcDbSpline
70
0
71
3
72
8
73
4
74
0
42
0.000000001
43
0.0000000001
44
0.0000000001
40
0
40
0
40
0
40
0
40
1
40
1
40
1
40
1
10
308.98835314572983
20
-360.19064588141055
30
0
10
309.15185676819556
20
-360.19064588141055
30
0
10
309.29298160962708
20
-360.21087049577926
30
0
10
309.41173708832474
20
-360.25131841242529
30
0
0
LINE
5
226
100
AcDbEntity
8
0
100
AcDbLine
10
308.44921848587359
20
-350.6178701836696
30
0
11
308.19533020005503
21
-350.6178701836696
31
0
0
SPLINE
5
227
100
AcDbEntity
8
0
100
AcDbSpline
70
0
71
3
72
8
73
4
74
0
42
0.000000001
43
0.0000000001
44
0.0000000001
40
0
40
0
40
0
40
0
40
1
40
1
40
1
40
1
10
308.92951394804726
20
-350.60439787975474
30
0
10
309.01599601989875
20
-350.55534814285164
30
0
10
309.09947063423527
20
-350.52265281770485
30
0
10
309.17949426818154
20
-350.50629975398766
30
0
0
SPLINE
5
228
100
AcDbEntity
8
0
100
AcDbSpline
70
0
71
3
72
8
73
4
74
0
42
0.000000001
43
0.0000000001
44
0.0000000001
40
0
40
0
40
0
40
0
40
1
40
1
40
1
40
1
10
307.65982985392247
20
-356.18148938181747
30
0
10
307.7379675810069
20
-356.18148938181747
30
0
10
307.79266560222089
20
-356.16232026418021
30
0
10
307.82391448128988
20
-356.12446734099683
30
0
0
SPLINE
5
229
100
AcDbEntity
8
0
100
AcDbSpline
70
0
71
3
72
8
73
4
74
0
42
0.000000001
43
0.0000000001
44
0.0000000001
40
0
40
0
40
0
40
0
40
1
40
1
40
1
40
1
10
307.65153536863261
20
-357.31725119006279
30
0
10
307.49329986544518
20
-357.31725119006279
30
0
10
307.35850676420654
20
-357.29762106098792
30
0
10
307.24765349138715
20
-357.25788895316487
30
0
0
LINE
5
230
100
AcDbEntity
8
0
100
AcDbLine
10
324.06683181942606
20
-361.53613895588887
30
0
11
324.06683181942606
21
-361.53613895588887
31
0
0
SPLINE
5
231
100
AcDbEntity
8
0
100
AcDbSpline
70
0
71
3
72
8
73
4
74
0
42
0.000000001
43
0.0000000001
44
0.0000000001
40
0
40
0
40
0
40
0
40
1
40
1
40
1
40
1
10
308.2943328601354
20
-360.4204089924047
30
0
10
308.35630490095355
20
-360.34812040747408
30
0
10
308.44665181920817
20
-360.29218555129336
30
0
10
308.56497053320027
20
-360.25131841242529
30
0
0
SPLINE
5
232
100
AcDbEntity
8
0
100
AcDbSpline
70
0
71
3
72
8
73
4
74
0
42
0.000000001
43
0.0000000001
44
0.0000000001
40
0
40
0
40
0
40
0
40
1
40
1
40
1
40
1
10
309.40279958832923
20
-352.37923932329574
30
0
10
309.25780589232465
20
-352.37923932329574
30
0
10
309.1218440410866
20
-352.35256027919166
30
0
10
308.9953494692557
20
-352.29963897366304
30
0
0
LINE
5
233
100
AcDbEntity
8
0
100
AcDbLine
10
307.6972554486747
20
-352.0048970113948
30
0
11
307.79795396006125
21
-352.0048970113948
31
0
0
SPLINE
5
234
100
AcDbEntity
8
0
100
AcDbSpline
70
0
71
3
72
8
73
4
74
0
42
0.000000001
43
0.0000000001
44
0.0000000001
40
0
40
0
40
0
40
0
40
1
40
1
40
1
40
1
10
309.17949426818154
20
-350.50629975398766
30
0
10
309.2595327305591
20
-350.48995073438823
30
0
10
309.33396198378915
20
-350.48177352851008
30
0
10
309.40279958832923
20
-350.48177352851008
30
0
0
SPLINE
5
235
100
AcDbEntity
8
0
100
AcDbSpline
70
0
71
3
72
8
73
4
74
0
42
0.000000001
43
0.0000000001
44
0.0000000001
40
0
40
0
40
0
40
0
40
1
40
1
40
1
40
1
10
321.33716814271116
20
-349.59405086392923
30
0
10
321.29528524730762
20
-349.71559408772367
30
0
10
321.24416423916364
20
-349.83878461543878
30
0
10
321.15279834705325
20
-349.93199611702522
30
0
0
SPLINE
5
236
100
AcDbEntity
8
0
100
AcDbSpline
70
0
71
3
72
8
73
4
74
0
42
0.000000001
43
0.0000000001
44
0.0000000001
40
0
40
0
40
0
40
0
40
1
40
1
40
1
40
1
10
309.19103483190105
20
-350.90332415574647
30
0
10
309.22871520606498
20
-350.83979917375257
30
0
10
309.2852654331603
20
-350.80104439436059
30
0
10
309.35376198377901
20
-350.78878938783083
30
0
0
SPLINE
5
237
100
AcDbEntity
8
0
100
AcDbSpline
70
0
71
3
72
8
73
4
74
0
42
0.000000001
43
0.0000000001
44
0.0000000001
40
0
40
0
40
0
40
0
40
1
40
1
40
1
40
1
10
308.62596794166592
20
-351.71972749356615
30
0
10
308.64621144655757
20
-351.80361998208542
30
0
10
308.67754525209722
20
-351.88420979250191
30
0
10
308.72307527658376
20
-351.95769678429463
30
0
0
SPLINE
5
238
100
AcDbEntity
8
0
100
AcDbSpline
70
0
71
3
72
8
73
4
74
0
42
0.000000001
43
0.0000000001
44
0.0000000001
40
0
40
0
40
0
40
0
40
1
40
1
40
1
40
1
10
316.174358694359
20
-351.11336748407086
30
0
10
316.04685848527356
20
-351.22834575688807
30
0
10
315.96575778596844
20
-351.39321224700029
30
0
10
315.96288107028374
20
-351.56587716194502
30
0
0
SPLINE
5
239
100
AcDbEntity
8
0
100
AcDbSpline
70
0
71
3
72
8
73
4
74
0
42
0.000000001
43
0.0000000001
44
0.0000000001
40
0
40
0
40
0
40
0
40
1
40
1
40
1
40
1
10
319.00891497396168
20
-350.57442020166548
30
0
10
319.14154474186802
20
-350.67728229801833
30
0
10
319.23126670914269
20
-350.82531718846587
30
0
10
319.27766727938041
20
-350.98545747106402
30
0
0
SPLINE
5
240
100
AcDbEntity
8
0
100
AcDbSpline
70
0
71
3
72
8
73
4
74
0
42
0.000000001
43
0.0000000001
44
0.0000000001
40
0
40
0
40
0
40
0
40
1
40
1
40
1
40
1
10
316.31992532500385
20
-351.19939661474604
30
0
10
316.62214108628797
20
-351.01378919327192
30
0
10
316.99663691289459
20
-351.00578723249168
30
0
10
317.29988176731547
20
-350.82244316885954
30
0
0
SPLINE
5
241
100
AcDbEntity
8
0
100
AcDbSpline
70
0
71
3
72
8
73
4
74
0
42
0.000000001
43
0.0000000001
44
0.0000000001
40
0
40
0
40
0
40
0
40
1
40
1
40
1
40
1
10
307.99599704329387
20
-351.90164533170883
30
0
10
307.99600451294356
20
-351.95509506808764
30
0
10
307.98695246840958
20
-352.0132493794091
30
0
10
307.94569163931419
20
-352.05138711332108
30
0
0
SPLINE
5
242
100
AcDbEntity
8
0
100
AcDbSpline
70
0
71
3
72
8
73
4
74
0
42
0.000000001
43
0.0000000001
44
0.0000000001
40
0
40
0
40
0
40
0
40
1
40
1
40
1
40
1
10
319.71005815497739
20
-352.58977871207736
30
0
10
319.70697950301809
20
-352.85073207142165
30
0
10
319.78540962879515
20
-353.10409057782869
30
0
10
319.87225890652883
20
-353.34738733750879
30
0
0
SPLINE
5
243
100
AcDbEntity
8
0
100
AcDbSpline
70
0
71
3
72
8
73
4
74
0
42
0.000000001
43
0.0000000001
44
0.0000000001
40
0
40
0
40
0
40
0
40
1
40
1
40
1
40
1
10
318.77095551493261
20
-350.51077389614227
30
0
10
318.65166783035278
20
-350.43644707591869
30
0
10
318.50363712781376
20
-350.43644707591869
30
0
10
318.37428888278163
20
-350.48285061184282
30
0
0
SPLINE
5
244
100
AcDbEntity
8
0
100
AcDbSpline
70
0
71
3
72
8
73
4
74
0
42
0.000000001
43
0.0000000001
44
0.0000000001
40
0
40
0
40
0
40
0
40
1
40
1
40
1
40
1
10
320.4760874421691
20
-354.61170488751861
30
0
10
320.57421953852429
20
-354.79546145115057
30
0
10
320.68098866592095
20
-354.97634399517614
30
0
10
320.74894788810866
20
-355.1742617107617
30
0
0
SPLINE
5
245
100
AcDbEntity
8
0
100
AcDbSpline
70
0
71
3
72
8
73
4
74
0
42
0.000000001
43
0.0000000001
44
0.0000000001
40
0
40
0
40
0
40
0
40
1
40
1
40
1
40
1
10
320.80047654331111
20
-350.63622238954247
30
0
10
320.81731287009995
20
-350.55327081442124
30
0
10
320.75633823451005
20
-350.49393688634689
30
0
10
320.69966991917948
20
-350.44589413473744
30
0
0
SPLINE
5
246
100
AcDbEntity
8
0
100
AcDbSpline
70
0
71
3
72
8
73
4
74
0
42
0.000000001
43
0.0000000001
44
0.0000000001
40
0
40
0
40
0
40
0
40
1
40
1
40
1
40
1
10
318.37428888278163
20
-350.48285061184282
30
0
10
318.48413666213747
20
-350.5103627441818
30
0
10
318.59726112940007
20
-350.53910561835022
30
0
10
318.69088040386225
20
-350.60644824740081
30
0
0
SPLINE
5
247
100
AcDbEntity
8
0
100
AcDbSpline
70
0
71
3
72
8
73
4
74
0
42
0.000000001
43
0.0000000001
44
0.0000000001
40
0
40
0
40
0
40
0
40
1
40
1
40
1
40
1
10
319.33782823850009
20
-353.51553495507011
30
0
10
319.30128142152529
20
-353.4586625466024
30
0
10
319.23537553266993
20
-353.41760398616577
30
0
10
319.22182666012787
20
-353.3486140531943
30
0
0
SPLINE
5
248
100
AcDbEntity
8
0
100
AcDbSpline
70
0
71
3
72
8
73
4
74
0
42
0.000000001
43
0.0000000001
44
0.0000000001
40
0
40
0
40
0
40
0
40
1
40
1
40
1
40
1
10
318.7818340655806
20
-352.01305130060632
30
0
10
318.41843297916432
20
-351.99149345748003
30
0
10
318.05584990091756
20
-352.04035718294534
30
0
10
317.69243943214826
20
-352.03152887412631
30
0
0
SPLINE
5
249
100
AcDbEntity
8
0
100
AcDbSpline
70
0
71
3
72
8
73
4
74
0
42
0.000000001
43
0.0000000001
44
0.0000000001
40
0
40
0
40
0
40
0
40
1
40
1
40
1
40
1
10
319.90202657808226
20
-352.16950199987303
30
0
10
319.76590848011239
20
-352.26168762564311
30
0
10
319.71087668438867
20
-352.4318910209812
30
0
10
319.71005815497739
20
-352.58977871207736
30
0
0
SPLINE
5
250
100
AcDbEntity
8
0
100
AcDbSpline
70
0
71
3
72
8
73
4
74
0
42
0.000000001
43
0.0000000001
44
0.0000000001
40
0
40
0
40
0
40
0
40
1
40
1
40
1
40
1
10
319.87225890652883
20
-353.34738733750879
30
0
10
320.03404068749217
20
-353.7863478732329
30
0
10
320.24941955502965
20
-354.20312778968736
30
0
10
320.4760874421691
20
-354.61170488751861
30
0
0
SPLINE
5
251
100
AcDbEntity
8
0
100
AcDbSpline
70
0
71
3
72
8
73
4
74
0
42
0.000000001
43
0.0000000001
44
0.0000000001
40
0
40
0
40
0
40
0
40
1
40
1
40
1
40
1
10
317.29988176731547
20
-350.82244316885954
30
0
10
317.46988119533347
20
-350.72122163623118
30
0
10
317.59450927206746
20
-350.55676223598823
30
0
10
317.66780523771638
20
-350.37485653019854
30
0
0
SPLINE
5
252
100
AcDbEntity
8
0
100
AcDbSpline
70
0
71
3
72
8
73
4
74
0
42
0.000000001
43
0.0000000001
44
0.0000000001
40
0
40
0
40
0
40
0
40
1
40
1
40
1
40
1
10
320.69966991917948
20
-350.44589413473744
30
0
10
320.6343803538532
20
-350.3951836135214
30
0
10
320.65860420514798
20
-350.2789732148878
30
0
10
320.73703957929121
20
-350.25577482601074
30
0
0
SPLINE
5
253
100
AcDbEntity
8
0
100
AcDbSpline
70
0
71
3
72
8
73
4
74
0
42
0.000000001
43
0.0000000001
44
0.0000000001
40
0
40
0
40
0
40
0
40
1
40
1
40
1
40
1
10
316.52502904221973
20
-350.06175024767822
30
0
10
316.53529624809687
20
-350.34611229001712
30
0
10
316.70693636565647
20
-350.62739408072343
30
0
10
316.97692494885246
20
-350.73271501857829
30
0
0
SPLINE
5
254
100
AcDbEntity
8
0
100
AcDbSpline
70
0
71
3
72
8
73
4
74
0
42
0.000000001
43
0.0000000001
44
0.0000000001
40
0
40
0
40
0
40
0
40
1
40
1
40
1
40
1
10
319.2337346993375
20
-352.13726364204626
30
0
10
319.10438659809614
20
-352.04118353098409
30
0
10
318.93684584981548
20
-352.02701294275602
30
0
10
318.7818340655806
20
-352.01305130060632
30
0
0
SPLINE
5
255
100
AcDbEntity
8
0
100
AcDbSpline
70
0
71
3
72
8
73
4
74
0
42
0.000000001
43
0.0000000001
44
0.0000000001
40
0
40
0
40
0
40
0
40
1
40
1
40
1
40
1
10
320.7930833570403
20
-350.07079019865387
30
0
10
320.78097149430141
20
-349.92768373957637
30
0
10
320.98033551217378
20
-349.95930332942959
30
0
10
321.0148233340517
20
-349.84309699288747
30
0
0
SPLINE
5
256
100
AcDbEntity
8
0
100
AcDbSpline
70
0
71
3
72
8
73
4
74
0
42
0.000000001
43
0.0000000001
44
0.0000000001
40
0
40
0
40
0
40
0
40
1
40
1
40
1
40
1
10
315.98382418955413
20
-350.04204461043327
30
0
10
315.92469785951891
20
-350.20198133911003
30
0
10
315.89389518142997
20
-350.38348128509608
30
0
10
315.95466746734672
20
-350.5477303732477
30
0
0
LINE
5
257
100
AcDbEntity
8
0
100
AcDbLine
10
307.90638750248968
20
-351.90163993955184
30
0
11
307.90638750248968
21
-351.5462214021511
31
0
0
LINE
5
258
100
AcDbEntity
8
0
100
AcDbLine
10
319.00891497396168
20
-350.57442020166548
30
0
11
319.00891497396168
21
-350.57442020166548
31
0
0
SPLINE
5
259
100
AcDbEntity
8
0
100
AcDbSpline
70
0
71
3
72
8
73
4
74
0
42
0.000000001
43
0.0000000001
44
0.0000000001
40
0
40
0
40
0
40
0
40
1
40
1
40
1
40
1
10
308.9953494692557
20
-352.29963897366304
30
0
10
308.89204654610558
20
-352.2562172825086
30
0
10
308.80442131902606
20
-352.19569707992503
30
0
10
308.7324643697163
20
-352.117843789115
30
0
0
LINE
5
260
100
AcDbEntity
8
0
100
AcDbLine
10
321.15279834705325
20
-349.93199611702522
30
0
11
321.15279834705325
21
-349.93199611702522
31
0
0
SPLINE
5
261
100
AcDbEntity
8
0
100
AcDbSpline
70
0
71
3
72
8
73
4
74
0
42
0.000000001
43
0.0000000001
44
0.0000000001
40
0
40
0
40
0
40
0
40
1
40
1
40
1
40
1
10
316.1887301404301
20
-350.82859966395432
30
0
10
316.14622648195501
20
-350.75735850549393
30
0
10
316.10044708818748
20
-350.68549320487688
30
0
10
316.0829913283925
20
-350.60316578988608
30
0
0
SPLINE
5
262
100
AcDbEntity
8
0
100
AcDbSpline
70
0
71
3
72
8
73
4
74
0
42
0.000000001
43
0.0000000001
44
0.0000000001
40
0
40
0
40
0
40
0
40
1
40
1
40
1
40
1
10
315.95466746734672
20
-350.5477303732477
30
0
10
315.99593497386167
20
-350.66640363952723
30
0
10
316.08771081368423
20
-350.75796916725835
30
0
10
316.1887301404301
20
-350.82859966395432
30
0
0
SPLINE
5
263
100
AcDbEntity
8
0
100
AcDbSpline
70
0
71
3
72
8
73
4
74
0
42
0.000000001
43
0.0000000001
44
0.0000000001
40
0
40
0
40
0
40
0
40
1
40
1
40
1
40
1
10
319.90818508624903
20
-355.35945663223595
30
0
10
319.85665452813402
20
-355.41900001647116
30
0
10
319.83899583996936
20
-355.50543059366078
30
0
10
319.86177915878818
20
-355.58057874026736
30
0
0
SPLINE
5
264
100
AcDbEntity
8
0
100
AcDbSpline
70
0
71
3
72
8
73
4
74
0
42
0.000000001
43
0.0000000001
44
0.0000000001
40
0
40
0
40
0
40
0
40
1
40
1
40
1
40
1
10
307.79795396006125
20
-352.0048970113948
30
0
10
307.84183531461406
20
-352.0048970113948
30
0
10
307.87066852538373
20
-351.99844799179016
30
0
10
307.88486470838313
20
-351.98554590846345
30
0
0
LINE
5
265
100
AcDbEntity
8
0
100
AcDbLine
10
308.7324643697163
20
-352.117843789115
30
0
11
308.7324643697163
21
-352.33535255861221
31
0
0
SPLINE
5
266
100
AcDbEntity
8
0
100
AcDbSpline
70
0
71
3
72
8
73
4
74
0
42
0.000000001
43
0.0000000001
44
0.0000000001
40
0
40
0
40
0
40
0
40
1
40
1
40
1
40
1
10
320.53008421338342
20
-350.53664411671735
30
0
10
320.59824792413309
20
-350.61179052680984
30
0
10
320.70377847309879
20
-350.63109040425104
30
0
10
320.80047654331111
20
-350.63622238954247
30
0
0
SPLINE
5
267
100
AcDbEntity
8
0
100
AcDbSpline
70
0
71
3
72
8
73
4
74
0
42
0.000000001
43
0.0000000001
44
0.0000000001
40
0
40
0
40
0
40
0
40
1
40
1
40
1
40
1
10
316.48048080368039
20
-349.07563017465071
30
0
10
316.46035997035716
20
-349.14215184781943
30
0
10
316.43695261742801
20
-349.20785256510635
30
0
10
316.40327726777195
20
-349.26883514514054
30
0
0
LINE
5
268
100
AcDbEntity
8
0
100
AcDbLine
10
318.37428888278163
20
-350.48285061184282
30
0
11
318.37428888278163
21
-350.48285061184282
31
0
0
SPLINE
5
269
100
AcDbEntity
8
0
100
AcDbSpline
70
0
71
3
72
8
73
4
74
0
42
0.000000001
43
0.0000000001
44
0.0000000001
40
0
40
0
40
0
40
0
40
1
40
1
40
1
40
1
10
319.15981822225086
20
-351.1852260444918
30
0
10
319.13497709481254
20
-350.92078800377675
30
0
10
319.00316546089283
20
-350.65120719345646
30
0
10
318.77095551493261
20
-350.51077389614227
30
0
0
SPLINE
5
270
100
AcDbEntity
8
0
100
AcDbSpline
70
0
71
3
72
8
73
4
74
0
42
0.000000001
43
0.0000000001
44
0.0000000001
40
0
40
0
40
0
40
0
40
1
40
1
40
1
40
1
10
319.06578051641645
20
-352.47130901769327
30
0
10
319.14236745918794
20
-352.75341311232086
30
0
10
319.04730955727553
20
-353.05296351249518
30
0
10
319.12799588729979
20
-353.33404174928023
30
0
0
SPLINE
5
271
100
AcDbEntity
8
0
100
AcDbSpline
70
0
71
3
72
8
73
4
74
0
42
0.000000001
43
0.0000000001
44
0.0000000001
40
0
40
0
40
0
40
0
40
1
40
1
40
1
40
1
10
316.97692494885246
20
-350.73271501857829
30
0
10
316.69215579867063
20
-350.81423091396169
30
0
10
316.39711942463782
20
-350.90887942535147
30
0
10
316.174358694359
20
-351.11336748407086
30
0
0
SPLINE
5
272
100
AcDbEntity
8
0
100
AcDbSpline
70
0
71
3
72
8
73
4
74
0
42
0.000000001
43
0.0000000001
44
0.0000000001
40
0
40
0
40
0
40
0
40
1
40
1
40
1
40
1
10
316.40327726777195
20
-349.26883514514054
30
0
10
316.26531223026052
20
-349.5275291907605
30
0
10
316.08750860780196
20
-349.76589615305744
30
0
10
315.98382418955413
20
-350.04204461043327
30
0
0
SPLINE
5
273
100
AcDbEntity
8
0
100
AcDbSpline
70
0
71
3
72
8
73
4
74
0
42
0.000000001
43
0.0000000001
44
0.0000000001
40
0
40
0
40
0
40
0
40
1
40
1
40
1
40
1
10
319.32838360615204
20
-350.7865098535184
30
0
10
319.2698679378812
20
-350.66414028168515
30
0
10
319.14975767977239
20
-350.56805476049226
30
0
10
319.00891497396168
20
-350.57442020166548
30
0
0
SPLINE
5
274
100
AcDbEntity
8
0
100
AcDbSpline
70
0
71
3
72
8
73
4
74
0
42
0.000000001
43
0.0000000001
44
0.0000000001
40
0
40
0
40
0
40
0
40
1
40
1
40
1
40
1
10
316.0829913283925
20
-350.60316578988608
30
0
10
316.04849904899828
20
-350.47238039125989
30
0
10
316.07026449016371
20
-350.33400017564406
30
0
10
316.11378861432451
20
-350.20814457440088
30
0
0
SPLINE
5
275
100
AcDbEntity
8
0
100
AcDbSpline
70
0
71
3
72
8
73
4
74
0
42
0.000000001
43
0.0000000001
44
0.0000000001
40
0
40
0
40
0
40
0
40
1
40
1
40
1
40
1
10
320.73703957929121
20
-350.25577482601074
30
0
10
320.83024904983193
20
-350.22292041426283
30
0
10
320.93105795664337
20
-350.21081097799441
30
0
10
321.0176993847038
20
-350.16030535873909
30
0
0
SPLINE
5
276
100
AcDbEntity
8
0
100
AcDbSpline
70
0
71
3
72
8
73
4
74
0
42
0.000000001
43
0.0000000001
44
0.0000000001
40
0
40
0
40
0
40
0
40
1
40
1
40
1
40
1
10
320.47998474935667
20
-350.26008720345953
30
0
10
320.45514268727777
20
-350.35309513315076
30
0
10
320.46232705328714
20
-350.46272979649359
30
0
10
320.53008421338342
20
-350.53664411671735
30
0
0
SPLINE
5
277
100
AcDbEntity
8
0
100
AcDbSpline
70
0
71
3
72
8
73
4
74
0
42
0.000000001
43
0.0000000001
44
0.0000000001
40
0
40
0
40
0
40
0
40
1
40
1
40
1
40
1
10
317.09785805009801
20
-350.49701715595324
30
0
10
316.85435574139842
20
-350.4409697474851
30
0
10
316.66957601600234
20
-350.25536232601087
30
0
10
316.52502904221973
20
-350.06175024767822
30
0
0
SPLINE
5
278
100
AcDbEntity
8
0
100
AcDbSpline
70
0
71
3
72
8
73
4
74
0
42
0.000000001
43
0.0000000001
44
0.0000000001
40
0
40
0
40
0
40
0
40
1
40
1
40
1
40
1
10
321.0176993847038
20
-350.16030535873909
30
0
10
321.21685553492921
20
-350.05169387513422
30
0
10
321.37802611491247
20
-349.82954111054153
30
0
10
321.33716814271116
20
-349.59405086392923
30
0
0
SPLINE
5
279
100
AcDbEntity
8
0
100
AcDbSpline
70
0
71
3
72
8
73
4
74
0
42
0.000000001
43
0.0000000001
44
0.0000000001
40
0
40
0
40
0
40
0
40
1
40
1
40
1
40
1
10
317.89878361504975
20
-352.13357540675401
30
0
10
318.20182619169287
20
-352.20912894266331
30
0
10
318.5237582307447
20
-352.16252185281786
30
0
10
318.82269662111543
20
-352.25901715995826
30
0
0
SPLINE
5
280
100
AcDbEntity
8
0
100
AcDbSpline
70
0
71
3
72
8
73
4
74
0
42
0.000000001
43
0.0000000001
44
0.0000000001
40
0
40
0
40
0
40
0
40
1
40
1
40
1
40
1
10
316.11378861432451
20
-350.20814457440088
30
0
10
316.21007768943895
20
-349.93199611702522
30
0
10
316.40266256188988
20
-349.70019543577069
30
0
10
316.48869305857806
20
-349.41973864506377
30
0
0
SPLINE
5
281
100
AcDbEntity
8
0
100
AcDbSpline
70
0
71
3
72
8
73
4
74
0
42
0.000000001
43
0.0000000001
44
0.0000000001
40
0
40
0
40
0
40
0
40
1
40
1
40
1
40
1
10
319.35691997868651
20
-352.4690524000473
30
0
10
319.36759603587058
20
-352.34832878409577
30
0
10
319.3351578986323
20
-352.21323102599456
30
0
10
319.2337346993375
20
-352.13726364204626
30
0
0
SPLINE
5
282
100
AcDbEntity
8
0
100
AcDbSpline
70
0
71
3
72
8
73
4
74
0
42
0.000000001
43
0.0000000001
44
0.0000000001
40
0
40
0
40
0
40
0
40
1
40
1
40
1
40
1
10
319.22182666012787
20
-353.3486140531943
30
0
10
319.2043711699406
20
-353.04803912524278
30
0
10
319.3318672090914
20
-352.76532034270701
30
0
10
319.35691997868651
20
-352.4690524000473
30
0
0
SPLINE
5
283
100
AcDbEntity
8
0
100
AcDbSpline
70
0
71
3
72
8
73
4
74
0
42
0.000000001
43
0.0000000001
44
0.0000000001
40
0
40
0
40
0
40
0
40
1
40
1
40
1
40
1
10
316.48869305857806
20
-349.41973864506377
30
0
10
316.51948617457543
20
-349.3090727496953
30
0
10
316.53406453567914
20
-349.18157658472762
30
0
10
316.48048080368039
20
-349.07563017465071
30
0
0
LINE
5
284
100
AcDbEntity
8
0
100
AcDbLine
10
317.69243943214826
20
-352.03152887412631
30
0
11
317.69243943214826
21
-352.03152887412631
31
0
0
LINE
5
285
100
AcDbEntity
8
0
100
AcDbLine
10
306.76955398509466
20
-356.70029561031168
30
0
11
307.44003480991677
21
-356.70029561031168
31
0
0
SPLINE
5
286
100
AcDbEntity
8
0
100
AcDbSpline
70
0
71
3
72
8
73
4
74
0
42
0.000000001
43
0.0000000001
44
0.0000000001
40
0
40
0
40
0
40
0
40
1
40
1
40
1
40
1
10
307.04058528561023
20
-355.41170257011794
30
0
10
307.13142289013922
20
-355.35700724498236
30
0
10
307.22860030512243
20
-355.3177469688585
30
0
10
307.33361523807548
20
-355.29297674828291
30
0
0
SPLINE
5
287
100
AcDbEntity
8
0
100
AcDbSpline
70
0
71
3
72
8
73
4
74
0
42
0.000000001
43
0.0000000001
44
0.0000000001
40
0
40
0
40
0
40
0
40
1
40
1
40
1
40
1
10
309.16691436622716
20
-360.71987311806913
30
0
10
309.16691436622716
20
-360.64543710666908
30
0
10
309.14840983192278
20
-360.5950946001588
30
0
10
309.11098019305297
20
-360.56842231422473
30
0
0
SPLINE
5
288
100
AcDbEntity
8
0
100
AcDbSpline
70
0
71
3
72
8
73
4
74
0
42
0.000000001
43
0.0000000001
44
0.0000000001
40
0
40
0
40
0
40
0
40
1
40
1
40
1
40
1
10
309.25653738742335
20
-360.71987311806913
30
0
10
309.25653738742335
20
-360.78329160496492
30
0
10
309.23931214233409
20
-360.84253386637272
30
0
10
309.20707648058567
20
-360.89711327810966
30
0
0
SPLINE
5
289
100
AcDbEntity
8
0
100
AcDbSpline
70
0
71
3
72
8
73
4
74
0
42
0.000000001
43
0.0000000001
44
0.0000000001
40
0
40
0
40
0
40
0
40
1
40
1
40
1
40
1
10
309.12646511951561
20
-361.68366293947395
30
0
10
309.15701301819291
20
-361.65139492478448
30
0
10
309.1720760083814
20
-361.59115376631837
30
0
10
309.1720760083814
20
-361.50252290198438
30
0
0
SPLINE
5
290
100
AcDbEntity
8
0
100
AcDbSpline
70
0
71
3
72
8
73
4
74
0
42
0.000000001
43
0.0000000001
44
0.0000000001
40
0
40
0
40
0
40
0
40
1
40
1
40
1
40
1
10
309.77111346886068
20
-350.55104789775578
30
0
10
309.89976220735736
20
-350.59751885361447
30
0
10
310.01205923017602
20
-350.68443364605395
30
0
10
310.10800994744739
20
-350.81178557082558
30
0
0
SPLINE
5
291
100
AcDbEntity
8
0
100
AcDbSpline
70
0
71
3
72
8
73
4
74
0
42
0.000000001
43
0.0000000001
44
0.0000000001
40
0
40
0
40
0
40
0
40
1
40
1
40
1
40
1
10
314.53451656610883
20
-364.26328623881432
30
0
10
314.80984137152421
20
-364.19574005584201
30
0
10
315.06915416714395
20
-364.0620793075442
30
0
10
315.28349914252487
20
-363.87627237626623
30
0
0
LINE
5
292
100
AcDbEntity
8
0
100
AcDbLine
10
316.52502904221973
20
-350.06175024767822
30
0
11
316.52502904221973
21
-350.06175024767822
31
0
0
SPLINE
5
293
100
AcDbEntity
8
0
100
AcDbSpline
70
0
71
3
72
8
73
4
74
0
42
0.000000001
43
0.0000000001
44
0.0000000001
40
0
40
0
40
0
40
0
40
1
40
1
40
1
40
1
10
313.46627263201225
20
-361.81245591816651
30
0
10
313.32706605038368
20
-361.89458651943187
30
0
10
313.21599168115915
20
-362.01345794747596
30
0
10
313.10142860442016
20
-362.12556220068689
30
0
0
SPLINE
5
294
100
AcDbEntity
8
0
100
AcDbSpline
70
0
71
3
72
8
73
4
74
0
42
0.000000001
43
0.0000000001
44
0.0000000001
40
0
40
0
40
0
40
0
40
1
40
1
40
1
40
1
10
311.51517646307082
20
-356.75599657270152
30
0
10
311.67162716233759
20
-356.84428503507479
30
0
10
311.83834046617432
20
-356.91737705137751
30
0
10
312.01327008700025
20
-356.95946686181361
30
0
0
SPLINE
5
295
100
AcDbEntity
8
0
100
AcDbSpline
70
0
71
3
72
8
73
4
74
0
42
0.000000001
43
0.0000000001
44
0.0000000001
40
0
40
0
40
0
40
0
40
1
40
1
40
1
40
1
10
320.74894788810866
20
-355.1742617107617
30
0
10
320.55492627546232
20
-355.16009651469045
30
0
10
320.357001406282
20
-355.16358793625727
30
0
10
320.167911064875
20
-355.21347750159134
30
0
0
SPLINE
5
296
100
AcDbEntity
8
0
100
AcDbSpline
70
0
71
3
72
8
73
4
74
0
42
0.000000001
43
0.0000000001
44
0.0000000001
40
0
40
0
40
0
40
0
40
1
40
1
40
1
40
1
10
312.29228580581247
20
-357.48178068834505
30
0
10
312.42676750999243
20
-357.54440248406479
30
0
10
312.56946281710924
20
-357.59080467194974
30
0
10
312.69532246247002
20
-357.67067193334708
30
0
0
SPLINE
5
297
100
AcDbEntity
8
0
100
AcDbSpline
70
0
71
3
72
8
73
4
74
0
42
0.000000001
43
0.0000000001
44
0.0000000001
40
0
40
0
40
0
40
0
40
1
40
1
40
1
40
1
10
321.15279834705325
20
-349.93199611702522
30
0
10
321.06040512324415
20
-350.02972353200818
30
0
10
320.9240810448822
20
-350.0685308849296
30
0
10
320.7930833570403
20
-350.07079019865387
30
0
0
SPLINE
5
298
100
AcDbEntity
8
0
100
AcDbSpline
70
0
71
3
72
8
73
4
74
0
42
0.000000001
43
0.0000000001
44
0.0000000001
40
0
40
0
40
0
40
0
40
1
40
1
40
1
40
1
10
312.01614275856747
20
-356.98574417225785
30
0
10
311.85579487793007
20
-357.01736378008485
30
0
10
311.69359076526757
20
-356.99313547127366
30
0
10
311.53304067874808
20
-356.979382793176
30
0
0
LINE
5
299
100
AcDbEntity
8
0
100
AcDbLine
10
308.53884553321359
20
-350.52825526868241
30
0
11
308.53884553321359
21
-351.14787996607947
31
0
0
SPLINE
5
300
100
AcDbEntity
8
0
100
AcDbSpline
70
0
71
3
72
8
73
4
74
0
42
0.000000001
43
0.0000000001
44
0.0000000001
40
0
40
0
40
0
40
0
40
1
40
1
40
1
40
1
10
311.01852525907537
20
-351.56834407370843
30
0
10
311.099210780276
20
-352.09374356200317
30
0
10
311.22609628347948
20
-352.61769795225916
30
0
10
311.45769069676027
20
-353.09854476247205
30
0
0
SPLINE
5
301
100
AcDbEntity
8
0
100
AcDbSpline
70
0
71
3
72
8
73
4
74
0
42
0.000000001
43
0.0000000001
44
0.0000000001
40
0
40
0
40
0
40
0
40
1
40
1
40
1
40
1
10
312.69532246247002
20
-357.67067193334708
30
0
10
312.51361761452324
20
-357.71111983201916
30
0
10
312.32021043815115
20
-357.66943173726918
30
0
10
312.14446122745636
20
-357.74314654768915
30
0
0
SPLINE
5
302
100
AcDbEntity
8
0
100
AcDbSpline
70
0
71
3
72
8
73
4
74
0
42
0.000000001
43
0.0000000001
44
0.0000000001
40
0
40
0
40
0
40
0
40
1
40
1
40
1
40
1
10
313.84548404358389
20
-354.19697129459246
30
0
10
313.82864972986687
20
-354.01917306429084
30
0
10
313.83070414163058
20
-353.83869761013443
30
0
10
313.86416651906461
20
-353.66295379159635
30
0
0
SPLINE
5
303
100
AcDbEntity
8
0
100
AcDbSpline
70
0
71
3
72
8
73
4
74
0
42
0.000000001
43
0.0000000001
44
0.0000000001
40
0
40
0
40
0
40
0
40
1
40
1
40
1
40
1
10
308.53884553321359
20
-351.14787996607947
30
0
10
308.57027371947203
20
-351.02481885012895
30
0
10
308.62347272107888
20
-350.91277930280052
30
0
10
308.69846547267468
20
-350.81178557082558
30
0
0
SPLINE
5
304
100
AcDbEntity
8
0
100
AcDbSpline
70
0
71
3
72
8
73
4
74
0
42
0.000000001
43
0.0000000001
44
0.0000000001
40
0
40
0
40
0
40
0
40
1
40
1
40
1
40
1
10
312.01327008700025
20
-356.95946686181361
30
0
10
312.01429459680367
20
-356.96808622455433
30
0
10
312.01532449876396
20
-356.97691588141259
30
0
10
312.01614275856747
20
-356.98574417225785
30
0
0
SPLINE
5
305
100
AcDbEntity
8
0
100
AcDbSpline
70
0
71
3
72
8
73
4
74
0
42
0.000000001
43
0.0000000001
44
0.0000000001
40
0
40
0
40
0
40
0
40
1
40
1
40
1
40
1
10
314.49325040763318
20
-358.38926695585695
30
0
10
314.52301780957879
20
-358.70914713543272
30
0
10
314.63922684219943
20
-359.01876066632082
30
0
10
314.82092764602845
20
-359.28320544723192
30
0
0
LINE
5
306
100
AcDbEntity
8
0
100
AcDbLine
10
308.98835314572983
20
-360.52883444659773
30
0
11
308.98835314572983
21
-360.52883444659773
31
0
0
SPLINE
5
307
100
AcDbEntity
8
0
100
AcDbSpline
70
0
71
3
72
8
73
4
74
0
42
0.000000001
43
0.0000000001
44
0.0000000001
40
0
40
0
40
0
40
0
40
1
40
1
40
1
40
1
10
313.63996743094344
20
-354.68499909172965
30
0
10
313.6761056482452
20
-354.51048468495583
30
0
10
313.75453589983937
20
-354.34890606248905
30
0
10
313.84548404358389
20
-354.19697129459246
30
0
0
SPLINE
5
308
100
AcDbEntity
8
0
100
AcDbSpline
70
0
71
3
72
8
73
4
74
0
42
0.000000001
43
0.0000000001
44
0.0000000001
40
0
40
0
40
0
40
0
40
1
40
1
40
1
40
1
10
319.12799588729979
20
-353.33404174928023
30
0
10
319.15304836931318
20
-353.43341107602691
30
0
10
319.24214982515025
20
-353.49439097795675
30
0
10
319.33782823850009
20
-353.51553495507011
30
0
0
SPLINE
5
309
100
AcDbEntity
8
0
100
AcDbSpline
70
0
71
3
72
8
73
4
74
0
42
0.000000001
43
0.0000000001
44
0.0000000001
40
0
40
0
40
0
40
0
40
1
40
1
40
1
40
1
10
320.167911064875
20
-355.21347750159134
30
0
10
320.07161201427044
20
-355.24017272216599
30
0
10
319.97388742118284
20
-355.2812326306418
30
0
10
319.90818508624903
20
-355.35945663223595
30
0
0
SPLINE
5
310
100
AcDbEntity
8
0
100
AcDbSpline
70
0
71
3
72
8
73
4
74
0
42
0.000000001
43
0.0000000001
44
0.0000000001
40
0
40
0
40
0
40
0
40
1
40
1
40
1
40
1
10
317.69243943214826
20
-352.03152887412631
30
0
10
317.7528073063005
20
-352.08018767965706
30
0
10
317.82302409874848
20
-352.11591745905071
30
0
10
317.89878361504975
20
-352.13357540675401
30
0
0
SPLINE
5
311
100
AcDbEntity
8
0
100
AcDbSpline
70
0
71
3
72
8
73
4
74
0
42
0.000000001
43
0.0000000001
44
0.0000000001
40
0
40
0
40
0
40
0
40
1
40
1
40
1
40
1
10
321.0148233340517
20
-349.84309699288747
30
0
10
320.77235024430587
20
-349.84966733602135
30
0
10
320.54568762350624
20
-350.0268481643626
30
0
10
320.47998474935667
20
-350.26008720345953
30
0
0
SPLINE
5
312
100
AcDbEntity
8
0
100
AcDbSpline
70
0
71
3
72
8
73
4
74
0
42
0.000000001
43
0.0000000001
44
0.0000000001
40
0
40
0
40
0
40
0
40
1
40
1
40
1
40
1
10
311.47946153008252
20
-347.48454793689865
30
0
10
310.28885070225721
20
-348.28611752309183
30
0
10
309.26971984493287
20
-349.32288880360983
30
0
10
308.48867961984035
20
-350.52825526868241
30
0
0
SPLINE
5
313
100
AcDbEntity
8
0
100
AcDbSpline
70
0
71
3
72
8
73
4
74
0
42
0.000000001
43
0.0000000001
44
0.0000000001
40
0
40
0
40
0
40
0
40
1
40
1
40
1
40
1
10
310.19970623498239
20
-350.96230624558569
30
0
10
310.30304285911274
20
-350.33528620505524
30
0
10
310.56260504198724
20
-349.74292423476862
30
0
10
310.88321990293508
20
-349.19738234452348
30
0
0
SPLINE
5
314
100
AcDbEntity
8
0
100
AcDbSpline
70
0
71
3
72
8
73
4
74
0
42
0.000000001
43
0.0000000001
44
0.0000000001
40
0
40
0
40
0
40
0
40
1
40
1
40
1
40
1
10
306.80931909167373
20
-355.64605288996745
30
0
10
306.81301662799757
20
-355.63952133053056
30
0
10
306.81684082134257
20
-355.63304786485321
30
0
10
306.82083878900573
20
-355.62669589844387
30
0
0
LINE
5
315
100
AcDbEntity
8
0
100
AcDbLine
10
308.7324643697163
20
-352.33535255861221
30
0
11
307.6972554486747
21
-352.33535255861221
31
0
0
SPLINE
5
316
100
AcDbEntity
8
0
100
AcDbSpline
70
0
71
3
72
8
73
4
74
0
42
0.000000001
43
0.0000000001
44
0.0000000001
40
0
40
0
40
0
40
0
40
1
40
1
40
1
40
1
10
307.51817253700119
20
-356.83584091743205
30
0
10
307.55724947979166
20
-356.87230266414559
30
0
10
307.60461418564995
20
-356.89052950237158
30
0
10
307.65980019705967
20
-356.89052950237158
30
0
0
SPLINE
5
317
100
AcDbEntity
8
0
100
AcDbSpline
70
0
71
3
72
8
73
4
74
0
42
0.000000001
43
0.0000000001
44
0.0000000001
40
0
40
0
40
0
40
0
40
1
40
1
40
1
40
1
10
307.24765349138715
20
-357.25788895316487
30
0
10
307.13680426268547
20
-357.21816764762963
30
0
10
307.04889325129233
20
-357.16675479798266
30
0
10
306.98393125949536
20
-357.10412086990988
30
0
0
SPLINE
5
318
100
AcDbEntity
8
0
100
AcDbSpline
70
0
71
3
72
8
73
4
74
0
42
0.000000001
43
0.0000000001
44
0.0000000001
40
0
40
0
40
0
40
0
40
1
40
1
40
1
40
1
10
313.10142860442016
20
-362.12556220068689
30
0
10
312.93266088881973
20
-362.29453751432635
30
0
10
312.74910786113549
20
-362.45016186555426
30
0
10
312.54482337431142
20
-362.57458584915111
30
0
0
LINE
5
319
100
AcDbEntity
8
0
100
AcDbLine
10
307.68303498299559
20
-356.27061226249111
30
0
11
307.68303498299559
21
-356.44212595194625
31
0
0
SPLINE
5
320
100
AcDbEntity
8
0
100
AcDbSpline
70
0
71
3
72
8
73
4
74
0
42
0.000000001
43
0.0000000001
44
0.0000000001
40
0
40
0
40
0
40
0
40
1
40
1
40
1
40
1
10
309.11098019305297
20
-360.56842231422473
30
0
10
309.07354379601327
20
-360.54217329463029
30
0
10
309.0326685689098
20
-360.52883444659773
30
0
10
308.98835314572983
20
-360.52883444659773
30
0
0
SPLINE
5
321
100
AcDbEntity
8
0
100
AcDbSpline
70
0
71
3
72
8
73
4
74
0
42
0.000000001
43
0.0000000001
44
0.0000000001
40
0
40
0
40
0
40
0
40
1
40
1
40
1
40
1
10
309.12990666363163
20
-360.85153202813279
30
0
10
309.1544328711355
20
-360.8097967520103
30
0
10
309.16691436622716
20
-360.76633868177095
30
0
10
309.16691436622716
20
-360.71987311806913
30
0
0
SPLINE
5
322
100
AcDbEntity
8
0
100
AcDbSpline
70
0
71
3
72
8
73
4
74
0
42
0.000000001
43
0.0000000001
44
0.0000000001
40
0
40
0
40
0
40
0
40
1
40
1
40
1
40
1
10
308.98835314572983
20
-360.52883444659773
30
0
10
308.94489236143818
20
-360.52883444659773
30
0
10
308.90402387453094
20
-360.54217329463029
30
0
10
308.86658345134737
20
-360.56842231422473
30
0
0
LINE
5
323
100
AcDbEntity
8
0
100
AcDbLine
10
309.02685177969715
20
-361.81971241326085
30
0
11
309.02685177969715
21
-361.9982170161112
31
0
0
LINE
5
324
100
AcDbEntity
8
0
100
AcDbLine
10
307.87208396655944
20
-356.38784447484971
30
0
11
307.995584543294
21
-356.33738601899307
31
0
0
SPLINE
5
325
100
AcDbEntity
8
0
100
AcDbSpline
70
0
71
3
72
8
73
4
74
0
42
0.000000001
43
0.0000000001
44
0.0000000001
40
0
40
0
40
0
40
0
40
1
40
1
40
1
40
1
10
307.44003480991677
20
-356.70029561031168
30
0
10
307.45322132951787
20
-356.75404191583971
30
0
10
307.47910098636748
20
-356.79937915274479
30
0
10
307.51817253700119
20
-356.83584091743205
30
0
0
SPLINE
5
326
100
AcDbEntity
8
0
100
AcDbSpline
70
0
71
3
72
8
73
4
74
0
42
0.000000001
43
0.0000000001
44
0.0000000001
40
0
40
0
40
0
40
0
40
1
40
1
40
1
40
1
10
307.68303498299559
20
-356.44212595194625
30
0
10
307.74748338982562
20
-356.43060830489333
30
0
10
307.81076976887823
20
-356.41288698137288
30
0
10
307.87208396655944
20
-356.38784447484971
30
0
0
SPLINE
5
327
100
AcDbEntity
8
0
100
AcDbSpline
70
0
71
3
72
8
73
4
74
0
42
0.000000001
43
0.0000000001
44
0.0000000001
40
0
40
0
40
0
40
0
40
1
40
1
40
1
40
1
10
308.57339038613719
20
-356.70780823285685
30
0
10
308.56306710182861
20
-356.73871875408287
30
0
10
308.55152519006981
20
-356.76813701387186
30
0
10
308.53888327831163
20
-356.79611420176604
30
0
0
LINE
5
328
100
AcDbEntity
8
0
100
AcDbLine
10
307.995584543294
20
-356.33738601899307
30
0
11
307.995584543294
21
-356.52361894863679
31
0
0
SPLINE
5
329
100
AcDbEntity
8
0
100
AcDbSpline
70
0
71
3
72
8
73
4
74
0
42
0.000000001
43
0.0000000001
44
0.0000000001
40
0
40
0
40
0
40
0
40
1
40
1
40
1
40
1
10
309.26170307369529
20
-361.50255525492554
30
0
10
309.26170307369529
20
-361.58469261436096
30
0
10
309.25065184821068
20
-361.6824497041805
30
0
10
309.19176412111648
20
-361.74508363225311
30
0
0
SPLINE
5
330
100
AcDbEntity
8
0
100
AcDbSpline
70
0
71
3
72
8
73
4
74
0
42
0.000000001
43
0.0000000001
44
0.0000000001
40
0
40
0
40
0
40
0
40
1
40
1
40
1
40
1
10
309.19176412111648
20
-361.74508363225311
30
0
10
309.14747564074679
20
-361.79218949660822
30
0
10
309.08882786463283
20
-361.8137392514991
30
0
10
309.02685177969715
20
-361.81971241326085
30
0
0
SPLINE
5
331
100
AcDbEntity
8
0
100
AcDbSpline
70
0
71
3
72
8
73
4
74
0
42
0.000000001
43
0.0000000001
44
0.0000000001
40
0
40
0
40
0
40
0
40
1
40
1
40
1
40
1
10
306.82083878899016
20
-355.62669589843972
30
0
10
306.87696573177203
20
-355.53741260109967
30
0
10
306.9502424294472
20
-355.4659099230314
30
0
10
307.04058528561023
20
-355.41170257011794
30
0
0
LINE
5
332
100
AcDbEntity
8
0
100
AcDbLine
10
308.98835314572983
20
-361.73185127931856
30
0
11
308.98835314572983
21
-361.73185127931856
31
0
0
SPLINE
5
333
100
AcDbEntity
8
0
100
AcDbSpline
70
0
71
3
72
8
73
4
74
0
42
0.000000001
43
0.0000000001
44
0.0000000001
40
0
40
0
40
0
40
0
40
1
40
1
40
1
40
1
10
309.52630960133831
20
-360.29982758560323
30
0
10
308.97089334181703
20
-359.21341343092757
30
0
10
308.63392676519123
20
-357.99678544625289
30
0
10
308.57339038613719
20
-356.70780823285685
30
0
0
SPLINE
5
334
100
AcDbEntity
8
0
100
AcDbSpline
70
0
71
3
72
8
73
4
74
0
42
0.000000001
43
0.0000000001
44
0.0000000001
40
0
40
0
40
0
40
0
40
1
40
1
40
1
40
1
10
309.02685177969715
20
-361.1872961537789
30
0
10
309.19246510150828
20
-361.20487997729936
30
0
10
309.26170307369529
20
-361.33776964716634
30
0
10
309.26170307369529
20
-361.50255525492554
30
0
0
SPLINE
5
335
100
AcDbEntity
8
0
100
AcDbSpline
70
0
71
3
72
8
73
4
74
0
42
0.000000001
43
0.0000000001
44
0.0000000001
40
0
40
0
40
0
40
0
40
1
40
1
40
1
40
1
10
307.48203027558162
20
-356.54885961692452
30
0
10
307.3721543132192
20
-356.54885961692452
30
0
10
307.27106893255177
20
-356.53436819536341
30
0
10
307.1787660093961
20
-356.50585583590072
30
0
0
SPLINE
5
336
100
AcDbEntity
8
0
100
AcDbSpline
70
0
71
3
72
8
73
4
74
0
42
0.000000001
43
0.0000000001
44
0.0000000001
40
0
40
0
40
0
40
0
40
1
40
1
40
1
40
1
10
307.33361523807548
20
-355.29297674828291
30
0
10
307.43811789815294
20
-355.26820789372033
30
0
10
307.54213528208686
20
-355.25604858000116
30
0
10
307.64567005000816
20
-355.25604858000116
30
0
0
SPLINE
5
337
100
AcDbEntity
8
0
100
AcDbSpline
70
0
71
3
72
8
73
4
74
0
42
0.000000001
43
0.0000000001
44
0.0000000001
40
0
40
0
40
0
40
0
40
1
40
1
40
1
40
1
10
307.1787660093961
20
-356.50585583590072
30
0
10
307.0864684963712
20
-356.4773501986603
30
0
10
307.00783603889494
20
-356.4366812215568
30
0
10
306.94190750298083
20
-356.38339864151868
30
0
0
SPLINE
5
338
100
AcDbEntity
8
0
100
AcDbSpline
70
0
71
3
72
8
73
4
74
0
42
0.000000001
43
0.0000000001
44
0.0000000001
40
0
40
0
40
0
40
0
40
1
40
1
40
1
40
1
10
308.80505489745718
20
-361.50252290198438
30
0
10
308.80505489745718
20
-361.56318330064636
30
0
10
308.8123747503945
20
-361.61051834964172
30
0
10
308.82657229940691
20
-361.64408046400393
30
0
0
SPLINE
5
339
100
AcDbEntity
8
0
100
AcDbSpline
70
0
71
3
72
8
73
4
74
0
42
0.000000001
43
0.0000000001
44
0.0000000001
40
0
40
0
40
0
40
0
40
1
40
1
40
1
40
1
10
306.98393125949536
20
-357.10412086990988
30
0
10
306.91850958632597
20
-357.04102186830801
30
0
10
306.87015948177549
20
-356.97651955788342
30
0
10
306.83889980041891
20
-356.90968379157755
30
0
0
SPLINE
5
340
100
AcDbEntity
8
0
100
AcDbSpline
70
0
71
3
72
8
73
4
74
0
42
0.000000001
43
0.0000000001
44
0.0000000001
40
0
40
0
40
0
40
0
40
1
40
1
40
1
40
1
10
308.88853355591129
20
-361.71334944109282
30
0
10
308.9152031637409
20
-361.72582689206678
30
0
10
308.94833390555402
20
-361.73185127931856
30
0
10
308.98835314572983
20
-361.73185127931856
30
0
0
SPLINE
5
341
100
AcDbEntity
8
0
100
AcDbSpline
70
0
71
3
72
8
73
4
74
0
42
0.000000001
43
0.0000000001
44
0.0000000001
40
0
40
0
40
0
40
0
40
1
40
1
40
1
40
1
10
307.9714047638945
20
-355.28877491004982
30
0
10
308.07933009553892
20
-355.31073312082293
30
0
10
308.18481414613888
20
-355.35420332341522
30
0
10
308.28785553170729
20
-355.41917609952583
30
0
0
SPLINE
5
342
100
AcDbEntity
8
0
100
AcDbSpline
70
0
71
3
72
8
73
4
74
0
42
0.000000001
43
0.0000000001
44
0.0000000001
40
0
40
0
40
0
40
0
40
1
40
1
40
1
40
1
10
308.56497053320027
20
-360.25131841242529
30
0
10
308.68330003150601
20
-360.21087049577926
30
0
10
308.82485220136863
20
-360.19064588141055
30
0
10
308.98835314572983
20
-360.19064588141055
30
0
0
SPLINE
5
343
100
AcDbEntity
8
0
100
AcDbSpline
70
0
71
3
72
8
73
4
74
0
42
0.000000001
43
0.0000000001
44
0.0000000001
40
0
40
0
40
0
40
0
40
1
40
1
40
1
40
1
10
308.98835314572983
20
-361.27491733674077
30
0
10
308.86615207879856
20
-361.27491733674077
30
0
10
308.80505489745718
20
-361.35063533343435
30
0
10
308.80505489745718
20
-361.50252290198438
30
0
0
SPLINE
5
344
100
AcDbEntity
8
0
100
AcDbSpline
70
0
71
3
72
8
73
4
74
0
42
0.000000001
43
0.0000000001
44
0.0000000001
40
0
40
0
40
0
40
0
40
1
40
1
40
1
40
1
10
309.47410275659365
20
-352.37755831839462
30
0
10
309.45094480889293
20
-352.37867719094299
30
0
10
309.427176181454
20
-352.37923932329574
30
0
10
309.40279958832923
20
-352.37923932329574
30
0
0
LINE
5
345
100
AcDbEntity
8
0
100
AcDbLine
10
306.79068045567209
20
-356.19311217592923
30
0
11
306.79068045567209
21
-356.19311217592923
31
0
0
SPLINE
5
346
100
AcDbEntity
8
0
100
AcDbSpline
70
0
71
3
72
8
73
4
74
0
42
0.000000001
43
0.0000000001
44
0.0000000001
40
0
40
0
40
0
40
0
40
1
40
1
40
1
40
1
10
308.28785553170729
20
-355.41917609952583
30
0
10
308.39041164113223
20
-355.48413674328361
30
0
10
308.47538930121965
20
-355.58183182329935
30
0
10
308.54181256752577
20
-355.71129477748178
30
0
0
LINE
5
347
100
AcDbEntity
8
0
100
AcDbLine
10
307.90593995347041
20
-356.52361355647997
30
0
11
307.90593995347041
21
-356.47080951238922
31
0
0
SPLINE
5
348
100
AcDbEntity
8
0
100
AcDbSpline
70
0
71
3
72
8
73
4
74
0
42
0.000000001
43
0.0000000001
44
0.0000000001
40
0
40
0
40
0
40
0
40
1
40
1
40
1
40
1
10
308.54181256752577
20
-355.71129477748178
30
0
10
308.55488585183281
20
-355.73660015165183
30
0
10
308.56667715084637
20
-355.76330750457942
30
0
10
308.57717568025282
20
-355.79142221044748
30
0
0
SPLINE
5
349
100
AcDbEntity
8
0
100
AcDbSpline
70
0
71
3
72
8
73
4
74
0
42
0.000000001
43
0.0000000001
44
0.0000000001
40
0
40
0
40
0
40
0
40
1
40
1
40
1
40
1
10
307.64567005000816
20
-355.25604858000116
30
0
10
307.75506204831839
20
-355.25604858000116
30
0
10
307.86346999597566
20
-355.26680458489761
30
0
10
307.9714047638945
20
-355.28877491004982
30
0
0
SPLINE
5
350
100
AcDbEntity
8
0
100
AcDbSpline
70
0
71
3
72
8
73
4
74
0
42
0.000000001
43
0.0000000001
44
0.0000000001
40
0
40
0
40
0
40
0
40
1
40
1
40
1
40
1
10
320.94769019029508
20
-355.79472355848503
30
0
10
320.9168918259316
20
-355.78569034770533
30
0
10
320.85919954001326
20
-355.77932355849288
30
0
10
320.86659083902913
20
-355.73333521864691
30
0
0
SPLINE
5
351
100
AcDbEntity
8
0
100
AcDbSpline
70
0
71
3
72
8
73
4
74
0
42
0.000000001
43
0.0000000001
44
0.0000000001
40
0
40
0
40
0
40
0
40
1
40
1
40
1
40
1
10
312.8207210784193
20
-364.67342301801727
30
0
10
312.87581409309706
20
-364.563228936374
30
0
10
312.9386650554834
20
-364.45707895440177
30
0
10
313.00873611590521
20
-364.35574283844039
30
0
0
LINE
5
352
100
AcDbEntity
8
0
100
AcDbLine
10
307.68303498299559
20
-355.34612452439973
30
0
11
307.68303498299559
21
-355.55957434782044
31
0
0
SPLINE
5
353
100
AcDbEntity
8
0
100
AcDbSpline
70
0
71
3
72
8
73
4
74
0
42
0.000000001
43
0.0000000001
44
0.0000000001
40
0
40
0
40
0
40
0
40
1
40
1
40
1
40
1
10
308.23997858892125
20
-355.49493858151345
30
0
10
308.15171843537144
20
-355.43916078088819
30
0
10
308.05607778509324
20
-355.39746729398132
30
0
10
307.95352976390365
20
-355.3766023430116
30
0
0
SPLINE
5
354
100
AcDbEntity
8
0
100
AcDbSpline
70
0
71
3
72
8
73
4
74
0
42
0.000000001
43
0.0000000001
44
0.0000000001
40
0
40
0
40
0
40
0
40
1
40
1
40
1
40
1
10
312.64273547066676
20
-365.41599696208351
30
0
10
312.64429110792094
20
-365.28663106672479
30
0
10
312.65913301967799
20
-365.15792571058091
30
0
10
312.68990604090413
20
-365.03212268286734
30
0
0
SPLINE
5
355
100
AcDbEntity
8
0
100
AcDbSpline
70
0
71
3
72
8
73
4
74
0
42
0.000000001
43
0.0000000001
44
0.0000000001
40
0
40
0
40
0
40
0
40
1
40
1
40
1
40
1
10
308.55229222438322
20
-356.20953127559403
30
0
10
308.55229222438322
20
-356.05735792273043
30
0
10
308.53269714432781
20
-355.88938283621457
30
0
10
308.46212730939629
20
-355.7523196369379
30
0
0
SPLINE
5
356
100
AcDbEntity
8
0
100
AcDbSpline
70
0
71
3
72
8
73
4
74
0
42
0.000000001
43
0.0000000001
44
0.0000000001
40
0
40
0
40
0
40
0
40
1
40
1
40
1
40
1
10
312.16055410163113
20
-365.14977546548721
30
0
10
312.12787090883728
20
-365.2345024082544
30
0
10
312.10026576179263
20
-365.32485065657443
30
0
10
312.08589433369536
20
-365.41599696208351
30
0
0
SPLINE
5
357
100
AcDbEntity
8
0
100
AcDbSpline
70
0
71
3
72
8
73
4
74
0
42
0.000000001
43
0.0000000001
44
0.0000000001
40
0
40
0
40
0
40
0
40
1
40
1
40
1
40
1
10
307.68303498299559
20
-355.55957434782044
30
0
10
307.76992687674226
20
-355.5636494703673
30
0
10
307.85514046166622
20
-355.5918059654511
30
0
10
307.90386666915765
20
-355.66994367456164
30
0
0
SPLINE
5
358
100
AcDbEntity
8
0
100
AcDbSpline
70
0
71
3
72
8
73
4
74
0
42
0.000000001
43
0.0000000001
44
0.0000000001
40
0
40
0
40
0
40
0
40
1
40
1
40
1
40
1
10
308.72102625697704
20
-360.71987716218683
30
0
10
308.72102625697704
20
-360.63506261484429
30
0
10
308.74169707232596
20
-360.54693861325524
30
0
10
308.8148524464716
20
-360.49523458713776
30
0
0
SPLINE
5
359
100
AcDbEntity
8
0
100
AcDbSpline
70
0
71
3
72
8
73
4
74
0
42
0.000000001
43
0.0000000001
44
0.0000000001
40
0
40
0
40
0
40
0
40
1
40
1
40
1
40
1
10
307.95352976390365
20
-355.3766023430116
30
0
10
307.86430712832822
20
-355.35844425478564
30
0
10
307.77393594536767
20
-355.3482948675358
30
0
10
307.68303498299559
20
-355.34612452439973
30
0
0
SPLINE
5
360
100
AcDbEntity
8
0
100
AcDbSpline
70
0
71
3
72
8
73
4
74
0
42
0.000000001
43
0.0000000001
44
0.0000000001
40
0
40
0
40
0
40
0
40
1
40
1
40
1
40
1
10
308.59948168514347
20
-361.95152365175591
30
0
10
308.70799476188563
20
-361.9842917710202
30
0
10
308.82893271607242
20
-361.99582559454376
30
0
10
308.94369799869372
20
-361.99804851120928
30
0
0
SPLINE
5
361
100
AcDbEntity
8
0
100
AcDbSpline
70
0
71
3
72
8
73
4
74
0
42
0.000000001
43
0.0000000001
44
0.0000000001
40
0
40
0
40
0
40
0
40
1
40
1
40
1
40
1
10
309.02685177969715
20
-361.9982170161112
30
0
10
309.14361485643508
20
-361.99631897689653
30
0
10
309.2674537910126
20
-361.98510329062759
30
0
10
309.37799298866872
20
-361.95160318606963
30
0
0
SPLINE
5
362
100
AcDbEntity
8
0
100
AcDbSpline
70
0
71
3
72
8
73
4
74
0
42
0.000000001
43
0.0000000001
44
0.0000000001
40
0
40
0
40
0
40
0
40
1
40
1
40
1
40
1
10
309.20707648058567
20
-360.89711327810966
30
0
10
309.16741314073664
20
-360.96425235323886
30
0
10
309.09997884501934
20
-360.99393750681855
30
0
10
309.02685177969715
20
-361.00125331563834
30
0
0
SPLINE
5
363
100
AcDbEntity
8
0
100
AcDbSpline
70
0
71
3
72
8
73
4
74
0
42
0.000000001
43
0.0000000001
44
0.0000000001
40
0
40
0
40
0
40
0
40
1
40
1
40
1
40
1
10
309.68654020256383
20
-360.66609580763901
30
0
10
309.68654020256383
20
-360.59429656094358
30
0
10
309.66199106041955
20
-360.53319939757597
30
0
10
309.61526129900545
20
-360.47884108224417
30
0
0
SPLINE
5
364
100
AcDbEntity
8
0
100
AcDbSpline
70
0
71
3
72
8
73
4
74
0
42
0.000000001
43
0.0000000001
44
0.0000000001
40
0
40
0
40
0
40
0
40
1
40
1
40
1
40
1
10
308.94369799869372
20
-361.8192149867906
30
0
10
308.91158367844866
20
-361.81582736424326
30
0
10
308.8799829431706
20
-361.8082729524823
30
0
10
308.85056200527708
20
-361.7945148642541
30
0
0
SPLINE
5
365
100
AcDbEntity
8
0
100
AcDbSpline
70
0
71
3
72
8
73
4
74
0
42
0.000000001
43
0.0000000001
44
0.0000000001
40
0
40
0
40
0
40
0
40
1
40
1
40
1
40
1
10
309.16271117995478
20
-360.49523054302011
30
0
10
309.23586116194372
20
-360.54693456913759
30
0
10
309.25653738742335
20
-360.6350585707267
30
0
10
309.25653738742335
20
-360.71987311806913
30
0
0
LINE
5
366
100
AcDbEntity
8
0
100
AcDbLine
10
309.38016467984403
20
-361.18543181554452
30
0
11
309.30661837432592
21
-361.17198377633576
31
0
0
SPLINE
5
367
100
AcDbEntity
8
0
100
AcDbSpline
70
0
71
3
72
8
73
4
74
0
42
0.000000001
43
0.0000000001
44
0.0000000001
40
0
40
0
40
0
40
0
40
1
40
1
40
1
40
1
10
307.89302708582983
20
-356.18153117103316
30
0
10
307.84080136853629
20
-356.24478789322319
30
0
10
307.76178337184439
20
-356.26712488504194
30
0
10
307.68303498299559
20
-356.27061226249111
30
0
0
SPLINE
5
368
100
AcDbEntity
8
0
100
AcDbSpline
70
0
71
3
72
8
73
4
74
0
42
0.000000001
43
0.0000000001
44
0.0000000001
40
0
40
0
40
0
40
0
40
1
40
1
40
1
40
1
10
308.74421655761876
20
-361.67943414045646
30
0
10
308.72102086482016
20
-361.62541686107215
30
0
10
308.71542650207795
20
-361.56074065358877
30
0
10
308.71542650207795
20
-361.50250672551391
30
0
0
SPLINE
5
369
100
AcDbEntity
8
0
100
AcDbSpline
70
0
71
3
72
8
73
4
74
0
42
0.000000001
43
0.0000000001
44
0.0000000001
40
0
40
0
40
0
40
0
40
1
40
1
40
1
40
1
10
309.69068137903236
20
-361.35266008833526
30
0
10
309.65489095584803
20
-361.30646682855485
30
0
10
309.61070088234106
20
-361.27060495929209
30
0
10
309.5581556797535
20
-361.24485201812871
30
0
0
LINE
5
370
100
AcDbEntity
8
0
100
AcDbLine
10
308.94369799869372
20
-361.99804851120928
30
0
11
308.94369799869372
21
-361.8192149867906
31
0
0
SPLINE
5
371
100
AcDbEntity
8
0
100
AcDbSpline
70
0
71
3
72
8
73
4
74
0
42
0.000000001
43
0.0000000001
44
0.0000000001
40
0
40
0
40
0
40
0
40
1
40
1
40
1
40
1
10
308.36229289114652
20
-360.47884243028335
30
0
10
308.31555908561484
20
-360.53319400541915
30
0
10
308.29102881601943
20
-360.59429790898281
30
0
10
308.29102881601943
20
-360.66609041548219
30
0
0
SPLINE
5
372
100
AcDbEntity
8
0
100
AcDbSpline
70
0
71
3
72
8
73
4
74
0
42
0.000000001
43
0.0000000001
44
0.0000000001
40
0
40
0
40
0
40
0
40
1
40
1
40
1
40
1
10
309.59451497548662
20
-360.88315702811684
30
0
10
309.66504571728075
20
-360.83012518337245
30
0
10
309.68654020256383
20
-360.75166662295493
30
0
10
309.68654020256383
20
-360.66609580763901
30
0
0
SPLINE
5
373
100
AcDbEntity
8
0
100
AcDbSpline
70
0
71
3
72
8
73
4
74
0
42
0.000000001
43
0.0000000001
44
0.0000000001
40
0
40
0
40
0
40
0
40
1
40
1
40
1
40
1
10
308.8148524464716
20
-360.49523458713776
30
0
10
308.85399950527528
20
-360.4675660822499
30
0
10
308.89742522257347
20
-360.44959537147469
30
0
10
308.94369799869372
20
-360.4425639989293
30
0
0
SPLINE
5
374
100
AcDbEntity
8
0
100
AcDbSpline
70
0
71
3
72
8
73
4
74
0
42
0.000000001
43
0.0000000001
44
0.0000000001
40
0
40
0
40
0
40
0
40
1
40
1
40
1
40
1
10
308.94369799869372
20
-361.00056446759936
30
0
10
308.87319826180146
20
-360.99216753132924
30
0
10
308.80890085333755
20
-360.96216693657328
30
0
10
308.77047905760537
20
-360.8971173222273
30
0
0
SPLINE
5
375
100
AcDbEntity
8
0
100
AcDbSpline
70
0
71
3
72
8
73
4
74
0
42
0.000000001
43
0.0000000001
44
0.0000000001
40
0
40
0
40
0
40
0
40
1
40
1
40
1
40
1
10
308.28601680621807
20
-361.35260347068817
30
0
10
308.25223900558171
20
-361.39620038896658
30
0
10
308.2393948879411
20
-361.44739620430005
30
0
10
308.2393948879411
20
-361.50207670100428
30
0
0
LINE
5
376
100
AcDbEntity
8
0
100
AcDbLine
10
308.94369799869372
20
-361.18798095770006
30
0
11
308.94369799869372
21
-361.00056446759936
31
0
0
LINE
5
377
100
AcDbEntity
8
0
100
AcDbLine
10
309.30661837432592
20
-361.17198377633576
30
0
11
309.30661837432592
21
-361.01524596268996
31
0
0
SPLINE
5
378
100
AcDbEntity
8
0
100
AcDbSpline
70
0
71
3
72
8
73
4
74
0
42
0.000000001
43
0.0000000001
44
0.0000000001
40
0
40
0
40
0
40
0
40
1
40
1
40
1
40
1
10
308.38239080780301
20
-360.88330261635201
30
0
10
308.44851346136409
20
-360.93331350521532
30
0
10
308.52288072276423
20
-360.97605981074918
30
0
10
308.60357702827855
20
-360.99716201662073
30
0
0
SPLINE
5
379
100
AcDbEntity
8
0
100
AcDbSpline
70
0
71
3
72
8
73
4
74
0
42
0.000000001
43
0.0000000001
44
0.0000000001
40
0
40
0
40
0
40
0
40
1
40
1
40
1
40
1
10
309.6026571323452
20
-361.83598053253365
30
0
10
309.64798629898883
20
-361.79414684954833
30
0
10
309.6859861584465
20
-361.74459564205728
30
0
10
309.70675539863203
20
-361.68601796398247
30
0
0
SPLINE
5
380
100
AcDbEntity
8
0
100
AcDbSpline
70
0
71
3
72
8
73
4
74
0
42
0.000000001
43
0.0000000001
44
0.0000000001
40
0
40
0
40
0
40
0
40
1
40
1
40
1
40
1
10
308.29102881601943
20
-360.66609041548219
30
0
10
308.29102881601943
20
-360.7514334121708
30
0
10
308.31213236993028
20
-360.83016697258819
30
0
10
308.38239080780301
20
-360.88330261635201
30
0
0
SPLINE
5
381
100
AcDbEntity
8
0
100
AcDbSpline
70
0
71
3
72
8
73
4
74
0
42
0.000000001
43
0.0000000001
44
0.0000000001
40
0
40
0
40
0
40
0
40
1
40
1
40
1
40
1
10
309.73773601789725
20
-361.50212792649438
30
0
10
309.73773601789725
20
-361.44718725822167
30
0
10
309.72457241496278
20
-361.39639585465278
30
0
10
309.69068137903236
20
-361.35266008833526
30
0
0
SPLINE
5
382
100
AcDbEntity
8
0
100
AcDbSpline
70
0
71
3
72
8
73
4
74
0
42
0.000000001
43
0.0000000001
44
0.0000000001
40
0
40
0
40
0
40
0
40
1
40
1
40
1
40
1
10
308.37447916565014
20
-361.83592930704356
30
0
10
308.43529324078253
20
-361.8920495096292
30
0
10
308.52126846786302
20
-361.92791274490514
30
0
10
308.59948168514347
20
-361.95152365175591
30
0
0
SPLINE
5
383
100
AcDbEntity
8
0
100
AcDbSpline
70
0
71
3
72
8
73
4
74
0
42
0.000000001
43
0.0000000001
44
0.0000000001
40
0
40
0
40
0
40
0
40
1
40
1
40
1
40
1
10
309.61526129900545
20
-360.47884108224417
30
0
10
309.55548521406848
20
-360.40930519339071
30
0
10
309.46820373698876
20
-360.36533486824965
30
0
10
309.38275021905844
20
-360.33613768689196
30
0
0
LINE
5
384
100
AcDbEntity
8
0
100
AcDbLine
10
308.67052196778707
20
-361.01465012935694
30
0
11
308.67052196778707
21
-361.17204578613962
31
0
0
SPLINE
5
385
100
AcDbEntity
8
0
100
AcDbSpline
70
0
71
3
72
8
73
4
74
0
42
0.000000001
43
0.0000000001
44
0.0000000001
40
0
40
0
40
0
40
0
40
1
40
1
40
1
40
1
10
307.90386666915765
20
-355.66994367456164
30
0
10
307.95044679821893
20
-355.74464929380457
30
0
10
307.96042768056685
20
-355.84527501107368
30
0
10
307.96042768056685
20
-355.93142683129128
30
0
0
LINE
5
386
100
AcDbEntity
8
0
100
AcDbLine
10
313.25959535760757
20
-363.78816187304312
30
0
11
311.95032206579049
21
-363.78816187304312
31
0
0
LINE
5
387
100
AcDbEntity
8
0
100
AcDbLine
10
309.02685177969715
20
-360.28066790424049
30
0
11
309.02685177969715
21
-360.44163519991019
31
0
0
SPLINE
5
388
100
AcDbEntity
8
0
100
AcDbSpline
70
0
71
3
72
8
73
4
74
0
42
0.000000001
43
0.0000000001
44
0.0000000001
40
0
40
0
40
0
40
0
40
1
40
1
40
1
40
1
10
307.96042768056685
20
-355.93142683129128
30
0
10
307.96042768056685
20
-356.01597851098677
30
0
10
307.94879679821975
20
-356.11399172825719
30
0
10
307.89302708582983
20
-356.18153117103316
30
0
0
SPLINE
5
389
100
AcDbEntity
8
0
100
AcDbSpline
70
0
71
3
72
8
73
4
74
0
42
0.000000001
43
0.0000000001
44
0.0000000001
40
0
40
0
40
0
40
0
40
1
40
1
40
1
40
1
10
309.02685177969715
20
-360.44163519991019
30
0
10
309.07576671267879
20
-360.44787931755411
30
0
10
309.12149085481241
20
-360.46608997930946
30
0
10
309.16271117995478
20
-360.49523054302011
30
0
0
LINE
5
390
100
AcDbEntity
8
0
100
AcDbLine
10
308.94369799869372
20
-360.4425639989293
30
0
11
308.94369799869372
21
-360.28079731600519
31
0
0
SPLINE
5
391
100
AcDbEntity
8
0
100
AcDbSpline
70
0
71
3
72
8
73
4
74
0
42
0.000000001
43
0.0000000001
44
0.0000000001
40
0
40
0
40
0
40
0
40
1
40
1
40
1
40
1
10
313.00873611590521
20
-364.35574283844039
30
0
10
313.08894306521086
20
-364.23974679601571
30
0
10
313.17364843935076
20
-364.12627022091021
30
0
10
313.25959535760757
20
-364.01438300201278
30
0
0
SPLINE
5
392
100
AcDbEntity
8
0
100
AcDbSpline
70
0
71
3
72
8
73
4
74
0
42
0.000000001
43
0.0000000001
44
0.0000000001
40
0
40
0
40
0
40
0
40
1
40
1
40
1
40
1
10
308.2393948879411
20
-361.50207670100428
30
0
10
308.2393948879411
20
-361.56484408495919
30
0
10
308.24894304970104
20
-361.62673389538526
30
0
10
308.26994819674906
20
-361.68596673849231
30
0
0
LINE
5
393
100
AcDbEntity
8
0
100
AcDbLine
10
308.67052196778707
20
-361.17204578613962
30
0
11
308.59687727338013
21
-361.18539811456418
31
0
0
SPLINE
5
394
100
AcDbEntity
8
0
100
AcDbSpline
70
0
71
3
72
8
73
4
74
0
42
0.000000001
43
0.0000000001
44
0.0000000001
40
0
40
0
40
0
40
0
40
1
40
1
40
1
40
1
10
309.5581556797535
20
-361.24485201812871
30
0
10
309.50163376148163
20
-361.21714848219506
30
0
10
309.44213537262294
20
-361.19673108024477
30
0
10
309.38016467984403
20
-361.18543181554452
30
0
0
SPLINE
5
395
100
AcDbEntity
8
0
100
AcDbSpline
70
0
71
3
72
8
73
4
74
0
42
0.000000001
43
0.0000000001
44
0.0000000001
40
0
40
0
40
0
40
0
40
1
40
1
40
1
40
1
10
308.59409492044028
20
-360.33607837316652
30
0
10
308.50889077179085
20
-360.36535913295546
30
0
10
308.42191934373056
20
-360.40948583064551
30
0
10
308.36229289114652
20
-360.47884243028335
30
0
0
LINE
5
396
100
AcDbEntity
8
0
100
AcDbLine
10
308.60357702827855
20
-360.99716201662073
30
0
11
308.67052196778707
21
-361.01465012935694
31
0
0
SPLINE
5
397
100
AcDbEntity
8
0
100
AcDbSpline
70
0
71
3
72
8
73
4
74
0
42
0.000000001
43
0.0000000001
44
0.0000000001
40
0
40
0
40
0
40
0
40
1
40
1
40
1
40
1
10
308.94369799869372
20
-360.28079731600519
30
0
10
308.82623798568159
20
-360.2835958454155
30
0
10
308.70446020306389
20
-360.29815736501592
30
0
10
308.59409492044028
20
-360.33607837316652
30
0
0
LINE
5
398
100
AcDbEntity
8
0
100
AcDbLine
10
313.25959535760757
20
-364.01438300201278
30
0
11
313.25959535760757
21
-363.78816187304312
31
0
0
SPLINE
5
399
100
AcDbEntity
8
0
100
AcDbSpline
70
0
71
3
72
8
73
4
74
0
42
0.000000001
43
0.0000000001
44
0.0000000001
40
0
40
0
40
0
40
0
40
1
40
1
40
1
40
1
10
309.37293379749474
20
-360.99733591367948
30
0
10
309.45340498046028
20
-360.97565809506307
30
0
10
309.52826021408237
20
-360.93297379933324
30
0
10
309.59451497548662
20
-360.88315702811684
30
0
0
SPLINE
5
400
100
AcDbEntity
8
0
100
AcDbSpline
70
0
71
3
72
8
73
4
74
0
42
0.000000001
43
0.0000000001
44
0.0000000001
40
0
40
0
40
0
40
0
40
1
40
1
40
1
40
1
10
309.38275021905844
20
-360.33613768689196
30
0
10
309.27008246748176
20
-360.29763297776117
30
0
10
309.14639316525711
20
-360.28312942384702
30
0
10
309.02685177969715
20
-360.28066790424049
30
0
0
SPLINE
5
401
100
AcDbEntity
8
0
100
AcDbSpline
70
0
71
3
72
8
73
4
74
0
42
0.000000001
43
0.0000000001
44
0.0000000001
40
0
40
0
40
0
40
0
40
1
40
1
40
1
40
1
10
309.70675539863203
20
-361.68601796398247
30
0
10
309.72778748849066
20
-361.62670154244415
30
0
10
309.73773601789725
20
-361.56500989378264
30
0
10
309.73773601789725
20
-361.50212792649438
30
0
0
SPLINE
5
402
100
AcDbEntity
8
0
100
AcDbSpline
70
0
71
3
72
8
73
4
74
0
42
0.000000001
43
0.0000000001
44
0.0000000001
40
0
40
0
40
0
40
0
40
1
40
1
40
1
40
1
10
320.54856083428905
20
-356.19857171677614
30
0
10
320.52679418887533
20
-356.2359420598944
30
0
10
320.51201362188937
20
-356.28665123307121
30
0
10
320.46417481962601
20
-356.29876875757481
30
0
0
SPLINE
5
403
100
AcDbEntity
8
0
100
AcDbSpline
70
0
71
3
72
8
73
4
74
0
42
0.000000001
43
0.0000000001
44
0.0000000001
40
0
40
0
40
0
40
0
40
1
40
1
40
1
40
1
10
308.77047905760537
20
-360.8971173222273
30
0
10
308.73824204781795
20
-360.84254465068642
30
0
10
308.72102625697704
20
-360.78329564908256
30
0
10
308.72102625697704
20
-360.71987716218683
30
0
0
SPLINE
5
404
100
AcDbEntity
8
0
100
AcDbSpline
70
0
71
3
72
8
73
4
74
0
42
0.000000001
43
0.0000000001
44
0.0000000001
40
0
40
0
40
0
40
0
40
1
40
1
40
1
40
1
10
317.03256808934691
20
-358.05050209491839
30
0
10
316.9635782821926
20
-357.67395440883547
30
0
10
316.75990916628314
20
-357.33868096946367
30
0
10
316.52913772195626
20
-357.03974123105377
30
0
0
SPLINE
5
405
100
AcDbEntity
8
0
100
AcDbSpline
70
0
71
3
72
8
73
4
74
0
42
0.000000001
43
0.0000000001
44
0.0000000001
40
0
40
0
40
0
40
0
40
1
40
1
40
1
40
1
10
320.29335147003997
20
-356.18707835240286
30
0
10
320.19706131649417
20
-356.24333335891021
30
0
10
320.09974356164173
20
-356.30040932129947
30
0
10
319.99174732313463
20
-356.33141150919221
30
0
0
SPLINE
5
406
100
AcDbEntity
8
0
100
AcDbSpline
70
0
71
3
72
8
73
4
74
0
42
0.000000001
43
0.0000000001
44
0.0000000001
40
0
40
0
40
0
40
0
40
1
40
1
40
1
40
1
10
315.37260586470182
20
-356.24066289322525
30
0
10
315.24736087130162
20
-355.9304319783505
30
0
10
315.2038421213237
20
-355.59372018113635
30
0
10
315.19234334681983
20
-355.26131671725318
30
0
0
LINE
5
407
100
AcDbEntity
8
0
100
AcDbLine
10
317.22412710395537
20
-355.38368494104714
30
0
11
317.22412710395537
21
-355.38368494104714
31
0
0
SPLINE
5
408
100
AcDbEntity
8
0
100
AcDbSpline
70
0
71
3
72
8
73
4
74
0
42
0.000000001
43
0.0000000001
44
0.0000000001
40
0
40
0
40
0
40
0
40
1
40
1
40
1
40
1
10
316.38129951941715
20
-345.9921166108611
30
0
10
316.30563409625302
20
-346.05327173991486
30
0
10
316.22128057832208
20
-346.1040159621113
30
0
10
316.13361356202682
20
-346.14656545391961
30
0
0
SPLINE
5
409
100
AcDbEntity
8
0
100
AcDbSpline
70
0
71
3
72
8
73
4
74
0
42
0.000000001
43
0.0000000001
44
0.0000000001
40
0
40
0
40
0
40
0
40
1
40
1
40
1
40
1
10
318.44307190072038
20
-355.55943010762434
30
0
10
318.26917058218152
20
-355.45061507009802
30
0
10
318.05933821300727
20
-355.38574070085002
30
0
10
317.85360988631464
20
-355.4224882318772
30
0
0
SPLINE
5
410
100
AcDbEntity
8
0
100
AcDbSpline
70
0
71
3
72
8
73
4
74
0
42
0.000000001
43
0.0000000001
44
0.0000000001
40
0
40
0
40
0
40
0
40
1
40
1
40
1
40
1
10
317.20071504187575
20
-355.05949373206187
30
0
10
317.19024563011641
20
-355.16769810782387
30
0
10
317.18716631312452
20
-355.27979427279939
30
0
10
317.22412710395537
20
-355.38368494104714
30
0
0
LINE
5
411
100
AcDbEntity
8
0
100
AcDbLine
10
316.16715696560453
20
-347.25548783734206
30
0
11
316.16715696560453
21
-347.40672430295137
31
0
0
LINE
5
412
100
AcDbEntity
8
0
100
AcDbLine
10
316.37628885765497
20
-346.3301939718001
30
0
11
316.37628885765497
21
-347.06263740116577
31
0
0
SPLINE
5
413
100
AcDbEntity
8
0
100
AcDbSpline
70
0
71
3
72
8
73
4
74
0
42
0.000000001
43
0.0000000001
44
0.0000000001
40
0
40
0
40
0
40
0
40
1
40
1
40
1
40
1
10
312.68990604090413
20
-365.03212268286734
30
0
10
312.72025714382988
20
-364.90805188554481
30
0
10
312.76358310622618
20
-364.78770300652121
30
0
10
312.8207210784193
20
-364.67342301801727
30
0
0
SPLINE
5
414
100
AcDbEntity
8
0
100
AcDbSpline
70
0
71
3
72
8
73
4
74
0
42
0.000000001
43
0.0000000001
44
0.0000000001
40
0
40
0
40
0
40
0
40
1
40
1
40
1
40
1
10
308.53888327831163
20
-356.79611420176604
30
0
10
308.47048245645101
20
-356.94752997456476
30
0
10
308.38407450878248
20
-357.06065738953987
30
0
10
308.27957183073119
20
-357.13497207741057
30
0
0
SPLINE
5
415
100
AcDbEntity
8
0
100
AcDbSpline
70
0
71
3
72
8
73
4
74
0
42
0.000000001
43
0.0000000001
44
0.0000000001
40
0
40
0
40
0
40
0
40
1
40
1
40
1
40
1
10
308.98835314572983
20
-360.91349463267647
30
0
10
309.05805349536746
20
-360.91349463267647
30
0
10
309.10538043815387
20
-360.89283460164125
30
0
10
309.12990666363163
20
-360.85153202813279
30
0
0
SPLINE
5
416
100
AcDbEntity
8
0
100
AcDbSpline
70
0
71
3
72
8
73
4
74
0
42
0.000000001
43
0.0000000001
44
0.0000000001
40
0
40
0
40
0
40
0
40
1
40
1
40
1
40
1
10
308.98835314572983
20
-361.73185127931856
30
0
10
309.05030631399893
20
-361.73185127931856
30
0
10
309.096340487178
20
-361.71593363226793
30
0
10
309.12646511951561
20
-361.68366293947395
30
0
0
LINE
5
417
100
AcDbEntity
8
0
100
AcDbLine
10
317.85360988631464
20
-355.4224882318772
30
0
11
317.85360988631464
21
-355.4224882318772
31
0
0
LINE
5
418
100
AcDbEntity
8
0
100
AcDbLine
10
318.45004839908279
20
-356.89129923276329
30
0
11
318.45004839908279
21
-356.89129923276329
31
0
0
SPLINE
5
419
100
AcDbEntity
8
0
100
AcDbSpline
70
0
71
3
72
8
73
4
74
0
42
0.000000001
43
0.0000000001
44
0.0000000001
40
0
40
0
40
0
40
0
40
1
40
1
40
1
40
1
10
315.19234334681983
20
-355.26131671725318
30
0
10
315.18392888603967
20
-354.95909448538094
30
0
10
315.20034935171765
20
-354.65235634011225
30
0
10
315.29130294154066
20
-354.36204133862611
30
0
0
LINE
5
420
100
AcDbEntity
8
0
100
AcDbLine
10
309.02685177969715
20
-361.00125331563834
30
0
11
309.02685177969715
21
-361.1872961537789
31
0
0
SPLINE
5
421
100
AcDbEntity
8
0
100
AcDbSpline
70
0
71
3
72
8
73
4
74
0
42
0.000000001
43
0.0000000001
44
0.0000000001
40
0
40
0
40
0
40
0
40
1
40
1
40
1
40
1
10
308.85056200527708
20
-361.7945148642541
30
0
10
308.80059829778622
20
-361.7711425603444
30
0
10
308.76573395956865
20
-361.7295407401042
30
0
10
308.74421655761876
20
-361.67943414045646
30
0
0
SPLINE
5
422
100
AcDbEntity
8
0
100
AcDbSpline
70
0
71
3
72
8
73
4
74
0
42
0.000000001
43
0.0000000001
44
0.0000000001
40
0
40
0
40
0
40
0
40
1
40
1
40
1
40
1
10
319.46081089856824
20
-356.44186712841707
30
0
10
319.65113403082438
20
-356.50654468393952
30
0
10
319.85500981013229
20
-356.50695179178251
30
0
10
320.05334784434507
20
-356.49566196335689
30
0
0
SPLINE
5
423
100
AcDbEntity
8
0
100
AcDbSpline
70
0
71
3
72
8
73
4
74
0
42
0.000000001
43
0.0000000001
44
0.0000000001
40
0
40
0
40
0
40
0
40
1
40
1
40
1
40
1
10
318.68883528458224
20
-355.94890953389665
30
0
10
318.92186334655509
20
-356.14621523967861
30
0
10
319.16577466832626
20
-356.34660795526287
30
0
10
319.46081089856824
20
-356.44186712841707
30
0
0
SPLINE
5
424
100
AcDbEntity
8
0
100
AcDbSpline
70
0
71
3
72
8
73
4
74
0
42
0.000000001
43
0.0000000001
44
0.0000000001
40
0
40
0
40
0
40
0
40
1
40
1
40
1
40
1
10
315.29130294154066
20
-354.36204133862611
30
0
10
315.01618568024276
20
-354.64558109501775
30
0
10
314.96259709530267
20
-355.07078490852683
30
0
10
314.99708935672305
20
-355.4481535504915
30
0
0
SPLINE
5
425
100
AcDbEntity
8
0
100
AcDbSpline
70
0
71
3
72
8
73
4
74
0
42
0.000000001
43
0.0000000001
44
0.0000000001
40
0
40
0
40
0
40
0
40
1
40
1
40
1
40
1
10
308.81065465235628
20
-360.71987311806913
30
0
10
308.81065465235628
20
-360.76633868177095
30
0
10
308.82312671117336
20
-360.8097967520103
30
0
10
308.84765293665106
20
-360.85153202813279
30
0
0
SPLINE
5
426
100
AcDbEntity
8
0
100
AcDbSpline
70
0
71
3
72
8
73
4
74
0
42
0.000000001
43
0.0000000001
44
0.0000000001
40
0
40
0
40
0
40
0
40
1
40
1
40
1
40
1
10
308.41907902510462
20
-361.24474956714835
30
0
10
308.36645428820322
20
-361.27063057203708
30
0
10
308.32192048267035
20
-361.30626462267259
30
0
10
308.28601680621807
20
-361.35260347068817
30
0
0
SPLINE
5
427
100
AcDbEntity
8
0
100
AcDbSpline
70
0
71
3
72
8
73
4
74
0
42
0.000000001
43
0.0000000001
44
0.0000000001
40
0
40
0
40
0
40
0
40
1
40
1
40
1
40
1
10
308.71542650207795
20
-361.50250672551391
30
0
10
308.71542650207795
20
-361.3392740589303
30
0
10
308.78355773406935
20
-361.20819884984672
30
0
10
308.94369799869372
20
-361.18798095770006
30
0
0
SPLINE
5
428
100
AcDbEntity
8
0
100
AcDbSpline
70
0
71
3
72
8
73
4
74
0
42
0.000000001
43
0.0000000001
44
0.0000000001
40
0
40
0
40
0
40
0
40
1
40
1
40
1
40
1
10
307.9630981462517
20
-357.28220488452519
30
0
10
307.85713286362596
20
-357.30555966392501
30
0
10
307.75310065126058
20
-357.31725119006279
30
0
10
307.65153536863261
20
-357.31725119006279
30
0
0
SPLINE
5
429
100
AcDbEntity
8
0
100
AcDbSpline
70
0
71
3
72
8
73
4
74
0
42
0.000000001
43
0.0000000001
44
0.0000000001
40
0
40
0
40
0
40
0
40
1
40
1
40
1
40
1
10
315.40689187612224
20
-355.25967480548945
30
0
10
315.35597240882799
20
-355.66434528567555
30
0
10
315.42886491532681
20
-356.093249448856
30
0
10
315.65593665704125
20
-356.43694408920373
30
0
0
LINE
5
430
100
AcDbEntity
8
0
100
AcDbLine
10
316.13361356202682
20
-346.3301939718001
30
0
11
316.37628885765497
21
-346.3301939718001
31
0
0
SPLINE
5
431
100
AcDbEntity
8
0
100
AcDbSpline
70
0
71
3
72
8
73
4
74
0
42
0.000000001
43
0.0000000001
44
0.0000000001
40
0
40
0
40
0
40
0
40
1
40
1
40
1
40
1
10
314.97429807568886
20
-354.22427850699694
30
0
10
315.18146064421086
20
-353.7996934614614
30
0
10
315.54609845775082
20
-353.4695466152242
30
0
10
315.94830741833033
20
-353.2320006088093
30
0
0
SPLINE
5
432
100
AcDbEntity
8
0
100
AcDbSpline
70
0
71
3
72
8
73
4
74
0
42
0.000000001
43
0.0000000001
44
0.0000000001
40
0
40
0
40
0
40
0
40
1
40
1
40
1
40
1
10
317.22412710395537
20
-355.38368494104714
30
0
10
317.26970497484717
20
-355.52104066483349
30
0
10
317.37092125910931
20
-355.62780263863539
30
0
10
317.45961371984856
20
-355.73825823988631
30
0
0
SPLINE
5
433
100
AcDbEntity
8
0
100
AcDbSpline
70
0
71
3
72
8
73
4
74
0
42
0.000000001
43
0.0000000001
44
0.0000000001
40
0
40
0
40
0
40
0
40
1
40
1
40
1
40
1
10
320.46417481962601
20
-356.29876875757481
30
0
10
320.38841341606997
20
-356.30718456639403
30
0
10
320.33216083603315
20
-356.24312306479271
30
0
10
320.29335147003997
20
-356.18707835240286
30
0
0
SPLINE
5
434
100
AcDbEntity
8
0
100
AcDbSpline
70
0
71
3
72
8
73
4
74
0
42
0.000000001
43
0.0000000001
44
0.0000000001
40
0
40
0
40
0
40
0
40
1
40
1
40
1
40
1
10
316.37628885765497
20
-347.06263740116577
30
0
10
316.3762851834793
20
-347.11608713794033
30
0
10
316.36723046870048
20
-347.17423956137179
30
0
10
316.32595627897115
20
-347.21236869154359
30
0
0
LINE
5
435
100
AcDbEntity
8
0
100
AcDbLine
10
309.30661837432592
20
-361.01524596268996
30
0
11
309.37293379749474
21
-360.99733591367948
31
0
0
SPLINE
5
436
100
AcDbEntity
8
0
100
AcDbSpline
70
0
71
3
72
8
73
4
74
0
42
0.000000001
43
0.0000000001
44
0.0000000001
40
0
40
0
40
0
40
0
40
1
40
1
40
1
40
1
10
312.344154310688
20
-364.77248905391446
30
0
10
312.27145996595385
20
-364.89224477770966
30
0
10
312.21094515552704
20
-365.01913162895238
30
0
10
312.16055410163113
20
-365.14977546548721
30
0
0
SPLINE
5
437
100
AcDbEntity
8
0
100
AcDbSpline
70
0
71
3
72
8
73
4
74
0
42
0.000000001
43
0.0000000001
44
0.0000000001
40
0
40
0
40
0
40
0
40
1
40
1
40
1
40
1
10
320.05334784434507
20
-356.49566196335689
30
0
10
320.19480065473056
20
-356.48190791924617
30
0
10
320.34365583602738
20
-356.4683547329787
30
0
10
320.46807685393787
20
-356.39341725099069
30
0
0
SPLINE
5
438
100
AcDbEntity
8
0
100
AcDbSpline
70
0
71
3
72
8
73
4
74
0
42
0.000000001
43
0.0000000001
44
0.0000000001
40
0
40
0
40
0
40
0
40
1
40
1
40
1
40
1
10
309.1720760083814
20
-361.50252290198438
30
0
10
309.1720760083814
20
-361.35063533343435
30
0
10
309.11098019305297
20
-361.27491733674077
30
0
10
308.98835314572983
20
-361.27491733674077
30
0
0
LINE
5
439
100
AcDbEntity
8
0
100
AcDbLine
10
315.25065276509082
20
-353.49500298776036
30
0
11
315.25065276509082
21
-353.49500298776036
31
0
0
SPLINE
5
440
100
AcDbEntity
8
0
100
AcDbSpline
70
0
71
3
72
8
73
4
74
0
42
0.000000001
43
0.0000000001
44
0.0000000001
40
0
40
0
40
0
40
0
40
1
40
1
40
1
40
1
10
308.32832081884283
20
-360.95479317142372
30
0
10
308.24355616265456
20
-360.89069570944508
30
0
10
308.20139900808067
20
-360.79430912935311
30
0
10
308.2014044647579
20
-360.66609041548219
30
0
0
SPLINE
5
441
100
AcDbEntity
8
0
100
AcDbSpline
70
0
71
3
72
8
73
4
74
0
42
0.000000001
43
0.0000000001
44
0.0000000001
40
0
40
0
40
0
40
0
40
1
40
1
40
1
40
1
10
319.38648515677602
20
-356.27104767915762
30
0
10
319.0329333840802
20
-356.08831966944666
30
0
10
318.78019335806516
20
-355.76618152418581
30
0
10
318.44307190072038
20
-355.55943010762434
30
0
0
SPLINE
5
442
100
AcDbEntity
8
0
100
AcDbSpline
70
0
71
3
72
8
73
4
74
0
42
0.000000001
43
0.0000000001
44
0.0000000001
40
0
40
0
40
0
40
0
40
1
40
1
40
1
40
1
10
317.57623579168461
20
-359.56735719545327
30
0
10
317.58752319363958
20
-359.4187116612153
30
0
10
317.58835062010968
20
-359.26924380508211
30
0
10
317.60991035049096
20
-359.121417860713
30
0
0
SPLINE
5
443
100
AcDbEntity
8
0
100
AcDbSpline
70
0
71
3
72
8
73
4
74
0
42
0.000000001
43
0.0000000001
44
0.0000000001
40
0
40
0
40
0
40
0
40
1
40
1
40
1
40
1
10
308.27957183073119
20
-357.13497207741057
30
0
10
308.17505434222227
20
-357.20975857900652
30
0
10
308.06956491743932
20
-357.25836076689018
30
0
10
307.9630981462517
20
-357.28220488452519
30
0
0
SPLINE
5
444
100
AcDbEntity
8
0
100
AcDbSpline
70
0
71
3
72
8
73
4
74
0
42
0.000000001
43
0.0000000001
44
0.0000000001
40
0
40
0
40
0
40
0
40
1
40
1
40
1
40
1
10
308.86658345134737
20
-360.56842231422473
30
0
10
308.82915379450367
20
-360.5950946001588
30
0
10
308.81065465235628
20
-360.64543710666908
30
0
10
308.81065465235628
20
-360.71987311806913
30
0
0
SPLINE
5
445
100
AcDbEntity
8
0
100
AcDbSpline
70
0
71
3
72
8
73
4
74
0
42
0.000000001
43
0.0000000001
44
0.0000000001
40
0
40
0
40
0
40
0
40
1
40
1
40
1
40
1
10
317.58855268220123
20
-358.17245916675165
30
0
10
317.47009269369937
20
-358.62722548024561
30
0
10
317.4641363914148
20
-359.11073869405175
30
0
10
317.57623579168461
20
-359.56735719545327
30
0
0
SPLINE
5
446
100
AcDbEntity
8
0
100
AcDbSpline
70
0
71
3
72
8
73
4
74
0
42
0.000000001
43
0.0000000001
44
0.0000000001
40
0
40
0
40
0
40
0
40
1
40
1
40
1
40
1
10
316.51682070562265
20
-357.36044101847222
30
0
10
316.75210524145047
20
-357.61174511311555
30
0
10
316.94941364331089
20
-357.90677958191964
30
0
10
317.04837343574417
20
-358.2389794918812
30
0
0
SPLINE
5
447
100
AcDbEntity
8
0
100
AcDbSpline
70
0
71
3
72
8
73
4
74
0
42
0.000000001
43
0.0000000001
44
0.0000000001
40
0
40
0
40
0
40
0
40
1
40
1
40
1
40
1
10
308.26994819674906
20
-361.68596673849231
30
0
10
308.29076594837244
20
-361.74467113225336
30
0
10
308.32907587482362
20
-361.79402687405832
30
0
10
308.37447916565014
20
-361.83592930704356
30
0
0
LINE
5
448
100
AcDbEntity
8
0
100
AcDbLine
10
312.08589433369536
20
-365.41599696208351
30
0
11
312.64273547066676
21
-365.41599696208351
31
0
0
SPLINE
5
449
100
AcDbEntity
8
0
100
AcDbSpline
70
0
71
3
72
8
73
4
74
0
42
0.000000001
43
0.0000000001
44
0.0000000001
40
0
40
0
40
0
40
0
40
1
40
1
40
1
40
1
10
308.59687727338013
20
-361.18539811456418
30
0
10
308.53493893354238
20
-361.19662458514676
30
0
10
308.47552680121959
20
-361.21699345768542
30
0
10
308.41907902510462
20
-361.24474956714835
30
0
0
SPLINE
5
450
100
AcDbEntity
8
0
100
AcDbSpline
70
0
71
3
72
8
73
4
74
0
42
0.000000001
43
0.0000000001
44
0.0000000001
40
0
40
0
40
0
40
0
40
1
40
1
40
1
40
1
10
309.37799298866872
20
-361.95160318606963
30
0
10
309.45621564222364
20
-361.92789522039533
30
0
10
309.54181474838919
20
-361.89212634786446
30
0
10
309.6026571323452
20
-361.83598053253365
30
0
0
SPLINE
5
451
100
AcDbEntity
8
0
100
AcDbSpline
70
0
71
3
72
8
73
4
74
0
42
0.000000001
43
0.0000000001
44
0.0000000001
40
0
40
0
40
0
40
0
40
1
40
1
40
1
40
1
10
316.57563227748813
20
-345.77882990018526
30
0
10
316.52141845398626
20
-345.85893441648443
30
0
10
316.45688945238516
20
-345.93101405533656
30
0
10
316.38129951941715
20
-345.9921166108611
30
0
0
SPLINE
5
452
100
AcDbEntity
8
0
100
AcDbSpline
70
0
71
3
72
8
73
4
74
0
42
0.000000001
43
0.0000000001
44
0.0000000001
40
0
40
0
40
0
40
0
40
1
40
1
40
1
40
1
10
318.45004839908279
20
-356.89129923276329
30
0
10
318.00328609538872
20
-357.17915136660378
30
0
10
317.7195463438992
20
-357.66635820785899
30
0
10
317.58855268220123
20
-358.17245916675165
30
0
0
LINE
5
453
100
AcDbEntity
8
0
100
AcDbLine
10
316.82951946690127
20
-345.77882990018526
30
0
11
316.57563227748813
21
-345.77882990018526
31
0
0
SPLINE
5
454
100
AcDbEntity
8
0
100
AcDbSpline
70
0
71
3
72
8
73
4
74
0
42
0.000000001
43
0.0000000001
44
0.0000000001
40
0
40
0
40
0
40
0
40
1
40
1
40
1
40
1
10
317.85360988631464
20
-355.4224882318772
30
0
10
318.18109403157268
20
-355.50543171876296
30
0
10
318.43773596608253
20
-355.73620922027948
30
0
10
318.68883528458224
20
-355.94890953389665
30
0
0
SPLINE
5
455
100
AcDbEntity
8
0
100
AcDbSpline
70
0
71
3
72
8
73
4
74
0
42
0.000000001
43
0.0000000001
44
0.0000000001
40
0
40
0
40
0
40
0
40
1
40
1
40
1
40
1
10
319.99174732313463
20
-356.33141150919221
30
0
10
319.79239380199425
20
-356.39567521667578
30
0
10
319.57065490341427
20
-356.36775060231093
30
0
10
319.38648515677602
20
-356.27104767915762
30
0
0
SPLINE
5
456
100
AcDbEntity
8
0
100
AcDbSpline
70
0
71
3
72
8
73
4
74
0
42
0.000000001
43
0.0000000001
44
0.0000000001
40
0
40
0
40
0
40
0
40
1
40
1
40
1
40
1
10
317.02498497333772
20
-347.25550940596946
30
0
10
316.96651190310604
20
-347.25550940596946
30
0
10
316.90094449791081
20
-347.24534788636686
30
0
10
316.8639415044654
20
-347.19461040436653
30
0
0
SPLINE
5
457
100
AcDbEntity
8
0
100
AcDbSpline
70
0
71
3
72
8
73
4
74
0
42
0.000000001
43
0.0000000001
44
0.0000000001
40
0
40
0
40
0
40
0
40
1
40
1
40
1
40
1
10
320.22457264000963
20
-355.9193443558072
30
0
10
320.34283110563558
20
-356.03226821686081
30
0
10
320.50749607287207
20
-356.14662908771766
30
0
10
320.67893398454947
20
-356.09489001258049
30
0
0
SPLINE
5
458
100
AcDbEntity
8
0
100
AcDbSpline
70
0
71
3
72
8
73
4
74
0
42
0.000000001
43
0.0000000001
44
0.0000000001
40
0
40
0
40
0
40
0
40
1
40
1
40
1
40
1
10
319.98928445548876
20
-353.00061377559365
30
0
10
319.94781594734002
20
-352.79098564334748
30
0
10
319.93610971858772
20
-352.55426194085368
30
0
10
320.05478093584765
20
-352.3666041517335
30
0
0
SPLINE
5
459
100
AcDbEntity
8
0
100
AcDbSpline
70
0
71
3
72
8
73
4
74
0
42
0.000000001
43
0.0000000001
44
0.0000000001
40
0
40
0
40
0
40
0
40
1
40
1
40
1
40
1
10
306.92013666965852
20
-356.87182545826346
30
0
10
306.94971669415327
20
-356.93529112653181
30
0
10
306.99602721537161
20
-356.99127922127457
30
0
10
307.04614190325452
20
-357.03960777517159
30
0
0
SPLINE
5
460
100
AcDbEntity
8
0
100
AcDbSpline
70
0
71
3
72
8
73
4
74
0
42
0.000000001
43
0.0000000001
44
0.0000000001
40
0
40
0
40
0
40
0
40
1
40
1
40
1
40
1
10
317.49842173780263
20
-353.28168662022188
30
0
10
317.35367755486971
20
-353.16855920524677
30
0
10
317.2354145059104
20
-353.02648399616885
30
0
10
317.09929182460712
20
-352.90390952237505
30
0
0
SPLINE
5
461
100
AcDbEntity
8
0
100
AcDbSpline
70
0
71
3
72
8
73
4
74
0
42
0.000000001
43
0.0000000001
44
0.0000000001
40
0
40
0
40
0
40
0
40
1
40
1
40
1
40
1
10
317.09929182460712
20
-352.90390952237505
30
0
10
317.25471276570448
20
-353.20038234902148
30
0
10
317.46824021821016
20
-353.48043068384629
30
0
10
317.76574039452925
20
-353.64529582591916
30
0
0
SPLINE
5
462
100
AcDbEntity
8
0
100
AcDbSpline
70
0
71
3
72
8
73
4
74
0
42
0.000000001
43
0.0000000001
44
0.0000000001
40
0
40
0
40
0
40
0
40
1
40
1
40
1
40
1
10
320.52473950750374
20
-353.69662105301722
30
0
10
320.47936882125236
20
-353.77833917225661
30
0
10
320.40257954678168
20
-353.84157297778
30
0
10
320.30957039486822
20
-353.85984699737844
30
0
0
SPLINE
5
463
100
AcDbEntity
8
0
100
AcDbSpline
70
0
71
3
72
8
73
4
74
0
42
0.000000001
43
0.0000000001
44
0.0000000001
40
0
40
0
40
0
40
0
40
1
40
1
40
1
40
1
10
318.36669647428874
20
-352.82424716293838
30
0
10
318.24186619167244
20
-352.76757830839216
30
0
10
318.19628346783946
20
-352.61975236402287
30
0
10
318.19052935346332
20
-352.49287225297644
30
0
0
SPLINE
5
464
100
AcDbEntity
8
0
100
AcDbSpline
70
0
71
3
72
8
73
4
74
0
42
0.000000001
43
0.0000000001
44
0.0000000001
40
0
40
0
40
0
40
0
40
1
40
1
40
1
40
1
10
307.995584543294
20
-356.52361894863679
30
0
10
307.99557758888022
20
-356.66861129643547
30
0
10
307.96907220320418
20
-356.84221721968675
30
0
10
307.83872748254981
20
-356.92963262311662
30
0
0
SPLINE
5
465
100
AcDbEntity
8
0
100
AcDbSpline
70
0
71
3
72
8
73
4
74
0
42
0.000000001
43
0.0000000001
44
0.0000000001
40
0
40
0
40
0
40
0
40
1
40
1
40
1
40
1
10
318.60916929442675
20
-353.72844421476572
30
0
10
318.40713614093477
20
-353.61798996155403
30
0
10
318.16959013451981
20
-353.61737255959343
30
0
10
317.95668335521628
20
-353.53832760211731
30
0
0
SPLINE
5
466
100
AcDbEntity
8
0
100
AcDbSpline
70
0
71
3
72
8
73
4
74
0
42
0.000000001
43
0.0000000001
44
0.0000000001
40
0
40
0
40
0
40
0
40
1
40
1
40
1
40
1
10
320.70582790610433
20
-353.0392108164238
30
0
10
320.65943366266396
20
-353.26115328689906
30
0
10
320.64217929992765
20
-353.49705739952407
30
0
10
320.52473950750374
20
-353.69662105301722
30
0
0
SPLINE
5
467
100
AcDbEntity
8
0
100
AcDbSpline
70
0
71
3
72
8
73
4
74
0
42
0.000000001
43
0.0000000001
44
0.0000000001
40
0
40
0
40
0
40
0
40
1
40
1
40
1
40
1
10
314.78561712480462
20
-355.47813122858076
30
0
10
314.74455180619805
20
-355.05415549677042
30
0
10
314.78622374245134
20
-354.611499985558
30
0
10
314.97429807568886
20
-354.22427850699694
30
0
0
SPLINE
5
468
100
AcDbEntity
8
0
100
AcDbSpline
70
0
71
3
72
8
73
4
74
0
42
0.000000001
43
0.0000000001
44
0.0000000001
40
0
40
0
40
0
40
0
40
1
40
1
40
1
40
1
10
317.50643286524951
20
-352.57499882809793
30
0
10
317.62776996486093
20
-352.58403067286457
30
0
10
317.75506392394652
20
-352.57294306829522
30
0
10
317.86922260689494
20
-352.62406474147173
30
0
0
SPLINE
5
469
100
AcDbEntity
8
0
100
AcDbSpline
70
0
71
3
72
8
73
4
74
0
42
0.000000001
43
0.0000000001
44
0.0000000001
40
0
40
0
40
0
40
0
40
1
40
1
40
1
40
1
10
307.65153132451491
20
-357.22762549076208
30
0
10
307.74982896008584
20
-357.22762549076208
30
0
10
307.84773029010137
20
-357.21602561331702
30
0
10
307.94365809070598
20
-357.19471311332779
30
0
0
SPLINE
5
470
100
AcDbEntity
8
0
100
AcDbSpline
70
0
71
3
72
8
73
4
74
0
42
0.000000001
43
0.0000000001
44
0.0000000001
40
0
40
0
40
0
40
0
40
1
40
1
40
1
40
1
10
320.86659083902913
20
-355.73333521864691
30
0
10
320.86125380798609
20
-355.65079614352555
30
0
10
320.95836572623722
20
-355.63786440333604
30
0
10
321.01256686019661
20
-355.60398682982384
30
0
0
SPLINE
5
471
100
AcDbEntity
8
0
100
AcDbSpline
70
0
71
3
72
8
73
4
74
0
42
0.000000001
43
0.0000000001
44
0.0000000001
40
0
40
0
40
0
40
0
40
1
40
1
40
1
40
1
10
317.45961371984856
20
-355.73825823988631
30
0
10
317.67026891418567
20
-355.69494171376448
30
0
10
317.8852301591744
20
-355.74400762713833
30
0
10
318.08664745645746
20
-355.80724682481849
30
0
0
SPLINE
5
472
100
AcDbEntity
8
0
100
AcDbSpline
70
0
71
3
72
8
73
4
74
0
42
0.000000001
43
0.0000000001
44
0.0000000001
40
0
40
0
40
0
40
0
40
1
40
1
40
1
40
1
10
320.50298188496583
20
-352.07772616005053
30
0
10
320.30115553866335
20
-352.06438191986115
30
0
10
320.07736666786224
20
-352.04959933980336
30
0
10
319.90202657808226
20
-352.16950199987303
30
0
0
SPLINE
5
473
100
AcDbEntity
8
0
100
AcDbSpline
70
0
71
3
72
8
73
4
74
0
42
0.000000001
43
0.0000000001
44
0.0000000001
40
0
40
0
40
0
40
0
40
1
40
1
40
1
40
1
10
307.83872748254981
20
-356.92963262311662
30
0
10
307.78530378512158
20
-356.9654654897123
30
0
10
307.72359613493126
20
-356.98015580791161
30
0
10
307.65979750098126
20
-356.98015656768536
30
0
0
SPLINE
5
474
100
AcDbEntity
8
0
100
AcDbSpline
70
0
71
3
72
8
73
4
74
0
42
0.000000001
43
0.0000000001
44
0.0000000001
40
0
40
0
40
0
40
0
40
1
40
1
40
1
40
1
10
306.88685225137482
20
-356.78992130961228
30
0
10
306.89652845888628
20
-356.8177219223432
30
0
10
306.90764573829233
20
-356.84503050076074
30
0
10
306.92013666965852
20
-356.87182545826346
30
0
0
SPLINE
5
475
100
AcDbEntity
8
0
100
AcDbSpline
70
0
71
3
72
8
73
4
74
0
42
0.000000001
43
0.0000000001
44
0.0000000001
40
0
40
0
40
0
40
0
40
1
40
1
40
1
40
1
10
320.50256803692679
20
-352.71111972998949
30
0
10
320.57463823950445
20
-352.62180677578658
30
0
10
320.62739966758227
20
-352.51894600949913
30
0
10
320.67462282932286
20
-352.41464690334305
30
0
0
SPLINE
5
476
100
AcDbEntity
8
0
100
AcDbSpline
70
0
71
3
72
8
73
4
74
0
42
0.000000001
43
0.0000000001
44
0.0000000001
40
0
40
0
40
0
40
0
40
1
40
1
40
1
40
1
10
320.47053972158363
20
-354.15221641062834
30
0
10
320.71013999597159
20
-353.84157297778
30
0
10
320.78343664462693
20
-353.41965839792948
30
0
10
320.70582790610433
20
-353.0392108164238
30
0
0
SPLINE
5
477
100
AcDbEntity
8
0
100
AcDbSpline
70
0
71
3
72
8
73
4
74
0
42
0.000000001
43
0.0000000001
44
0.0000000001
40
0
40
0
40
0
40
0
40
1
40
1
40
1
40
1
10
307.65979750098126
20
-356.98015656768536
30
0
10
307.58284874448458
20
-356.98015656768536
30
0
10
307.51335060072915
20
-356.95393181279672
30
0
10
307.45702145206485
20
-356.90136638962099
30
0
0
LINE
5
478
100
AcDbEntity
8
0
100
AcDbLine
10
317.09929182460712
20
-352.90390952237505
30
0
11
317.09929182460712
21
-352.90390952237505
31
0
0
LINE
5
479
100
AcDbEntity
8
0
100
AcDbLine
10
315.8690494706583
20
-354.06906128158579
30
0
11
315.8690494706583
21
-354.06906128158579
31
0
0
SPLINE
5
480
100
AcDbEntity
8
0
100
AcDbSpline
70
0
71
3
72
8
73
4
74
0
42
0.000000001
43
0.0000000001
44
0.0000000001
40
0
40
0
40
0
40
0
40
1
40
1
40
1
40
1
10
318.71161727313273
20
-353.93991781269716
30
0
10
318.80544806393453
20
-353.98570259862169
30
0
10
318.88839559493817
20
-354.04996630610526
30
0
10
318.97462477463279
20
-354.10807217045476
30
0
0
SPLINE
5
481
100
AcDbEntity
8
0
100
AcDbSpline
70
0
71
3
72
8
73
4
74
0
42
0.000000001
43
0.0000000001
44
0.0000000001
40
0
40
0
40
0
40
0
40
1
40
1
40
1
40
1
10
317.60991035049096
20
-359.121417860713
30
0
10
317.71359004161468
20
-358.3250045964125
30
0
10
318.0496913747769
20
-357.58012550528849
30
0
10
318.45004839908279
20
-356.89129923276329
30
0
0
SPLINE
5
482
100
AcDbEntity
8
0
100
AcDbSpline
70
0
71
3
72
8
73
4
74
0
42
0.000000001
43
0.0000000001
44
0.0000000001
40
0
40
0
40
0
40
0
40
1
40
1
40
1
40
1
10
318.32686340731561
20
-352.98479992756256
30
0
10
318.42705491216645
20
-353.03304759910668
30
0
10
318.5418294872714
20
-353.00984919225579
30
0
10
318.64017351336514
20
-352.96940129358353
30
0
0
SPLINE
5
483
100
AcDbEntity
8
0
100
AcDbSpline
70
0
71
3
72
8
73
4
74
0
42
0.000000001
43
0.0000000001
44
0.0000000001
40
0
40
0
40
0
40
0
40
1
40
1
40
1
40
1
10
320.44323006473479
20
-355.83557856500011
30
0
10
320.37055405333393
20
-355.86534866302418
30
0
10
320.27302923965806
20
-355.84379081989783
30
0
10
320.22457264000963
20
-355.9193443558072
30
0
0
SPLINE
5
484
100
AcDbEntity
8
0
100
AcDbSpline
70
0
71
3
72
8
73
4
74
0
42
0.000000001
43
0.0000000001
44
0.0000000001
40
0
40
0
40
0
40
0
40
1
40
1
40
1
40
1
10
318.64017351336514
20
-352.96940129358353
30
0
10
318.75145021428887
20
-353.05665983602273
30
0
10
318.76766940872511
20
-353.2381584339696
30
0
10
318.91200028283458
20
-353.28353073786803
30
0
0
SPLINE
5
485
100
AcDbEntity
8
0
100
AcDbSpline
70
0
71
3
72
8
73
4
74
0
42
0.000000001
43
0.0000000001
44
0.0000000001
40
0
40
0
40
0
40
0
40
1
40
1
40
1
40
1
10
308.46212730939629
20
-355.7523196369379
30
0
10
308.40951199079575
20
-355.65012751607486
30
0
10
308.33814278658366
20
-355.55697937233163
30
0
10
308.23997858892125
20
-355.49493858151345
30
0
0
SPLINE
5
486
100
AcDbEntity
8
0
100
AcDbSpline
70
0
71
3
72
8
73
4
74
0
42
0.000000001
43
0.0000000001
44
0.0000000001
40
0
40
0
40
0
40
0
40
1
40
1
40
1
40
1
10
315.25065276509082
20
-353.49500298776036
30
0
10
314.96711033059444
20
-353.7085296314425
30
0
10
314.78336050715865
20
-354.03374669827036
30
0
10
314.70184594184065
20
-354.37559587293293
30
0
0
SPLINE
5
487
100
AcDbEntity
8
0
100
AcDbSpline
70
0
71
3
72
8
73
4
74
0
42
0.000000001
43
0.0000000001
44
0.0000000001
40
0
40
0
40
0
40
0
40
1
40
1
40
1
40
1
10
320.40689584253107
20
-352.71707401920207
30
0
10
320.34550789811794
20
-352.76573284270683
30
0
10
320.26358421188513
20
-352.74048137213134
30
0
10
320.19808731812765
20
-352.71522316135992
30
0
0
SPLINE
5
488
100
AcDbEntity
8
0
100
AcDbSpline
70
0
71
3
72
8
73
4
74
0
42
0.000000001
43
0.0000000001
44
0.0000000001
40
0
40
0
40
0
40
0
40
1
40
1
40
1
40
1
10
320.05478093584765
20
-352.3666041517335
30
0
10
320.15620589658033
20
-352.2113869083484
30
0
10
320.33380179518264
20
-352.13480212243968
30
0
10
320.50298188496583
20
-352.07772616005053
30
0
0
SPLINE
5
489
100
AcDbEntity
8
0
100
AcDbSpline
70
0
71
3
72
8
73
4
74
0
42
0.000000001
43
0.0000000001
44
0.0000000001
40
0
40
0
40
0
40
0
40
1
40
1
40
1
40
1
10
318.65125883525496
20
-352.72015159273002
30
0
10
318.58453037287063
20
-352.80083981000917
30
0
10
318.47263290887525
20
-352.86859493905962
30
0
10
318.36669647428874
20
-352.82424716293838
30
0
0
SPLINE
5
490
100
AcDbEntity
8
0
100
AcDbSpline
70
0
71
3
72
8
73
4
74
0
42
0.000000001
43
0.0000000001
44
0.0000000001
40
0
40
0
40
0
40
0
40
1
40
1
40
1
40
1
10
320.67462282932286
20
-352.41464690334305
30
0
10
320.61220996170766
20
-352.42162570235905
30
0
10
320.55082257448396
20
-352.43353293274515
30
0
10
320.49045335229243
20
-352.45036992456664
30
0
0
SPLINE
5
491
100
AcDbEntity
8
0
100
AcDbSpline
70
0
71
3
72
8
73
4
74
0
42
0.000000001
43
0.0000000001
44
0.0000000001
40
0
40
0
40
0
40
0
40
1
40
1
40
1
40
1
10
323.01396184120381
20
-360.83886045951192
30
0
10
323.29544880347873
20
-360.68733955762809
30
0
10
323.49603941121984
20
-360.42269122279561
30
0
10
323.64468994218993
20
-360.14593276868817
30
0
0
SPLINE
5
492
100
AcDbEntity
8
0
100
AcDbSpline
70
0
71
3
72
8
73
4
74
0
42
0.000000001
43
0.0000000001
44
0.0000000001
40
0
40
0
40
0
40
0
40
1
40
1
40
1
40
1
10
318.91200028283458
20
-353.28353073786803
30
0
10
318.86395902305514
20
-353.08088679679463
30
0
10
318.78491810969666
20
-352.88214408120956
30
0
10
318.65125883525496
20
-352.72015159273002
30
0
0
LINE
5
493
100
AcDbEntity
8
0
100
AcDbLine
10
317.50643286524951
20
-352.57499882809793
30
0
11
317.50643286524951
21
-352.57499882809793
31
0
0
SPLINE
5
494
100
AcDbEntity
8
0
100
AcDbSpline
70
0
71
3
72
8
73
4
74
0
42
0.000000001
43
0.0000000001
44
0.0000000001
40
0
40
0
40
0
40
0
40
1
40
1
40
1
40
1
10
320.19808731812765
20
-352.71522316135992
30
0
10
320.15477131324764
20
-352.85339849298896
30
0
10
320.14655866292503
20
-353.00245789323975
30
0
10
320.17652800114513
20
-353.14433089643558
30
0
0
SPLINE
5
495
100
AcDbEntity
8
0
100
AcDbSpline
70
0
71
3
72
8
73
4
74
0
42
0.000000001
43
0.0000000001
44
0.0000000001
40
0
40
0
40
0
40
0
40
1
40
1
40
1
40
1
10
323.82331184242577
20
-358.83356572687262
30
0
10
323.6892435728862
20
-359.54436236049759
30
0
10
323.46442386548438
20
-360.26111326536159
30
0
10
323.01396184120381
20
-360.83886045951192
30
0
0
SPLINE
5
496
100
AcDbEntity
8
0
100
AcDbSpline
70
0
71
3
72
8
73
4
74
0
42
0.000000001
43
0.0000000001
44
0.0000000001
40
0
40
0
40
0
40
0
40
1
40
1
40
1
40
1
10
317.76574039452925
20
-353.64529582591916
30
0
10
318.05749073425
20
-353.81221674576881
30
0
10
318.41186547589973
20
-353.79414628009175
30
0
10
318.71161727313273
20
-353.93991781269716
30
0
0
SPLINE
5
497
100
AcDbEntity
8
0
100
AcDbSpline
70
0
71
3
72
8
73
4
74
0
42
0.000000001
43
0.0000000001
44
0.0000000001
40
0
40
0
40
0
40
0
40
1
40
1
40
1
40
1
10
316.18154239533573
20
-354.03826262964066
30
0
10
316.12610564863195
20
-353.75082840593075
30
0
10
316.12323297706484
20
-353.43977651720019
30
0
10
316.24724041654417
20
-353.16876141112903
30
0
0
SPLINE
5
498
100
AcDbEntity
8
0
100
AcDbSpline
70
0
71
3
72
8
73
4
74
0
42
0.000000001
43
0.0000000001
44
0.0000000001
40
0
40
0
40
0
40
0
40
1
40
1
40
1
40
1
10
317.95668335521628
20
-353.53832760211731
30
0
10
317.79325157425387
20
-353.47447639463354
30
0
10
317.63536253511847
20
-353.39255472147255
30
0
10
317.49842173780263
20
-353.28168662022188
30
0
0
SPLINE
5
499
100
AcDbEntity
8
0
100
AcDbSpline
70
0
71
3
72
8
73
4
74
0
42
0.000000001
43
0.0000000001
44
0.0000000001
40
0
40
0
40
0
40
0
40
1
40
1
40
1
40
1
10
307.94365809070598
20
-357.19471311332779
30
0
10
308.04691920666659
20
-357.17176545974479
30
0
10
308.14181306119337
20
-357.12314572937731
30
0
10
308.22752001049628
20
-357.06200947287243
30
0
0
SPLINE
5
500
100
AcDbEntity
8
0
100
AcDbSpline
70
0
71
3
72
8
73
4
74
0
42
0.000000001
43
0.0000000001
44
0.0000000001
40
0
40
0
40
0
40
0
40
1
40
1
40
1
40
1
10
320.47095261700832
20
-355.68713521867051
30
0
10
320.48922244869834
20
-355.73415482648966
30
0
10
320.49969186045774
20
-355.81012219246406
30
0
10
320.44323006473479
20
-355.83557856500011
30
0
0
SPLINE
5
501
100
AcDbEntity
8
0
100
AcDbSpline
70
0
71
3
72
8
73
4
74
0
42
0.000000001
43
0.0000000001
44
0.0000000001
40
0
40
0
40
0
40
0
40
1
40
1
40
1
40
1
10
308.22752001049628
20
-357.06200947287243
30
0
10
308.33201325227316
20
-356.98747235853142
30
0
10
308.40502303818363
20
-356.8745552376738
30
0
10
308.45722449077147
20
-356.75916850897443
30
0
0
SPLINE
5
502
100
AcDbEntity
8
0
100
AcDbSpline
70
0
71
3
72
8
73
4
74
0
42
0.000000001
43
0.0000000001
44
0.0000000001
40
0
40
0
40
0
40
0
40
1
40
1
40
1
40
1
10
323.97154945999745
20
-357.5380356948524
30
0
10
323.94341751720123
20
-357.97186426325902
30
0
10
323.90441173290742
20
-358.4059004117309
30
0
10
323.82331184242577
20
-358.83356572687262
30
0
0
SPLINE
5
503
100
AcDbEntity
8
0
100
AcDbSpline
70
0
71
3
72
8
73
4
74
0
42
0.000000001
43
0.0000000001
44
0.0000000001
40
0
40
0
40
0
40
0
40
1
40
1
40
1
40
1
10
320.17652800114513
20
-353.14433089643558
30
0
10
320.22251849785374
20
-353.10655344547439
30
0
10
320.21122746517966
20
-353.03551585890921
30
0
10
320.24612818248227
20
-352.98890875108992
30
0
0
SPLINE
5
504
100
AcDbEntity
8
0
100
AcDbSpline
70
0
71
3
72
8
73
4
74
0
42
0.000000001
43
0.0000000001
44
0.0000000001
40
0
40
0
40
0
40
0
40
1
40
1
40
1
40
1
10
320.67893398454947
20
-356.09489001258049
30
0
10
320.81916547140617
20
-356.05834199135728
30
0
10
320.91114243867963
20
-355.92838295874373
30
0
10
320.94769019029508
20
-355.79472355848503
30
0
0
SPLINE
5
505
100
AcDbEntity
8
0
100
AcDbSpline
70
0
71
3
72
8
73
4
74
0
42
0.000000001
43
0.0000000001
44
0.0000000001
40
0
40
0
40
0
40
0
40
1
40
1
40
1
40
1
10
321.01256686019661
20
-355.60398682982384
30
0
10
321.10085544838688
20
-355.55881809782073
30
0
10
321.13780991242038
20
-355.43542401618419
30
0
10
321.09182385525423
20
-355.3485739116532
30
0
0
LINE
5
506
100
AcDbEntity
8
0
100
AcDbLine
10
307.37662171517769
20
-356.78992130961228
30
0
11
306.88685225137482
21
-356.78992130961228
31
0
0
SPLINE
5
507
100
AcDbEntity
8
0
100
AcDbSpline
70
0
71
3
72
8
73
4
74
0
42
0.000000001
43
0.0000000001
44
0.0000000001
40
0
40
0
40
0
40
0
40
1
40
1
40
1
40
1
10
307.45702145206485
20
-356.90136638962099
30
0
10
307.42246311874919
20
-356.86911859551969
30
0
10
307.39573151908962
20
-356.83164447135584
30
0
10
307.37662171517769
20
-356.78992130961228
30
0
0
SPLINE
5
508
100
AcDbEntity
8
0
100
AcDbSpline
70
0
71
3
72
8
73
4
74
0
42
0.000000001
43
0.0000000001
44
0.0000000001
40
0
40
0
40
0
40
0
40
1
40
1
40
1
40
1
10
308.45722449077147
20
-356.75916850897443
30
0
10
308.53255560021023
20
-356.59265604500683
30
0
10
308.55229222438322
20
-356.39033295524058
30
0
10
308.55229222438322
20
-356.20953127559403
30
0
0
SPLINE
5
509
100
AcDbEntity
8
0
100
AcDbSpline
70
0
71
3
72
8
73
4
74
0
42
0.000000001
43
0.0000000001
44
0.0000000001
40
0
40
0
40
0
40
0
40
1
40
1
40
1
40
1
10
318.97462477463279
20
-354.10807217045476
30
0
10
318.91631589557755
20
-353.93437737152357
30
0
10
318.76520600186365
20
-353.81262520165092
30
0
10
318.60916929442675
20
-353.72844421476572
30
0
0
SPLINE
5
510
100
AcDbEntity
8
0
100
AcDbSpline
70
0
71
3
72
8
73
4
74
0
42
0.000000001
43
0.0000000001
44
0.0000000001
40
0
40
0
40
0
40
0
40
1
40
1
40
1
40
1
10
316.05527294605366
20
-354.55894128460432
30
0
10
316.22609509139158
20
-354.76343473548064
30
0
10
316.48684085269667
20
-354.8919554102518
30
0
10
316.75354372510992
20
-354.8993467092676
30
0
0
LINE
5
511
100
AcDbEntity
8
0
100
AcDbLine
10
320.49045335229243
20
-352.45036992456664
30
0
11
320.49045335229243
21
-352.45036992456664
31
0
0
SPLINE
5
512
100
AcDbEntity
8
0
100
AcDbSpline
70
0
71
3
72
8
73
4
74
0
42
0.000000001
43
0.0000000001
44
0.0000000001
40
0
40
0
40
0
40
0
40
1
40
1
40
1
40
1
10
320.49045335229243
20
-352.45036992456664
30
0
10
320.49620313496928
20
-352.54419882811374
30
0
10
320.4879953375879
20
-352.65506827740359
30
0
10
320.40689584253107
20
-352.71707401920207
30
0
0
SPLINE
5
513
100
AcDbEntity
8
0
100
AcDbSpline
70
0
71
3
72
8
73
4
74
0
42
0.000000001
43
0.0000000001
44
0.0000000001
40
0
40
0
40
0
40
0
40
1
40
1
40
1
40
1
10
307.27788731490119
20
-357.17351791072423
30
0
10
307.39496583281544
20
-357.2154729172388
30
0
10
307.52791077229023
20
-357.22762549076208
30
0
10
307.65153132451491
20
-357.22762549076208
30
0
0
SPLINE
5
514
100
AcDbEntity
8
0
100
AcDbSpline
70
0
71
3
72
8
73
4
74
0
42
0.000000001
43
0.0000000001
44
0.0000000001
40
0
40
0
40
0
40
0
40
1
40
1
40
1
40
1
10
321.09182385525423
20
-355.3485739116532
30
0
10
320.91381452201159
20
-354.9356925425825
30
0
10
320.70952354662535
20
-354.53327463592461
30
0
10
320.47053972158363
20
-354.15221641062834
30
0
0
SPLINE
5
515
100
AcDbEntity
8
0
100
AcDbSpline
70
0
71
3
72
8
73
4
74
0
42
0.000000001
43
0.0000000001
44
0.0000000001
40
0
40
0
40
0
40
0
40
1
40
1
40
1
40
1
10
316.24724041654417
20
-353.16876141112903
30
0
10
315.99470825817599
20
-353.39111771166944
30
0
10
315.85098844125571
20
-353.73296149417513
30
0
10
315.8690494706583
20
-354.06906128158579
30
0
0
SPLINE
5
516
100
AcDbEntity
8
0
100
AcDbSpline
70
0
71
3
72
8
73
4
74
0
42
0.000000001
43
0.0000000001
44
0.0000000001
40
0
40
0
40
0
40
0
40
1
40
1
40
1
40
1
10
320.24612818248227
20
-352.98890875108992
30
0
10
320.3208680419213
20
-352.88686895865823
30
0
10
320.42372879023497
20
-352.80987167274969
30
0
10
320.50256803692679
20
-352.71111972998949
30
0
0
SPLINE
5
517
100
AcDbEntity
8
0
100
AcDbSpline
70
0
71
3
72
8
73
4
74
0
42
0.000000001
43
0.0000000001
44
0.0000000001
40
0
40
0
40
0
40
0
40
1
40
1
40
1
40
1
10
320.46807685393787
20
-356.39341725099069
30
0
10
320.53500779181218
20
-356.35584337192483
30
0
10
320.57668767250999
20
-356.2731020909211
30
0
10
320.54856083428905
20
-356.19857171677614
30
0
0
SPLINE
5
518
100
AcDbEntity
8
0
100
AcDbSpline
70
0
71
3
72
8
73
4
74
0
42
0.000000001
43
0.0000000001
44
0.0000000001
40
0
40
0
40
0
40
0
40
1
40
1
40
1
40
1
10
312.94847202279874
20
-361.69481390188656
30
0
10
313.08253987893966
20
-361.83114511586945
30
0
10
313.29154926118616
20
-361.80835248679603
30
0
10
313.46627263201225
20
-361.81245591816651
30
0
0
SPLINE
5
519
100
AcDbEntity
8
0
100
AcDbSpline
70
0
71
3
72
8
73
4
74
0
42
0.000000001
43
0.0000000001
44
0.0000000001
40
0
40
0
40
0
40
0
40
1
40
1
40
1
40
1
10
313.40591015001684
20
-364.1862943630365
30
0
10
313.35048282161364
20
-364.19839299701715
30
0
10
313.2923580847152
20
-364.20130341368235
30
0
10
313.23657354389388
20
-364.19317338917671
30
0
0
SPLINE
5
520
100
AcDbEntity
8
0
100
AcDbSpline
70
0
71
3
72
8
73
4
74
0
42
0.000000001
43
0.0000000001
44
0.0000000001
40
0
40
0
40
0
40
0
40
1
40
1
40
1
40
1
10
316.59000855852645
20
-365.7283132936239
30
0
10
316.61410691635734
20
-365.6117119815919
30
0
10
316.65713199640078
20
-365.50371115975145
30
0
10
316.71952139015997
20
-365.40389426601132
30
0
0
SPLINE
5
521
100
AcDbEntity
8
0
100
AcDbSpline
70
0
71
3
72
8
73
4
74
0
42
0.000000001
43
0.0000000001
44
0.0000000001
40
0
40
0
40
0
40
0
40
1
40
1
40
1
40
1
10
321.21315651532319
20
-350.72409700387686
30
0
10
321.35646625871436
20
-350.37115885863165
30
0
10
321.61803675041119
20
-350.08392412675181
30
0
10
321.77981853137464
20
-349.74064200437755
30
0
0
LINE
5
522
100
AcDbEntity
8
0
100
AcDbLine
10
316.57225218598654
20
-348.0741113777749
30
0
11
316.57738593271597
21
-348.0741113777749
31
0
0
SPLINE
5
523
100
AcDbEntity
8
0
100
AcDbSpline
70
0
71
3
72
8
73
4
74
0
42
0.000000001
43
0.0000000001
44
0.0000000001
40
0
40
0
40
0
40
0
40
1
40
1
40
1
40
1
10
324.85318466706485
20
-360.34433646139763
30
0
10
324.85626775856656
20
-360.26461681928123
30
0
10
324.85619349059283
20
-360.18485066082513
30
0
10
324.85398270628014
20
-360.10568707589817
30
0
0
LINE
5
524
100
AcDbEntity
8
0
100
AcDbLine
10
317.87374515264423
20
-366.87942793846281
30
0
11
317.87374515264423
21
-366.87942793846281
31
0
0
SPLINE
5
525
100
AcDbEntity
8
0
100
AcDbSpline
70
0
71
3
72
8
73
4
74
0
42
0.000000001
43
0.0000000001
44
0.0000000001
40
0
40
0
40
0
40
0
40
1
40
1
40
1
40
1
10
321.15299530456963
20
-351.09488991055076
30
0
10
321.17126795815506
20
-350.97108737303222
30
0
10
321.17250560194526
20
-350.84338226198611
30
0
10
321.21315651532319
20
-350.72409700387686
30
0
0
SPLINE
5
526
100
AcDbEntity
8
0
100
AcDbSpline
70
0
71
3
72
8
73
4
74
0
42
0.000000001
43
0.0000000001
44
0.0000000001
40
0
40
0
40
0
40
0
40
1
40
1
40
1
40
1
10
316.42627077266218
20
-348.20366876659796
30
0
10
316.47370555858572
20
-348.15911062446366
30
0
10
316.52790602751236
20
-348.12195192350219
30
0
10
316.57225218598654
20
-348.0741113777749
30
0
0
SPLINE
5
527
100
AcDbEntity
8
0
100
AcDbSpline
70
0
71
3
72
8
73
4
74
0
42
0.000000001
43
0.0000000001
44
0.0000000001
40
0
40
0
40
0
40
0
40
1
40
1
40
1
40
1
10
315.82861100826057
20
-348.98139416326075
30
0
10
315.98978117484518
20
-348.69601028922312
30
0
10
316.18462131690274
20
-348.42663574687651
30
0
10
316.42627077266218
20
-348.20366876659796
30
0
0
SPLINE
5
528
100
AcDbEntity
8
0
100
AcDbSpline
70
0
71
3
72
8
73
4
74
0
42
0.000000001
43
0.0000000001
44
0.0000000001
40
0
40
0
40
0
40
0
40
1
40
1
40
1
40
1
10
319.75009423665637
20
-349.95581055982359
30
0
10
320.25229087855752
20
-349.5106935290043
30
0
10
320.81033541912313
20
-349.10766361254281
30
0
10
321.45234822598582
20
-348.89249505709694
30
0
0
SPLINE
5
529
100
AcDbEntity
8
0
100
AcDbSpline
70
0
71
3
72
8
73
4
74
0
42
0.000000001
43
0.0000000001
44
0.0000000001
40
0
40
0
40
0
40
0
40
1
40
1
40
1
40
1
10
325.88391781033107
20
-356.28665662522803
30
0
10
325.88391781033107
20
-357.75636946434912
30
0
10
325.51035225659962
20
-359.13878464991984
30
0
10
324.85318466706485
20
-360.34433646139763
30
0
0
SPLINE
5
530
100
AcDbEntity
8
0
100
AcDbSpline
70
0
71
3
72
8
73
4
74
0
42
0.000000001
43
0.0000000001
44
0.0000000001
40
0
40
0
40
0
40
0
40
1
40
1
40
1
40
1
10
307.04614190325452
20
-357.03960777517159
30
0
10
307.11022901760089
20
-357.10140322285247
30
0
10
307.19480228389773
20
-357.14373702838651
30
0
10
307.27788731490119
20
-357.17351791072423
30
0
0
SPLINE
5
531
100
AcDbEntity
8
0
100
AcDbSpline
70
0
71
3
72
8
73
4
74
0
42
0.000000001
43
0.0000000001
44
0.0000000001
40
0
40
0
40
0
40
0
40
1
40
1
40
1
40
1
10
318.10254206102451
20
-346.21803712708595
30
0
10
318.10254206102451
20
-346.45803658284609
30
0
10
317.95015805456609
20
-346.64533444549585
30
0
10
317.76927078341635
20
-346.78579065947662
30
0
0
LINE
5
532
100
AcDbEntity
8
0
100
AcDbLine
10
319.90202657808226
20
-352.16950199987303
30
0
11
319.90202657808226
21
-352.16950199987303
31
0
0
LINE
5
533
100
AcDbEntity
8
0
100
AcDbLine
10
312.0283141866658
20
-362.86634999279335
30
0
11
312.0283141866658
21
-362.86634999279335
31
0
0
SPLINE
5
534
100
AcDbEntity
8
0
100
AcDbSpline
70
0
71
3
72
8
73
4
74
0
42
0.000000001
43
0.0000000001
44
0.0000000001
40
0
40
0
40
0
40
0
40
1
40
1
40
1
40
1
10
322.98994208304612
20
-361.54411125980636
30
0
10
323.346315427636
20
-361.554435892154
30
0
10
323.71522271502988
20
-361.60828734474109
30
0
10
324.06683181942606
20
-361.53613895588887
30
0
0
SPLINE
5
535
100
AcDbEntity
8
0
100
AcDbSpline
70
0
71
3
72
8
73
4
74
0
42
0.000000001
43
0.0000000001
44
0.0000000001
40
0
40
0
40
0
40
0
40
1
40
1
40
1
40
1
10
316.98800556159193
20
-365.16337987724495
30
0
10
317.02705823967653
20
-365.14305818607875
30
0
10
317.0694486808315
20
-365.12611468118553
30
0
10
317.11516768244223
20
-365.11257362727082
30
0
0
SPLINE
5
536
100
AcDbEntity
8
0
100
AcDbSpline
70
0
71
3
72
8
73
4
74
0
42
0.000000001
43
0.0000000001
44
0.0000000001
40
0
40
0
40
0
40
0
40
1
40
1
40
1
40
1
10
320.30957039486822
20
-353.85984699737844
30
0
10
320.17652800114513
20
-353.58452488804153
30
0
10
320.05272625447606
20
-353.30098514962378
30
0
10
319.98928445548876
20
-353.00061377559365
30
0
0
SPLINE
5
537
100
AcDbEntity
8
0
100
AcDbSpline
70
0
71
3
72
8
73
4
74
0
42
0.000000001
43
0.0000000001
44
0.0000000001
40
0
40
0
40
0
40
0
40
1
40
1
40
1
40
1
10
314.70184594184065
20
-354.37559587293293
30
0
10
314.61336066574199
20
-354.74002740052526
30
0
10
314.64538468533351
20
-355.13094383660069
30
0
10
314.78561712480462
20
-355.47813122858076
30
0
0
SPLINE
5
538
100
AcDbEntity
8
0
100
AcDbSpline
70
0
71
3
72
8
73
4
74
0
42
0.000000001
43
0.0000000001
44
0.0000000001
40
0
40
0
40
0
40
0
40
1
40
1
40
1
40
1
10
324.85398270628008
20
-360.10568707589817
30
0
10
324.86485740761719
20
-359.71641659411659
30
0
10
324.77184913480482
20
-359.3359690441626
30
0
10
324.69835157294716
20
-358.9567562952812
30
0
0
SPLINE
5
539
100
AcDbEntity
8
0
100
AcDbSpline
70
0
71
3
72
8
73
4
74
0
42
0.000000001
43
0.0000000001
44
0.0000000001
40
0
40
0
40
0
40
0
40
1
40
1
40
1
40
1
10
312.42415366195445
20
-364.49408532693207
30
0
10
312.45151885801909
20
-364.45792013087197
30
0
10
312.47993822074972
20
-364.42254220768746
30
0
10
312.50925940374128
20
-364.38802296750885
30
0
0
SPLINE
5
540
100
AcDbEntity
8
0
100
AcDbSpline
70
0
71
3
72
8
73
4
74
0
42
0.000000001
43
0.0000000001
44
0.0000000001
40
0
40
0
40
0
40
0
40
1
40
1
40
1
40
1
10
312.15141036960961
20
-365.5056374898158
30
0
10
313.58582884600361
20
-366.32308016587029
30
0
10
315.22960045464396
20
-366.81539204960654
30
0
10
316.98235014166016
20
-366.88226286493193
30
0
0
SPLINE
5
541
100
AcDbEntity
8
0
100
AcDbSpline
70
0
71
3
72
8
73
4
74
0
42
0.000000001
43
0.0000000001
44
0.0000000001
40
0
40
0
40
0
40
0
40
1
40
1
40
1
40
1
10
315.83640941511936
20
-356.27495294876343
30
0
10
315.58284733681705
20
-355.99695365151928
30
0
10
315.44590143492593
20
-355.63047310432017
30
0
10
315.40689187612224
20
-355.25967480548945
30
0
0
LINE
5
542
100
AcDbEntity
8
0
100
AcDbLine
10
313.54050911563456
20
-348.73127364749007
30
0
11
313.517502148326
21
-348.73127364704828
31
0
0
SPLINE
5
543
100
AcDbEntity
8
0
100
AcDbSpline
70
0
71
3
72
8
73
4
74
0
42
0.000000001
43
0.0000000001
44
0.0000000001
40
0
40
0
40
0
40
0
40
1
40
1
40
1
40
1
10
315.8690494706583
20
-354.06906128158579
30
0
10
315.8731582941856
20
-354.24727201188722
30
0
10
315.94132053107904
20
-354.42199806081788
30
0
10
316.05527294605366
20
-354.55894128460432
30
0
0
SPLINE
5
544
100
AcDbEntity
8
0
100
AcDbSpline
70
0
71
3
72
8
73
4
74
0
42
0.000000001
43
0.0000000001
44
0.0000000001
40
0
40
0
40
0
40
0
40
1
40
1
40
1
40
1
10
317.86922260689494
20
-352.62406474147173
30
0
10
318.05050936497247
20
-352.70536901267212
30
0
10
318.14865118518395
20
-352.8991832968872
30
0
10
318.32686340731561
20
-352.98479992756256
30
0
0
SPLINE
5
545
100
AcDbEntity
8
0
100
AcDbSpline
70
0
71
3
72
8
73
4
74
0
42
0.000000001
43
0.0000000001
44
0.0000000001
40
0
40
0
40
0
40
0
40
1
40
1
40
1
40
1
10
323.07103390326625
20
-354.82954390864961
30
0
10
322.83718353737231
20
-354.58563111302215
30
0
10
322.5717162777035
20
-354.36553276019293
30
0
10
322.26497960629104
20
-354.21955769163975
30
0
0
SPLINE
5
546
100
AcDbEntity
8
0
100
AcDbSpline
70
0
71
3
72
8
73
4
74
0
42
0.000000001
43
0.0000000001
44
0.0000000001
40
0
40
0
40
0
40
0
40
1
40
1
40
1
40
1
10
311.99547192524466
20
-365.41500345718208
30
0
10
312.00897388602203
20
-365.32249698010503
30
0
10
312.03615168666181
20
-365.22320314355437
30
0
10
312.07693391703322
20
-365.11753710766044
30
0
0
SPLINE
5
547
100
AcDbEntity
8
0
100
AcDbSpline
70
0
71
3
72
8
73
4
74
0
42
0.000000001
43
0.0000000001
44
0.0000000001
40
0
40
0
40
0
40
0
40
1
40
1
40
1
40
1
10
317.57662023254306
20
-365.78210135887201
30
0
10
317.67515217527296
20
-365.78209891181984
30
0
10
317.76508137827835
20
-365.79501089410167
30
0
10
317.8468308846841
20
-365.82125788344598
30
0
0
SPLINE
5
548
100
AcDbEntity
8
0
100
AcDbSpline
70
0
71
3
72
8
73
4
74
0
42
0.000000001
43
0.0000000001
44
0.0000000001
40
0
40
0
40
0
40
0
40
1
40
1
40
1
40
1
10
316.62440241308411
20
-348.13755547741584
30
0
10
316.96666220049167
20
-348.51718080892198
30
0
10
317.16869075267641
20
-349.00171989854448
30
0
10
317.52203586197362
20
-349.37272175129687
30
0
0
SPLINE
5
549
100
AcDbEntity
8
0
100
AcDbSpline
70
0
71
3
72
8
73
4
74
0
42
0.000000001
43
0.0000000001
44
0.0000000001
40
0
40
0
40
0
40
0
40
1
40
1
40
1
40
1
10
321.98441268976728
20
-349.14361851448535
30
0
10
324.3303147653703
20
-350.65431711992557
30
0
10
325.88391781033107
20
-353.28901321335542
30
0
10
325.88391781033107
20
-356.28665662522803
30
0
0
SPLINE
5
550
100
AcDbEntity
8
0
100
AcDbSpline
70
0
71
3
72
8
73
4
74
0
42
0.000000001
43
0.0000000001
44
0.0000000001
40
0
40
0
40
0
40
0
40
1
40
1
40
1
40
1
10
313.07186342633071
20
-358.21393159320121
30
0
10
313.52375435420515
20
-358.3814685489981
30
0
10
314.01425175918428
20
-358.43690259962364
30
0
10
314.49325040763318
20
-358.38926695585695
30
0
0
LINE
5
551
100
AcDbEntity
8
0
100
AcDbLine
10
313.54050911563456
20
-348.71948099999548
30
0
11
313.54050911563456
21
-348.73127364749007
31
0
0
SPLINE
5
552
100
AcDbEntity
8
0
100
AcDbSpline
70
0
71
3
72
8
73
4
74
0
42
0.000000001
43
0.0000000001
44
0.0000000001
40
0
40
0
40
0
40
0
40
1
40
1
40
1
40
1
10
318.18674003320388
20
-366.11082066107622
30
0
10
318.21729305443006
20
-366.17879686855804
30
0
10
318.23277878971635
20
-366.25538839466287
30
0
10
318.23277878971635
20
-366.33971227370489
30
0
0
SPLINE
5
553
100
AcDbEntity
8
0
100
AcDbSpline
70
0
71
3
72
8
73
4
74
0
42
0.000000001
43
0.0000000001
44
0.0000000001
40
0
40
0
40
0
40
0
40
1
40
1
40
1
40
1
10
320.98956783733252
20
-351.58394762762214
30
0
10
321.09346037486125
20
-351.44207597246555
30
0
10
321.13185361013581
20
-351.26632674379681
30
0
10
321.15299530456963
20
-351.09488991055076
30
0
0
SPLINE
5
554
100
AcDbEntity
8
0
100
AcDbSpline
70
0
71
3
72
8
73
4
74
0
42
0.000000001
43
0.0000000001
44
0.0000000001
40
0
40
0
40
0
40
0
40
1
40
1
40
1
40
1
10
319.14318530559274
20
-349.74515928378702
30
0
10
319.36431018129718
20
-349.73222754359745
30
0
10
319.57783630373751
20
-349.8223601056431
30
0
10
319.75009423665637
20
-349.95581055982359
30
0
0
SPLINE
5
555
100
AcDbEntity
8
0
100
AcDbSpline
70
0
71
3
72
8
73
4
74
0
42
0.000000001
43
0.0000000001
44
0.0000000001
40
0
40
0
40
0
40
0
40
1
40
1
40
1
40
1
10
316.71952139015997
20
-365.40389426601132
30
0
10
316.78233850777508
20
-365.30407199808832
30
0
10
316.87183008616091
20
-365.22404162394605
30
0
10
316.98800556159193
20
-365.16337987724495
30
0
0
SPLINE
5
556
100
AcDbEntity
8
0
100
AcDbSpline
70
0
71
3
72
8
73
4
74
0
42
0.000000001
43
0.0000000001
44
0.0000000001
40
0
40
0
40
0
40
0
40
1
40
1
40
1
40
1
10
318.19052935346332
20
-352.49287225297644
30
0
10
317.95976254639118
20
-352.46761404220496
30
0
10
317.72919318212956
20
-352.51935311734195
30
0
10
317.50643286524951
20
-352.57499882809793
30
0
0
SPLINE
5
557
100
AcDbEntity
8
0
100
AcDbSpline
70
0
71
3
72
8
73
4
74
0
42
0.000000001
43
0.0000000001
44
0.0000000001
40
0
40
0
40
0
40
0
40
1
40
1
40
1
40
1
10
312.07693391703322
20
-365.11753710766044
30
0
10
312.13141625197284
20
-364.97635836263424
30
0
10
312.19525802318213
20
-364.84603266335421
30
0
10
312.2675344757597
20
-364.72599787746759
30
0
0
SPLINE
5
558
100
AcDbEntity
8
0
100
AcDbSpline
70
0
71
3
72
8
73
4
74
0
42
0.000000001
43
0.0000000001
44
0.0000000001
40
0
40
0
40
0
40
0
40
1
40
1
40
1
40
1
10
318.23277878971635
20
-366.33971227370489
30
0
10
318.23277878971635
20
-366.43954262986318
30
0
10
318.21169398253755
20
-366.529470307922
30
0
10
318.16996152831035
20
-366.60863389284896
30
0
0
SPLINE
5
559
100
AcDbEntity
8
0
100
AcDbSpline
70
0
71
3
72
8
73
4
74
0
42
0.000000001
43
0.0000000001
44
0.0000000001
40
0
40
0
40
0
40
0
40
1
40
1
40
1
40
1
10
308.45537228489007
20
-361.99334520238807
30
0
10
309.35031100338864
20
-363.39217680951913
30
0
10
310.56462170865279
20
-364.56701423048963
30
0
10
311.99547192524466
20
-365.41500345718208
30
0
0
SPLINE
5
560
100
AcDbEntity
8
0
100
AcDbSpline
70
0
71
3
72
8
73
4
74
0
42
0.000000001
43
0.0000000001
44
0.0000000001
40
0
40
0
40
0
40
0
40
1
40
1
40
1
40
1
10
317.52203586197362
20
-349.37272175129687
30
0
10
317.69162158574341
20
-349.36327334443888
30
0
10
317.85998003663821
20
-349.39736256010787
30
0
10
318.02074144178505
20
-349.44910028720568
30
0
0
SPLINE
5
561
100
AcDbEntity
8
0
100
AcDbSpline
70
0
71
3
72
8
73
4
74
0
42
0.000000001
43
0.0000000001
44
0.0000000001
40
0
40
0
40
0
40
0
40
1
40
1
40
1
40
1
10
316.75354372510992
20
-354.8993467092676
30
0
10
316.43818876938815
20
-354.7242149005333
30
0
10
316.25114299007163
20
-354.38298717194874
30
0
10
316.18154239533573
20
-354.03826262964066
30
0
0
LINE
5
562
100
AcDbEntity
8
0
100
AcDbLine
10
312.73221694774537
20
-365.5056374898158
30
0
11
312.15141036960961
21
-365.5056374898158
31
0
0
SPLINE
5
563
100
AcDbEntity
8
0
100
AcDbSpline
70
0
71
3
72
8
73
4
74
0
42
0.000000001
43
0.0000000001
44
0.0000000001
40
0
40
0
40
0
40
0
40
1
40
1
40
1
40
1
10
324.69835157294654
20
-358.9567562952812
30
0
10
324.61150545275927
20
-358.51635734590599
30
0
10
324.67535820407761
20
-358.06692526937712
30
0
10
324.64620099233298
20
-357.62283273565896
30
0
0
SPLINE
5
564
100
AcDbEntity
8
0
100
AcDbSpline
70
0
71
3
72
8
73
4
74
0
42
0.000000001
43
0.0000000001
44
0.0000000001
40
0
40
0
40
0
40
0
40
1
40
1
40
1
40
1
10
321.45234822598582
20
-348.89249505709694
30
0
10
321.47648391551604
20
-348.88415743455209
30
0
10
321.50070951027487
20
-348.87611907671305
30
0
10
321.52502382398802
20
-348.86836245907
30
0
0
SPLINE
5
565
100
AcDbEntity
8
0
100
AcDbSpline
70
0
71
3
72
8
73
4
74
0
42
0.000000001
43
0.0000000001
44
0.0000000001
40
0
40
0
40
0
40
0
40
1
40
1
40
1
40
1
10
316.01359698365656
20
-363.21043959065753
30
0
10
316.2800934802529
20
-362.99116355972336
30
0
10
316.60674958792976
20
-362.86058847318844
30
0
10
316.93545104854678
20
-362.76572966768128
30
0
0
SPLINE
5
566
100
AcDbEntity
8
0
100
AcDbSpline
70
0
71
3
72
8
73
4
74
0
42
0.000000001
43
0.0000000001
44
0.0000000001
40
0
40
0
40
0
40
0
40
1
40
1
40
1
40
1
10
315.37075770293802
20
-350.68057016566377
30
0
10
315.35905267843418
20
-350.08515893067283
30
0
10
315.5401455165773
20
-349.4981675486186
30
0
10
315.82861100826057
20
-348.98139416326075
30
0
0
SPLINE
5
567
100
AcDbEntity
8
0
100
AcDbSpline
70
0
71
3
72
8
73
4
74
0
42
0.000000001
43
0.0000000001
44
0.0000000001
40
0
40
0
40
0
40
0
40
1
40
1
40
1
40
1
10
323.7838873571518
20
-355.72121769414321
30
0
10
323.5584522608612
20
-355.41468847697917
30
0
10
323.3328141498651
20
-355.1067155277895
30
0
10
323.07103390326625
20
-354.82954390864961
30
0
0
SPLINE
5
568
100
AcDbEntity
8
0
100
AcDbSpline
70
0
71
3
72
8
73
4
74
0
42
0.000000001
43
0.0000000001
44
0.0000000001
40
0
40
0
40
0
40
0
40
1
40
1
40
1
40
1
10
318.05507896627739
20
-365.93440821508761
30
0
10
318.11230159533318
20
-365.98388932453958
30
0
10
318.15619184694486
20
-366.04240364477135
30
0
10
318.18674003320388
20
-366.11082066107622
30
0
0
SPLINE
5
569
100
AcDbEntity
8
0
100
AcDbSpline
70
0
71
3
72
8
73
4
74
0
42
0.000000001
43
0.0000000001
44
0.0000000001
40
0
40
0
40
0
40
0
40
1
40
1
40
1
40
1
10
318.02074144178505
20
-349.44910028720568
30
0
10
318.10800012801514
20
-349.48174440483609
30
0
10
318.19956971783779
20
-349.43842112054443
30
0
10
318.28949374720378
20
-349.44499146367843
30
0
0
SPLINE
5
570
100
AcDbEntity
8
0
100
AcDbSpline
70
0
71
3
72
8
73
4
74
0
42
0.000000001
43
0.0000000001
44
0.0000000001
40
0
40
0
40
0
40
0
40
1
40
1
40
1
40
1
10
312.2675344757597
20
-364.72599787746759
30
0
10
312.32218531560113
20
-364.63692891836251
30
0
10
312.3742411799538
20
-364.55990871578746
30
0
10
312.42415366195445
20
-364.49408532693207
30
0
0
SPLINE
5
571
100
AcDbEntity
8
0
100
AcDbSpline
70
0
71
3
72
8
73
4
74
0
42
0.000000001
43
0.0000000001
44
0.0000000001
40
0
40
0
40
0
40
0
40
1
40
1
40
1
40
1
10
317.11516768244223
20
-365.11257362727082
30
0
10
315.91454847226902
20
-365.07533810604798
30
0
10
314.7743717816731
20
-364.79826219769228
30
0
10
313.74072389004237
20
-364.32794492178795
30
0
0
SPLINE
5
572
100
AcDbEntity
8
0
100
AcDbSpline
70
0
71
3
72
8
73
4
74
0
42
0.000000001
43
0.0000000001
44
0.0000000001
40
0
40
0
40
0
40
0
40
1
40
1
40
1
40
1
10
313.86416651906461
20
-353.66295379159635
30
0
10
313.96189528208663
20
-353.13200981801043
30
0
10
314.24666849436005
20
-352.64069819734567
30
0
10
314.64579448925485
20
-352.27913664524203
30
0
0
SPLINE
5
573
100
AcDbEntity
8
0
100
AcDbSpline
70
0
71
3
72
8
73
4
74
0
42
0.000000001
43
0.0000000001
44
0.0000000001
40
0
40
0
40
0
40
0
40
1
40
1
40
1
40
1
10
316.98235014166016
20
-366.88226286493193
30
0
10
316.91011655672963
20
-366.84893663945877
30
0
10
316.84560223976894
20
-366.80606766235627
30
0
10
316.78878847999403
20
-366.75363569506277
30
0
0
LINE
5
574
100
AcDbEntity
8
0
100
AcDbLine
10
321.98441268976728
20
-349.14361851448535
30
0
11
321.98441268976728
21
-349.14361851448535
31
0
0
LINE
5
575
100
AcDbEntity
8
0
100
AcDbLine
10
312.73221694774537
20
-365.43894193756211
30
0
11
312.73221694774537
21
-365.5056374898158
31
0
0
SPLINE
5
576
100
AcDbEntity
8
0
100
AcDbSpline
70
0
71
3
72
8
73
4
74
0
42
0.000000001
43
0.0000000001
44
0.0000000001
40
0
40
0
40
0
40
0
40
1
40
1
40
1
40
1
10
313.23657354389388
20
-364.19317338917671
30
0
10
313.17677858640798
20
-364.27321993978961
30
0
10
313.12555985440792
20
-364.34443144138726
30
0
10
313.08245495246899
20
-364.40673375181308
30
0
0
SPLINE
5
577
100
AcDbEntity
8
0
100
AcDbSpline
70
0
71
3
72
8
73
4
74
0
42
0.000000001
43
0.0000000001
44
0.0000000001
40
0
40
0
40
0
40
0
40
1
40
1
40
1
40
1
10
321.52502382398802
20
-348.86836245907
30
0
10
320.30221455827063
20
-348.18590693000561
30
0
10
318.89356706879175
20
-347.79648546941957
30
0
10
317.39375015942454
20
-347.79648546941957
30
0
0
LINE
5
578
100
AcDbEntity
8
0
100
AcDbLine
10
317.13702344223492
20
-347.25550940596946
30
0
11
317.02498497333772
21
-347.25550940596946
31
0
0
SPLINE
5
579
100
AcDbEntity
8
0
100
AcDbSpline
70
0
71
3
72
8
73
4
74
0
42
0.000000001
43
0.0000000001
44
0.0000000001
40
0
40
0
40
0
40
0
40
1
40
1
40
1
40
1
10
313.08245495246899
20
-364.40673375181308
30
0
10
313.01456097537937
20
-364.50488581712267
30
0
10
312.95423489044282
20
-364.60724239876981
30
0
10
312.90088625648309
20
-364.71351909642823
30
0
0
SPLINE
5
580
100
AcDbEntity
8
0
100
AcDbSpline
70
0
71
3
72
8
73
4
74
0
42
0.000000001
43
0.0000000001
44
0.0000000001
40
0
40
0
40
0
40
0
40
1
40
1
40
1
40
1
10
312.74500444773889
20
-361.25442040047682
30
0
10
312.67868902456996
20
-361.36590185957039
30
0
10
312.63516083831763
20
-361.51331934805734
30
0
10
312.69490861443103
20
-361.63609602773346
30
0
0
SPLINE
5
581
100
AcDbEntity
8
0
100
AcDbSpline
70
0
71
3
72
8
73
4
74
0
42
0.000000001
43
0.0000000001
44
0.0000000001
40
0
40
0
40
0
40
0
40
1
40
1
40
1
40
1
10
313.37429054218967
20
-360.77090177653997
30
0
10
313.11867272205848
20
-360.85508141538594
30
0
10
312.8868760849216
20
-361.02405809503847
30
0
10
312.74500444773889
20
-361.25442040047682
30
0
0
SPLINE
5
582
100
AcDbEntity
8
0
100
AcDbSpline
70
0
71
3
72
8
73
4
74
0
42
0.000000001
43
0.0000000001
44
0.0000000001
40
0
40
0
40
0
40
0
40
1
40
1
40
1
40
1
10
321.00558955301057
20
-362.21056144737571
30
0
10
321.07662404807246
20
-362.03871748831278
30
0
10
321.05363230462012
20
-361.84900663546824
30
0
10
321.05835098108821
20
-361.66791784144277
30
0
0
SPLINE
5
583
100
AcDbEntity
8
0
100
AcDbSpline
70
0
71
3
72
8
73
4
74
0
42
0.000000001
43
0.0000000001
44
0.0000000001
40
0
40
0
40
0
40
0
40
1
40
1
40
1
40
1
10
308.69846547267468
20
-350.81178557082558
30
0
10
308.7660170478037
20
-350.72229332740716
30
0
10
308.84303590233975
20
-350.6534503307102
30
0
10
308.92951394804726
20
-350.60439787975474
30
0
0
SPLINE
5
584
100
AcDbEntity
8
0
100
AcDbSpline
70
0
71
3
72
8
73
4
74
0
42
0.000000001
43
0.0000000001
44
0.0000000001
40
0
40
0
40
0
40
0
40
1
40
1
40
1
40
1
10
326.60740459754436
20
-355.37721704889367
30
0
10
326.50735961556921
20
-355.42854766814844
30
0
10
326.40407489993544
20
-355.50064617954968
30
0
10
326.34929168264313
20
-355.60178415172049
30
0
0
SPLINE
5
585
100
AcDbEntity
8
0
100
AcDbSpline
70
0
71
3
72
8
73
4
74
0
42
0.000000001
43
0.0000000001
44
0.0000000001
40
0
40
0
40
0
40
0
40
1
40
1
40
1
40
1
10
326.6925766628604
20
-357.23235710840675
30
0
10
326.8366919944865
20
-357.28147694334905
30
0
10
326.99910304015549
20
-357.29584030118485
30
0
10
327.1505325629542
20
-357.29584030118485
30
0
0
LINE
5
586
100
AcDbEntity
8
0
100
AcDbLine
10
327.4884587997102
20
-356.12225116452743
30
0
11
327.56424081927952
21
-356.11040324786683
31
0
0
SPLINE
5
587
100
AcDbEntity
8
0
100
AcDbSpline
70
0
71
3
72
8
73
4
74
0
42
0.000000001
43
0.0000000001
44
0.0000000001
40
0
40
0
40
0
40
0
40
1
40
1
40
1
40
1
10
324.31092713956315
20
-356.50962225746753
30
0
10
324.16453712656585
20
-356.22855076087848
30
0
10
323.98016114790158
20
-355.96923931329803
30
0
10
323.7838873571518
20
-355.72121769414321
30
0
0
SPLINE
5
588
100
AcDbEntity
8
0
100
AcDbSpline
70
0
71
3
72
8
73
4
74
0
42
0.000000001
43
0.0000000001
44
0.0000000001
40
0
40
0
40
0
40
0
40
1
40
1
40
1
40
1
10
314.82092764602845
20
-359.28320544723192
30
0
10
315.04389867042477
20
-359.61375940131205
30
0
10
315.34037020295364
20
-359.88620612502962
30
0
10
315.56539563911349
20
-360.21511951538491
30
0
0
SPLINE
5
589
100
AcDbEntity
8
0
100
AcDbSpline
70
0
71
3
72
8
73
4
74
0
42
0.000000001
43
0.0000000001
44
0.0000000001
40
0
40
0
40
0
40
0
40
1
40
1
40
1
40
1
10
311.45769069676027
20
-353.09854476247205
30
0
10
311.68763917213334
20
-353.58185307431739
30
0
10
312.04509323077497
20
-354.01178176527503
30
0
10
312.5078668792321
20
-354.28710387461194
30
0
0
LINE
5
590
100
AcDbEntity
8
0
100
AcDbLine
10
326.7325038229709
20
-356.73357868055604
30
0
11
326.23906781832017
21
-356.73357868055604
31
0
0
SPLINE
5
591
100
AcDbEntity
8
0
100
AcDbSpline
70
0
71
3
72
8
73
4
74
0
42
0.000000001
43
0.0000000001
44
0.0000000001
40
0
40
0
40
0
40
0
40
1
40
1
40
1
40
1
10
321.05835098108821
20
-361.66791784144277
30
0
10
321.33552393029356
20
-361.73587922049308
30
0
10
321.62563349060349
20
-361.73464441657211
30
0
10
321.90486369144162
20
-361.68002862575025
30
0
0
SPLINE
5
592
100
AcDbEntity
8
0
100
AcDbSpline
70
0
71
3
72
8
73
4
74
0
42
0.000000001
43
0.0000000001
44
0.0000000001
40
0
40
0
40
0
40
0
40
1
40
1
40
1
40
1
10
317.39375015942454
20
-364.77682165195148
30
0
10
316.37759038053002
20
-364.77682165195148
30
0
10
315.40324812612408
20
-364.59803394289213
30
0
10
314.50012810370799
20
-364.27064788096737
30
0
0
SPLINE
5
593
100
AcDbEntity
8
0
100
AcDbSpline
70
0
71
3
72
8
73
4
74
0
42
0.000000001
43
0.0000000001
44
0.0000000001
40
0
40
0
40
0
40
0
40
1
40
1
40
1
40
1
10
310.88321990293508
20
-349.19738234452348
30
0
10
310.8838939225426
20
-349.564731011003
30
0
10
310.88778571175624
20
-349.93269844545625
30
0
10
310.90349171665019
20
-350.29994870507318
30
0
0
SPLINE
5
594
100
AcDbEntity
8
0
100
AcDbSpline
70
0
71
3
72
8
73
4
74
0
42
0.000000001
43
0.0000000001
44
0.0000000001
40
0
40
0
40
0
40
0
40
1
40
1
40
1
40
1
10
313.74072389004237
20
-364.32794492178795
30
0
10
313.68132795216411
20
-364.3274865884548
30
0
10
313.62208434271719
20
-364.32092569956927
30
0
10
313.56440580679885
20
-364.30825008683058
30
0
0
SPLINE
5
595
100
AcDbEntity
8
0
100
AcDbSpline
70
0
71
3
72
8
73
4
74
0
42
0.000000001
43
0.0000000001
44
0.0000000001
40
0
40
0
40
0
40
0
40
1
40
1
40
1
40
1
10
317.99656329800649
20
-366.80784977019857
30
0
10
317.95866727351603
20
-366.83516776691675
30
0
10
317.91772464445182
20
-366.85898761984572
30
0
10
317.87374515264423
20
-366.87942793846281
30
0
0
SPLINE
5
596
100
AcDbEntity
8
0
100
AcDbSpline
70
0
71
3
72
8
73
4
74
0
42
0.000000001
43
0.0000000001
44
0.0000000001
40
0
40
0
40
0
40
0
40
1
40
1
40
1
40
1
10
316.93545104854678
20
-362.76572966768128
30
0
10
317.44236960221019
20
-362.62365311056391
30
0
10
317.96940938462171
20
-362.56328928052943
30
0
10
318.49480827977902
20
-362.55384896190674
30
0
0
SPLINE
5
597
100
AcDbEntity
8
0
100
AcDbSpline
70
0
71
3
72
8
73
4
74
0
42
0.000000001
43
0.0000000001
44
0.0000000001
40
0
40
0
40
0
40
0
40
1
40
1
40
1
40
1
10
312.0283141866658
20
-362.86634999279335
30
0
10
310.12134203730989
20
-361.30954170600427
30
0
10
308.90357767355079
20
-358.9404018608052
30
0
10
308.90357767355079
20
-356.28665662522803
30
0
0
SPLINE
5
598
100
AcDbEntity
8
0
100
AcDbSpline
70
0
71
3
72
8
73
4
74
0
42
0.000000001
43
0.0000000001
44
0.0000000001
40
0
40
0
40
0
40
0
40
1
40
1
40
1
40
1
10
309.93262334132754
20
-352.34401640664692
30
0
10
309.93611071877672
20
-352.51114222845735
30
0
10
309.92133216486269
20
-352.68011619405763
30
0
10
309.95068571876925
20
-352.84580229201237
30
0
0
SPLINE
5
599
100
AcDbEntity
8
0
100
AcDbSpline
70
0
71
3
72
8
73
4
74
0
42
0.000000001
43
0.0000000001
44
0.0000000001
40
0
40
0
40
0
40
0
40
1
40
1
40
1
40
1
10
318.28949374720378
20
-349.44499146367843
30
0
10
318.60074931567277
20
-349.43924072838718
30
0
10
318.88592746095247
20
-349.58460515314982
30
0
10
319.14318530559274
20
-349.74515928378702
30
0
0
SPLINE
5
600
100
AcDbEntity
8
0
100
AcDbSpline
70
0
71
3
72
8
73
4
74
0
42
0.000000001
43
0.0000000001
44
0.0000000001
40
0
40
0
40
0
40
0
40
1
40
1
40
1
40
1
10
320.11575988516307
20
-362.53413795047885
30
0
10
320.33112958603374
20
-362.51524652891993
30
0
10
320.54999770030133
20
-362.49328157795054
30
0
10
320.75408229987073
20
-362.41731419400236
30
0
0
SPLINE
5
601
100
AcDbEntity
8
0
100
AcDbSpline
70
0
71
3
72
8
73
4
74
0
42
0.000000001
43
0.0000000001
44
0.0000000001
40
0
40
0
40
0
40
0
40
1
40
1
40
1
40
1
10
324.06683181942606
20
-361.53613895588887
30
0
10
322.51222394603451
20
-363.50966647939401
30
0
10
320.10099022830769
20
-364.77682165195148
30
0
10
317.39375015942454
20
-364.77682165195148
30
0
0
SPLINE
5
602
100
AcDbEntity
8
0
100
AcDbSpline
70
0
71
3
72
8
73
4
74
0
42
0.000000001
43
0.0000000001
44
0.0000000001
40
0
40
0
40
0
40
0
40
1
40
1
40
1
40
1
10
312.54482337431142
20
-362.57458584915111
30
0
10
312.37418995446353
20
-362.67344293897003
30
0
10
312.19761304769082
20
-362.76433309905445
30
0
10
312.0283141866658
20
-362.86634999279335
30
0
0
SPLINE
5
603
100
AcDbEntity
8
0
100
AcDbSpline
70
0
71
3
72
8
73
4
74
0
42
0.000000001
43
0.0000000001
44
0.0000000001
40
0
40
0
40
0
40
0
40
1
40
1
40
1
40
1
10
311.53304067874808
20
-356.979382793176
30
0
10
311.74061170315213
20
-357.20583982900848
30
0
10
312.01470440072501
20
-357.35777594494408
30
0
10
312.29228580581247
20
-357.48178068834505
30
0
0
SPLINE
5
604
100
AcDbEntity
8
0
100
AcDbSpline
70
0
71
3
72
8
73
4
74
0
42
0.000000001
43
0.0000000001
44
0.0000000001
40
0
40
0
40
0
40
0
40
1
40
1
40
1
40
1
10
316.57738593271597
20
-348.0741113777749
30
0
10
316.58826917454041
20
-348.09813748070388
30
0
10
316.60756743433461
20
-348.11743601010596
30
0
10
316.62440241308411
20
-348.13755547741584
30
0
0
SPLINE
5
605
100
AcDbEntity
8
0
100
AcDbSpline
70
0
71
3
72
8
73
4
74
0
42
0.000000001
43
0.0000000001
44
0.0000000001
40
0
40
0
40
0
40
0
40
1
40
1
40
1
40
1
10
316.5547307856686
20
-366.0944662672938
30
0
10
316.5547307856686
20
-365.96711028043046
30
0
10
316.56634750461706
20
-365.84491460565602
30
0
10
316.59000855852645
20
-365.7283132936239
30
0
0
SPLINE
5
606
100
AcDbEntity
8
0
100
AcDbSpline
70
0
71
3
72
8
73
4
74
0
42
0.000000001
43
0.0000000001
44
0.0000000001
40
0
40
0
40
0
40
0
40
1
40
1
40
1
40
1
10
317.39375015942454
20
-347.79648546941957
30
0
10
316.00639980228766
20
-347.79648546941957
30
0
10
314.69685819674515
20
-348.12933109016518
30
0
10
313.54050911563456
20
-348.71948099999548
30
0
0
SPLINE
5
607
100
AcDbEntity
8
0
100
AcDbSpline
70
0
71
3
72
8
73
4
74
0
42
0.000000001
43
0.0000000001
44
0.0000000001
40
0
40
0
40
0
40
0
40
1
40
1
40
1
40
1
10
310.49661854038681
20
-354.8079860834971
30
0
10
310.51611925769714
20
-355.0348583154078
30
0
10
310.60358946026702
20
-355.25002554078839
30
0
10
310.70809213831831
20
-355.45020661421603
30
0
0
SPLINE
5
608
100
AcDbEntity
8
0
100
AcDbSpline
70
0
71
3
72
8
73
4
74
0
42
0.000000001
43
0.0000000001
44
0.0000000001
40
0
40
0
40
0
40
0
40
1
40
1
40
1
40
1
10
308.90357767355079
20
-356.28665662522803
30
0
10
308.90357767355079
20
-354.81014564231964
30
0
10
309.280761634143
20
-353.42183548126167
30
0
10
309.94361120896895
20
-352.21234806030878
30
0
0
SPLINE
5
609
100
AcDbEntity
8
0
100
AcDbSpline
70
0
71
3
72
8
73
4
74
0
42
0.000000001
43
0.0000000001
44
0.0000000001
40
0
40
0
40
0
40
0
40
1
40
1
40
1
40
1
10
310.64424091286065
20
-354.27088426677722
30
0
10
310.52864389004367
20
-354.42322612454274
30
0
10
310.48881474137113
20
-354.62012472248159
30
0
10
310.49661854038681
20
-354.8079860834971
30
0
0
SPLINE
5
610
100
AcDbEntity
8
0
100
AcDbSpline
70
0
71
3
72
8
73
4
74
0
42
0.000000001
43
0.0000000001
44
0.0000000001
40
0
40
0
40
0
40
0
40
1
40
1
40
1
40
1
10
309.40279958832923
20
-350.48177352851008
30
0
10
309.52026501147208
20
-350.48177352851008
30
0
10
309.64289071075609
20
-350.50501237653748
30
0
10
309.77111346886068
20
-350.55104789775578
30
0
0
SPLINE
5
611
100
AcDbEntity
8
0
100
AcDbSpline
70
0
71
3
72
8
73
4
74
0
42
0.000000001
43
0.0000000001
44
0.0000000001
40
0
40
0
40
0
40
0
40
1
40
1
40
1
40
1
10
310.10800994744739
20
-350.81178557082558
30
0
10
310.14343774808287
20
-350.85949672276223
30
0
10
310.17400992943993
20
-350.90966937633135
30
0
10
310.19970623498239
20
-350.96230624558569
30
0
0
SPLINE
5
612
100
AcDbEntity
8
0
100
AcDbSpline
70
0
71
3
72
8
73
4
74
0
42
0.000000001
43
0.0000000001
44
0.0000000001
40
0
40
0
40
0
40
0
40
1
40
1
40
1
40
1
10
312.69490861443103
20
-361.63609602773346
30
0
10
312.76307085132447
20
-361.69625091168967
30
0
10
312.86510931369082
20
-361.67531183653711
30
0
10
312.94847202279874
20
-361.69481390188656
30
0
0
SPLINE
5
613
100
AcDbEntity
8
0
100
AcDbSpline
70
0
71
3
72
8
73
4
74
0
42
0.000000001
43
0.0000000001
44
0.0000000001
40
0
40
0
40
0
40
0
40
1
40
1
40
1
40
1
10
314.67557130950121
20
-360.53253616228216
30
0
10
314.24132756299014
20
-360.60768259034853
30
0
10
313.79456592432882
20
-360.62964754131764
30
0
10
313.37429054218967
20
-360.77090177653997
30
0
0
SPLINE
5
614
100
AcDbEntity
8
0
100
AcDbSpline
70
0
71
3
72
8
73
4
74
0
42
0.000000001
43
0.0000000001
44
0.0000000001
40
0
40
0
40
0
40
0
40
1
40
1
40
1
40
1
10
317.8468308846841
20
-365.82125788344598
30
0
10
317.92857972124369
20
-365.84750014487054
30
0
10
317.9978466313392
20
-365.88535308602764
30
0
10
318.05507896627739
20
-365.93440821508761
30
0
0
SPLINE
5
615
100
AcDbEntity
8
0
100
AcDbSpline
70
0
71
3
72
8
73
4
74
0
42
0.000000001
43
0.0000000001
44
0.0000000001
40
0
40
0
40
0
40
0
40
1
40
1
40
1
40
1
10
313.56440580679885
20
-364.30825008683058
30
0
10
313.49501685421984
20
-364.29470094468059
30
0
10
313.43814579379125
20
-364.24829875679575
30
0
10
313.40591015001684
20
-364.1862943630365
30
0
0
SPLINE
5
616
100
AcDbEntity
8
0
100
AcDbSpline
70
0
71
3
72
8
73
4
74
0
42
0.000000001
43
0.0000000001
44
0.0000000001
40
0
40
0
40
0
40
0
40
1
40
1
40
1
40
1
10
311.32505985042258
20
-356.16777847496178
30
0
10
311.11461211033355
20
-356.24456142263512
30
0
10
310.93290726238678
20
-356.06121601096368
30
0
10
310.72492643406144
20
-356.0704594978871
30
0
0
SPLINE
5
617
100
AcDbEntity
8
0
100
AcDbSpline
70
0
71
3
72
8
73
4
74
0
42
0.000000001
43
0.0000000001
44
0.0000000001
40
0
40
0
40
0
40
0
40
1
40
1
40
1
40
1
10
322.07588399854421
20
-353.42170606949702
30
0
10
321.95084692671236
20
-353.07226743405397
30
0
10
321.766268724192
20
-352.74766237702966
30
0
10
321.56116595959043
20
-352.43948722195779
30
0
0
SPLINE
5
618
100
AcDbEntity
8
0
100
AcDbSpline
70
0
71
3
72
8
73
4
74
0
42
0.000000001
43
0.0000000001
44
0.0000000001
40
0
40
0
40
0
40
0
40
1
40
1
40
1
40
1
10
315.28349914252487
20
-363.87627237626623
30
0
10
315.5341844871686
20
-363.66233323258422
30
0
10
315.75879742332876
20
-363.41965387486471
30
0
10
316.01359698365656
20
-363.21043959065753
30
0
0
SPLINE
5
619
100
AcDbEntity
8
0
100
AcDbSpline
70
0
71
3
72
8
73
4
74
0
42
0.000000001
43
0.0000000001
44
0.0000000001
40
0
40
0
40
0
40
0
40
1
40
1
40
1
40
1
10
309.95068571876925
20
-352.84580229201237
30
0
10
310.00037712233882
20
-353.14227513663269
30
0
10
310.0995429131379
20
-353.43012727047312
30
0
10
310.23915929868781
20
-353.69621394517424
30
0
0
SPLINE
5
620
100
AcDbEntity
8
0
100
AcDbSpline
70
0
71
3
72
8
73
4
74
0
42
0.000000001
43
0.0000000001
44
0.0000000001
40
0
40
0
40
0
40
0
40
1
40
1
40
1
40
1
10
314.50012810370799
20
-364.27064788096737
30
0
10
314.51167001546685
20
-364.26830229273315
30
0
10
314.5231350889905
20
-364.26583403293046
30
0
10
314.53451656610883
20
-364.26328623881432
30
0
0
SPLINE
5
621
100
AcDbEntity
8
0
100
AcDbSpline
70
0
71
3
72
8
73
4
74
0
42
0.000000001
43
0.0000000001
44
0.0000000001
40
0
40
0
40
0
40
0
40
1
40
1
40
1
40
1
10
320.75408229987073
20
-362.41731419400236
30
0
10
320.85632348936122
20
-362.37789619729045
30
0
10
320.96288043538533
20
-362.31753236725586
30
0
10
321.00558955301057
20
-362.21056144737571
30
0
0
SPLINE
5
622
100
AcDbEntity
8
0
100
AcDbSpline
70
0
71
3
72
8
73
4
74
0
42
0.000000001
43
0.0000000001
44
0.0000000001
40
0
40
0
40
0
40
0
40
1
40
1
40
1
40
1
10
322.29463767326945
20
-365.64706294399218
30
0
10
322.08036326324782
20
-365.64706294399218
30
0
10
321.90869591529588
20
-365.61823783943169
30
0
10
321.78047570947894
20
-365.56058222017992
30
0
0
SPLINE
5
623
100
AcDbEntity
8
0
100
AcDbSpline
70
0
71
3
72
8
73
4
74
0
42
0.000000001
43
0.0000000001
44
0.0000000001
40
0
40
0
40
0
40
0
40
1
40
1
40
1
40
1
10
327.55923905457621
20
-355.33782736100517
30
0
10
327.42572024582063
20
-355.29424120906663
30
0
10
327.28462427040222
20
-355.27746351299669
30
0
10
327.14454739465657
20
-355.27746351299669
30
0
0
SPLINE
5
624
100
AcDbEntity
8
0
100
AcDbSpline
70
0
71
3
72
8
73
4
74
0
42
0.000000001
43
0.0000000001
44
0.0000000001
40
0
40
0
40
0
40
0
40
1
40
1
40
1
40
1
10
312.77696778759184
20
-365.05342977272568
30
0
10
312.7472799379338
20
-365.17390267135721
30
0
10
312.73221694774537
20
-365.30211599318733
30
0
10
312.73221694774537
20
-365.43894193756211
30
0
0
SPLINE
5
625
100
AcDbEntity
8
0
100
AcDbSpline
70
0
71
3
72
8
73
4
74
0
42
0.000000001
43
0.0000000001
44
0.0000000001
40
0
40
0
40
0
40
0
40
1
40
1
40
1
40
1
10
321.77981853137464
20
-349.74064200437755
30
0
10
321.87172175191603
20
-349.55022747506268
30
0
10
321.93612808194854
20
-349.34897875457693
30
0
10
321.98441268976728
20
-349.14361851448535
30
0
0
SPLINE
5
626
100
AcDbEntity
8
0
100
AcDbSpline
70
0
71
3
72
8
73
4
74
0
42
0.000000001
43
0.0000000001
44
0.0000000001
40
0
40
0
40
0
40
0
40
1
40
1
40
1
40
1
10
321.90486369144162
20
-361.68002862575025
30
0
10
322.26272325825295
20
-361.61146062905311
30
0
10
322.62242868617443
20
-361.51763172550619
30
0
10
322.98994208304612
20
-361.54411125980636
30
0
0
SPLINE
5
627
100
AcDbEntity
8
0
100
AcDbSpline
70
0
71
3
72
8
73
4
74
0
42
0.000000001
43
0.0000000001
44
0.0000000001
40
0
40
0
40
0
40
0
40
1
40
1
40
1
40
1
10
326.34929168264313
20
-355.60178415172049
30
0
10
326.31916194573034
20
-355.65740557979683
30
0
10
326.29579706502329
20
-355.71593472845979
30
0
10
326.28185833954018
20
-355.77693887712144
30
0
0
SPLINE
5
628
100
AcDbEntity
8
0
100
AcDbSpline
70
0
71
3
72
8
73
4
74
0
42
0.000000001
43
0.0000000001
44
0.0000000001
40
0
40
0
40
0
40
0
40
1
40
1
40
1
40
1
10
322.26497960629104
20
-354.21955769163975
30
0
10
322.23171889552367
20
-353.94772161171284
30
0
10
322.16889165862756
20
-353.67937830139192
30
0
10
322.07588399854421
20
-353.42170606949702
30
0
0
SPLINE
5
629
100
AcDbEntity
8
0
100
AcDbSpline
70
0
71
3
72
8
73
4
74
0
42
0.000000001
43
0.0000000001
44
0.0000000001
40
0
40
0
40
0
40
0
40
1
40
1
40
1
40
1
10
310.72492643406144
20
-356.0704594978871
30
0
10
310.95959574276543
20
-356.32894998958562
30
0
10
311.21028647956598
20
-356.58086476396716
30
0
10
311.51517646307082
20
-356.75599657270152
30
0
0
SPLINE
5
630
100
AcDbEntity
8
0
100
AcDbSpline
70
0
71
3
72
8
73
4
74
0
42
0.000000001
43
0.0000000001
44
0.0000000001
40
0
40
0
40
0
40
0
40
1
40
1
40
1
40
1
10
318.49480827977902
20
-362.55384896190674
30
0
10
319.03519472885034
20
-362.54830447661539
30
0
10
319.57619735765996
20
-362.57171048150553
30
0
10
320.11575988516307
20
-362.53413795047885
30
0
0
SPLINE
5
631
100
AcDbEntity
8
0
100
AcDbSpline
70
0
71
3
72
8
73
4
74
0
42
0.000000001
43
0.0000000001
44
0.0000000001
40
0
40
0
40
0
40
0
40
1
40
1
40
1
40
1
10
310.70809213831831
20
-355.45020661421603
30
0
10
310.85899563824159
20
-355.72922504708038
30
0
10
311.05937756951198
20
-355.98977129858184
30
0
10
311.32505985042258
20
-356.16777847496178
30
0
0
SPLINE
5
632
100
AcDbEntity
8
0
100
AcDbSpline
70
0
71
3
72
8
73
4
74
0
42
0.000000001
43
0.0000000001
44
0.0000000001
40
0
40
0
40
0
40
0
40
1
40
1
40
1
40
1
10
309.94361120896895
20
-352.21234806030878
30
0
10
309.93599478740424
20
-352.25543811584237
30
0
10
309.93195471387685
20
-352.29928443934944
30
0
10
309.93262334132754
20
-352.34401640664692
30
0
0
SPLINE
5
633
100
AcDbEntity
8
0
100
AcDbSpline
70
0
71
3
72
8
73
4
74
0
42
0.000000001
43
0.0000000001
44
0.0000000001
40
0
40
0
40
0
40
0
40
1
40
1
40
1
40
1
10
310.23915929868781
20
-353.69621394517424
30
0
10
310.34981575778181
20
-353.90317026369632
30
0
10
310.47526559922119
20
-354.10622131261255
30
0
10
310.64424091286065
20
-354.27088426677722
30
0
0
LINE
5
634
100
AcDbEntity
8
0
100
AcDbLine
10
308.48867961984035
20
-350.52825526868241
30
0
11
308.53884553321359
21
-350.52825526868241
31
0
0
SPLINE
5
635
100
AcDbEntity
8
0
100
AcDbSpline
70
0
71
3
72
8
73
4
74
0
42
0.000000001
43
0.0000000001
44
0.0000000001
40
0
40
0
40
0
40
0
40
1
40
1
40
1
40
1
10
312.5078668792321
20
-354.28710387461194
30
0
10
312.85258602938353
20
-354.49611458692385
30
0
10
313.24330160761588
20
-354.62156308032411
30
0
10
313.63996743094344
20
-354.68499909172965
30
0
0
SPLINE
5
636
100
AcDbEntity
8
0
100
AcDbSpline
70
0
71
3
72
8
73
4
74
0
42
0.000000001
43
0.0000000001
44
0.0000000001
40
0
40
0
40
0
40
0
40
1
40
1
40
1
40
1
10
315.56539563911349
20
-360.21511951538491
30
0
10
315.30793100525767
20
-360.40729122280351
30
0
10
314.98620663614037
20
-360.47874267538145
30
0
10
314.67557130950121
20
-360.53253616228216
30
0
0
SPLINE
5
637
100
AcDbEntity
8
0
100
AcDbSpline
70
0
71
3
72
8
73
4
74
0
42
0.000000001
43
0.0000000001
44
0.0000000001
40
0
40
0
40
0
40
0
40
1
40
1
40
1
40
1
10
317.73500375238802
20
-365.11041678250069
30
0
10
317.81632001215053
20
-365.13343049000525
30
0
10
317.88752881766993
20
-365.16694678900791
30
0
10
317.94879462973023
20
-365.2107135602273
30
0
0
SPLINE
5
638
100
AcDbEntity
8
0
100
AcDbSpline
70
0
71
3
72
8
73
4
74
0
42
0.000000001
43
0.0000000001
44
0.0000000001
40
0
40
0
40
0
40
0
40
1
40
1
40
1
40
1
10
327.1505325629542
20
-357.29584030118485
30
0
10
327.31619223934052
20
-357.29584030118485
30
0
10
327.50788821473299
20
-357.27975954138913
30
0
10
327.66150317870722
20
-357.21305857900484
30
0
0
SPLINE
5
639
100
AcDbEntity
8
0
100
AcDbSpline
70
0
71
3
72
8
73
4
74
0
42
0.000000001
43
0.0000000001
44
0.0000000001
40
0
40
0
40
0
40
0
40
1
40
1
40
1
40
1
10
316.78878847999403
20
-366.75363569506277
30
0
10
316.63260591471402
20
-366.60950068206427
30
0
10
316.5547307856686
20
-366.38962475570565
30
0
10
316.5547307856686
20
-366.0944662672938
30
0
0
SPLINE
5
640
100
AcDbEntity
8
0
100
AcDbSpline
70
0
71
3
72
8
73
4
74
0
42
0.000000001
43
0.0000000001
44
0.0000000001
40
0
40
0
40
0
40
0
40
1
40
1
40
1
40
1
10
324.67721098088003
20
-361.2805203843368
30
0
10
323.98340516311197
20
-362.2905034154212
30
0
10
323.08494314861639
20
-363.14896229160519
30
0
10
322.04168316522816
20
-363.79606406094763
30
0
0
LINE
5
641
100
AcDbEntity
8
0
100
AcDbLine
10
325.44566001643642
20
-361.38002931054348
30
0
11
325.44566001643642
21
-361.20331355573143
31
0
0
LINE
5
642
100
AcDbEntity
8
0
100
AcDbLine
10
323.04352259772469
20
-365.26119087065911
30
0
11
323.04352259772469
21
-365.26119087065911
31
0
0
LINE
5
643
100
AcDbEntity
8
0
100
AcDbLine
10
326.34864800290489
20
-361.96742914847982
30
0
11
325.41414796416501
21
-361.96742914847982
31
0
0
LINE
5
644
100
AcDbEntity
8
0
100
AcDbLine
10
322.92193217458401
20
-363.79606406094763
30
0
11
322.92193217458401
21
-364.10803396438342
31
0
0
SPLINE
5
645
100
AcDbEntity
8
0
100
AcDbSpline
70
0
71
3
72
8
73
4
74
0
42
0.000000001
43
0.0000000001
44
0.0000000001
40
0
40
0
40
0
40
0
40
1
40
1
40
1
40
1
10
322.91462136249623
20
-364.56624719617639
30
0
10
323.03983220556978
20
-364.67381125331116
30
0
10
323.10265848985159
20
-364.81364467317457
30
0
10
323.10265848985159
20
-364.98617611426323
30
0
0
LINE
5
646
100
AcDbEntity
8
0
100
AcDbLine
10
322.15519842007245
20
-364.18806703460416
30
0
11
322.13714547890515
21
-364.41565103122042
31
0
0
SPLINE
5
647
100
AcDbEntity
8
0
100
AcDbSpline
70
0
71
3
72
8
73
4
74
0
42
0.000000001
43
0.0000000001
44
0.0000000001
40
0
40
0
40
0
40
0
40
1
40
1
40
1
40
1
10
325.50591517653658
20
-361.61145658493547
30
0
10
325.54578111769274
20
-361.61145658493547
30
0
10
325.57543582355993
20
-361.6049738643506
30
0
10
325.5953738627656
20
-361.59199494278852
30
0
0
SPLINE
5
648
100
AcDbEntity
8
0
100
AcDbSpline
70
0
71
3
72
8
73
4
74
0
42
0.000000001
43
0.0000000001
44
0.0000000001
40
0
40
0
40
0
40
0
40
1
40
1
40
1
40
1
10
308.37952218035349
20
-361.16433230575132
30
0
10
308.44492093685608
20
-361.13206026491821
30
0
10
308.51204922767158
20
-361.10969494630206
30
0
10
308.58089222436865
20
-361.09721751330193
30
0
0
LINE
5
649
100
AcDbEntity
8
0
100
AcDbLine
10
323.04352259772469
20
-365.26119087065911
30
0
11
323.04352259772469
21
-365.26119087065911
31
0
0
SPLINE
5
650
100
AcDbEntity
8
0
100
AcDbSpline
70
0
71
3
72
8
73
4
74
0
42
0.000000001
43
0.0000000001
44
0.0000000001
40
0
40
0
40
0
40
0
40
1
40
1
40
1
40
1
10
321.56116595959043
20
-352.43948722195779
30
0
10
321.37104152831483
20
-352.15410199988082
30
0
10
321.16839704802572
20
-351.87692768466258
30
0
10
320.98956783733252
20
-351.58394762762214
30
0
0
SPLINE
5
651
100
AcDbEntity
8
0
100
AcDbSpline
70
0
71
3
72
8
73
4
74
0
42
0.000000001
43
0.0000000001
44
0.0000000001
40
0
40
0
40
0
40
0
40
1
40
1
40
1
40
1
10
308.98835314572983
20
-362.08811097521578
30
0
10
308.8239867601925
20
-362.08811097521578
30
0
10
308.68544745797544
20
-362.07133194908045
30
0
10
308.57357911162723
20
-362.03733844419594
30
0
0
SPLINE
5
652
100
AcDbEntity
8
0
100
AcDbSpline
70
0
71
3
72
8
73
4
74
0
42
0.000000001
43
0.0000000001
44
0.0000000001
40
0
40
0
40
0
40
0
40
1
40
1
40
1
40
1
10
309.82736443125037
20
-361.50208748531793
30
0
10
309.82736443125037
20
-361.57738354573718
30
0
10
309.81531430870746
20
-361.64881208164843
30
0
10
309.79122619597467
20
-361.71593363226793
30
0
0
SPLINE
5
653
100
AcDbEntity
8
0
100
AcDbSpline
70
0
71
3
72
8
73
4
74
0
42
0.000000001
43
0.0000000001
44
0.0000000001
40
0
40
0
40
0
40
0
40
1
40
1
40
1
40
1
10
306.79030300469202
20
-356.28665527718874
30
0
10
306.79030300469202
20
-358.17567019616183
30
0
10
307.28427567274105
20
-359.94932265114119
30
0
10
308.15009135203894
20
-361.48546213565322
30
0
0
SPLINE
5
654
100
AcDbEntity
8
0
100
AcDbSpline
70
0
71
3
72
8
73
4
74
0
42
0.000000001
43
0.0000000001
44
0.0000000001
40
0
40
0
40
0
40
0
40
1
40
1
40
1
40
1
10
312.39679252798152
20
-364.40413203612815
30
0
10
312.34176558519903
20
-364.40105446260037
30
0
10
312.30378458031646
20
-364.35732408843955
30
0
10
312.26621339732907
20
-364.32303131884919
30
0
0
SPLINE
5
655
100
AcDbEntity
8
0
100
AcDbSpline
70
0
71
3
72
8
73
4
74
0
42
0.000000001
43
0.0000000001
44
0.0000000001
40
0
40
0
40
0
40
0
40
1
40
1
40
1
40
1
10
312.90088625648309
20
-364.71351909642823
30
0
10
312.84796495095452
20
-364.81979038395582
30
0
10
312.8062229346358
20
-364.93295284795045
30
0
10
312.77696778759184
20
-365.05342977272568
30
0
0
SPLINE
5
656
100
AcDbEntity
8
0
100
AcDbSpline
70
0
71
3
72
8
73
4
74
0
42
0.000000001
43
0.0000000001
44
0.0000000001
40
0
40
0
40
0
40
0
40
1
40
1
40
1
40
1
10
323.04352259772469
20
-365.26119087065911
30
0
10
324.37400807743956
20
-364.42184796749166
30
0
10
325.50483325823637
20
-363.2947998667583
30
0
10
326.34864800290489
20
-361.96742914847982
30
0
0
SPLINE
5
657
100
AcDbEntity
8
0
100
AcDbSpline
70
0
71
3
72
8
73
4
74
0
42
0.000000001
43
0.0000000001
44
0.0000000001
40
0
40
0
40
0
40
0
40
1
40
1
40
1
40
1
10
309.5976033333281
20
-361.16433365379055
30
0
10
309.66343750649725
20
-361.19660032044078
30
0
10
309.71807623195963
20
-361.2413552044049
30
0
10
309.7615289100421
20
-361.29772075012795
30
0
0
LINE
5
658
100
AcDbEntity
8
0
100
AcDbLine
10
325.61993808497522
20
-361.46964289546526
30
0
11
324.67721098088003
21
-361.46964289546526
31
0
0
SPLINE
5
659
100
AcDbEntity
8
0
100
AcDbSpline
70
0
71
3
72
8
73
4
74
0
42
0.000000001
43
0.0000000001
44
0.0000000001
40
0
40
0
40
0
40
0
40
1
40
1
40
1
40
1
10
322.56567233489613
20
-364.22721407543406
30
0
10
322.45466779410287
20
-364.22721407543406
30
0
10
322.3178349837151
20
-364.21431064406795
30
0
10
322.15519842007245
20
-364.18806703460416
30
0
0
LINE
5
660
100
AcDbEntity
8
0
100
AcDbLine
10
325.41414796416501
20
-361.61145658493547
30
0
11
325.50591517653658
21
-361.61145658493547
31
0
0
SPLINE
5
661
100
AcDbEntity
8
0
100
AcDbSpline
70
0
71
3
72
8
73
4
74
0
42
0.000000001
43
0.0000000001
44
0.0000000001
40
0
40
0
40
0
40
0
40
1
40
1
40
1
40
1
10
325.5953738627656
20
-361.59199494278852
30
0
10
325.61530178269004
20
-361.57855768789346
30
0
10
325.62503852614918
20
-361.55353135784077
30
0
10
325.62503852614918
20
-361.51645353923226
30
0
0
SPLINE
5
662
100
AcDbEntity
8
0
100
AcDbSpline
70
0
71
3
72
8
73
4
74
0
42
0.000000001
43
0.0000000001
44
0.0000000001
40
0
40
0
40
0
40
0
40
1
40
1
40
1
40
1
10
311.28399050567225
20
-363.78099974069374
30
0
10
311.31294097787963
20
-363.51203902841235
30
0
10
311.47698922616217
20
-363.2767509697087
30
0
10
311.68189382899902
20
-363.10859795999039
30
0
0
SPLINE
5
663
100
AcDbEntity
8
0
100
AcDbSpline
70
0
71
3
72
8
73
4
74
0
42
0.000000001
43
0.0000000001
44
0.0000000001
40
0
40
0
40
0
40
0
40
1
40
1
40
1
40
1
10
308.58089222436865
20
-361.08386653291655
30
0
10
308.49698506538272
20
-361.06192358793834
30
0
10
308.41308621674762
20
-361.01890002321602
30
0
10
308.32832081884283
20
-360.95479317142372
30
0
0
SPLINE
5
664
100
AcDbEntity
8
0
100
AcDbSpline
70
0
71
3
72
8
73
4
74
0
42
0.000000001
43
0.0000000001
44
0.0000000001
40
0
40
0
40
0
40
0
40
1
40
1
40
1
40
1
10
322.13714547890515
20
-364.41565103122042
30
0
10
322.21372595108835
20
-364.40833522240058
30
0
10
322.27956188569539
20
-364.40488963416709
30
0
10
322.33377608664819
20
-364.40488963416709
30
0
0
SPLINE
5
665
100
AcDbEntity
8
0
100
AcDbSpline
70
0
71
3
72
8
73
4
74
0
42
0.000000001
43
0.0000000001
44
0.0000000001
40
0
40
0
40
0
40
0
40
1
40
1
40
1
40
1
10
322.92193217458401
20
-364.10803396438342
30
0
10
322.88492930695577
20
-364.14504166697901
30
0
10
322.83975559619444
20
-364.17429142186603
30
0
10
322.78640074328047
20
-364.19537204113641
30
0
0
SPLINE
5
666
100
AcDbEntity
8
0
100
AcDbSpline
70
0
71
3
72
8
73
4
74
0
42
0.000000001
43
0.0000000001
44
0.0000000001
40
0
40
0
40
0
40
0
40
1
40
1
40
1
40
1
10
324.79746186643968
20
-361.10082889238487
30
0
10
324.78730171285002
20
-361.11641626982805
30
0
10
324.77710095631937
20
-361.13197129432996
30
0
10
324.76685262299111
20
-361.14748048549842
30
0
0
LINE
5
667
100
AcDbEntity
8
0
100
AcDbLine
10
325.44566001643642
20
-360.51539045150651
30
0
11
324.79746186643968
21
-361.10082889238487
31
0
0
SPLINE
5
668
100
AcDbEntity
8
0
100
AcDbSpline
70
0
71
3
72
8
73
4
74
0
42
0.000000001
43
0.0000000001
44
0.0000000001
40
0
40
0
40
0
40
0
40
1
40
1
40
1
40
1
10
309.39624676970516
20
-361.09721886134105
30
0
10
309.46465434973561
20
-361.10969629434123
30
0
10
309.53177859643353
20
-361.13206161295716
30
0
10
309.5976033333281
20
-361.16433365379055
30
0
0
LINE
5
669
100
AcDbEntity
8
0
100
AcDbLine
10
324.76685265306457
20
-361.38002931054348
30
0
11
325.44566001643642
21
-361.38002931054348
31
0
0
SPLINE
5
670
100
AcDbEntity
8
0
100
AcDbSpline
70
0
71
3
72
8
73
4
74
0
42
0.000000001
43
0.0000000001
44
0.0000000001
40
0
40
0
40
0
40
0
40
1
40
1
40
1
40
1
10
308.21516927520844
20
-361.29771940208877
30
0
10
308.2589239320489
20
-361.24126084165999
30
0
10
308.3136920513021
20
-361.19659897240166
30
0
10
308.37952218035349
20
-361.16433230575132
30
0
0
SPLINE
5
671
100
AcDbEntity
8
0
100
AcDbSpline
70
0
71
3
72
8
73
4
74
0
42
0.000000001
43
0.0000000001
44
0.0000000001
40
0
40
0
40
0
40
0
40
1
40
1
40
1
40
1
10
311.85250431420639
20
-364.49919035143927
30
0
10
311.77325780817483
20
-364.46346585407889
30
0
10
311.72418785133539
20
-364.39016803290292
30
0
10
311.67819809980875
20
-364.32036440402311
30
0
0
SPLINE
5
672
100
AcDbEntity
8
0
100
AcDbSpline
70
0
71
3
72
8
73
4
74
0
42
0.000000001
43
0.0000000001
44
0.0000000001
40
0
40
0
40
0
40
0
40
1
40
1
40
1
40
1
10
309.79122619597467
20
-361.71593363226793
30
0
10
309.7675559933723
20
-361.78348520739695
30
0
10
309.72453197378638
20
-361.84544376782293
30
0
10
309.66343750649725
20
-361.90180392138905
30
0
0
SPLINE
5
673
100
AcDbEntity
8
0
100
AcDbSpline
70
0
71
3
72
8
73
4
74
0
42
0.000000001
43
0.0000000001
44
0.0000000001
40
0
40
0
40
0
40
0
40
1
40
1
40
1
40
1
10
308.57357911162723
20
-362.03733844419594
30
0
10
308.53044996295637
20
-362.02440131184954
30
0
10
308.4910265561137
20
-362.00973466316407
30
0
10
308.45537228489007
20
-361.99334520238807
30
0
0
SPLINE
5
674
100
AcDbEntity
8
0
100
AcDbSpline
70
0
71
3
72
8
73
4
74
0
42
0.000000001
43
0.0000000001
44
0.0000000001
40
0
40
0
40
0
40
0
40
1
40
1
40
1
40
1
10
324.6462009923336
20
-357.62283273565896
30
0
10
324.61170885673039
20
-357.23396936330789
30
0
10
324.49139624894849
20
-356.85495879160533
30
0
10
324.31092713956315
20
-356.50962225746753
30
0
0
LINE
5
675
100
AcDbEntity
8
0
100
AcDbLine
10
324.67721098088003
20
-361.46964289546526
30
0
11
324.67721098088003
21
-361.2805203843368
31
0
0
LINE
5
676
100
AcDbEntity
8
0
100
AcDbLine
10
325.44566001643642
20
-361.20331355573143
30
0
11
324.99260666535997
21
-361.20331355573143
31
0
0
SPLINE
5
677
100
AcDbEntity
8
0
100
AcDbSpline
70
0
71
3
72
8
73
4
74
0
42
0.000000001
43
0.0000000001
44
0.0000000001
40
0
40
0
40
0
40
0
40
1
40
1
40
1
40
1
10
312.50925940374128
20
-364.38802296750885
30
0
10
312.47332743643926
20
-364.40087382534557
30
0
10
312.43587351488975
20
-364.40792676651841
30
0
10
312.39679252798152
20
-364.40413203612815
30
0
0
LINE
5
678
100
AcDbEntity
8
0
100
AcDbLine
10
325.41414796416501
20
-361.96742914847982
30
0
11
325.41414796416501
21
-361.61145658493547
31
0
0
LINE
5
679
100
AcDbEntity
8
0
100
AcDbLine
10
324.76685262299111
20
-361.14748048549842
30
0
11
324.76685265306457
21
-361.38002931054348
31
0
0
SPLINE
5
680
100
AcDbEntity
8
0
100
AcDbSpline
70
0
71
3
72
8
73
4
74
0
42
0.000000001
43
0.0000000001
44
0.0000000001
40
0
40
0
40
0
40
0
40
1
40
1
40
1
40
1
10
318.16996152831035
20
-366.60863389284896
30
0
10
318.12821978159963
20
-366.68822750228571
30
0
10
318.07056928489686
20
-366.75449709212114
30
0
10
317.99656329800649
20
-366.80784977019857
30
0
0
LINE
5
681
100
AcDbEntity
8
0
100
AcDbLine
10
311.99951065073282
20
-364.49919035143927
30
0
11
311.85250431420639
21
-364.49919035143927
31
0
0
LINE
5
682
100
AcDbEntity
8
0
100
AcDbLine
10
325.44566001643642
20
-360.79290042848947
30
0
11
325.44566001643642
21
-360.51539045150651
31
0
0
SPLINE
5
683
100
AcDbEntity
8
0
100
AcDbSpline
70
0
71
3
72
8
73
4
74
0
42
0.000000001
43
0.0000000001
44
0.0000000001
40
0
40
0
40
0
40
0
40
1
40
1
40
1
40
1
10
311.51066322777905
20
-364.47639770439207
30
0
10
311.44249559872878
20
-364.47742221419543
30
0
10
311.39671081280443
20
-364.40987603122323
30
0
10
311.36160249746274
20
-364.35916146588966
30
0
0
SPLINE
5
684
100
AcDbEntity
8
0
100
AcDbSpline
70
0
71
3
72
8
73
4
74
0
42
0.000000001
43
0.0000000001
44
0.0000000001
40
0
40
0
40
0
40
0
40
1
40
1
40
1
40
1
10
325.62503852614918
20
-361.51645353923226
30
0
10
325.62503852614918
20
-361.5104291519803
30
0
10
325.62364722386229
20
-361.4951289068901
30
0
10
325.61993808497522
20
-361.46964289546526
30
0
0
SPLINE
5
685
100
AcDbEntity
8
0
100
AcDbSpline
70
0
71
3
72
8
73
4
74
0
42
0.000000001
43
0.0000000001
44
0.0000000001
40
0
40
0
40
0
40
0
40
1
40
1
40
1
40
1
10
317.87374515264423
20
-366.87942793846281
30
0
10
319.49958616815644
20
-366.80699780941467
30
0
10
321.03021997293274
20
-366.36842818708885
30
0
10
322.38514623041289
20
-365.64418622830726
30
0
0
SPLINE
5
686
100
AcDbEntity
8
0
100
AcDbSpline
70
0
71
3
72
8
73
4
74
0
42
0.000000001
43
0.0000000001
44
0.0000000001
40
0
40
0
40
0
40
0
40
1
40
1
40
1
40
1
10
322.33377608664819
20
-364.40488963416709
30
0
10
322.5958101780181
20
-364.40488963416709
30
0
10
322.78942292138362
20
-364.45867098871474
30
0
10
322.91462136249623
20
-364.56624719617639
30
0
0
SPLINE
5
687
100
AcDbEntity
8
0
100
AcDbSpline
70
0
71
3
72
8
73
4
74
0
42
0.000000001
43
0.0000000001
44
0.0000000001
40
0
40
0
40
0
40
0
40
1
40
1
40
1
40
1
10
311.68189382899902
20
-363.10859795999039
30
0
10
311.69948167866323
20
-363.093849062939
30
0
10
311.71730275708563
20
-363.07943987176992
30
0
10
311.73531390903725
20
-363.0653191789666
30
0
0
LINE
5
688
100
AcDbEntity
8
0
100
AcDbLine
10
308.45537228489007
20
-361.99334520238807
30
0
11
308.45537228489007
21
-361.99334520238807
31
0
0
SPLINE
5
689
100
AcDbEntity
8
0
100
AcDbSpline
70
0
71
3
72
8
73
4
74
0
42
0.000000001
43
0.0000000001
44
0.0000000001
40
0
40
0
40
0
40
0
40
1
40
1
40
1
40
1
10
309.7615289100421
20
-361.29772075012795
30
0
10
309.80542374498708
20
-361.35407418147173
30
0
10
309.82736443125037
20
-361.42249254581606
30
0
10
309.82736443125037
20
-361.50208748531793
30
0
0
LINE
5
690
100
AcDbEntity
8
0
100
AcDbLine
10
308.58089222436865
20
-361.09721751330193
30
0
11
308.58089222436865
21
-361.08386653291655
31
0
0
LINE
5
691
100
AcDbEntity
8
0
100
AcDbLine
10
324.99260666535997
20
-361.20331355573143
30
0
11
325.44566001643642
21
-360.79290042848947
31
0
0
SPLINE
5
692
100
AcDbEntity
8
0
100
AcDbSpline
70
0
71
3
72
8
73
4
74
0
42
0.000000001
43
0.0000000001
44
0.0000000001
40
0
40
0
40
0
40
0
40
1
40
1
40
1
40
1
10
323.10265848985159
20
-364.98617611426323
30
0
10
323.10265848985159
20
-365.07782254232109
30
0
10
323.08587527580772
20
-365.16344458312722
30
0
10
323.05188608464857
20
-365.24261354223722
30
0
0
SPLINE
5
693
100
AcDbEntity
8
0
100
AcDbSpline
70
0
71
3
72
8
73
4
74
0
42
0.000000001
43
0.0000000001
44
0.0000000001
40
0
40
0
40
0
40
0
40
1
40
1
40
1
40
1
10
312.26621339732907
20
-364.32303131884919
30
0
10
312.18080165064043
20
-364.38668033842458
30
0
10
312.10237274708561
20
-364.46388116028083
30
0
10
311.99951065073282
20
-364.49919035143927
30
0
0
SPLINE
5
694
100
AcDbEntity
8
0
100
AcDbSpline
70
0
71
3
72
8
73
4
74
0
42
0.000000001
43
0.0000000001
44
0.0000000001
40
0
40
0
40
0
40
0
40
1
40
1
40
1
40
1
10
309.64837588232189
20
-360.9547810297143
30
0
10
309.56364219935841
20
-361.01849204111977
30
0
10
309.479284619336
20
-361.06149447410451
30
0
10
309.39624676970516
20
-361.08386788095567
30
0
0
SPLINE
5
695
100
AcDbEntity
8
0
100
AcDbSpline
70
0
71
3
72
8
73
4
74
0
42
0.000000001
43
0.0000000001
44
0.0000000001
40
0
40
0
40
0
40
0
40
1
40
1
40
1
40
1
10
323.05188608464857
20
-365.24261354223722
30
0
10
323.04920201275456
20
-365.24886440007731
30
0
10
323.0464096843246
20
-365.25505594419161
30
0
10
323.04352259772469
20
-365.26119087065911
30
0
0
LINE
5
696
100
AcDbEntity
8
0
100
AcDbLine
10
309.39624676970516
20
-361.08386788095567
30
0
11
309.39624676970516
21
-361.09721886134105
31
0
0
LINE
5
697
100
AcDbEntity
8
0
100
AcDbLine
10
324.79746186643968
20
-361.10082889238487
30
0
11
324.79746186643968
21
-361.10082889238487
31
0
0
SPLINE
5
698
100
AcDbEntity
8
0
100
AcDbSpline
70
0
71
3
72
8
73
4
74
0
42
0.000000001
43
0.0000000001
44
0.0000000001
40
0
40
0
40
0
40
0
40
1
40
1
40
1
40
1
10
306.79068045567209
20
-356.19311217592923
30
0
10
306.79039736743692
20
-356.22425321186103
30
0
10
306.79030300469202
20
-356.25544279517845
30
0
10
306.79030300469202
20
-356.28665527718874
30
0
0
SPLINE
5
699
100
AcDbEntity
8
0
100
AcDbSpline
70
0
71
3
72
8
73
4
74
0
42
0.000000001
43
0.0000000001
44
0.0000000001
40
0
40
0
40
0
40
0
40
1
40
1
40
1
40
1
10
322.78640074328047
20
-364.19537204113641
30
0
10
322.73347014526826
20
-364.21645672249821
30
0
10
322.65990146229922
20
-364.22721407543406
30
0
10
322.56567233489613
20
-364.22721407543406
30
0
0
SPLINE
5
700
100
AcDbEntity
8
0
100
AcDbSpline
70
0
71
3
72
8
73
4
74
0
42
0.000000001
43
0.0000000001
44
0.0000000001
40
0
40
0
40
0
40
0
40
1
40
1
40
1
40
1
10
309.66343750649725
20
-361.90180392138905
30
0
10
309.60191031862007
20
-361.95860757985679
30
0
10
309.51542150657264
20
-362.00378037395137
30
0
10
309.40398451479922
20
-362.03733844419594
30
0
0
SPLINE
5
701
100
AcDbEntity
8
0
100
AcDbSpline
70
0
71
3
72
8
73
4
74
0
42
0.000000001
43
0.0000000001
44
0.0000000001
40
0
40
0
40
0
40
0
40
1
40
1
40
1
40
1
10
322.06141804593716
20
-365.18496196710322
30
0
10
322.09454745768505
20
-365.23143292296191
30
0
10
322.14661680242972
20
-365.25465962066255
30
0
10
322.21717680566172
20
-365.25465962066255
30
0
0
SPLINE
5
702
100
AcDbEntity
8
0
100
AcDbSpline
70
0
71
3
72
8
73
4
74
0
42
0.000000001
43
0.0000000001
44
0.0000000001
40
0
40
0
40
0
40
0
40
1
40
1
40
1
40
1
10
326.78783206150484
20
-356.87910621806361
30
0
10
326.75732149452693
20
-356.83598111351051
30
0
10
326.74062264976419
20
-356.78552806778453
30
0
10
326.7325038229709
20
-356.73357868055604
30
0
0
SPLINE
5
703
100
AcDbEntity
8
0
100
AcDbSpline
70
0
71
3
72
8
73
4
74
0
42
0.000000001
43
0.0000000001
44
0.0000000001
40
0
40
0
40
0
40
0
40
1
40
1
40
1
40
1
10
317.94879462973023
20
-365.2107135602273
30
0
10
318.07780890254031
20
-365.30288167946151
30
0
10
318.16306481589561
20
-365.44434081664429
30
0
10
318.20436925868506
20
-365.63495487373689
30
0
0
SPLINE
5
704
100
AcDbEntity
8
0
100
AcDbSpline
70
0
71
3
72
8
73
4
74
0
42
0.000000001
43
0.0000000001
44
0.0000000001
40
0
40
0
40
0
40
0
40
1
40
1
40
1
40
1
10
317.54606816588296
20
-365.51405195059573
30
0
10
317.51036265119518
20
-365.48091312054737
30
0
10
317.46732813487722
20
-365.46456544898712
30
0
10
317.41699249438
20
-365.46456544898712
30
0
0
SPLINE
5
705
100
AcDbEntity
8
0
100
AcDbSpline
70
0
71
3
72
8
73
4
74
0
42
0.000000001
43
0.0000000001
44
0.0000000001
40
0
40
0
40
0
40
0
40
1
40
1
40
1
40
1
10
322.36260444447669
20
-364.82226808003293
30
0
10
322.32860959155283
20
-364.78870325161864
30
0
10
322.27912997393094
20
-364.76547116176118
30
0
10
322.21459234487872
20
-364.75256907843448
30
0
0
LINE
5
706
100
AcDbEntity
8
0
100
AcDbLine
10
317.11264307460033
20
-365.993422657868
30
0
11
317.11264307460033
21
-365.80532810404225
31
0
0
SPLINE
5
707
100
AcDbEntity
8
0
100
AcDbSpline
70
0
71
3
72
8
73
4
74
0
42
0.000000001
43
0.0000000001
44
0.0000000001
40
0
40
0
40
0
40
0
40
1
40
1
40
1
40
1
10
309.40398451479922
20
-362.03733844419594
30
0
10
309.29254888903887
20
-362.07133194908045
30
0
10
309.15400015054746
20
-362.08811097521578
30
0
10
308.98835314572983
20
-362.08811097521578
30
0
0
SPLINE
5
708
100
AcDbEntity
8
0
100
AcDbSpline
70
0
71
3
72
8
73
4
74
0
42
0.000000001
43
0.0000000001
44
0.0000000001
40
0
40
0
40
0
40
0
40
1
40
1
40
1
40
1
10
311.36160249746274
20
-364.35916146588966
30
0
10
311.26263891254581
20
-364.18505281891947
30
0
10
311.26325901058476
20
-363.97461047098739
30
0
10
311.28399050567225
20
-363.78099974069374
30
0
0
SPLINE
5
709
100
AcDbEntity
8
0
100
AcDbSpline
70
0
71
3
72
8
73
4
74
0
42
0.000000001
43
0.0000000001
44
0.0000000001
40
0
40
0
40
0
40
0
40
1
40
1
40
1
40
1
10
317.61361932761321
20
-365.63495487373689
30
0
10
317.60415582271605
20
-365.5876279129767
30
0
10
317.58177838972091
20
-365.54717866626527
30
0
10
317.54606816588296
20
-365.51405195059573
30
0
0
LINE
5
710
100
AcDbEntity
8
0
100
AcDbLine
10
327.56353579477002
20
-356.30183554678894
30
0
11
327.4884587997102
21
-356.2894807673834
31
0
0
SPLINE
5
711
100
AcDbEntity
8
0
100
AcDbSpline
70
0
71
3
72
8
73
4
74
0
42
0.000000001
43
0.0000000001
44
0.0000000001
40
0
40
0
40
0
40
0
40
1
40
1
40
1
40
1
10
317.02943228052504
20
-365.24285888537429
30
0
10
316.93406432959324
20
-365.29256648338821
30
0
10
316.85287032800051
20
-365.35995494577224
30
0
10
316.79545465972922
20
-365.45151238526819
30
0
0
SPLINE
5
712
100
AcDbEntity
8
0
100
AcDbSpline
70
0
71
3
72
8
73
4
74
0
42
0.000000001
43
0.0000000001
44
0.0000000001
40
0
40
0
40
0
40
0
40
1
40
1
40
1
40
1
10
317.20490852226567
20
-366.60788168696718
30
0
10
317.15206256314235
20
-366.5394228814464
30
0
10
317.14363812687208
20
-366.43388895339547
30
0
10
317.14363812687208
20
-366.3504561462484
30
0
0
SPLINE
5
713
100
AcDbEntity
8
0
100
AcDbSpline
70
0
71
3
72
8
73
4
74
0
42
0.000000001
43
0.0000000001
44
0.0000000001
40
0
40
0
40
0
40
0
40
1
40
1
40
1
40
1
10
311.67819809980875
20
-364.32036440402311
30
0
10
311.61352234853894
20
-364.36265505649015
30
0
10
311.5773879078593
20
-364.43841273238581
30
0
10
311.51066322777905
20
-364.47639770439207
30
0
0
SPLINE
5
714
100
AcDbEntity
8
0
100
AcDbSpline
70
0
71
3
72
8
73
4
74
0
42
0.000000001
43
0.0000000001
44
0.0000000001
40
0
40
0
40
0
40
0
40
1
40
1
40
1
40
1
10
317.60700976552505
20
-365.44834718919128
30
0
10
317.63739820015013
20
-365.47654412545143
30
0
10
317.66117665928834
20
-365.50907768589246
30
0
10
317.67804925731906
20
-365.54532376430535
30
0
0
LINE
5
715
100
AcDbEntity
8
0
100
AcDbLine
10
322.4236997205893
20
-365.04771004233646
30
0
11
322.4236997205893
21
-364.96511167146349
31
0
0
LWPOLYLINE
5
716
100
AcDbEntity
8
0
100
AcDbPolyline
90
3
70
1
43
0.0
10
325.67277381697443
20
-361.11370940708429
10
325.67277381697443
20
-360.70813843670265
10
325.22503308844426
20
-361.11370940708429
0
SPLINE
5
717
100
AcDbEntity
8
0
100
AcDbSpline
70
0
71
3
72
8
73
4
74
0
42
0.000000001
43
0.0000000001
44
0.0000000001
40
0
40
0
40
0
40
0
40
1
40
1
40
1
40
1
10
326.2742473101323
20
-356.86981687983319
30
0
10
326.30349773005207
20
-356.94836845495649
30
0
10
326.35328768427513
20
-357.01640397616364
30
0
10
326.41313386725119
20
-357.07447344345439
30
0
0
SPLINE
5
718
100
AcDbEntity
8
0
100
AcDbSpline
70
0
71
3
72
8
73
4
74
0
42
0.000000001
43
0.0000000001
44
0.0000000001
40
0
40
0
40
0
40
0
40
1
40
1
40
1
40
1
10
322.21459234487872
20
-364.75256907843448
30
0
10
322.15048109164348
20
-364.7396535147156
30
0
10
322.0652865230594
20
-364.73320584315013
30
0
10
321.95901739239446
20
-364.73320584315013
30
0
0
LINE
5
719
100
AcDbEntity
8
0
100
AcDbLine
10
322.04168316522816
20
-363.79606406094763
30
0
11
322.92193217458401
21
-363.79606406094763
31
0
0
SPLINE
5
720
100
AcDbEntity
8
0
100
AcDbSpline
70
0
71
3
72
8
73
4
74
0
42
0.000000001
43
0.0000000001
44
0.0000000001
40
0
40
0
40
0
40
0
40
1
40
1
40
1
40
1
10
321.78047570947894
20
-365.56058222017992
30
0
10
321.652251603335
20
-365.50335123328091
30
0
10
321.56146725534194
20
-365.42848924148905
30
0
10
321.50897879621846
20
-365.33683607323508
30
0
0
SPLINE
5
721
100
AcDbEntity
8
0
100
AcDbSpline
70
0
71
3
72
8
73
4
74
0
42
0.000000001
43
0.0000000001
44
0.0000000001
40
0
40
0
40
0
40
0
40
1
40
1
40
1
40
1
10
327.56424081927952
20
-356.11040324786683
30
0
10
327.63057888950721
20
-356.10003278218574
30
0
10
327.69304389927925
20
-356.07819589494198
30
0
10
327.75052927016503
20
-356.04349199136487
30
0
0
SPLINE
5
722
100
AcDbEntity
8
0
100
AcDbSpline
70
0
71
3
72
8
73
4
74
0
42
0.000000001
43
0.0000000001
44
0.0000000001
40
0
40
0
40
0
40
0
40
1
40
1
40
1
40
1
10
309.7701927580768
20
-360.7447633141349
30
0
10
309.75576469435867
20
-360.8344604595141
30
0
10
309.71516446725514
20
-360.90456656895554
30
0
10
309.64837588232189
20
-360.9547810297143
30
0
0
SPLINE
5
723
100
AcDbEntity
8
0
100
AcDbSpline
70
0
71
3
72
8
73
4
74
0
42
0.000000001
43
0.0000000001
44
0.0000000001
40
0
40
0
40
0
40
0
40
1
40
1
40
1
40
1
10
327.66150317870722
20
-357.21305857900484
30
0
10
327.75754851035765
20
-357.1713583519018
30
0
10
327.85871329952175
20
-357.10990530618147
30
0
10
327.91487394328402
20
-357.01858510361359
30
0
0
LINE
5
724
100
AcDbEntity
8
0
100
AcDbLine
10
317.67804925731906
20
-365.54532376430535
30
0
11
318.08592343358197
21
-365.54532376430535
31
0
0
SPLINE
5
725
100
AcDbEntity
8
0
100
AcDbSpline
70
0
71
3
72
8
73
4
74
0
42
0.000000001
43
0.0000000001
44
0.0000000001
40
0
40
0
40
0
40
0
40
1
40
1
40
1
40
1
10
326.93365291437175
20
-356.99586390264477
30
0
10
326.87242013825914
20
-356.97492482749209
30
0
10
326.82468446998286
20
-356.93118230300445
30
0
10
326.78783206150484
20
-356.87910621806361
30
0
0
SPLINE
5
726
100
AcDbEntity
8
0
100
AcDbSpline
70
0
71
3
72
8
73
4
74
0
42
0.000000001
43
0.0000000001
44
0.0000000001
40
0
40
0
40
0
40
0
40
1
40
1
40
1
40
1
10
327.14454739465657
20
-355.27746351299669
30
0
10
326.97041110389557
20
-355.27746351299669
30
0
10
326.76476265301989
20
-355.29647760612431
30
0
10
326.60740459754436
20
-355.37721704889367
30
0
0
LINE
5
727
100
AcDbEntity
8
0
100
AcDbLine
10
321.42464454626128
20
-365.03264841816116
30
0
11
322.00505102635805
21
-365.03264841816116
31
0
0
LINE
5
728
100
AcDbEntity
8
0
100
AcDbLine
10
317.23928442585606
20
-365.93597072603262
30
0
11
317.11264307460033
21
-365.993422657868
31
0
0
SPLINE
5
729
100
AcDbEntity
8
0
100
AcDbSpline
70
0
71
3
72
8
73
4
74
0
42
0.000000001
43
0.0000000001
44
0.0000000001
40
0
40
0
40
0
40
0
40
1
40
1
40
1
40
1
10
327.26668860864663
20
-356.95977017063694
30
0
10
327.20769453024531
20
-356.99987431930941
30
0
10
327.14116786034447
20
-357.02061659871066
30
0
10
327.06980376070771
20
-357.02061659871066
30
0
0
SPLINE
5
730
100
AcDbEntity
8
0
100
AcDbSpline
70
0
71
3
72
8
73
4
74
0
42
0.000000001
43
0.0000000001
44
0.0000000001
40
0
40
0
40
0
40
0
40
1
40
1
40
1
40
1
10
311.73531390903725
20
-363.0653191789666
30
0
10
310.95430738492507
20
-362.41270931001776
30
0
10
310.28774126598341
20
-361.62767347871801
30
0
10
309.7701927580768
20
-360.7447633141349
30
0
0
SPLINE
5
731
100
AcDbEntity
8
0
100
AcDbSpline
70
0
71
3
72
8
73
4
74
0
42
0.000000001
43
0.0000000001
44
0.0000000001
40
0
40
0
40
0
40
0
40
1
40
1
40
1
40
1
10
322.21717680566172
20
-365.25465962066255
30
0
10
322.27310652131962
20
-365.25465962066255
30
0
10
322.31957882521743
20
-365.23572912394008
30
0
10
322.3574360621264
20
-365.19872679552765
30
0
0
LINE
5
732
100
AcDbEntity
8
0
100
AcDbLine
10
326.28185833954018
20
-355.77693887712144
30
0
11
326.79010242915075
21
-355.77693887712144
31
0
0
SPLINE
5
733
100
AcDbEntity
8
0
100
AcDbSpline
70
0
71
3
72
8
73
4
74
0
42
0.000000001
43
0.0000000001
44
0.0000000001
40
0
40
0
40
0
40
0
40
1
40
1
40
1
40
1
10
318.08592343358197
20
-365.54532376430535
30
0
10
318.04866188621526
20
-365.44204375782203
30
0
10
317.98941746794475
20
-365.34994440656175
30
0
10
317.89664925557378
20
-365.2836155030007
30
0
0
SPLINE
5
734
100
AcDbEntity
8
0
100
AcDbSpline
70
0
71
3
72
8
73
4
74
0
42
0.000000001
43
0.0000000001
44
0.0000000001
40
0
40
0
40
0
40
0
40
1
40
1
40
1
40
1
10
317.89664925557378
20
-365.2836155030007
30
0
10
317.7629712523738
20
-365.18803414847429
30
0
10
317.58794647795321
20
-365.16178514685356
30
0
10
317.42730256790423
20
-365.16178514685356
30
0
0
SPLINE
5
735
100
AcDbEntity
8
0
100
AcDbSpline
70
0
71
3
72
8
73
4
74
0
42
0.000000001
43
0.0000000001
44
0.0000000001
40
0
40
0
40
0
40
0
40
1
40
1
40
1
40
1
10
327.8787078125834
20
-355.91574509110319
30
0
10
327.9116486246582
20
-355.86146226596736
30
0
10
327.92499568674293
20
-355.80172660423307
30
0
10
327.92499568674293
20
-355.73849819086661
30
0
0
LINE
5
736
100
AcDbEntity
8
0
100
AcDbLine
10
321.57651027657613
20
-364.75643121078537
30
0
11
321.63278388602458
21
-364.0347518745516
31
0
0
SPLINE
5
737
100
AcDbEntity
8
0
100
AcDbSpline
70
0
71
3
72
8
73
4
74
0
42
0.000000001
43
0.0000000001
44
0.0000000001
40
0
40
0
40
0
40
0
40
1
40
1
40
1
40
1
10
317.41697389143889
20
-365.37493568759481
30
0
10
317.48904287179437
20
-365.37493568759481
30
0
10
317.55410260542129
20
-365.39925566307255
30
0
10
317.60700976552505
20
-365.44834718919128
30
0
0
SPLINE
5
738
100
AcDbEntity
8
0
100
AcDbSpline
70
0
71
3
72
8
73
4
74
0
42
0.000000001
43
0.0000000001
44
0.0000000001
40
0
40
0
40
0
40
0
40
1
40
1
40
1
40
1
10
317.41699249438
20
-365.46456544898712
30
0
10
317.27414270196903
20
-365.46456544898712
30
0
10
317.20228980331279
20
-365.57815793749114
30
0
10
317.20228980331279
20
-365.80533214816001
30
0
0
SPLINE
5
739
100
AcDbEntity
8
0
100
AcDbSpline
70
0
71
3
72
8
73
4
74
0
42
0.000000001
43
0.0000000001
44
0.0000000001
40
0
40
0
40
0
40
0
40
1
40
1
40
1
40
1
10
326.41313386725119
20
-357.07447344345439
30
0
10
326.48966877570894
20
-357.14873690583488
30
0
10
326.59264466454539
20
-357.19829754960051
30
0
10
326.6925766628604
20
-357.23235710840675
30
0
0
SPLINE
5
740
100
AcDbEntity
8
0
100
AcDbSpline
70
0
71
3
72
8
73
4
74
0
42
0.000000001
43
0.0000000001
44
0.0000000001
40
0
40
0
40
0
40
0
40
1
40
1
40
1
40
1
10
322.3574360621264
20
-365.19872679552765
30
0
10
322.39530530557107
20
-365.16172178901041
30
0
10
322.41724922712848
20
-365.11138600472231
30
0
10
322.4236997205893
20
-365.04771004233646
30
0
0
LINE
5
741
100
AcDbEntity
8
0
100
AcDbLine
10
318.20436925868506
20
-365.63495487373689
30
0
11
317.61361932761321
21
-365.63495487373689
31
0
0
SPLINE
5
742
100
AcDbEntity
8
0
100
AcDbSpline
70
0
71
3
72
8
73
4
74
0
42
0.000000001
43
0.0000000001
44
0.0000000001
40
0
40
0
40
0
40
0
40
1
40
1
40
1
40
1
10
317.20228980331279
20
-365.85436436055323
30
0
10
317.30857192167628
20
-365.80618714559995
30
0
10
317.43334244687668
20
-365.78209363053924
30
0
10
317.57662023254306
20
-365.78210135887201
30
0
0
SPLINE
5
743
100
AcDbEntity
8
0
100
AcDbSpline
70
0
71
3
72
8
73
4
74
0
42
0.000000001
43
0.0000000001
44
0.0000000001
40
0
40
0
40
0
40
0
40
1
40
1
40
1
40
1
10
321.63278388602458
20
-364.0347518745516
30
0
10
320.46813251897044
20
-364.67329091017416
30
0
10
319.14383398206303
20
-365.05688614527287
30
0
10
317.73500375238802
20
-365.11041678250069
30
0
0
SPLINE
5
744
100
AcDbEntity
8
0
100
AcDbSpline
70
0
71
3
72
8
73
4
74
0
42
0.000000001
43
0.0000000001
44
0.0000000001
40
0
40
0
40
0
40
0
40
1
40
1
40
1
40
1
10
326.23906781832017
20
-356.73357868055604
30
0
10
326.24582404707485
20
-356.77994583739525
30
0
10
326.25771321373549
20
-356.82542192233933
30
0
10
326.2742473101323
20
-356.86981687983319
30
0
0
SPLINE
5
745
100
AcDbEntity
8
0
100
AcDbSpline
70
0
71
3
72
8
73
4
74
0
42
0.000000001
43
0.0000000001
44
0.0000000001
40
0
40
0
40
0
40
0
40
1
40
1
40
1
40
1
10
327.83451114267126
20
-355.50313600797989
30
0
10
327.76068471460439
20
-355.42280502109259
30
0
10
327.6618988192298
20
-355.37133959791623
30
0
10
327.55923905457621
20
-355.33782736100517
30
0
0
SPLINE
5
746
100
AcDbEntity
8
0
100
AcDbSpline
70
0
71
3
72
8
73
4
74
0
42
0.000000001
43
0.0000000001
44
0.0000000001
40
0
40
0
40
0
40
0
40
1
40
1
40
1
40
1
10
322.38514623041289
20
-365.64418622830726
30
0
10
322.35581532356508
20
-365.64610179203191
30
0
10
322.32564297063919
20
-365.64706294399218
30
0
10
322.29463767326945
20
-365.64706294399218
30
0
0
SPLINE
5
747
100
AcDbEntity
8
0
100
AcDbSpline
70
0
71
3
72
8
73
4
74
0
42
0.000000001
43
0.0000000001
44
0.0000000001
40
0
40
0
40
0
40
0
40
1
40
1
40
1
40
1
10
322.4236997205893
20
-364.96511167146349
30
0
10
322.41681717157326
20
-364.90401855221359
30
0
10
322.39659322223719
20
-364.85625617478689
30
0
10
322.36260444447669
20
-364.82226808003293
30
0
0
SPLINE
5
748
100
AcDbEntity
8
0
100
AcDbSpline
70
0
71
3
72
8
73
4
74
0
42
0.000000001
43
0.0000000001
44
0.0000000001
40
0
40
0
40
0
40
0
40
1
40
1
40
1
40
1
10
317.37540160224432
20
-365.89163629680877
30
0
10
317.32864857723763
20
-365.90175158895539
30
0
10
317.28292516641284
20
-365.91618060316137
30
0
10
317.23928442585606
20
-365.93597072603262
30
0
0
LINE
5
749
100
AcDbEntity
8
0
100
AcDbLine
10
327.4884587997102
20
-356.2894807673834
30
0
11
327.4884587997102
21
-356.12225116452743
31
0
0
SPLINE
5
750
100
AcDbEntity
8
0
100
AcDbSpline
70
0
71
3
72
8
73
4
74
0
42
0.000000001
43
0.0000000001
44
0.0000000001
40
0
40
0
40
0
40
0
40
1
40
1
40
1
40
1
10
327.98779894651489
20
-356.7665368913236
30
0
10
327.98779894651489
20
-356.48232715944215
30
0
10
327.83658888450032
20
-356.34679937683143
30
0
10
327.56353579477002
20
-356.30183554678894
30
0
0
SPLINE
5
751
100
AcDbEntity
8
0
100
AcDbSpline
70
0
71
3
72
8
73
4
74
0
42
0.000000001
43
0.0000000001
44
0.0000000001
40
0
40
0
40
0
40
0
40
1
40
1
40
1
40
1
10
317.26510235556839
20
-365.41595247678964
30
0
10
317.31102370685221
20
-365.38715566307872
30
0
10
317.36311717251203
20
-365.37493568759481
30
0
10
317.41697389143889
20
-365.37493568759481
30
0
0
SPLINE
5
752
100
AcDbEntity
8
0
100
AcDbSpline
70
0
71
3
72
8
73
4
74
0
42
0.000000001
43
0.0000000001
44
0.0000000001
40
0
40
0
40
0
40
0
40
1
40
1
40
1
40
1
10
327.91487394328402
20
-357.01858510361359
30
0
10
327.96251526678913
20
-356.94112274417591
30
0
10
327.98779894651489
20
-356.85766969846674
30
0
10
327.98779894651489
20
-356.7665368913236
30
0
0
SPLINE
5
753
100
AcDbEntity
8
0
100
AcDbSpline
70
0
71
3
72
8
73
4
74
0
42
0.000000001
43
0.0000000001
44
0.0000000001
40
0
40
0
40
0
40
0
40
1
40
1
40
1
40
1
10
308.15009135203894
20
-361.48546213565322
30
0
10
308.15295323929234
20
-361.41292955562483
30
0
10
308.1746458863401
20
-361.35000984323847
30
0
10
308.21516927520844
20
-361.29771940208877
30
0
0
SPLINE
5
754
100
AcDbEntity
8
0
100
AcDbSpline
70
0
71
3
72
8
73
4
74
0
42
0.000000001
43
0.0000000001
44
0.0000000001
40
0
40
0
40
0
40
0
40
1
40
1
40
1
40
1
10
327.92499568674293
20
-355.73849819086661
30
0
10
327.92499568674293
20
-355.64747592293901
30
0
10
327.89614860015632
20
-355.57021576938359
30
0
10
327.83451114267126
20
-355.50313600797989
30
0
0
SPLINE
5
755
100
AcDbEntity
8
0
100
AcDbSpline
70
0
71
3
72
8
73
4
74
0
42
0.000000001
43
0.0000000001
44
0.0000000001
40
0
40
0
40
0
40
0
40
1
40
1
40
1
40
1
10
327.06980376070771
20
-357.02061659871066
30
0
10
327.02341289635223
20
-357.02061659871066
30
0
10
326.97740757121221
20
-357.0108338781273
30
0
10
326.93365291437175
20
-356.99586390264477
30
0
0
SPLINE
5
756
100
AcDbEntity
8
0
100
AcDbSpline
70
0
71
3
72
8
73
4
74
0
42
0.000000001
43
0.0000000001
44
0.0000000001
40
0
40
0
40
0
40
0
40
1
40
1
40
1
40
1
10
321.50897879621846
20
-365.33683607323508
30
0
10
321.45605736487278
20
-365.24562236576514
30
0
10
321.42809013449482
20
-365.14407730372523
30
0
10
321.42464454626128
20
-365.03264841816116
30
0
0
LINE
5
757
100
AcDbEntity
8
0
100
AcDbLine
10
317.20228980331279
20
-365.80533214816001
30
0
11
317.20228980331279
21
-365.85436436055323
31
0
0
SPLINE
5
758
100
AcDbEntity
8
0
100
AcDbSpline
70
0
71
3
72
8
73
4
74
0
42
0.000000001
43
0.0000000001
44
0.0000000001
40
0
40
0
40
0
40
0
40
1
40
1
40
1
40
1
10
327.75052927016503
20
-356.04349199136487
30
0
10
327.80375685020334
20
-356.01135338844011
30
0
10
327.84645194822082
20
-355.96889286721978
30
0
10
327.8787078125834
20
-355.91574509110319
30
0
0
SPLINE
5
759
100
AcDbEntity
8
0
100
AcDbSpline
70
0
71
3
72
8
73
4
74
0
42
0.000000001
43
0.0000000001
44
0.0000000001
40
0
40
0
40
0
40
0
40
1
40
1
40
1
40
1
10
322.00505102635805
20
-365.03264841816116
30
0
10
322.00935678942778
20
-365.08772119427681
30
0
10
322.02828473386245
20
-365.138495073336
30
0
10
322.06141804593716
20
-365.18496196710322
30
0
0
SPLINE
5
760
100
AcDbEntity
8
0
100
AcDbSpline
70
0
71
3
72
8
73
4
74
0
42
0.000000001
43
0.0000000001
44
0.0000000001
40
0
40
0
40
0
40
0
40
1
40
1
40
1
40
1
10
317.60284932108283
20
-366.35048041095428
30
0
10
317.60284932108283
20
-366.26958863975358
30
0
10
317.58951653023991
20
-366.21106353520827
30
0
10
317.5632652279657
20
-366.17493204012874
30
0
0
SPLINE
5
761
100
AcDbEntity
8
0
100
AcDbSpline
70
0
71
3
72
8
73
4
74
0
42
0.000000001
43
0.0000000001
44
0.0000000001
40
0
40
0
40
0
40
0
40
1
40
1
40
1
40
1
10
317.42730256790423
20
-365.16178514685356
30
0
10
317.29345066764557
20
-365.16178514685356
30
0
10
317.1495709912482
20
-365.18023574161538
30
0
10
317.02943228052504
20
-365.24285888537429
30
0
0
SPLINE
5
762
100
AcDbEntity
8
0
100
AcDbSpline
70
0
71
3
72
8
73
4
74
0
42
0.000000001
43
0.0000000001
44
0.0000000001
40
0
40
0
40
0
40
0
40
1
40
1
40
1
40
1
10
318.14313677015417
20
-366.33971227370489
30
0
10
318.14313677015417
20
-366.27357479171235
30
0
10
318.13207003323168
20
-366.20806010383723
30
0
10
318.10492552017359
20
-366.14746306301851
30
0
0
SPLINE
5
763
100
AcDbEntity
8
0
100
AcDbSpline
70
0
71
3
72
8
73
4
74
0
42
0.000000001
43
0.0000000001
44
0.0000000001
40
0
40
0
40
0
40
0
40
1
40
1
40
1
40
1
10
317.27584946340613
20
-366.55313513634138
30
0
10
317.3042490009733
20
-366.58969933403512
30
0
10
317.3511480940868
20
-366.60820386833933
30
0
10
317.41697861856306
20
-366.60820386833933
30
0
0
SPLINE
5
764
100
AcDbEntity
8
0
100
AcDbSpline
70
0
71
3
72
8
73
4
74
0
42
0.000000001
43
0.0000000001
44
0.0000000001
40
0
40
0
40
0
40
0
40
1
40
1
40
1
40
1
10
327.08723027703871
20
-355.55268721547088
30
0
10
327.14965324596119
20
-355.55268721547088
30
0
10
327.20907695344727
20
-355.56852937232566
30
0
10
327.26456843054314
20
-355.59689481348772
30
0
0
SPLINE
5
765
100
AcDbEntity
8
0
100
AcDbSpline
70
0
71
3
72
8
73
4
74
0
42
0.000000001
43
0.0000000001
44
0.0000000001
40
0
40
0
40
0
40
0
40
1
40
1
40
1
40
1
10
326.79010242915075
20
-355.77693887712144
30
0
10
326.80696559090688
20
-355.71985347845771
30
0
10
326.83637116115329
20
-355.66758327586996
30
0
10
326.88364189969138
20
-355.62794957490968
30
0
0
LINE
5
766
100
AcDbEntity
8
0
100
AcDbLine
10
326.90825155980963
20
-356.09671390963854
30
0
11
326.90825155980963
21
-356.37194435230873
31
0
0
SPLINE
5
767
100
AcDbEntity
8
0
100
AcDbSpline
70
0
71
3
72
8
73
4
74
0
42
0.000000001
43
0.0000000001
44
0.0000000001
40
0
40
0
40
0
40
0
40
1
40
1
40
1
40
1
10
317.41697861856306
20
-366.60820386833933
30
0
10
317.48366947964013
20
-366.60820386833933
30
0
10
317.53142887340675
20
-366.59013205462321
30
0
10
317.55982868058175
20
-366.55355842065489
30
0
0
SPLINE
5
768
100
AcDbEntity
8
0
100
AcDbSpline
70
0
71
3
72
8
73
4
74
0
42
0.000000001
43
0.0000000001
44
0.0000000001
40
0
40
0
40
0
40
0
40
1
40
1
40
1
40
1
10
317.37540160224432
20
-366.69565113626885
30
0
10
317.30927463495766
20
-366.68856316405021
30
0
10
317.24758580819167
20
-366.66316071308273
30
0
10
317.20490852226567
20
-366.60788168696718
30
0
0
SPLINE
5
769
100
AcDbEntity
8
0
100
AcDbSpline
70
0
71
3
72
8
73
4
74
0
42
0.000000001
43
0.0000000001
44
0.0000000001
40
0
40
0
40
0
40
0
40
1
40
1
40
1
40
1
10
317.41697861856306
20
-366.12028524440484
30
0
10
317.34770681957872
20
-366.12028524440484
30
0
10
317.29951510064893
20
-366.13835436204278
30
0
10
317.27327309085837
20
-366.17493204012874
30
0
0
LINE
5
770
100
AcDbEntity
8
0
100
AcDbLine
10
313.00877790512095
20
-364.0012908451568
30
0
11
312.85481029408822
21
-364.15445637285654
31
0
0
SPLINE
5
771
100
AcDbEntity
8
0
100
AcDbSpline
70
0
71
3
72
8
73
4
74
0
42
0.000000001
43
0.0000000001
44
0.0000000001
40
0
40
0
40
0
40
0
40
1
40
1
40
1
40
1
10
312.85481029408822
20
-364.15445637285654
30
0
10
312.78476215033294
20
-364.22413784994535
30
0
10
312.71496878598953
20
-364.29458096919046
30
0
10
312.64775556870342
20
-364.36700975019937
30
0
0
SPLINE
5
772
100
AcDbEntity
8
0
100
AcDbSpline
70
0
71
3
72
8
73
4
74
0
42
0.000000001
43
0.0000000001
44
0.0000000001
40
0
40
0
40
0
40
0
40
1
40
1
40
1
40
1
10
317.57660245835103
20
-365.87172306152485
30
0
10
317.53735686686781
20
-365.87172306152485
30
0
10
317.49781080643032
20
-365.87367232622967
30
0
10
317.45855590448957
20
-365.87812489975681
30
0
0
SPLINE
5
773
100
AcDbEntity
8
0
100
AcDbSpline
70
0
71
3
72
8
73
4
74
0
42
0.000000001
43
0.0000000001
44
0.0000000001
40
0
40
0
40
0
40
0
40
1
40
1
40
1
40
1
10
317.23326141767615
20
-366.35048041095428
30
0
10
317.23326141767615
20
-366.44857988476059
30
0
10
317.24744953041397
20
-366.51613280792878
30
0
10
317.27584946340613
20
-366.55313513634138
30
0
0
SPLINE
5
774
100
AcDbEntity
8
0
100
AcDbSpline
70
0
71
3
72
8
73
4
74
0
42
0.000000001
43
0.0000000001
44
0.0000000001
40
0
40
0
40
0
40
0
40
1
40
1
40
1
40
1
10
317.45855590448957
20
-366.03257104673702
30
0
10
317.52727757765717
20
-366.03909555653769
30
0
10
317.59301900572825
20
-366.06352876730966
30
0
10
317.63572920178495
20
-366.12220485224708
30
0
0
SPLINE
5
775
100
AcDbEntity
8
0
100
AcDbSpline
70
0
71
3
72
8
73
4
74
0
42
0.000000001
43
0.0000000001
44
0.0000000001
40
0
40
0
40
0
40
0
40
1
40
1
40
1
40
1
10
326.88364189969138
20
-355.62794957490968
30
0
10
326.9418615385506
20
-355.57915057330058
30
0
10
327.01107228034539
20
-355.55268721547088
30
0
10
327.08723027703871
20
-355.55268721547088
30
0
0
SPLINE
5
776
100
AcDbEntity
8
0
100
AcDbSpline
70
0
71
3
72
8
73
4
74
0
42
0.000000001
43
0.0000000001
44
0.0000000001
40
0
40
0
40
0
40
0
40
1
40
1
40
1
40
1
10
325.73241268949317
20
-351.61569662923995
30
0
10
325.53589894776309
20
-351.76828250007725
30
0
10
325.32319459002827
20
-351.89829410622031
30
0
10
325.10016574373657
20
-352.00812691335398
30
0
0
SPLINE
5
777
100
AcDbEntity
8
0
100
AcDbSpline
70
0
71
3
72
8
73
4
74
0
42
0.000000001
43
0.0000000001
44
0.0000000001
40
0
40
0
40
0
40
0
40
1
40
1
40
1
40
1
10
312.09225571277716
20
-364.21300709014702
30
0
10
312.10511222242206
20
-364.16057078572197
30
0
10
312.12642759148116
20
-364.10919069026943
30
0
10
312.16330621224409
20
-364.07232349639992
30
0
0
LINE
5
778
100
AcDbEntity
8
0
100
AcDbLine
10
317.37540160224432
20
-366.87885771787484
30
0
11
317.37540160224432
21
-366.69565113626885
31
0
0
SPLINE
5
779
100
AcDbEntity
8
0
100
AcDbSpline
70
0
71
3
72
8
73
4
74
0
42
0.000000001
43
0.0000000001
44
0.0000000001
40
0
40
0
40
0
40
0
40
1
40
1
40
1
40
1
10
326.17108041312605
20
-350.59488478498832
30
0
10
326.08190292787719
20
-350.5724884614703
30
0
10
325.99049389851206
20
-350.56230402520112
30
0
10
325.89860888548691
20
-350.56230402520112
30
0
0
LINE
5
780
100
AcDbEntity
8
0
100
AcDbLine
10
325.11973251496852
20
-351.0744846409533
30
0
11
325.54556478435944
21
-351.07267557232683
31
0
0
LINE
5
781
100
AcDbEntity
8
0
100
AcDbLine
10
317.37540160224432
20
-366.03262362026646
30
0
11
317.37540160224432
21
-365.89163629680877
31
0
0
LINE
5
782
100
AcDbEntity
8
0
100
AcDbLine
10
317.45855590448957
20
-365.87812489975681
30
0
11
317.45855590448957
21
-365.87812489975681
31
0
0
LINE
5
783
100
AcDbEntity
8
0
100
AcDbLine
10
325.10016574373657
20
-352.00812691335398
30
0
11
325.10016574373657
21
-352.23663703088459
31
0
0
SPLINE
5
784
100
AcDbEntity
8
0
100
AcDbSpline
70
0
71
3
72
8
73
4
74
0
42
0.000000001
43
0.0000000001
44
0.0000000001
40
0
40
0
40
0
40
0
40
1
40
1
40
1
40
1
10
325.89860888548691
20
-350.56230402520112
30
0
10
325.73892397053555
20
-350.56230402520112
30
0
10
325.55046772880144
20
-350.58197326538715
30
0
10
325.41002513900366
20
-350.66442606599884
30
0
0
SPLINE
5
785
100
AcDbEntity
8
0
100
AcDbSpline
70
0
71
3
72
8
73
4
74
0
42
0.000000001
43
0.0000000001
44
0.0000000001
40
0
40
0
40
0
40
0
40
1
40
1
40
1
40
1
10
316.67781711893929
20
-365.7462974847914
30
0
10
316.65437241633686
20
-365.8607635027069
30
0
10
316.64435420228966
20
-365.97770317258198
30
0
10
316.64435420228966
20
-366.0944662672938
30
0
0
SPLINE
5
786
100
AcDbEntity
8
0
100
AcDbSpline
70
0
71
3
72
8
73
4
74
0
42
0.000000001
43
0.0000000001
44
0.0000000001
40
0
40
0
40
0
40
0
40
1
40
1
40
1
40
1
10
327.26456843054314
20
-355.59689481348772
30
0
10
327.34808037657911
20
-355.63957910921761
30
0
10
327.38066908081089
20
-355.72246463041711
30
0
10
327.38066908081089
20
-355.81274412873728
30
0
0
SPLINE
5
787
100
AcDbEntity
8
0
100
AcDbSpline
70
0
71
3
72
8
73
4
74
0
42
0.000000001
43
0.0000000001
44
0.0000000001
40
0
40
0
40
0
40
0
40
1
40
1
40
1
40
1
10
317.94412651371954
20
-366.73514733722908
30
0
10
318.00626661009312
20
-366.69035064607533
30
0
10
318.05498014601602
20
-366.63468877682271
30
0
10
318.09061042214159
20
-366.5669228634585
30
0
0
SPLINE
5
788
100
AcDbEntity
8
0
100
AcDbSpline
70
0
71
3
72
8
73
4
74
0
42
0.000000001
43
0.0000000001
44
0.0000000001
40
0
40
0
40
0
40
0
40
1
40
1
40
1
40
1
10
317.14363812687208
20
-366.3504561462484
30
0
10
317.14363812687208
20
-366.27348582112427
30
0
10
317.15427226902358
20
-366.18610189306418
30
0
10
317.20080913501289
20
-366.12216441107051
30
0
0
LINE
5
789
100
AcDbEntity
8
0
100
AcDbLine
10
311.93035625697712
20
-364.21300709014702
30
0
11
312.09225571277716
21
-364.21300709014702
31
0
0
SPLINE
5
790
100
AcDbEntity
8
0
100
AcDbSpline
70
0
71
3
72
8
73
4
74
0
42
0.000000001
43
0.0000000001
44
0.0000000001
40
0
40
0
40
0
40
0
40
1
40
1
40
1
40
1
10
317.55982868058175
20
-366.55355842065489
30
0
10
317.58865162827954
20
-366.51741748930078
30
0
10
317.60284932108283
20
-366.44943588966208
30
0
10
317.60284932108283
20
-366.35048041095428
30
0
0
SPLINE
5
791
100
AcDbEntity
8
0
100
AcDbSpline
70
0
71
3
72
8
73
4
74
0
42
0.000000001
43
0.0000000001
44
0.0000000001
40
0
40
0
40
0
40
0
40
1
40
1
40
1
40
1
10
312.16330621224409
20
-364.07232349639992
30
0
10
312.22009256353294
20
-364.01551060382849
30
0
10
312.30444242447271
20
-364.00130338361913
30
0
10
312.38155564073435
20
-364.0012908451568
30
0
0
SPLINE
5
792
100
AcDbEntity
8
0
100
AcDbSpline
70
0
71
3
72
8
73
4
74
0
42
0.000000001
43
0.0000000001
44
0.0000000001
40
0
40
0
40
0
40
0
40
1
40
1
40
1
40
1
10
312.64775556870342
20
-364.36700975019937
30
0
10
312.59409688572424
20
-364.42483117827453
30
0
10
312.54322999195927
20
-364.4853001553679
30
0
10
312.49560241845415
20
-364.54818481873451
30
0
0
SPLINE
5
793
100
AcDbEntity
8
0
100
AcDbSpline
70
0
71
3
72
8
73
4
74
0
42
0.000000001
43
0.0000000001
44
0.0000000001
40
0
40
0
40
0
40
0
40
1
40
1
40
1
40
1
10
325.1796385688595
20
-350.89329474398676
30
0
10
325.15269678292555
20
-350.95144778970888
30
0
10
325.13204942345885
20
-351.01203135013554
30
0
10
325.11973251496852
20
-351.0744846409533
30
0
0
LINE
5
794
100
AcDbEntity
8
0
100
AcDbLine
10
317.45855590448957
20
-366.69575089117063
30
0
11
317.45855590448957
21
-366.87970698258033
31
0
0
SPLINE
5
795
100
AcDbEntity
8
0
100
AcDbSpline
70
0
71
3
72
8
73
4
74
0
42
0.000000001
43
0.0000000001
44
0.0000000001
40
0
40
0
40
0
40
0
40
1
40
1
40
1
40
1
10
326.99451889800093
20
-356.37194435230873
30
0
10
327.07614145024689
20
-356.37194435230873
30
0
10
327.15417065118766
20
-356.38944594543716
30
0
10
327.22784865115005
20
-356.42448146666123
30
0
0
SPLINE
5
796
100
AcDbEntity
8
0
100
AcDbSpline
70
0
71
3
72
8
73
4
74
0
42
0.000000001
43
0.0000000001
44
0.0000000001
40
0
40
0
40
0
40
0
40
1
40
1
40
1
40
1
10
318.10492552017359
20
-366.14746306301851
30
0
10
318.07957201201651
20
-366.09085891435438
30
0
10
318.04360808719832
20
-366.04280940457488
30
0
10
317.99658215258165
20
-366.00233319707917
30
0
0
SPLINE
5
797
100
AcDbEntity
8
0
100
AcDbSpline
70
0
71
3
72
8
73
4
74
0
42
0.000000001
43
0.0000000001
44
0.0000000001
40
0
40
0
40
0
40
0
40
1
40
1
40
1
40
1
10
325.59491743466117
20
-350.89899829790545
30
0
10
325.63792446895303
20
-350.81184892866884
30
0
10
325.72180766498872
20
-350.77545188783762
30
0
10
325.81598596232635
20
-350.77545188783762
30
0
0
SPLINE
5
798
100
AcDbEntity
8
0
100
AcDbSpline
70
0
71
3
72
8
73
4
74
0
42
0.000000001
43
0.0000000001
44
0.0000000001
40
0
40
0
40
0
40
0
40
1
40
1
40
1
40
1
10
317.81941821966524
20
-365.90659412196453
30
0
10
317.74109676382284
20
-365.88144646838265
30
0
10
317.65865219523738
20
-365.87172306152485
30
0
10
317.57660245835103
20
-365.87172306152485
30
0
0
LINE
5
799
100
AcDbEntity
8
0
100
AcDbLine
10
317.41697861856306
20
-366.60820386833933
30
0
11
317.41697861856306
21
-366.60820386833933
31
0
0
SPLINE
5
800
100
AcDbEntity
8
0
100
AcDbSpline
70
0
71
3
72
8
73
4
74
0
42
0.000000001
43
0.0000000001
44
0.0000000001
40
0
40
0
40
0
40
0
40
1
40
1
40
1
40
1
10
325.54556478435944
20
-351.07267557232683
30
0
10
325.55487326474685
20
-351.01224164425309
30
0
10
325.56963956049105
20
-350.95023455441532
30
0
10
325.59491743466117
20
-350.89899829790545
30
0
0
SPLINE
5
801
100
AcDbEntity
8
0
100
AcDbSpline
70
0
71
3
72
8
73
4
74
0
42
0.000000001
43
0.0000000001
44
0.0000000001
40
0
40
0
40
0
40
0
40
1
40
1
40
1
40
1
10
317.63572920178495
20
-366.12220485224708
30
0
10
317.68214393542149
20
-366.18596034894648
30
0
10
317.69247717724625
20
-366.27376486524162
30
0
10
317.69247717724625
20
-366.3504965874248
30
0
0
SPLINE
5
802
100
AcDbEntity
8
0
100
AcDbSpline
70
0
71
3
72
8
73
4
74
0
42
0.000000001
43
0.0000000001
44
0.0000000001
40
0
40
0
40
0
40
0
40
1
40
1
40
1
40
1
10
316.8495747855186
20
-366.68777186503098
30
0
10
316.99458722825523
20
-366.82160244829612
30
0
10
317.1833819536493
20
-366.87104178650634
30
0
10
317.37540160224432
20
-366.87885771787484
30
0
0
SPLINE
5
803
100
AcDbEntity
8
0
100
AcDbSpline
70
0
71
3
72
8
73
4
74
0
42
0.000000001
43
0.0000000001
44
0.0000000001
40
0
40
0
40
0
40
0
40
1
40
1
40
1
40
1
10
317.20080913501289
20
-366.12216441107051
30
0
10
317.24299264316141
20
-366.06421491927
30
0
10
317.30753054182134
20
-366.03935707614539
30
0
10
317.37540160224432
20
-366.03262362026646
30
0
0
SPLINE
5
804
100
AcDbEntity
8
0
100
AcDbSpline
70
0
71
3
72
8
73
4
74
0
42
0.000000001
43
0.0000000001
44
0.0000000001
40
0
40
0
40
0
40
0
40
1
40
1
40
1
40
1
10
325.99336631844517
20
-350.84644365904336
30
0
10
326.0477916223391
20
-350.90010908221865
30
0
10
326.06567498017313
20
-350.97367965244263
30
0
10
326.06567498017313
20
-351.04794041874459
30
0
0
LINE
5
805
100
AcDbEntity
8
0
100
AcDbLine
10
327.03391466105279
20
-356.09671390963854
30
0
11
326.90825155980963
21
-356.09671390963854
31
0
0
LINE
5
806
100
AcDbEntity
8
0
100
AcDbLine
10
312.38155564073435
20
-364.0012908451568
30
0
11
313.00877790512095
21
-364.0012908451568
31
0
0
SPLINE
5
807
100
AcDbEntity
8
0
100
AcDbSpline
70
0
71
3
72
8
73
4
74
0
42
0.000000001
43
0.0000000001
44
0.0000000001
40
0
40
0
40
0
40
0
40
1
40
1
40
1
40
1
10
317.71542350076396
20
-366.84247144338366
30
0
10
317.7972568683694
20
-366.81947795646721
30
0
10
317.87500973924489
20
-366.78497084864165
30
0
10
317.94412651371954
20
-366.73514733722908
30
0
0
SPLINE
5
808
100
AcDbEntity
8
0
100
AcDbSpline
70
0
71
3
72
8
73
4
74
0
42
0.000000001
43
0.0000000001
44
0.0000000001
40
0
40
0
40
0
40
0
40
1
40
1
40
1
40
1
10
312.49560241845415
20
-364.54818481873451
30
0
10
312.44112951978894
20
-364.62009460464566
30
0
10
312.39095417014136
20
-364.6953866209472
30
0
10
312.344154310688
20
-364.77248905391446
30
0
0
SPLINE
5
809
100
AcDbEntity
8
0
100
AcDbSpline
70
0
71
3
72
8
73
4
74
0
42
0.000000001
43
0.0000000001
44
0.0000000001
40
0
40
0
40
0
40
0
40
1
40
1
40
1
40
1
10
316.64435420228966
20
-366.0944662672938
30
0
10
316.64435420228966
20
-366.30716791097643
30
0
10
316.68640626762783
20
-366.53718783242789
30
0
10
316.8495747855186
20
-366.68777186503098
30
0
0
SPLINE
5
810
100
AcDbEntity
8
0
100
AcDbSpline
70
0
71
3
72
8
73
4
74
0
42
0.000000001
43
0.0000000001
44
0.0000000001
40
0
40
0
40
0
40
0
40
1
40
1
40
1
40
1
10
317.45855590448957
20
-366.87970698258033
30
0
10
317.54541490607937
20
-366.87776850218916
30
0
10
317.63162037825765
20
-366.86601899239116
30
0
10
317.71542350076396
20
-366.84247144338366
30
0
0
LINE
5
811
100
AcDbEntity
8
0
100
AcDbLine
10
317.45855590448957
20
-365.87812489975681
30
0
11
317.45855590448957
21
-366.03257104673702
31
0
0
SPLINE
5
812
100
AcDbEntity
8
0
100
AcDbSpline
70
0
71
3
72
8
73
4
74
0
42
0.000000001
43
0.0000000001
44
0.0000000001
40
0
40
0
40
0
40
0
40
1
40
1
40
1
40
1
10
317.63025709721268
20
-366.60900999579002
30
0
10
317.5870296674961
20
-366.6639263993568
30
0
10
317.52489411850803
20
-366.68883007581468
30
0
10
317.45855590448957
20
-366.69575089117063
30
0
0
LINE
5
813
100
AcDbEntity
8
0
100
AcDbLine
10
311.95032206579049
20
-363.78816187304312
30
0
11
311.93035625697712
21
-364.21300709014702
31
0
0
SPLINE
5
814
100
AcDbEntity
8
0
100
AcDbSpline
70
0
71
3
72
8
73
4
74
0
42
0.000000001
43
0.0000000001
44
0.0000000001
40
0
40
0
40
0
40
0
40
1
40
1
40
1
40
1
10
325.81598596232635
20
-350.77545188783762
30
0
10
325.88390824823955
20
-350.77545188783762
30
0
10
325.94490633971168
20
-350.79865568684539
30
0
10
325.99336631844517
20
-350.84644365904336
30
0
0
SPLINE
5
815
100
AcDbEntity
8
0
100
AcDbSpline
70
0
71
3
72
8
73
4
74
0
42
0.000000001
43
0.0000000001
44
0.0000000001
40
0
40
0
40
0
40
0
40
1
40
1
40
1
40
1
10
326.06567498017313
20
-351.04794041874459
30
0
10
326.06567498017313
20
-351.28794120457025
30
0
10
325.91330520900885
20
-351.47523906722
30
0
10
325.73241268949317
20
-351.61569662923995
30
0
0
SPLINE
5
816
100
AcDbEntity
8
0
100
AcDbSpline
70
0
71
3
72
8
73
4
74
0
42
0.000000001
43
0.0000000001
44
0.0000000001
40
0
40
0
40
0
40
0
40
1
40
1
40
1
40
1
10
317.99658215258165
20
-366.00233319707917
30
0
10
317.94496325064716
20
-365.9578856660562
30
0
10
317.88402190263901
20
-365.92733235724808
30
0
10
317.81941821966524
20
-365.90659412196453
30
0
0
SPLINE
5
817
100
AcDbEntity
8
0
100
AcDbSpline
70
0
71
3
72
8
73
4
74
0
42
0.000000001
43
0.0000000001
44
0.0000000001
40
0
40
0
40
0
40
0
40
1
40
1
40
1
40
1
10
317.5632652279657
20
-366.17493204012874
30
0
10
317.53659078516881
20
-366.13835436204278
30
0
10
317.48797578192563
20
-366.12028524440484
30
0
10
317.41697861856306
20
-366.12028524440484
30
0
0
SPLINE
5
818
100
AcDbEntity
8
0
100
AcDbSpline
70
0
71
3
72
8
73
4
74
0
42
0.000000001
43
0.0000000001
44
0.0000000001
40
0
40
0
40
0
40
0
40
1
40
1
40
1
40
1
10
317.27327309085837
20
-366.17493204012874
30
0
10
317.24658906799624
20
-366.21106353520827
30
0
10
317.23326141767615
20
-366.26958863975358
30
0
10
317.23326141767615
20
-366.35048041095428
30
0
0
SPLINE
5
819
100
AcDbEntity
8
0
100
AcDbSpline
70
0
71
3
72
8
73
4
74
0
42
0.000000001
43
0.0000000001
44
0.0000000001
40
0
40
0
40
0
40
0
40
1
40
1
40
1
40
1
10
317.69247717724625
20
-366.3504965874248
30
0
10
317.69247717724625
20
-366.43413429653276
30
0
10
317.68394935535525
20
-366.54078979321031
30
0
10
317.63025709721268
20
-366.60900999579002
30
0
0
SPLINE
5
820
100
AcDbEntity
8
0
100
AcDbSpline
70
0
71
3
72
8
73
4
74
0
42
0.000000001
43
0.0000000001
44
0.0000000001
40
0
40
0
40
0
40
0
40
1
40
1
40
1
40
1
10
316.79545465972922
20
-365.45151238526819
30
0
10
316.73837303557514
20
-365.54252523489504
30
0
10
316.69937212219639
20
-365.64103181654428
30
0
10
316.67781711893929
20
-365.7462974847914
30
0
0
LINE
5
821
100
AcDbEntity
8
0
100
AcDbLine
10
318.12421919663433
20
-359.38380822986039
30
0
11
318.12421919663433
21
-359.38380822986039
31
0
0
SPLINE
5
822
100
AcDbEntity
8
0
100
AcDbSpline
70
0
71
3
72
8
73
4
74
0
42
0.000000001
43
0.0000000001
44
0.0000000001
40
0
40
0
40
0
40
0
40
1
40
1
40
1
40
1
10
307.83986448128172
20
-350.83569439434291
30
0
10
309.73450072378125
20
-347.52211104962458
30
0
10
313.30334460431737
20
-345.28900522069608
30
0
10
317.39375015942454
20
-345.28900522069608
30
0
0
LINE
5
823
100
AcDbEntity
8
0
100
AcDbLine
10
327.99595943441898
20
-356.44952669128509
30
0
11
327.99595943441898
21
-356.44952669128509
31
0
0
LINE
5
824
100
AcDbEntity
8
0
100
AcDbLine
10
325.50376183666833
20
-361.70109576462852
30
0
11
325.50592436117705
21
-361.70109576462852
31
0
0
SPLINE
5
825
100
AcDbEntity
8
0
100
AcDbSpline
70
0
71
3
72
8
73
4
74
0
42
0.000000001
43
0.0000000001
44
0.0000000001
40
0
40
0
40
0
40
0
40
1
40
1
40
1
40
1
10
316.91915219397987
20
-347.0626239207736
30
0
10
316.91915219397987
20
-347.0996262312122
30
0
10
316.92474655672208
20
-347.12586851061064
30
0
10
316.93635854854631
20
-347.14179153184438
30
0
0
SPLINE
5
826
100
AcDbEntity
8
0
100
AcDbSpline
70
0
71
3
72
8
73
4
74
0
42
0.000000001
43
0.0000000001
44
0.0000000001
40
0
40
0
40
0
40
0
40
1
40
1
40
1
40
1
10
323.39502979035632
20
-361.0224148352354
30
0
10
323.66131841930559
20
-360.95219683853907
30
0
10
323.85780343881345
20
-360.73066282394592
30
0
10
323.96681987339849
20
-360.48613397439721
30
0
0
SPLINE
5
827
100
AcDbEntity
8
0
100
AcDbSpline
70
0
71
3
72
8
73
4
74
0
42
0.000000001
43
0.0000000001
44
0.0000000001
40
0
40
0
40
0
40
0
40
1
40
1
40
1
40
1
10
327.38045770826199
20
-356.73051189134202
30
0
10
327.37410722133711
20
-356.82012682430286
30
0
10
327.34386829324791
20
-356.90730854648069
30
0
10
327.26668860864663
20
-356.95977017063694
30
0
0
SPLINE
5
828
100
AcDbEntity
8
0
100
AcDbSpline
70
0
71
3
72
8
73
4
74
0
42
0.000000001
43
0.0000000001
44
0.0000000001
40
0
40
0
40
0
40
0
40
1
40
1
40
1
40
1
10
327.22784865115005
20
-356.42448146666123
30
0
10
327.32477238312686
20
-356.47057630160504
30
0
10
327.37200900728578
20
-356.55897395515478
30
0
10
327.38035390924244
20
-356.66374891915376
30
0
0
LINE
5
829
100
AcDbEntity
8
0
100
AcDbLine
10
326.21439681343082
20
-360.11041734550355
30
0
11
326.21439681343082
21
-361.20331355573143
31
0
0
SPLINE
5
830
100
AcDbEntity
8
0
100
AcDbSpline
70
0
71
3
72
8
73
4
74
0
42
0.000000001
43
0.0000000001
44
0.0000000001
40
0
40
0
40
0
40
0
40
1
40
1
40
1
40
1
10
321.95901739239446
20
-364.73320584315013
30
0
10
321.83509917513737
20
-364.73320584315013
30
0
10
321.70774266703216
20
-364.74094493628348
30
0
10
321.57651027657613
20
-364.75643121078537
30
0
0
LINE
5
831
100
AcDbEntity
8
0
100
AcDbLine
10
327.38035390924244
20
-356.66374891915376
30
0
11
327.38069765924223
21
-356.6672942622892
31
0
0
SPLINE
5
832
100
AcDbEntity
8
0
100
AcDbSpline
70
0
71
3
72
8
73
4
74
0
42
0.000000001
43
0.0000000001
44
0.0000000001
40
0
40
0
40
0
40
0
40
1
40
1
40
1
40
1
10
327.79686986164472
20
-356.12021292923441
30
0
10
327.73060135024053
20
-356.16007443084806
30
0
10
327.65783624243448
20
-356.18648521514831
30
0
10
327.57809947123326
20
-356.19895051579556
30
0
0
LINE
5
833
100
AcDbEntity
8
0
100
AcDbLine
10
317.04741431468159
20
-347.16588099261639
30
0
11
317.04741431482955
21
-347.12199559394594
31
0
0
SPLINE
5
834
100
AcDbEntity
8
0
100
AcDbSpline
70
0
71
3
72
8
73
4
74
0
42
0.000000001
43
0.0000000001
44
0.0000000001
40
0
40
0
40
0
40
0
40
1
40
1
40
1
40
1
10
323.96681987339849
20
-360.48613397439721
30
0
10
324.11444064619917
20
-360.1549646314287
30
0
10
324.16843930466837
20
-359.78663324436127
30
0
10
324.16392646480142
20
-359.42610159421804
30
0
0
SPLINE
5
835
100
AcDbEntity
8
0
100
AcDbSpline
70
0
71
3
72
8
73
4
74
0
42
0.000000001
43
0.0000000001
44
0.0000000001
40
0
40
0
40
0
40
0
40
1
40
1
40
1
40
1
10
318.87217652631887
20
-359.13332643913839
30
0
10
318.97503849685484
20
-359.08507339341111
30
0
10
319.09186264875615
20
-359.04996640813494
30
0
10
319.16700150982894
20
-358.95963027419401
30
0
0
SPLINE
5
836
100
AcDbEntity
8
0
100
AcDbSpline
70
0
71
3
72
8
73
4
74
0
42
0.000000001
43
0.0000000001
44
0.0000000001
40
0
40
0
40
0
40
0
40
1
40
1
40
1
40
1
10
307.6636933343126
20
-350.92838690083164
30
0
10
307.72790177218843
20
-350.89993518515985
30
0
10
307.78665334732199
20
-350.86897881262666
30
0
10
307.83986448128172
20
-350.83569439434291
30
0
0
SPLINE
5
837
100
AcDbEntity
8
0
100
AcDbSpline
70
0
71
3
72
8
73
4
74
0
42
0.000000001
43
0.0000000001
44
0.0000000001
40
0
40
0
40
0
40
0
40
1
40
1
40
1
40
1
10
327.38066908081089
20
-355.81274412873728
30
0
10
327.38066908081089
20
-356.01983390314166
30
0
10
327.22044362010803
20
-356.09671390963854
30
0
10
327.03391466105279
20
-356.09671390963854
30
0
0
SPLINE
5
838
100
AcDbEntity
8
0
100
AcDbSpline
70
0
71
3
72
8
73
4
74
0
42
0.000000001
43
0.0000000001
44
0.0000000001
40
0
40
0
40
0
40
0
40
1
40
1
40
1
40
1
10
328.39139423062312
20
-356.28665662522803
30
0
10
328.39139423062312
20
-362.36048357475028
30
0
10
323.46757827724747
20
-367.28430195459651
30
0
10
317.39375015942454
20
-367.28430195459651
30
0
0
SPLINE
5
839
100
AcDbEntity
8
0
100
AcDbSpline
70
0
71
3
72
8
73
4
74
0
42
0.000000001
43
0.0000000001
44
0.0000000001
40
0
40
0
40
0
40
0
40
1
40
1
40
1
40
1
10
317.39375015942454
20
-345.28900522069608
30
0
10
323.46757827724747
20
-345.28900522069608
30
0
10
328.39139423062312
20
-350.21282360054244
30
0
10
328.39139423062312
20
-356.28665662522803
30
0
0
SPLINE
5
840
100
AcDbEntity
8
0
100
AcDbSpline
70
0
71
3
72
8
73
4
74
0
42
0.000000001
43
0.0000000001
44
0.0000000001
40
0
40
0
40
0
40
0
40
1
40
1
40
1
40
1
10
316.93635854854631
20
-347.14179153184438
30
0
10
316.94797514167755
20
-347.157714571052
30
0
10
316.97766300930959
20
-347.16588099261639
30
0
10
317.02498968248801
20
-347.16588099261639
30
0
0
LINE
5
841
100
AcDbEntity
8
0
100
AcDbLine
10
325.50376183666833
20
-361.87781288545347
30
0
11
325.50376183666833
21
-361.70109576462852
31
0
0
SPLINE
5
842
100
AcDbEntity
8
0
100
AcDbSpline
70
0
71
3
72
8
73
4
74
0
42
0.000000001
43
0.0000000001
44
0.0000000001
40
0
40
0
40
0
40
0
40
1
40
1
40
1
40
1
10
319.16700150982894
20
-358.95963027419401
30
0
10
318.79333781884276
20
-359.01629240651812
30
0
10
318.42561641053317
20
-359.15221246854048
30
0
10
318.12421919663433
20
-359.38380822986039
30
0
0
SPLINE
5
843
100
AcDbEntity
8
0
100
AcDbSpline
70
0
71
3
72
8
73
4
74
0
42
0.000000001
43
0.0000000001
44
0.0000000001
40
0
40
0
40
0
40
0
40
1
40
1
40
1
40
1
10
317.4701676446798
20
-356.28665123307121
30
0
10
317.4701676446798
20
-356.32885697487978
30
0
10
317.43595254012195
20
-356.36307290623483
30
0
10
317.39374543230036
20
-356.36307290623483
30
0
0
LINE
5
844
100
AcDbEntity
8
0
100
AcDbLine
10
326.4049772953598
20
-361.87781288545347
30
0
11
325.50376183666833
21
-361.87781288545347
31
0
0
LINE
5
845
100
AcDbEntity
8
0
100
AcDbLine
10
317.66182547954941
20
-346.33203000121085
30
0
11
317.05514774619826
21
-346.3346168884645
31
0
0
SPLINE
5
846
100
AcDbEntity
8
0
100
AcDbSpline
70
0
71
3
72
8
73
4
74
0
42
0.000000001
43
0.0000000001
44
0.0000000001
40
0
40
0
40
0
40
0
40
1
40
1
40
1
40
1
10
317.71431406449005
20
-346.71496874121209
30
0
10
317.9135312898789
20
-346.56049561547371
30
0
10
318.01292820649491
20
-346.39485130673444
30
0
10
318.01292820649491
20
-346.21800747022314
30
0
0
LINE
5
847
100
AcDbEntity
8
0
100
AcDbLine
10
317.02498968248801
20
-347.16588099261639
30
0
11
317.04741431468159
21
-347.16588099261639
31
0
0
SPLINE
5
848
100
AcDbEntity
8
0
100
AcDbSpline
70
0
71
3
72
8
73
4
74
0
42
0.000000001
43
0.0000000001
44
0.0000000001
40
0
40
0
40
0
40
0
40
1
40
1
40
1
40
1
10
327.99718696121602
20
-356.28665662522803
30
0
10
327.99718696121602
20
-356.15363080340029
30
0
10
327.99473716056372
20
-356.02116981000376
30
0
10
327.98988625043529
20
-355.88933161072447
30
0
0
SPLINE
5
849
100
AcDbEntity
8
0
100
AcDbSpline
70
0
71
3
72
8
73
4
74
0
42
0.000000001
43
0.0000000001
44
0.0000000001
40
0
40
0
40
0
40
0
40
1
40
1
40
1
40
1
10
325.50592436117705
20
-361.70109576462852
30
0
10
325.55393314219839
20
-361.70109576462852
30
0
10
325.60407991341464
20
-361.69375703914199
30
0
10
325.6448861209102
20
-361.66672213065902
30
0
0
SPLINE
5
850
100
AcDbEntity
8
0
100
AcDbSpline
70
0
71
3
72
8
73
4
74
0
42
0.000000001
43
0.0000000001
44
0.0000000001
40
0
40
0
40
0
40
0
40
1
40
1
40
1
40
1
10
317.39374543230036
20
-356.36307290623483
30
0
10
317.35153834245261
20
-356.36307290623483
30
0
10
317.31732309410398
20
-356.32885697487978
30
0
10
317.31732309410398
20
-356.28665123307121
30
0
0
SPLINE
5
851
100
AcDbEntity
8
0
100
AcDbSpline
70
0
71
3
72
8
73
4
74
0
42
0.000000001
43
0.0000000001
44
0.0000000001
40
0
40
0
40
0
40
0
40
1
40
1
40
1
40
1
10
317.11264307460033
20
-365.80532810404225
30
0
10
317.11264307460033
20
-365.66691416947219
30
0
10
317.13695293079712
20
-365.49632660093164
30
0
10
317.26510235556839
20
-365.41595247678964
30
0
0
SPLINE
5
852
100
AcDbEntity
8
0
100
AcDbSpline
70
0
71
3
72
8
73
4
74
0
42
0.000000001
43
0.0000000001
44
0.0000000001
40
0
40
0
40
0
40
0
40
1
40
1
40
1
40
1
10
327.98988625043529
20
-355.88933161072447
30
0
10
327.9808359105707
20
-355.91479337541739
30
0
10
327.96940266874651
20
-355.93914433782322
30
0
10
327.95534100208687
20
-355.96224298977222
30
0
0
SPLINE
5
853
100
AcDbEntity
8
0
100
AcDbSpline
70
0
71
3
72
8
73
4
74
0
42
0.000000001
43
0.0000000001
44
0.0000000001
40
0
40
0
40
0
40
0
40
1
40
1
40
1
40
1
10
325.71467544113608
20
-361.51646567158508
30
0
10
325.71467544113608
20
-361.49736934806543
30
0
10
325.71138933492864
20
-361.47564975820723
30
0
10
325.70864391826336
20
-361.45675429253055
30
0
0
SPLINE
5
854
100
AcDbEntity
8
0
100
AcDbSpline
70
0
71
3
72
8
73
4
74
0
42
0.000000001
43
0.0000000001
44
0.0000000001
40
0
40
0
40
0
40
0
40
1
40
1
40
1
40
1
10
317.40150690288465
20
-345.75720465509829
30
0
10
317.45276891593039
20
-345.72716361916588
30
0
10
317.51153343224036
20
-345.70301080055077
30
0
10
317.5777636593308
20
-345.68477589206316
30
0
0
LINE
5
855
100
AcDbEntity
8
0
100
AcDbLine
10
327.57809947123326
20
-356.19895051579556
30
0
11
327.57809947123326
21
-356.21340149618032
31
0
0
SPLINE
5
856
100
AcDbEntity
8
0
100
AcDbSpline
70
0
71
3
72
8
73
4
74
0
42
0.000000001
43
0.0000000001
44
0.0000000001
40
0
40
0
40
0
40
0
40
1
40
1
40
1
40
1
10
327.95534100208687
20
-355.96224298977222
30
0
10
327.91556980112676
20
-356.02758378058877
30
0
10
327.8626483697812
20
-356.08034736552906
30
0
10
327.79686986164472
20
-356.12021292923441
30
0
0
LINE
5
857
100
AcDbEntity
8
0
100
AcDbLine
10
307.83986448128172
20
-350.83569439434291
30
0
11
307.83986448128172
21
-350.83569439434291
31
0
0
SPLINE
5
858
100
AcDbEntity
8
0
100
AcDbSpline
70
0
71
3
72
8
73
4
74
0
42
0.000000001
43
0.0000000001
44
0.0000000001
40
0
40
0
40
0
40
0
40
1
40
1
40
1
40
1
10
318.09061042214159
20
-366.5669228634585
30
0
10
318.12774027506396
20
-366.49630315107618
30
0
10
318.14313677015417
20
-366.41912659392585
30
0
10
318.14313677015417
20
-366.33971227370489
30
0
0
LINE
5
859
100
AcDbEntity
8
0
100
AcDbLine
10
326.90825155980963
20
-356.37194435230873
30
0
11
326.99451889800093
21
-356.37194435230873
31
0
0
SPLINE
5
860
100
AcDbEntity
8
0
100
AcDbSpline
70
0
71
3
72
8
73
4
74
0
42
0.000000001
43
0.0000000001
44
0.0000000001
40
0
40
0
40
0
40
0
40
1
40
1
40
1
40
1
10
317.5777636593308
20
-345.68477589206316
30
0
10
317.51655906622483
20
-345.68373790186774
30
0
10
317.45521815939321
20
-345.68321081853469
30
0
10
317.39375015942454
20
-345.68321081853469
30
0
0
SPLINE
5
861
100
AcDbEntity
8
0
100
AcDbSpline
70
0
71
3
72
8
73
4
74
0
42
0.000000001
43
0.0000000001
44
0.0000000001
40
0
40
0
40
0
40
0
40
1
40
1
40
1
40
1
10
317.85286253337381
20
-346.03514600462989
30
0
10
317.78359544353981
20
-346.03514600462989
30
0
10
317.73669178506697
20
-346.05967627422524
30
0
10
317.71217041253044
20
-346.1087260111284
30
0
0
SPLINE
5
862
100
AcDbEntity
8
0
100
AcDbSpline
70
0
71
3
72
8
73
4
74
0
42
0.000000001
43
0.0000000001
44
0.0000000001
40
0
40
0
40
0
40
0
40
1
40
1
40
1
40
1
10
317.31732309410398
20
-356.28665123307121
30
0
10
317.31732309410398
20
-356.24444414322329
30
0
10
317.35153834245261
20
-356.21022955990753
30
0
10
317.39374543230036
20
-356.21022955990753
30
0
0
LINE
5
863
100
AcDbEntity
8
0
100
AcDbLine
10
316.91915219397987
20
-345.69364192800651
30
0
11
316.91915219397987
21
-347.0626239207736
31
0
0
SPLINE
5
864
100
AcDbEntity
8
0
100
AcDbSpline
70
0
71
3
72
8
73
4
74
0
42
0.000000001
43
0.0000000001
44
0.0000000001
40
0
40
0
40
0
40
0
40
1
40
1
40
1
40
1
10
317.96731749736779
20
-346.08032419088158
30
0
10
317.93676918529184
20
-346.05020090658309
30
0
10
317.89890587321963
20
-346.03514600462989
30
0
10
317.85286253337381
20
-346.03514600462989
30
0
0
SPLINE
5
865
100
AcDbEntity
8
0
100
AcDbSpline
70
0
71
3
72
8
73
4
74
0
42
0.000000001
43
0.0000000001
44
0.0000000001
40
0
40
0
40
0
40
0
40
1
40
1
40
1
40
1
10
317.13517109256276
20
-346.02569085757591
30
0
10
317.18293521345339
20
-345.92285302592893
30
0
10
317.27199919380024
20
-345.83336480865432
30
0
10
317.40150690288465
20
-345.75720465509829
30
0
0
SPLINE
5
866
100
AcDbEntity
8
0
100
AcDbSpline
70
0
71
3
72
8
73
4
74
0
42
0.000000001
43
0.0000000001
44
0.0000000001
40
0
40
0
40
0
40
0
40
1
40
1
40
1
40
1
10
317.39375015942454
20
-345.68321081853469
30
0
10
317.23470933761007
20
-345.68321081853469
30
0
10
317.07647708769065
20
-345.68671570251973
30
0
10
316.91915219397987
20
-345.69364192800651
30
0
0
SPLINE
5
867
100
AcDbEntity
8
0
100
AcDbSpline
70
0
71
3
72
8
73
4
74
0
42
0.000000001
43
0.0000000001
44
0.0000000001
40
0
40
0
40
0
40
0
40
1
40
1
40
1
40
1
10
317.99199854964286
20
-359.72585691432676
30
0
10
318.23837315245856
20
-359.46798786870653
30
0
10
318.54284968334929
20
-359.26862640312169
30
0
10
318.87217652631887
20
-359.13332643913839
30
0
0
SPLINE
5
868
100
AcDbEntity
8
0
100
AcDbSpline
70
0
71
3
72
8
73
4
74
0
42
0.000000001
43
0.0000000001
44
0.0000000001
40
0
40
0
40
0
40
0
40
1
40
1
40
1
40
1
10
325.41002513900366
20
-350.66442606599884
30
0
10
325.31693645277659
20
-350.71906881760492
30
0
10
325.22595460805161
20
-350.79333767214223
30
0
10
325.1796385688595
20
-350.89329474398676
30
0
0
LINE
5
869
100
AcDbEntity
8
0
100
AcDbLine
10
317.39374543230036
20
-356.21022955990753
30
0
11
317.39374543230036
21
-356.21022955990753
31
0
0
SPLINE
5
870
100
AcDbEntity
8
0
100
AcDbSpline
70
0
71
3
72
8
73
4
74
0
42
0.000000001
43
0.0000000001
44
0.0000000001
40
0
40
0
40
0
40
0
40
1
40
1
40
1
40
1
10
317.39375015942454
20
-367.28430195459651
30
0
10
311.31992247297421
20
-367.28430195459651
30
0
10
306.39610139704951
20
-362.36048357475028
30
0
10
306.39610139704951
20
-356.28665662522803
30
0
0
SPLINE
5
871
100
AcDbEntity
8
0
100
AcDbSpline
70
0
71
3
72
8
73
4
74
0
42
0.000000001
43
0.0000000001
44
0.0000000001
40
0
40
0
40
0
40
0
40
1
40
1
40
1
40
1
10
324.16392646480142
20
-359.42610159421804
30
0
10
323.98591538809461
20
-359.99071419523773
30
0
10
323.75986477709858
20
-360.55060123580239
30
0
10
323.39502979035632
20
-361.0224148352354
30
0
0
SPLINE
5
872
100
AcDbEntity
8
0
100
AcDbSpline
70
0
71
3
72
8
73
4
74
0
42
0.000000001
43
0.0000000001
44
0.0000000001
40
0
40
0
40
0
40
0
40
1
40
1
40
1
40
1
10
326.42296835254018
20
-361.84877746880164
30
0
10
326.41699330352367
20
-361.85846852271823
30
0
10
326.41099008947447
20
-361.86814744428199
30
0
10
326.4049772953598
20
-361.87781288545347
30
0
0
LINE
5
873
100
AcDbEntity
8
0
100
AcDbLine
10
307.6636933343126
20
-351.15607334842821
30
0
11
307.6636933343126
21
-350.92838690083164
31
0
0
SPLINE
5
874
100
AcDbEntity
8
0
100
AcDbSpline
70
0
71
3
72
8
73
4
74
0
42
0.000000001
43
0.0000000001
44
0.0000000001
40
0
40
0
40
0
40
0
40
1
40
1
40
1
40
1
10
327.57809947123326
20
-356.21340149618032
30
0
10
327.77652377963926
20
-356.24607392455675
30
0
10
327.91581460396901
20
-356.32478861377473
30
0
10
327.99595943441898
20
-356.44952669128509
30
0
0
SPLINE
5
875
100
AcDbEntity
8
0
100
AcDbSpline
70
0
71
3
72
8
73
4
74
0
42
0.000000001
43
0.0000000001
44
0.0000000001
40
0
40
0
40
0
40
0
40
1
40
1
40
1
40
1
10
325.6448861209102
20
-361.66672213065902
30
0
10
325.69632230062263
20
-361.63264369930397
30
0
10
325.71467544113608
20
-361.57551920750291
30
0
10
325.71467544113608
20
-361.51646567158508
30
0
0
SPLINE
5
876
100
AcDbEntity
8
0
100
AcDbSpline
70
0
71
3
72
8
73
4
74
0
42
0.000000001
43
0.0000000001
44
0.0000000001
40
0
40
0
40
0
40
0
40
1
40
1
40
1
40
1
10
317.05514774619826
20
-346.3346168884645
30
0
10
317.06073738181635
20
-346.23135305845159
30
0
10
317.087844563175
20
-346.1280919424911
30
0
10
317.13517109256276
20
-346.02569085757591
30
0
0
SPLINE
5
877
100
AcDbEntity
8
0
100
AcDbSpline
70
0
71
3
72
8
73
4
74
0
42
0.000000001
43
0.0000000001
44
0.0000000001
40
0
40
0
40
0
40
0
40
1
40
1
40
1
40
1
10
327.9959594343573
20
-356.44952669129469
30
0
10
327.99677212336263
20
-356.39533820825062
30
0
10
327.9971871404486
20
-356.34104324939346
30
0
10
327.99718696115417
20
-356.28665662523844
30
0
0
SPLINE
5
878
100
AcDbEntity
8
0
100
AcDbSpline
70
0
71
3
72
8
73
4
74
0
42
0.000000001
43
0.0000000001
44
0.0000000001
40
0
40
0
40
0
40
0
40
1
40
1
40
1
40
1
10
306.39610139704951
20
-356.28665662522803
30
0
10
306.39610139704951
20
-354.43371926179219
30
0
10
306.85435776609717
20
-352.68779866954378
30
0
10
307.6636933343126
20
-351.15607334842821
30
0
0
LINE
5
879
100
AcDbEntity
8
0
100
AcDbLine
10
327.38069765924223
20
-356.72735208742199
30
0
11
327.38045770826199
21
-356.73051189134202
31
0
0
LINE
5
880
100
AcDbEntity
8
0
100
AcDbLine
10
317.5777636593308
20
-345.68477589206316
30
0
11
317.5777636593308
21
-345.68477589206316
31
0
0
LINE
5
881
100
AcDbEntity
8
0
100
AcDbLine
10
323.39502979035632
20
-361.0224148352354
30
0
11
323.39502979035632
21
-361.0224148352354
31
0
0
SPLINE
5
882
100
AcDbEntity
8
0
100
AcDbSpline
70
0
71
3
72
8
73
4
74
0
42
0.000000001
43
0.0000000001
44
0.0000000001
40
0
40
0
40
0
40
0
40
1
40
1
40
1
40
1
10
322.8374559850846
20
-365.38790382484308
30
0
10
322.77405070897305
20
-365.42591448658834
30
0
10
322.71019572697935
20
-365.46328346369364
30
0
10
322.64592486590107
20
-365.50000270387085
30
0
0
LINE
5
883
100
AcDbEntity
8
0
100
AcDbLine
10
326.43690357312136
20
-361.20331355573143
30
0
11
326.43690357312136
21
-361.38002931054348
31
0
0
SPLINE
5
884
100
AcDbEntity
8
0
100
AcDbSpline
70
0
71
3
72
8
73
4
74
0
42
0.000000001
43
0.0000000001
44
0.0000000001
40
0
40
0
40
0
40
0
40
1
40
1
40
1
40
1
10
322.58639966004887
20
-348.45206109653674
30
0
10
322.5578874264034
20
-348.41299224198167
30
0
10
322.55105071072052
20
-348.3630271864514
30
0
10
322.55105071072052
20
-348.31588086294602
30
0
0
SPLINE
5
885
100
AcDbEntity
8
0
100
AcDbSpline
70
0
71
3
72
8
73
4
74
0
42
0.000000001
43
0.0000000001
44
0.0000000001
40
0
40
0
40
0
40
0
40
1
40
1
40
1
40
1
10
322.85620478409459
20
-364.63421396738357
30
0
10
322.96448545887614
20
-364.72723807354544
30
0
10
323.0130215928383
20
-364.84389871727683
30
0
10
323.0130215928383
20
-364.98616128583183
30
0
0
SPLINE
5
886
100
AcDbEntity
8
0
100
AcDbSpline
70
0
71
3
72
8
73
4
74
0
42
0.000000001
43
0.0000000001
44
0.0000000001
40
0
40
0
40
0
40
0
40
1
40
1
40
1
40
1
10
322.42007176961079
20
-365.26280582163878
30
0
10
322.47693298036609
20
-365.20723696709183
30
0
10
322.50493714701861
20
-365.13495242627909
30
0
10
322.51286293459623
20
-365.05672842468488
30
0
0
SPLINE
5
887
100
AcDbEntity
8
0
100
AcDbSpline
70
0
71
3
72
8
73
4
74
0
42
0.000000001
43
0.0000000001
44
0.0000000001
40
0
40
0
40
0
40
0
40
1
40
1
40
1
40
1
10
322.06444157207937
20
-348.31587277471078
30
0
10
322.06444318958029
20
-348.37071368805772
30
0
10
322.05536201989526
20
-348.43088638236765
30
0
10
322.01299027598094
20
-348.4700387170621
30
0
0
LINE
5
888
100
AcDbEntity
8
0
100
AcDbLine
10
322.75488576127043
20
-348.68284805230167
30
0
11
322.75488576127043
21
-348.51421647068815
31
0
0
SPLINE
5
889
100
AcDbEntity
8
0
100
AcDbSpline
70
0
71
3
72
8
73
4
74
0
42
0.000000001
43
0.0000000001
44
0.0000000001
40
0
40
0
40
0
40
0
40
1
40
1
40
1
40
1
10
322.2765477958277
20
-346.95959195350571
30
0
10
322.21943935468028
20
-347.0443755139201
30
0
10
322.15137094131615
20
-347.12062733414274
30
0
10
322.07148277632416
20
-347.18519435044976
30
0
0
SPLINE
5
890
100
AcDbEntity
8
0
100
AcDbSpline
70
0
71
3
72
8
73
4
74
0
42
0.000000001
43
0.0000000001
44
0.0000000001
40
0
40
0
40
0
40
0
40
1
40
1
40
1
40
1
10
321.95904138749256
20
-364.64355992326119
30
0
10
321.86396971760627
20
-364.64355992326119
30
0
10
321.76893838105332
20
-364.64798958012165
30
0
10
321.67423945299697
20
-364.65627730724157
30
0
0
LINE
5
891
100
AcDbEntity
8
0
100
AcDbLine
10
325.69745492317111
20
-361.38002931054348
30
0
11
325.52882375495619
21
-361.38002931054348
31
0
0
LINE
5
892
100
AcDbEntity
8
0
100
AcDbLine
10
326.21439573690759
20
-361.38002931054348
30
0
11
326.21439573499941
21
-361.51968478923055
31
0
0
LINE
5
893
100
AcDbEntity
8
0
100
AcDbLine
10
322.55105071072052
20
-348.31588086294602
30
0
11
322.55105071072052
21
-346.95959195350571
31
0
0
SPLINE
5
894
100
AcDbEntity
8
0
100
AcDbSpline
70
0
71
3
72
8
73
4
74
0
42
0.000000001
43
0.0000000001
44
0.0000000001
40
0
40
0
40
0
40
0
40
1
40
1
40
1
40
1
10
307.75334060224088
20
-350.98992487302263
30
0
10
307.75441699859647
20
-350.98795562205834
30
0
10
307.75550821780172
20
-350.98598096361218
30
0
10
307.75658866105971
20
-350.98401440454472
30
0
0
LINE
5
895
100
AcDbEntity
8
0
100
AcDbLine
10
325.52882375495619
20
-361.20331355573143
30
0
11
325.76242460777848
21
-361.20331355573143
31
0
0
SPLINE
5
896
100
AcDbEntity
8
0
100
AcDbSpline
70
0
71
3
72
8
73
4
74
0
42
0.000000001
43
0.0000000001
44
0.0000000001
40
0
40
0
40
0
40
0
40
1
40
1
40
1
40
1
10
317.39374543230036
20
-356.21022955990753
30
0
10
317.43595254012195
20
-356.21022955990753
30
0
10
317.4701676446798
20
-356.24444414322329
30
0
10
317.4701676446798
20
-356.28665123307121
30
0
0
LINE
5
897
100
AcDbEntity
8
0
100
AcDbLine
10
321.84426799866213
20
-348.68284805230167
30
0
11
322.75488576127043
21
-348.68284805230167
31
0
0
LINE
5
898
100
AcDbEntity
8
0
100
AcDbLine
10
321.73431843335862
20
-363.88570730273193
30
0
11
322.83232682168853
21
-363.88570730273193
31
0
0
LINE
5
899
100
AcDbEntity
8
0
100
AcDbLine
10
322.03936872568687
20
-364.51500959162723
30
0
11
322.14566226484851
21
-364.50485481222069
31
0
0
LINE
5
900
100
AcDbEntity
8
0
100
AcDbLine
10
325.70864391826336
20
-361.45675429253055
30
0
11
325.69745492317111
21
-361.38002931054348
31
0
0
SPLINE
5
901
100
AcDbEntity
8
0
100
AcDbSpline
70
0
71
3
72
8
73
4
74
0
42
0.000000001
43
0.0000000001
44
0.0000000001
40
0
40
0
40
0
40
0
40
1
40
1
40
1
40
1
10
322.96952079874279
20
-365.20723696709183
30
0
10
322.93973829875802
20
-365.27659761084732
30
0
10
322.89553866315964
20
-365.33589783794139
30
0
10
322.83933542135804
20
-365.38623360425561
30
0
0
SPLINE
5
902
100
AcDbEntity
8
0
100
AcDbSpline
70
0
71
3
72
8
73
4
74
0
42
0.000000001
43
0.0000000001
44
0.0000000001
40
0
40
0
40
0
40
0
40
1
40
1
40
1
40
1
10
322.75337556192483
20
-364.11203764085201
30
0
10
322.69898286260604
20
-364.13361838267116
30
0
10
322.62353273029146
20
-364.13756409345342
30
0
10
322.56569471234707
20
-364.13756409345342
30
0
0
SPLINE
5
903
100
AcDbEntity
8
0
100
AcDbSpline
70
0
71
3
72
8
73
4
74
0
42
0.000000001
43
0.0000000001
44
0.0000000001
40
0
40
0
40
0
40
0
40
1
40
1
40
1
40
1
10
318.01292820649491
20
-346.21800747022314
30
0
10
318.01292820649491
20
-346.15605295391487
30
0
10
317.99786562970519
20
-346.11044341308832
30
0
10
317.96731749736779
20
-346.08032419088158
30
0
0
SPLINE
5
904
100
AcDbEntity
8
0
100
AcDbSpline
70
0
71
3
72
8
73
4
74
0
42
0.000000001
43
0.0000000001
44
0.0000000001
40
0
40
0
40
0
40
0
40
1
40
1
40
1
40
1
10
322.23225043637308
20
-364.66467693959027
30
0
10
322.1444417501433
20
-364.64705269286725
30
0
10
322.0484205394078
20
-364.64355992326119
30
0
10
321.95904138749256
20
-364.64355992326119
30
0
0
SPLINE
5
905
100
AcDbEntity
8
0
100
AcDbSpline
70
0
71
3
72
8
73
4
74
0
42
0.000000001
43
0.0000000001
44
0.0000000001
40
0
40
0
40
0
40
0
40
1
40
1
40
1
40
1
10
317.71217041253044
20
-346.1087260111284
30
0
10
317.68807205469955
20
-346.1582071205803
30
0
10
317.67129356777997
20
-346.23264313198047
30
0
10
317.66182547954941
20
-346.33203000121085
30
0
0
LINE
5
906
100
AcDbEntity
8
0
100
AcDbLine
10
321.67423945299697
20
-364.65627730724157
30
0
11
321.73431843335862
21
-363.88570730273193
31
0
0
LINE
5
907
100
AcDbEntity
8
0
100
AcDbLine
10
322.51334510903723
20
-364.96001510463594
30
0
11
322.51278810943285
21
-364.95505395088037
31
0
0
LINE
5
908
100
AcDbEntity
8
0
100
AcDbLine
10
325.52882375495619
20
-360.71758684356041
30
0
11
325.52882375495619
21
-360.4402655920677
31
0
0
SPLINE
5
909
100
AcDbEntity
8
0
100
AcDbSpline
70
0
71
3
72
8
73
4
74
0
42
0.000000001
43
0.0000000001
44
0.0000000001
40
0
40
0
40
0
40
0
40
1
40
1
40
1
40
1
10
321.81709289410082
20
-365.47877108623459
30
0
10
321.72696220133616
20
-365.43839328560159
30
0
10
321.63701983863677
20
-365.37951767288649
30
0
10
321.58659995467565
20
-365.29205692456497
30
0
0
SPLINE
5
910
100
AcDbEntity
8
0
100
AcDbSpline
70
0
71
3
72
8
73
4
74
0
42
0.000000001
43
0.0000000001
44
0.0000000001
40
0
40
0
40
0
40
0
40
1
40
1
40
1
40
1
10
317.04741431482955
20
-347.12199559394594
30
0
10
317.29265613333223
20
-347.00539426393993
30
0
10
317.51510641916673
20
-346.86985841106775
30
0
10
317.71431406449005
20
-346.71496874121209
30
0
0
SPLINE
5
911
100
AcDbEntity
8
0
100
AcDbSpline
70
0
71
3
72
8
73
4
74
0
42
0.000000001
43
0.0000000001
44
0.0000000001
40
0
40
0
40
0
40
0
40
1
40
1
40
1
40
1
10
322.2171725099102
20
-365.34426781342734
30
0
10
322.29497389222348
20
-365.34426781342734
30
0
10
322.36440058990053
20
-365.31721536246073
30
0
10
322.42007176961079
20
-365.26280582163878
30
0
0
SPLINE
5
912
100
AcDbEntity
8
0
100
AcDbSpline
70
0
71
3
72
8
73
4
74
0
42
0.000000001
43
0.0000000001
44
0.0000000001
40
0
40
0
40
0
40
0
40
1
40
1
40
1
40
1
10
321.93132368816021
20
-365.12225524491294
30
0
10
321.94379427312128
20
-365.16297007332361
30
0
10
321.96301716853623
20
-365.20131772689882
30
0
10
321.98843795283705
20
-365.2369706680571
30
0
0
LINE
5
913
100
AcDbEntity
8
0
100
AcDbLine
10
322.16949707202588
20
-364.09956558203493
30
0
11
322.07354662436239
21
-364.0840995281211
31
0
0
LINE
5
914
100
AcDbEntity
8
0
100
AcDbLine
10
325.52882375495619
20
-360.4402655920677
30
0
11
325.89405871392057
21
-360.11041734550355
31
0
0
LINE
5
915
100
AcDbEntity
8
0
100
AcDbLine
10
322.07354662436239
20
-364.0840995281211
30
0
11
322.03936872568687
21
-364.51500959162723
31
0
0
LINE
5
916
100
AcDbEntity
8
0
100
AcDbLine
10
322.55105071072052
20
-346.95959195350571
30
0
11
322.2765477958277
21
-346.95959195350571
31
0
0
LINE
5
917
100
AcDbEntity
8
0
100
AcDbLine
10
325.89405871392057
20
-360.11041734550355
30
0
11
326.21439681343082
21
-360.11041734550355
31
0
0
SPLINE
5
918
100
AcDbEntity
8
0
100
AcDbSpline
70
0
71
3
72
8
73
4
74
0
42
0.000000001
43
0.0000000001
44
0.0000000001
40
0
40
0
40
0
40
0
40
1
40
1
40
1
40
1
10
322.64592486590107
20
-365.50000270387085
30
0
10
322.63585003420678
20
-365.50382574308463
30
0
10
322.62568756198971
20
-365.50744386236397
30
0
10
322.61548427114525
20
-365.51086788197
30
0
0
LINE
5
919
100
AcDbEntity
8
0
100
AcDbLine
10
326.41803210254278
20
-361.70106610776566
30
0
11
326.42296835254018
21
-361.70106610776566
31
0
0
SPLINE
5
920
100
AcDbEntity
8
0
100
AcDbSpline
70
0
71
3
72
8
73
4
74
0
42
0.000000001
43
0.0000000001
44
0.0000000001
40
0
40
0
40
0
40
0
40
1
40
1
40
1
40
1
10
322.33377164710561
20
-364.49450187104952
30
0
10
322.50453663558085
20
-364.49450187104952
30
0
10
322.7210688674968
20
-364.51810738574335
30
0
10
322.85620478409459
20
-364.63421396738357
30
0
0
SPLINE
5
921
100
AcDbEntity
8
0
100
AcDbSpline
70
0
71
3
72
8
73
4
74
0
42
0.000000001
43
0.0000000001
44
0.0000000001
40
0
40
0
40
0
40
0
40
1
40
1
40
1
40
1
10
322.56569471234707
20
-364.13756409345342
30
0
10
322.43461668136803
20
-364.13756409345342
30
0
10
322.29872882849605
20
-364.12041166045566
30
0
10
322.16949707202588
20
-364.09956558203493
30
0
0
LINE
5
922
100
AcDbEntity
8
0
100
AcDbLine
10
325.76242460777848
20
-361.20331355573143
30
0
11
325.76242460777848
21
-360.50603505935447
31
0
0
SPLINE
5
923
100
AcDbEntity
8
0
100
AcDbSpline
70
0
71
3
72
8
73
4
74
0
42
0.000000001
43
0.0000000001
44
0.0000000001
40
0
40
0
40
0
40
0
40
1
40
1
40
1
40
1
10
322.14566226484851
20
-364.50485481222069
30
0
10
322.20793101808476
20
-364.49890726320416
30
0
10
322.2711944804708
20
-364.49450187104952
30
0
10
322.33377164710561
20
-364.49450187104952
30
0
0
LINE
5
924
100
AcDbEntity
8
0
100
AcDbLine
10
322.75488576127043
20
-348.51421647068815
30
0
11
322.75211164035682
21
-348.51421647068815
31
0
0
LINE
5
925
100
AcDbEntity
8
0
100
AcDbLine
10
327.38069765924223
20
-356.6672942622892
30
0
11
327.38069765924223
21
-356.72735208742199
31
0
0
SPLINE
5
926
100
AcDbEntity
8
0
100
AcDbSpline
70
0
71
3
72
8
73
4
74
0
42
0.000000001
43
0.0000000001
44
0.0000000001
40
0
40
0
40
0
40
0
40
1
40
1
40
1
40
1
10
322.83933542135804
20
-365.38623360425561
30
0
10
322.83870588704468
20
-365.38678630033377
30
0
10
322.8380817448882
20
-365.38735247680415
30
0
10
322.8374559850846
20
-365.38790382484308
30
0
0
LINE
5
927
100
AcDbEntity
8
0
100
AcDbLine
10
322.8374559850846
20
-365.38790382484308
30
0
11
322.8374559850846
21
-365.38790382484308
31
0
0
LINE
5
928
100
AcDbEntity
8
0
100
AcDbLine
10
326.21439681343082
20
-361.20331355573143
30
0
11
326.43690357312136
21
-361.20331355573143
31
0
0
SPLINE
5
929
100
AcDbEntity
8
0
100
AcDbSpline
70
0
71
3
72
8
73
4
74
0
42
0.000000001
43
0.0000000001
44
0.0000000001
40
0
40
0
40
0
40
0
40
1
40
1
40
1
40
1
10
321.58659995467565
20
-365.29205692456497
30
0
10
321.5556516703777
20
-365.2383685847231
30
0
10
321.53518156908081
20
-365.1816174818108
30
0
10
321.52406065895582
20
-365.12225524491294
30
0
0
SPLINE
5
930
100
AcDbEntity
8
0
100
AcDbSpline
70
0
71
3
72
8
73
4
74
0
42
0.000000001
43
0.0000000001
44
0.0000000001
40
0
40
0
40
0
40
0
40
1
40
1
40
1
40
1
10
322.29461461281193
20
-365.55741567606401
30
0
10
322.14060981387075
20
-365.55741567606401
30
0
10
321.95933256396302
20
-365.54249288195382
30
0
10
321.81709289410082
20
-365.47877108623459
30
0
0
LINE
5
931
100
AcDbEntity
8
0
100
AcDbLine
10
322.06444157207937
20
-347.54948701202892
30
0
11
322.06444157207937
21
-348.31587277471078
31
0
0
LINE
5
932
100
AcDbEntity
8
0
100
AcDbLine
10
322.83232682168853
20
-363.88570730273193
30
0
11
322.83232682168853
21
-364.06773568009032
31
0
0
LINE
5
933
100
AcDbEntity
8
0
100
AcDbLine
10
322.51334148851754
20
-365.05221518939311
30
0
11
322.51334510903723
21
-364.96001510463594
31
0
0
SPLINE
5
934
100
AcDbEntity
8
0
100
AcDbSpline
70
0
71
3
72
8
73
4
74
0
42
0.000000001
43
0.0000000001
44
0.0000000001
40
0
40
0
40
0
40
0
40
1
40
1
40
1
40
1
10
322.83232682168853
20
-364.06773568009032
30
0
10
322.80842017300773
20
-364.08624965066912
30
0
10
322.78178440994947
20
-364.10077072909309
30
0
10
322.75337556192483
20
-364.11203764085201
30
0
0
LINE
5
935
100
AcDbEntity
8
0
100
AcDbLine
10
307.75658866105971
20
-350.98401440454472
30
0
11
307.75334060224088
21
-350.98992487302263
31
0
0
SPLINE
5
936
100
AcDbEntity
8
0
100
AcDbSpline
70
0
71
3
72
8
73
4
74
0
42
0.000000001
43
0.0000000001
44
0.0000000001
40
0
40
0
40
0
40
0
40
1
40
1
40
1
40
1
10
322.01299027598094
20
-348.4700387170621
30
0
10
321.97252051627214
20
-348.50742696449959
30
0
10
321.91339393975437
20
-348.51421419648199
30
0
10
321.86067471433995
20
-348.51421647068815
30
0
0
LINE
5
937
100
AcDbEntity
8
0
100
AcDbLine
10
326.42296835254018
20
-361.70106610776566
30
0
11
326.42296835254018
21
-361.84877746880164
31
0
0
LINE
5
938
100
AcDbEntity
8
0
100
AcDbLine
10
326.43690357312136
20
-361.38002931054348
30
0
11
326.21439573690759
21
-361.38002931054348
31
0
0
LINE
5
939
100
AcDbEntity
8
0
100
AcDbLine
10
325.76242460777848
20
-360.50603505935447
30
0
11
325.52882375495619
21
-360.71758684356041
31
0
0
LINE
5
940
100
AcDbEntity
8
0
100
AcDbLine
10
325.52882375495619
20
-361.38002931054348
30
0
11
325.52882375495619
21
-361.20331355573143
31
0
0
SPLINE
5
941
100
AcDbEntity
8
0
100
AcDbSpline
70
0
71
3
72
8
73
4
74
0
42
0.000000001
43
0.0000000001
44
0.0000000001
40
0
40
0
40
0
40
0
40
1
40
1
40
1
40
1
10
325.71814543786644
20
-351.83887255559694
30
0
10
325.82551039859607
20
-351.80335846247772
30
0
10
325.92926504070005
20
-351.75794708341596
30
0
10
326.02912370568197
20
-351.70495028769119
30
0
0
LINE
5
942
100
AcDbEntity
8
0
100
AcDbLine
10
321.80897971109835
20
-347.34851194350387
30
0
11
321.80897971109835
21
-347.54948701202892
31
0
0
SPLINE
5
943
100
AcDbEntity
8
0
100
AcDbSpline
70
0
71
3
72
8
73
4
74
0
42
0.000000001
43
0.0000000001
44
0.0000000001
40
0
40
0
40
0
40
0
40
1
40
1
40
1
40
1
10
316.32496025147196
20
-345.92240547690966
30
0
10
316.39377224326694
20
-345.8665980194217
30
0
10
316.45476965173265
20
-345.79922573350831
30
0
10
316.50734303732679
20
-345.71971570250298
30
0
0
LINE
5
944
100
AcDbEntity
8
0
100
AcDbLine
10
316.50734303732679
20
-345.71971570250298
30
0
11
316.50734303732679
21
-345.71971570250298
31
0
0
LINE
5
945
100
AcDbEntity
8
0
100
AcDbLine
10
325.10016574373657
20
-352.23663703088459
30
0
11
326.54540183940605
21
-352.23663703088459
31
0
0
LINE
5
946
100
AcDbEntity
8
0
100
AcDbLine
10
312.95448832181523
20
-346.92416010875257
30
0
11
313.34688625298804
21
-346.92416010875257
31
0
0
SPLINE
5
947
100
AcDbEntity
8
0
100
AcDbSpline
70
0
71
3
72
8
73
4
74
0
42
0.000000001
43
0.0000000001
44
0.0000000001
40
0
40
0
40
0
40
0
40
1
40
1
40
1
40
1
10
326.42674354534881
20
-351.8999939836703
30
0
10
326.4155220714984
20
-351.91922241503318
30
0
10
326.40344026104697
20
-351.93812055881438
30
0
10
326.39062486562858
20
-351.95386970096325
30
0
0
SPLINE
5
948
100
AcDbEntity
8
0
100
AcDbSpline
70
0
71
3
72
8
73
4
74
0
42
0.000000001
43
0.0000000001
44
0.0000000001
40
0
40
0
40
0
40
0
40
1
40
1
40
1
40
1
10
322.61548427114525
20
-365.51086788197
30
0
10
322.51281546564201
20
-365.54530354371718
30
0
10
322.40251258824713
20
-365.55741567606401
30
0
10
322.29461461281193
20
-365.55741567606401
30
0
0
SPLINE
5
949
100
AcDbEntity
8
0
100
AcDbSpline
70
0
71
3
72
8
73
4
74
0
42
0.000000001
43
0.0000000001
44
0.0000000001
40
0
40
0
40
0
40
0
40
1
40
1
40
1
40
1
10
321.98843795283705
20
-365.2369706680571
30
0
10
322.0425706064043
20
-365.31289759285517
30
0
10
322.125772090022
20
-365.34426781342734
30
0
10
322.2171725099102
20
-365.34426781342734
30
0
0
SPLINE
5
950
100
AcDbEntity
8
0
100
AcDbSpline
70
0
71
3
72
8
73
4
74
0
42
0.000000001
43
0.0000000001
44
0.0000000001
40
0
40
0
40
0
40
0
40
1
40
1
40
1
40
1
10
323.0130215928383
20
-364.98616128583183
30
0
10
323.0130215928383
20
-365.06250072860342
30
0
10
322.99968881996926
20
-365.13696774490541
30
0
10
322.96952079874279
20
-365.20723696709183
30
0
0
SPLINE
5
951
100
AcDbEntity
8
0
100
AcDbSpline
70
0
71
3
72
8
73
4
74
0
42
0.000000001
43
0.0000000001
44
0.0000000001
40
0
40
0
40
0
40
0
40
1
40
1
40
1
40
1
10
322.01513448550321
20
-347.11547378022374
30
0
10
322.09668032533108
20
-347.04934169038819
30
0
10
322.16779153281112
20
-346.96779342408973
30
0
10
322.22758553768267
20
-346.86994872969512
30
0
0
SPLINE
5
952
100
AcDbEntity
8
0
100
AcDbSpline
70
0
71
3
72
8
73
4
74
0
42
0.000000001
43
0.0000000001
44
0.0000000001
40
0
40
0
40
0
40
0
40
1
40
1
40
1
40
1
10
322.75211164035682
20
-348.51421647068815
30
0
10
322.69220425640037
20
-348.51421647068815
30
0
10
322.62436716656566
20
-348.50408865206583
30
0
10
322.58639966004887
20
-348.45206109653674
30
0
0
SPLINE
5
953
100
AcDbEntity
8
0
100
AcDbSpline
70
0
71
3
72
8
73
4
74
0
42
0.000000001
43
0.0000000001
44
0.0000000001
40
0
40
0
40
0
40
0
40
1
40
1
40
1
40
1
10
318.37834135826967
20
-345.72832158485153
30
0
10
318.41488359191123
20
-345.74432011425523
30
0
10
318.44956418339677
20
-345.76249031686029
30
0
10
318.48232678468736
20
-345.78302230214393
30
0
0
LINE
5
954
100
AcDbEntity
8
0
100
AcDbLine
10
325.6566535686166
20
-351.85920636114207
30
0
11
325.71814543786644
21
-351.83887255559694
31
0
0
LINE
5
955
100
AcDbEntity
8
0
100
AcDbLine
10
321.84426799866213
20
-348.51421647068815
30
0
11
321.84426799866213
21
-348.68284805230167
31
0
0
LINE
5
956
100
AcDbEntity
8
0
100
AcDbLine
10
316.54881693763247
20
-347.49632979963769
30
0
11
316.07755603427762
21
-347.49632979963769
31
0
0
LINE
5
957
100
AcDbEntity
8
0
100
AcDbLine
10
321.52406065895582
20
-365.12225524491294
30
0
11
321.93132368816021
21
-365.12225524491294
31
0
0
SPLINE
5
958
100
AcDbEntity
8
0
100
AcDbSpline
70
0
71
3
72
8
73
4
74
0
42
0.000000001
43
0.0000000001
44
0.0000000001
40
0
40
0
40
0
40
0
40
1
40
1
40
1
40
1
10
326.02912370568197
20
-351.70495028769119
30
0
10
326.13132689844031
20
-351.65070790373193
30
0
10
326.22740485263984
20
-351.58571760311139
30
0
10
326.31567417285635
20
-351.5109311015155
30
0
0
LINE
5
959
100
AcDbEntity
8
0
100
AcDbLine
10
326.17224580201434
20
-352.02348108001274
30
0
11
325.6566535686166
21
-352.02348107216346
31
0
0
LINE
5
960
100
AcDbEntity
8
0
100
AcDbLine
10
322.22758553768267
20
-346.86994872969512
30
0
11
322.27281157033929
21
-346.86994872969512
31
0
0
LINE
5
961
100
AcDbEntity
8
0
100
AcDbLine
10
321.86067471433995
20
-348.51421647068815
30
0
11
321.84426799866213
21
-348.51421647068815
31
0
0
LINE
5
962
100
AcDbEntity
8
0
100
AcDbLine
10
312.54823256548616
20
-348.40080866355635
30
0
11
312.60598119944359
21
-348.40080866355635
31
0
0
SPLINE
5
963
100
AcDbEntity
8
0
100
AcDbSpline
70
0
71
3
72
8
73
4
74
0
42
0.000000001
43
0.0000000001
44
0.0000000001
40
0
40
0
40
0
40
0
40
1
40
1
40
1
40
1
10
326.29507291633087
20
-352.01404076139005
30
0
10
326.25770419085978
20
-352.02317237903247
30
0
10
326.21068203075293
20
-352.02348108001274
30
0
10
326.17224580201434
20
-352.02348108001274
30
0
0
SPLINE
5
964
100
AcDbEntity
8
0
100
AcDbSpline
70
0
71
3
72
8
73
4
74
0
42
0.000000001
43
0.0000000001
44
0.0000000001
40
0
40
0
40
0
40
0
40
1
40
1
40
1
40
1
10
326.25768921863744
20
-361.64713916498278
30
0
10
326.2972170895323
20
-361.69237125482897
30
0
10
326.36128856662395
20
-361.70106610776566
30
0
10
326.41803210254278
20
-361.70106610776566
30
0
0
LINE
5
965
100
AcDbEntity
8
0
100
AcDbLine
10
321.80897971109835
20
-347.54948701202892
30
0
11
322.06444157207937
21
-347.54948701202892
31
0
0
SPLINE
5
966
100
AcDbEntity
8
0
100
AcDbSpline
70
0
71
3
72
8
73
4
74
0
42
0.000000001
43
0.0000000001
44
0.0000000001
40
0
40
0
40
0
40
0
40
1
40
1
40
1
40
1
10
326.54416931816485
20
-350.8317190266979
30
0
10
326.50711105511175
20
-350.77245519666269
30
0
10
326.45698288683673
20
-350.72590068034651
30
0
10
326.39790212052679
20
-350.68891452840461
30
0
0
SPLINE
5
967
100
AcDbEntity
8
0
100
AcDbSpline
70
0
71
3
72
8
73
4
74
0
42
0.000000001
43
0.0000000001
44
0.0000000001
40
0
40
0
40
0
40
0
40
1
40
1
40
1
40
1
10
316.26514776947624
20
-347.14653393380269
30
0
10
316.27935071064542
20
-347.13319373773118
30
0
10
316.28666517142602
20
-347.10522868218976
30
0
10
316.28666517142602
20
-347.06262796489131
30
0
0
SPLINE
5
968
100
AcDbEntity
8
0
100
AcDbSpline
70
0
71
3
72
8
73
4
74
0
42
0.000000001
43
0.0000000001
44
0.0000000001
40
0
40
0
40
0
40
0
40
1
40
1
40
1
40
1
10
326.39790212052679
20
-350.68891452840461
30
0
10
326.32789723984365
20
-350.64507496306743
30
0
10
326.2510327447846
20
-350.61496111504363
30
0
10
326.17108041312605
20
-350.59488478498832
30
0
0
SPLINE
5
969
100
AcDbEntity
8
0
100
AcDbSpline
70
0
71
3
72
8
73
4
74
0
42
0.000000001
43
0.0000000001
44
0.0000000001
40
0
40
0
40
0
40
0
40
1
40
1
40
1
40
1
10
321.95220102311686
20
-348.40423268316249
30
0
10
321.96715023879557
20
-348.3901888106206
30
0
10
321.97485090382435
20
-348.36074630409968
30
0
10
321.97485090382435
20
-348.31589838745583
30
0
0
LINE
5
970
100
AcDbEntity
8
0
100
AcDbLine
10
316.07755603427762
20
-347.49632979963769
30
0
11
316.07755603427762
21
-347.1658850367341
31
0
0
SPLINE
5
971
100
AcDbEntity
8
0
100
AcDbSpline
70
0
71
3
72
8
73
4
74
0
42
0.000000001
43
0.0000000001
44
0.0000000001
40
0
40
0
40
0
40
0
40
1
40
1
40
1
40
1
10
322.27281157033929
20
-346.86994872969512
30
0
10
321.08790255296867
20
-346.25477254373385
30
0
10
319.77217794089347
20
-345.85665623021094
30
0
10
318.37834135826967
20
-345.72832158485153
30
0
0
LINE
5
972
100
AcDbEntity
8
0
100
AcDbLine
10
312.47173944624404
20
-347.65475402831521
30
0
11
312.47173944624404
21
-347.32430791737238
31
0
0
LINE
5
973
100
AcDbEntity
8
0
100
AcDbLine
10
316.50734303732679
20
-345.71971570250298
30
0
11
316.50734303732679
21
-345.71971570250298
31
0
0
SPLINE
5
974
100
AcDbEntity
8
0
100
AcDbSpline
70
0
71
3
72
8
73
4
74
0
42
0.000000001
43
0.0000000001
44
0.0000000001
40
0
40
0
40
0
40
0
40
1
40
1
40
1
40
1
10
326.52099316294783
20
-351.2709249055593
30
0
10
326.56760564495039
20
-351.19183143664526
30
0
10
326.59378699297616
20
-351.10675535172123
30
0
10
326.59378699297616
20
-351.01480696287916
30
0
0
SPLINE
5
975
100
AcDbEntity
8
0
100
AcDbSpline
70
0
71
3
72
8
73
4
74
0
42
0.000000001
43
0.0000000001
44
0.0000000001
40
0
40
0
40
0
40
0
40
1
40
1
40
1
40
1
10
316.04398985782416
20
-346.08934390329523
30
0
10
316.1537161878336
20
-346.0407241909017
30
0
10
316.24750463223035
20
-345.98479406184515
30
0
10
316.32496025147196
20
-345.92240547690966
30
0
0
LINE
5
976
100
AcDbEntity
8
0
100
AcDbLine
10
325.6566535686166
20
-352.02348107216346
30
0
11
325.6566535686166
21
-351.85920636114207
31
0
0
SPLINE
5
977
100
AcDbEntity
8
0
100
AcDbSpline
70
0
71
3
72
8
73
4
74
0
42
0.000000001
43
0.0000000001
44
0.0000000001
40
0
40
0
40
0
40
0
40
1
40
1
40
1
40
1
10
322.07148277632416
20
-347.18519435044976
30
0
10
321.9913426897636
20
-347.24997031283516
30
0
10
321.90190177967844
20
-347.30361147130446
30
0
10
321.80897971109835
20
-347.34851194350387
30
0
0
LINE
5
978
100
AcDbEntity
8
0
100
AcDbLine
10
316.28666517142602
20
-347.06262796489131
30
0
11
316.28666517142602
21
-346.41978866619888
31
0
0
SPLINE
5
979
100
AcDbEntity
8
0
100
AcDbSpline
70
0
71
3
72
8
73
4
74
0
42
0.000000001
43
0.0000000001
44
0.0000000001
40
0
40
0
40
0
40
0
40
1
40
1
40
1
40
1
10
312.75270038564349
20
-347.15737082105204
30
0
10
312.83014791664982
20
-347.09454951552857
30
0
10
312.89769409962202
20
-347.0170979404046
30
0
10
312.95448832181523
20
-346.92416010875257
30
0
0
SPLINE
5
980
100
AcDbEntity
8
0
100
AcDbSpline
70
0
71
3
72
8
73
4
74
0
42
0.000000001
43
0.0000000001
44
0.0000000001
40
0
40
0
40
0
40
0
40
1
40
1
40
1
40
1
10
318.23859841879835
20
-347.49635406434362
30
0
10
319.50816643775983
20
-347.61691726362858
30
0
10
320.699327121794
20
-348.00643443499888
30
0
10
321.7546948728907
20
-348.60705995756894
30
0
0
LINE
5
981
100
AcDbEntity
8
0
100
AcDbLine
10
326.54540183940605
20
-352.23663703088459
30
0
11
326.60101638349539
21
-351.8999939836703
31
0
0
SPLINE
5
982
100
AcDbEntity
8
0
100
AcDbSpline
70
0
71
3
72
8
73
4
74
0
42
0.000000001
43
0.0000000001
44
0.0000000001
40
0
40
0
40
0
40
0
40
1
40
1
40
1
40
1
10
312.6928865556086
20
-348.38145216846823
30
0
10
312.70708949677777
20
-348.36811197239649
30
0
10
312.71440395755837
20
-348.34014152469837
30
0
10
312.71440395755837
20
-348.29754619955662
30
0
0
LINE
5
983
100
AcDbEntity
8
0
100
AcDbLine
10
316.28666517142602
20
-346.41978866619888
30
0
11
316.04398985782416
21
-346.41978866619888
31
0
0
LINE
5
984
100
AcDbEntity
8
0
100
AcDbLine
10
326.60101638349539
20
-351.8999939836703
30
0
11
326.42674354534881
21
-351.8999939836703
31
0
0
SPLINE
5
985
100
AcDbEntity
8
0
100
AcDbSpline
70
0
71
3
72
8
73
4
74
0
42
0.000000001
43
0.0000000001
44
0.0000000001
40
0
40
0
40
0
40
0
40
1
40
1
40
1
40
1
10
321.71934200526169
20
-347.29122973111475
30
0
10
321.83486368167343
20
-347.24003795989887
30
0
10
321.9335978123421
20
-347.18115697300078
30
0
10
322.01513448550321
20
-347.11547378022374
30
0
0
SPLINE
5
986
100
AcDbEntity
8
0
100
AcDbSpline
70
0
71
3
72
8
73
4
74
0
42
0.000000001
43
0.0000000001
44
0.0000000001
40
0
40
0
40
0
40
0
40
1
40
1
40
1
40
1
10
326.31567417285635
20
-351.5109311015155
30
0
10
326.39672621693268
20
-351.44226334991646
30
0
10
326.46697629696234
20
-351.36259964244073
30
0
10
326.52099316294783
20
-351.2709249055593
30
0
0
LINE
5
987
100
AcDbEntity
8
0
100
AcDbLine
10
316.07755603427762
20
-347.1658850367341
30
0
11
316.17824239533746
21
-347.1658850367341
31
0
0
SPLINE
5
988
100
AcDbEntity
8
0
100
AcDbSpline
70
0
71
3
72
8
73
4
74
0
42
0.000000001
43
0.0000000001
44
0.0000000001
40
0
40
0
40
0
40
0
40
1
40
1
40
1
40
1
10
322.51278810943285
20
-364.95505395088037
30
0
10
322.50450938721474
20
-364.88154808653877
30
0
10
322.4791083022605
20
-364.81164013886195
30
0
10
322.42579700000005
20
-364.75867299999999
30
0
0
SPLINE
5
989
100
AcDbEntity
8
0
100
AcDbSpline
70
0
71
3
72
8
73
4
74
0
42
0.000000001
43
0.0000000001
44
0.0000000001
40
0
40
0
40
0
40
0
40
1
40
1
40
1
40
1
10
317.696755188682
20
-360.06544812330418
30
0
10
317.79345836346943
20
-359.95088368055224
30
0
10
317.88585079642894
20
-359.83241937832491
30
0
10
317.99199854964286
20
-359.72585691432676
30
0
0
LINE
5
990
100
AcDbEntity
8
0
100
AcDbLine
10
312.71440395755837
20
-348.29754619955662
30
0
11
312.71440395755837
21
-347.65475402831521
31
0
0
LINE
5
991
100
AcDbEntity
8
0
100
AcDbLine
10
312.50530021256679
20
-348.40080866355635
30
0
11
312.54823256548616
21
-348.40080866355635
31
0
0
SPLINE
5
992
100
AcDbEntity
8
0
100
AcDbSpline
70
0
71
3
72
8
73
4
74
0
42
0.000000001
43
0.0000000001
44
0.0000000001
40
0
40
0
40
0
40
0
40
1
40
1
40
1
40
1
10
313.41998096536912
20
-348.39923550179248
30
0
10
314.37620019854245
20
-347.91639893177677
30
0
10
315.43218783199183
20
-347.60236113618515
30
0
10
316.54881693763247
20
-347.49632979963769
30
0
0
LINE
5
993
100
AcDbEntity
8
0
100
AcDbLine
10
322.51286293459623
20
-365.05672842468488
30
0
11
322.51334148851754
21
-365.05221518939311
31
0
0
SPLINE
5
994
100
AcDbEntity
8
0
100
AcDbSpline
70
0
71
3
72
8
73
4
74
0
42
0.000000001
43
0.0000000001
44
0.0000000001
40
0
40
0
40
0
40
0
40
1
40
1
40
1
40
1
10
313.36410206180284
20
-348.37672998709803
30
0
10
313.37275242944548
20
-348.38859138415086
30
0
10
313.39144434120067
20
-348.39615792826464
30
0
10
313.41998096536912
20
-348.39923550179248
30
0
0
SPLINE
5
995
100
AcDbEntity
8
0
100
AcDbSpline
70
0
71
3
72
8
73
4
74
0
42
0.000000001
43
0.0000000001
44
0.0000000001
40
0
40
0
40
0
40
0
40
1
40
1
40
1
40
1
10
316.17824239533746
20
-347.1658850367341
30
0
10
316.22211837570723
20
-347.1658850367341
30
0
10
316.25095426458154
20
-347.15943601712956
30
0
10
316.26514776947624
20
-347.14653393380269
30
0
0
SPLINE
5
996
100
AcDbEntity
8
0
100
AcDbSpline
70
0
71
3
72
8
73
4
74
0
42
0.000000001
43
0.0000000001
44
0.0000000001
40
0
40
0
40
0
40
0
40
1
40
1
40
1
40
1
10
322.42579700000005
20
-364.75867299999999
30
0
10
322.37346329577827
20
-364.70667105721606
30
0
10
322.30351544614075
20
-364.67897424350463
30
0
10
322.23225043637308
20
-364.66467693959027
30
0
0
SPLINE
5
997
100
AcDbEntity
8
0
100
AcDbSpline
70
0
71
3
72
8
73
4
74
0
42
0.000000001
43
0.0000000001
44
0.0000000001
40
0
40
0
40
0
40
0
40
1
40
1
40
1
40
1
10
326.59378699297616
20
-351.01480696287916
30
0
10
326.59378699297616
20
-350.94921274069037
30
0
10
326.57905750768958
20
-350.88750221947998
30
0
10
326.54416931816485
20
-350.8317190266979
30
0
0
SPLINE
5
998
100
AcDbEntity
8
0
100
AcDbSpline
70
0
71
3
72
8
73
4
74
0
42
0.000000001
43
0.0000000001
44
0.0000000001
40
0
40
0
40
0
40
0
40
1
40
1
40
1
40
1
10
312.3546137289834
20
-348.29753811132133
30
0
10
312.35461281250559
20
-348.33454042174867
30
0
10
312.3602105692915
20
-348.36078688391876
30
0
10
312.37182757695962
20
-348.37670614877129
30
0
0
LINE
5
999
100
AcDbEntity
8
0
100
AcDbLine
10
321.7546948728907
20
-348.42460694785791
30
0
11
321.86070586303282
21
-348.42460694785791
31
0
0
LINE
5
1000
100
AcDbEntity
8
0
100
AcDbLine
10
312.71440395755837
20
-347.65475402831521
30
0
11
312.47173944624404
21
-347.65475402831521
31
0
0
SPLINE
5
1001
100
AcDbEntity
8
0
100
AcDbSpline
70
0
71
3
72
8
73
4
74
0
42
0.000000001
43
0.0000000001
44
0.0000000001
40
0
40
0
40
0
40
0
40
1
40
1
40
1
40
1
10
326.21439573499941
20
-361.51968478923055
30
0
10
326.21439573499941
20
-361.56625548201737
30
0
10
326.22607367290192
20
-361.61178415846473
30
0
10
326.25768921863744
20
-361.64713916498278
30
0
0
SPLINE
5
1002
100
AcDbEntity
8
0
100
AcDbSpline
70
0
71
3
72
8
73
4
74
0
42
0.000000001
43
0.0000000001
44
0.0000000001
40
0
40
0
40
0
40
0
40
1
40
1
40
1
40
1
10
325.01827548887638
20
-351.16454038273758
30
0
10
325.02386578952701
20
-351.06127791873797
30
0
10
325.05097284506877
20
-350.95801274068583
30
0
10
325.09830868491395
20
-350.85561302178371
30
0
0
SPLINE
5
1003
100
AcDbEntity
8
0
100
AcDbSpline
70
0
71
3
72
8
73
4
74
0
42
0.000000001
43
0.0000000001
44
0.0000000001
40
0
40
0
40
0
40
0
40
1
40
1
40
1
40
1
10
318.65701765878134
20
-345.95426771382154
30
0
10
318.69918741692987
20
-346.02181389679367
30
0
10
318.72027222410867
20
-346.09882870721191
30
0
10
318.72027222410867
20
-346.18488212056678
30
0
0
SPLINE
5
1004
100
AcDbEntity
8
0
100
AcDbSpline
70
0
71
3
72
8
73
4
74
0
42
0.000000001
43
0.0000000001
44
0.0000000001
40
0
40
0
40
0
40
0
40
1
40
1
40
1
40
1
10
322.64068746394281
20
-348.31586873059297
30
0
10
322.64068746394281
20
-348.35482706390661
30
0
10
322.6465694982536
20
-348.38245376160484
30
0
10
322.65880591981602
20
-348.39921662924348
30
0
0
SPLINE
5
1005
100
AcDbEntity
8
0
100
AcDbSpline
70
0
71
3
72
8
73
4
74
0
42
0.000000001
43
0.0000000001
44
0.0000000001
40
0
40
0
40
0
40
0
40
1
40
1
40
1
40
1
10
326.30971826599654
20
-350.54508417226867
30
0
10
325.38538648705543
20
-349.1126715782267
30
0
10
324.12526795338317
20
-347.91729268177636
30
0
10
322.64068746394281
20
-347.07029154985469
30
0
0
SPLINE
5
1006
100
AcDbEntity
8
0
100
AcDbSpline
70
0
71
3
72
8
73
4
74
0
42
0.000000001
43
0.0000000001
44
0.0000000001
40
0
40
0
40
0
40
0
40
1
40
1
40
1
40
1
10
318.41047388603113
20
-346.74938955655404
30
0
10
318.31760405119832
20
-346.82819455908668
30
0
10
318.21653237214088
20
-346.896685039999
30
0
10
318.10815649327367
20
-346.95441548196339
30
0
0
SPLINE
5
1007
100
AcDbEntity
8
0
100
AcDbSpline
70
0
71
3
72
8
73
4
74
0
42
0.000000001
43
0.0000000001
44
0.0000000001
40
0
40
0
40
0
40
0
40
1
40
1
40
1
40
1
10
325.28793110638605
20
-352.32626003410689
30
0
10
325.80593916984787
20
-353.35648929828835
30
0
10
326.12816278079487
20
-354.502116057509
30
0
10
326.20572759121291
20
-355.71432651767617
30
0
0
LINE
5
1008
100
AcDbEntity
8
0
100
AcDbLine
10
326.30971826599654
20
-350.54508417226867
30
0
11
326.30971826599654
21
-350.54508417226867
31
0
0
LINE
5
1009
100
AcDbEntity
8
0
100
AcDbLine
10
326.21687828401775
20
-356.64395298125527
30
0
11
326.81566770528156
21
-356.64395298125527
31
0
0
SPLINE
5
1010
100
AcDbEntity
8
0
100
AcDbSpline
70
0
71
3
72
8
73
4
74
0
42
0.000000001
43
0.0000000001
44
0.0000000001
40
0
40
0
40
0
40
0
40
1
40
1
40
1
40
1
10
318.48232678468736
20
-345.78302230214393
30
0
10
318.55636553791766
20
-345.82942988218565
30
0
10
318.61442044638483
20
-345.88627937398684
30
0
10
318.65701765878134
20
-345.95426771382154
30
0
0
LINE
5
1011
100
AcDbEntity
8
0
100
AcDbLine
10
326.20572759121291
20
-355.71432651767617
30
0
11
326.20572759121291
21
-355.71432651767617
31
0
0
SPLINE
5
1012
100
AcDbEntity
8
0
100
AcDbSpline
70
0
71
3
72
8
73
4
74
0
42
0.000000001
43
0.0000000001
44
0.0000000001
40
0
40
0
40
0
40
0
40
1
40
1
40
1
40
1
10
325.67529788560068
20
-350.93866163775459
30
0
10
325.65120491992661
20
-350.98814141714115
30
0
10
325.63442184967374
20
-351.06257742854115
30
0
10
325.62496292810994
20
-351.1619642797977
30
0
0
SPLINE
5
1013
100
AcDbEntity
8
0
100
AcDbSpline
70
0
71
3
72
8
73
4
74
0
42
0.000000001
43
0.0000000001
44
0.0000000001
40
0
40
0
40
0
40
0
40
1
40
1
40
1
40
1
10
307.41162085731679
20
-356.15511769065449
30
0
10
307.37465492596306
20
-356.08710104199639
30
0
10
307.36264928871424
20
-356.00801429530446
30
0
10
307.36264928871424
20
-355.93142952736963
30
0
0
SPLINE
5
1014
100
AcDbEntity
8
0
100
AcDbSpline
70
0
71
3
72
8
73
4
74
0
42
0.000000001
43
0.0000000001
44
0.0000000001
40
0
40
0
40
0
40
0
40
1
40
1
40
1
40
1
10
327.15054643877113
20
-357.38546734852486
30
0
10
326.95918477710393
20
-357.38546734852486
30
0
10
326.79673598633696
20
-357.36254261160838
30
0
10
326.66367445045694
20
-357.31719457241581
30
0
0
LINE
5
1015
100
AcDbEntity
8
0
100
AcDbLine
10
327.971687325608
20
-355.54538084292568
30
0
11
327.971687325608
21
-355.54538084292568
31
0
0
SPLINE
5
1016
100
AcDbEntity
8
0
100
AcDbSpline
70
0
71
3
72
8
73
4
74
0
42
0.000000001
43
0.0000000001
44
0.0000000001
40
0
40
0
40
0
40
0
40
1
40
1
40
1
40
1
10
325.89859971882032
20
-350.47267426380881
30
0
10
326.00056874818017
20
-350.47267426380881
30
0
10
326.09866768277078
20
-350.48429705792046
30
0
10
326.19289830200375
20
-350.5079537981045
30
0
0
LINE
5
1017
100
AcDbEntity
8
0
100
AcDbLine
10
318.74355192671123
20
-346.98044612016179
30
0
11
318.65831961302916
21
-347.49635406434362
31
0
0
SPLINE
5
1018
100
AcDbEntity
8
0
100
AcDbSpline
70
0
71
3
72
8
73
4
74
0
42
0.000000001
43
0.0000000001
44
0.0000000001
40
0
40
0
40
0
40
0
40
1
40
1
40
1
40
1
10
326.21415686245047
20
-355.86656324635686
30
0
10
326.22067745395043
20
-356.0057698100116
30
0
10
326.22397745394875
20
-356.14583239654161
30
0
10
326.22397745394875
20
-356.28665662522803
30
0
0
SPLINE
5
1019
100
AcDbEntity
8
0
100
AcDbSpline
70
0
71
3
72
8
73
4
74
0
42
0.000000001
43
0.0000000001
44
0.0000000001
40
0
40
0
40
0
40
0
40
1
40
1
40
1
40
1
10
327.18935184081312
20
-356.50545969119202
30
0
10
327.12806277404894
20
-356.47604602602348
30
0
10
327.06328800321643
20
-356.46158423002998
30
0
10
326.99451888002704
20
-356.46157274768797
30
0
0
SPLINE
5
1020
100
AcDbEntity
8
0
100
AcDbSpline
70
0
71
3
72
8
73
4
74
0
42
0.000000001
43
0.0000000001
44
0.0000000001
40
0
40
0
40
0
40
0
40
1
40
1
40
1
40
1
10
327.21632063318208
20
-356.88564690433481
30
0
10
327.26067689296343
20
-356.85524457591896
30
0
10
327.28559796811413
20
-356.80142682431239
30
0
10
327.29106478837286
20
-356.72418015114914
30
0
0
SPLINE
5
1021
100
AcDbEntity
8
0
100
AcDbSpline
70
0
71
3
72
8
73
4
74
0
42
0.000000001
43
0.0000000001
44
0.0000000001
40
0
40
0
40
0
40
0
40
1
40
1
40
1
40
1
10
316.50734303732679
20
-345.71971570250298
30
0
10
315.01384952828323
20
-345.84332007825708
30
0
10
313.6081590976263
20
-346.27644362215426
30
0
10
312.3546137289834
20
-346.95478754174349
30
0
0
SPLINE
5
1022
100
AcDbEntity
8
0
100
AcDbSpline
70
0
71
3
72
8
73
4
74
0
42
0.000000001
43
0.0000000001
44
0.0000000001
40
0
40
0
40
0
40
0
40
1
40
1
40
1
40
1
10
326.27376010492253
20
-351.92692407869737
30
0
10
326.29311977820981
20
-351.9222140664445
30
0
10
326.3086301545726
20
-351.91233031064695
30
0
10
326.32111796859493
20
-351.89728172877648
30
0
0
SPLINE
5
1023
100
AcDbEntity
8
0
100
AcDbSpline
70
0
71
3
72
8
73
4
74
0
42
0.000000001
43
0.0000000001
44
0.0000000001
40
0
40
0
40
0
40
0
40
1
40
1
40
1
40
1
10
318.20914079626436
20
-347.10393321650417
30
0
10
318.25733264101103
20
-347.10393321650417
30
0
10
318.29132681092835
20
-347.10178579003474
30
0
10
318.31068154457859
20
-347.09705552042925
30
0
0
SPLINE
5
1024
100
AcDbEntity
8
0
100
AcDbSpline
70
0
71
3
72
8
73
4
74
0
42
0.000000001
43
0.0000000001
44
0.0000000001
40
0
40
0
40
0
40
0
40
1
40
1
40
1
40
1
10
325.36464045111825
20
-350.58712951538445
30
0
10
325.49458546412399
20
-350.51096936182853
30
0
10
325.67270332351046
20
-350.47267426380881
30
0
10
325.89859971882032
20
-350.47267426380881
30
0
0
LINE
5
1025
100
AcDbEntity
8
0
100
AcDbLine
10
326.62142017923657
20
-352.32626003410689
30
0
11
325.28793110638605
21
-352.32626003410689
31
0
0
SPLINE
5
1026
100
AcDbEntity
8
0
100
AcDbSpline
70
0
71
3
72
8
73
4
74
0
42
0.000000001
43
0.0000000001
44
0.0000000001
40
0
40
0
40
0
40
0
40
1
40
1
40
1
40
1
10
318.10815649327367
20
-346.95441548196339
30
0
10
317.99925566642173
20
-347.01200648443677
30
0
10
317.89123616819961
20
-347.05840662603106
30
0
10
317.78321394844193
20
-347.09406152533268
30
0
0
SPLINE
5
1027
100
AcDbEntity
8
0
100
AcDbSpline
70
0
71
3
72
8
73
4
74
0
42
0.000000001
43
0.0000000001
44
0.0000000001
40
0
40
0
40
0
40
0
40
1
40
1
40
1
40
1
10
325.09830868491395
20
-350.85561302178371
30
0
10
325.14606834828834
20
-350.7527751721629
30
0
10
325.23512708026919
20
-350.66328832090136
30
0
10
325.36464045111825
20
-350.58712951538445
30
0
0
SPLINE
5
1028
100
AcDbEntity
8
0
100
AcDbSpline
70
0
71
3
72
8
73
4
74
0
42
0.000000001
43
0.0000000001
44
0.0000000001
40
0
40
0
40
0
40
0
40
1
40
1
40
1
40
1
10
326.19289830200375
20
-350.5079537981045
30
0
10
326.23375668760389
20
-350.51822046476605
30
0
10
326.27267294412007
20
-350.53058872456359
30
0
10
326.30971826599654
20
-350.54508417226867
30
0
0
SPLINE
5
1029
100
AcDbEntity
8
0
100
AcDbSpline
70
0
71
3
72
8
73
4
74
0
42
0.000000001
43
0.0000000001
44
0.0000000001
40
0
40
0
40
0
40
0
40
1
40
1
40
1
40
1
10
318.31068154457859
20
-347.09705552042925
30
0
10
318.33005044162763
20
-347.09232255474541
30
0
10
318.34554546939745
20
-347.08242390278957
30
0
10
318.35801767200559
20
-347.0673595825358
30
0
0
SPLINE
5
1030
100
AcDbEntity
8
0
100
AcDbSpline
70
0
71
3
72
8
73
4
74
0
42
0.000000001
43
0.0000000001
44
0.0000000001
40
0
40
0
40
0
40
0
40
1
40
1
40
1
40
1
10
322.65880591981602
20
-348.39921662924348
30
0
10
322.67103991490779
20
-348.4159835409996
30
0
10
322.70229283809454
20
-348.42457729099527
30
0
10
322.75212012401693
20
-348.42457729099527
30
0
0
SPLINE
5
1031
100
AcDbEntity
8
0
100
AcDbSpline
70
0
71
3
72
8
73
4
74
0
42
0.000000001
43
0.0000000001
44
0.0000000001
40
0
40
0
40
0
40
0
40
1
40
1
40
1
40
1
10
327.14457126393762
20
-355.18783511761745
30
0
10
327.30653166908394
20
-355.18783511761745
30
0
10
327.45402705626373
20
-355.20926353100526
30
0
10
327.58707890423528
20
-355.25262186431644
30
0
0
LINE
5
1032
100
AcDbEntity
8
0
100
AcDbLine
10
317.78321394844193
20
-347.09406152533268
30
0
11
317.78321394844193
21
-347.10393321650417
31
0
0
SPLINE
5
1033
100
AcDbEntity
8
0
100
AcDbSpline
70
0
71
3
72
8
73
4
74
0
42
0.000000001
43
0.0000000001
44
0.0000000001
40
0
40
0
40
0
40
0
40
1
40
1
40
1
40
1
10
326.66859572823216
20
-351.1435608484345
30
0
10
326.65478884098439
20
-351.2025860755287
30
0
10
326.6313161171401
20
-351.2602444088327
30
0
10
326.59821434918302
20
-351.31643066533996
30
0
0
LINE
5
1034
100
AcDbEntity
8
0
100
AcDbLine
10
325.74629086105472
20
-351.93385266665962
30
0
11
326.17221830201441
21
-351.93385266665962
31
0
0
SPLINE
5
1035
100
AcDbEntity
8
0
100
AcDbSpline
70
0
71
3
72
8
73
4
74
0
42
0.000000001
43
0.0000000001
44
0.0000000001
40
0
40
0
40
0
40
0
40
1
40
1
40
1
40
1
10
307.59987987192687
20
-356.26758052229656
30
0
10
307.52343797817485
20
-356.25805394713797
30
0
10
307.4509647118719
20
-356.22748850597719
30
0
10
307.41162085731679
20
-356.15511769065449
30
0
0
LINE
5
1036
100
AcDbEntity
8
0
100
AcDbLine
10
307.59987987192687
20
-355.56287165174024
30
0
11
307.59987987192687
21
-355.34653837243872
31
0
0
SPLINE
5
1037
100
AcDbEntity
8
0
100
AcDbSpline
70
0
71
3
72
8
73
4
74
0
42
0.000000001
43
0.0000000001
44
0.0000000001
40
0
40
0
40
0
40
0
40
1
40
1
40
1
40
1
10
326.86101101734999
20
-356.82733209390705
30
0
10
326.89091955001442
20
-356.86969420826449
30
0
10
326.9247961709122
20
-356.89810278668153
30
0
10
326.96267350259239
20
-356.91106283569451
30
0
0
SPLINE
5
1038
100
AcDbEntity
8
0
100
AcDbSpline
70
0
71
3
72
8
73
4
74
0
42
0.000000001
43
0.0000000001
44
0.0000000001
40
0
40
0
40
0
40
0
40
1
40
1
40
1
40
1
10
327.0339146430789
20
-356.00708549628541
30
0
10
327.20533867893937
20
-356.00708549628541
30
0
10
327.29104091909181
20
-355.94230953390007
30
0
10
327.29104091909181
20
-355.81274143265887
30
0
0
SPLINE
5
1039
100
AcDbEntity
8
0
100
AcDbSpline
70
0
71
3
72
8
73
4
74
0
42
0.000000001
43
0.0000000001
44
0.0000000001
40
0
40
0
40
0
40
0
40
1
40
1
40
1
40
1
10
306.89679537065075
20
-355.67426818436326
30
0
10
306.84583411414076
20
-355.75564120556373
30
0
10
306.82695484290849
20
-355.84846312381706
30
0
10
306.82695484290849
20
-355.94358477899749
30
0
0
SPLINE
5
1040
100
AcDbEntity
8
0
100
AcDbSpline
70
0
71
3
72
8
73
4
74
0
42
0.000000001
43
0.0000000001
44
0.0000000001
40
0
40
0
40
0
40
0
40
1
40
1
40
1
40
1
10
326.32111796860522
20
-351.89728172876977
30
0
10
326.33316755193243
20
-351.88222008662058
30
0
10
326.35081081499533
20
-351.8529690016681
30
0
10
326.37404358785921
20
-351.81036691835658
30
0
0
SPLINE
5
1041
100
AcDbEntity
8
0
100
AcDbSpline
70
0
71
3
72
8
73
4
74
0
42
0.000000001
43
0.0000000001
44
0.0000000001
40
0
40
0
40
0
40
0
40
1
40
1
40
1
40
1
10
326.59821434918302
20
-351.31643066533996
30
0
10
326.54141917437533
20
-351.41279656071572
30
0
10
326.46655867441359
20
-351.50057816034439
30
0
10
326.3736112626961
20
-351.57931576487948
30
0
0
LINE
5
1042
100
AcDbEntity
8
0
100
AcDbLine
10
318.65831961302916
20
-347.49635406434362
30
0
11
318.23859841879835
21
-347.49635406434362
31
0
0
SPLINE
5
1043
100
AcDbEntity
8
0
100
AcDbSpline
70
0
71
3
72
8
73
4
74
0
42
0.000000001
43
0.0000000001
44
0.0000000001
40
0
40
0
40
0
40
0
40
1
40
1
40
1
40
1
10
326.20572759121291
20
-355.71432651767617
30
0
10
326.22108580198937
20
-355.6623717562648
30
0
10
326.24260830851438
20
-355.6105342562912
30
0
10
326.27050948497083
20
-355.55909309782055
30
0
0
LINE
5
1044
100
AcDbEntity
8
0
100
AcDbLine
10
322.75212012401693
20
-348.42457729099527
30
0
11
322.84454544913325
21
-348.42457729099527
31
0
0
LINE
5
1045
100
AcDbEntity
8
0
100
AcDbLine
10
322.84454544913325
20
-348.77249037413134
30
0
11
322.05610975509023
21
-348.77248992807296
31
0
0
SPLINE
5
1046
100
AcDbEntity
8
0
100
AcDbSpline
70
0
71
3
72
8
73
4
74
0
42
0.000000001
43
0.0000000001
44
0.0000000001
40
0
40
0
40
0
40
0
40
1
40
1
40
1
40
1
10
327.69721421136865
20
-357.29527008059688
30
0
10
327.55905613464154
20
-357.35528476847486
30
0
10
327.37679089780636
20
-357.38546734852486
30
0
10
327.15054643877113
20
-357.38546734852486
30
0
0
SPLINE
5
1047
100
AcDbEntity
8
0
100
AcDbSpline
70
0
71
3
72
8
73
4
74
0
42
0.000000001
43
0.0000000001
44
0.0000000001
40
0
40
0
40
0
40
0
40
1
40
1
40
1
40
1
10
307.36264928871424
20
-355.93142952736963
30
0
10
307.36264928871424
20
-355.85050405518859
30
0
10
307.37309928870894
20
-355.76545088693115
30
0
10
307.40677870045647
20
-355.69112541474681
30
0
0
LINE
5
1048
100
AcDbEntity
8
0
100
AcDbLine
10
327.971687325608
20
-355.54538084292568
30
0
11
327.971687325608
21
-355.54538084292568
31
0
0
SPLINE
5
1049
100
AcDbEntity
8
0
100
AcDbSpline
70
0
71
3
72
8
73
4
74
0
42
0.000000001
43
0.0000000001
44
0.0000000001
40
0
40
0
40
0
40
0
40
1
40
1
40
1
40
1
10
325.8159906714767
20
-350.86508030119074
30
0
10
325.74672331203487
20
-350.86508030119074
30
0
10
325.69981911434638
20
-350.8896105528122
30
0
10
325.67529788560068
20
-350.93866163775459
30
0
0
SPLINE
5
1050
100
AcDbEntity
8
0
100
AcDbSpline
70
0
71
3
72
8
73
4
74
0
42
0.000000001
43
0.0000000001
44
0.0000000001
40
0
40
0
40
0
40
0
40
1
40
1
40
1
40
1
10
307.40677870045647
20
-355.69112541474681
30
0
10
307.44360306971873
20
-355.6098737170758
30
0
10
307.51829116445202
20
-355.57382447036213
30
0
10
307.59987987192687
20
-355.56287165174024
30
0
0
SPLINE
5
1051
100
AcDbEntity
8
0
100
AcDbSpline
70
0
71
3
72
8
73
4
74
0
42
0.000000001
43
0.0000000001
44
0.0000000001
40
0
40
0
40
0
40
0
40
1
40
1
40
1
40
1
10
327.58707890423528
20
-355.25262186431644
30
0
10
327.71964369665136
20
-355.29597478749702
30
0
10
327.8242862831994
20
-355.3592652106675
30
0
10
327.9005253060364
20
-355.44249043774926
30
0
0
SPLINE
5
1052
100
AcDbEntity
8
0
100
AcDbSpline
70
0
71
3
72
8
73
4
74
0
42
0.000000001
43
0.0000000001
44
0.0000000001
40
0
40
0
40
0
40
0
40
1
40
1
40
1
40
1
10
321.86070586303282
20
-348.42460694785791
30
0
10
321.90689506072169
20
-348.42460694785791
30
0
10
321.93725518652326
20
-348.41781687433206
30
0
10
321.95220102311686
20
-348.40423268316249
30
0
0
SPLINE
5
1053
100
AcDbEntity
8
0
100
AcDbSpline
70
0
71
3
72
8
73
4
74
0
42
0.000000001
43
0.0000000001
44
0.0000000001
40
0
40
0
40
0
40
0
40
1
40
1
40
1
40
1
10
318.63507267676647
20
-346.48650445701452
30
0
10
318.57827777156655
20
-346.5828757625211
30
0
10
318.50341160984004
20
-346.67065196999278
30
0
10
318.41047388603113
20
-346.74938955655404
30
0
0
LINE
5
1054
100
AcDbEntity
8
0
100
AcDbLine
10
318.41094356086751
20
-346.98044612016179
30
0
11
318.74355192671123
21
-346.98044612016179
31
0
0
SPLINE
5
1055
100
AcDbEntity
8
0
100
AcDbSpline
70
0
71
3
72
8
73
4
74
0
42
0.000000001
43
0.0000000001
44
0.0000000001
40
0
40
0
40
0
40
0
40
1
40
1
40
1
40
1
10
326.81566770528156
20
-356.64395298125527
30
0
10
326.81566770528156
20
-356.72318395016924
30
0
10
326.83062163011056
20
-356.78447929327518
30
0
10
326.86101101734999
20
-356.82733209390705
30
0
0
SPLINE
5
1056
100
AcDbEntity
8
0
100
AcDbSpline
70
0
71
3
72
8
73
4
74
0
42
0.000000001
43
0.0000000001
44
0.0000000001
40
0
40
0
40
0
40
0
40
1
40
1
40
1
40
1
10
327.9005253060364
20
-355.44249043774926
30
0
10
327.92995001843974
20
-355.47441198838658
30
0
10
327.95366835502898
20
-355.50870880209465
30
0
10
327.971687325608
20
-355.54538084292568
30
0
0
SPLINE
5
1057
100
AcDbEntity
8
0
100
AcDbSpline
70
0
71
3
72
8
73
4
74
0
42
0.000000001
43
0.0000000001
44
0.0000000001
40
0
40
0
40
0
40
0
40
1
40
1
40
1
40
1
10
318.72027222410867
20
-346.18488212056678
30
0
10
318.72027222410867
20
-346.28944139829133
30
0
10
318.69186285484216
20
-346.39012642928589
30
0
10
318.63507267676647
20
-346.48650445701452
30
0
0
LINE
5
1058
100
AcDbEntity
8
0
100
AcDbLine
10
325.62496292810994
20
-351.1619642797977
30
0
11
325.01827548887638
21
-351.16454038273758
31
0
0
SPLINE
5
1059
100
AcDbEntity
8
0
100
AcDbSpline
70
0
71
3
72
8
73
4
74
0
42
0.000000001
43
0.0000000001
44
0.0000000001
40
0
40
0
40
0
40
0
40
1
40
1
40
1
40
1
10
326.56651980834954
20
-355.29746976298645
30
0
10
326.7085421742903
20
-355.22422002609574
30
0
10
326.90139381471488
20
-355.18783511761745
30
0
10
327.14457126393762
20
-355.18783511761745
30
0
0
SPLINE
5
1060
100
AcDbEntity
8
0
100
AcDbSpline
70
0
71
3
72
8
73
4
74
0
42
0.000000001
43
0.0000000001
44
0.0000000001
40
0
40
0
40
0
40
0
40
1
40
1
40
1
40
1
10
322.05610975509023
20
-348.77248992807296
30
0
10
322.05541821097285
20
-348.77687105552178
30
0
10
322.05471304267257
20
-348.78126566336272
30
0
10
322.05400330901273
20
-348.78565353100748
30
0
0
LINE
5
1061
100
AcDbEntity
8
0
100
AcDbLine
10
311.51302364444456
20
-348.73127769116587
30
0
11
311.51302364444456
21
-348.40083158022304
31
0
0
LINE
5
1062
100
AcDbEntity
8
0
100
AcDbLine
10
322.84454544913325
20
-348.42457729099527
30
0
11
322.84454544913325
21
-348.77249037413134
31
0
0
SPLINE
5
1063
100
AcDbEntity
8
0
100
AcDbSpline
70
0
71
3
72
8
73
4
74
0
42
0.000000001
43
0.0000000001
44
0.0000000001
40
0
40
0
40
0
40
0
40
1
40
1
40
1
40
1
10
326.30404746044331
20
-361.51968478923033
30
0
10
326.30406205546973
20
-361.54980672195364
30
0
10
326.31102234646085
20
-361.57251779493851
30
0
10
326.32493046383144
20
-361.58780051858827
30
0
0
SPLINE
5
1064
100
AcDbEntity
8
0
100
AcDbSpline
70
0
71
3
72
8
73
4
74
0
42
0.000000001
43
0.0000000001
44
0.0000000001
40
0
40
0
40
0
40
0
40
1
40
1
40
1
40
1
10
327.08723025906482
20
-355.64231023666719
30
0
10
327.03341128523607
20
-355.64231023666719
30
0
10
326.98457103362693
20
-355.66075410920683
30
0
10
326.94122161534835
20
-355.69663350297935
30
0
0
LINE
5
1065
100
AcDbEntity
8
0
100
AcDbLine
10
321.7546948728907
20
-348.60705995756894
30
0
11
321.7546948728907
21
-348.42460694785791
31
0
0
SPLINE
5
1066
100
AcDbEntity
8
0
100
AcDbSpline
70
0
71
3
72
8
73
4
74
0
42
0.000000001
43
0.0000000001
44
0.0000000001
40
0
40
0
40
0
40
0
40
1
40
1
40
1
40
1
10
312.47173944624404
20
-347.32430791737238
30
0
10
312.58145497396595
20
-347.27569357916184
30
0
10
312.67524882849341
20
-347.21975805794847
30
0
10
312.75270038564349
20
-347.15737082105204
30
0
0
SPLINE
5
1067
100
AcDbEntity
8
0
100
AcDbSpline
70
0
71
3
72
8
73
4
74
0
42
0.000000001
43
0.0000000001
44
0.0000000001
40
0
40
0
40
0
40
0
40
1
40
1
40
1
40
1
10
312.60598119944359
20
-348.40080866355635
30
0
10
312.64986120595717
20
-348.40080866355635
30
0
10
312.6786944167269
20
-348.39435964395176
30
0
10
312.6928865556086
20
-348.38145216846823
30
0
0
SPLINE
5
1068
100
AcDbEntity
8
0
100
AcDbSpline
70
0
71
3
72
8
73
4
74
0
42
0.000000001
43
0.0000000001
44
0.0000000001
40
0
40
0
40
0
40
0
40
1
40
1
40
1
40
1
10
307.65982985392247
20
-355.64866624156593
30
0
10
307.56948158762862
20
-355.64866624156593
30
0
10
307.51234900759232
20
-355.67531021867654
30
0
10
307.48841591936923
20
-355.72811291472806
30
0
0
SPLINE
5
1069
100
AcDbEntity
8
0
100
AcDbSpline
70
0
71
3
72
8
73
4
74
0
42
0.000000001
43
0.0000000001
44
0.0000000001
40
0
40
0
40
0
40
0
40
1
40
1
40
1
40
1
10
312.37182757695962
20
-348.37670614877129
30
0
10
312.38344225420303
20
-348.39263154014117
30
0
10
312.41312537128715
20
-348.40080457189504
30
0
10
312.46045635801448
20
-348.40080866355635
30
0
0
LINE
5
1070
100
AcDbEntity
8
0
100
AcDbLine
10
326.30404746044388
20
-361.11369053453529
30
0
11
326.52650784758566
21
-361.11369053453529
31
0
0
LINE
5
1071
100
AcDbEntity
8
0
100
AcDbLine
10
321.71934200526169
20
-347.63916395479379
30
0
11
321.71934200526169
21
-347.29122973111475
31
0
0
SPLINE
5
1072
100
AcDbEntity
8
0
100
AcDbSpline
70
0
71
3
72
8
73
4
74
0
42
0.000000001
43
0.0000000001
44
0.0000000001
40
0
40
0
40
0
40
0
40
1
40
1
40
1
40
1
10
326.39062486562858
20
-351.95386970096325
30
0
10
326.36583066792889
20
-351.98431247055566
30
0
10
326.33320502742248
20
-352.00471772217918
30
0
10
326.29507291633087
20
-352.01404076139005
30
0
0
LINE
5
1073
100
AcDbEntity
8
0
100
AcDbLine
10
317.78321394844193
20
-347.10393321650417
30
0
11
318.20914079626436
21
-347.10393321650417
31
0
0
SPLINE
5
1074
100
AcDbEntity
8
0
100
AcDbSpline
70
0
71
3
72
8
73
4
74
0
42
0.000000001
43
0.0000000001
44
0.0000000001
40
0
40
0
40
0
40
0
40
1
40
1
40
1
40
1
10
326.22397745394875
20
-356.28665662522803
30
0
10
326.22397745394875
20
-356.40632472647422
30
0
10
326.22158941146625
20
-356.52544147968172
30
0
10
326.21687828401775
20
-356.64395298125527
30
0
0
SPLINE
5
1075
100
AcDbEntity
8
0
100
AcDbSpline
70
0
71
3
72
8
73
4
74
0
42
0.000000001
43
0.0000000001
44
0.0000000001
40
0
40
0
40
0
40
0
40
1
40
1
40
1
40
1
10
322.05400330901273
20
-348.78565353100748
30
0
10
323.30210583452123
20
-349.56272782472956
30
0
10
324.34222361340346
20
-350.64250155620596
30
0
10
325.07148755747659
20
-351.92232827941069
30
0
0
SPLINE
5
1076
100
AcDbEntity
8
0
100
AcDbSpline
70
0
71
3
72
8
73
4
74
0
42
0.000000001
43
0.0000000001
44
0.0000000001
40
0
40
0
40
0
40
0
40
1
40
1
40
1
40
1
10
325.93044080050345
20
-350.91025846946832
30
0
10
325.89989680215297
20
-350.88013383713081
30
0
10
325.86203375968859
20
-350.86508030119074
30
0
10
325.8159906714767
20
-350.86508030119074
30
0
0
SPLINE
5
1077
100
AcDbEntity
8
0
100
AcDbSpline
70
0
71
3
72
8
73
4
74
0
42
0.000000001
43
0.0000000001
44
0.0000000001
40
0
40
0
40
0
40
0
40
1
40
1
40
1
40
1
10
327.96633264423821
20
-357.10165935030335
30
0
10
327.9072335445951
20
-357.1787253862118
30
0
10
327.81729170313764
20
-357.24311311330314
30
0
10
327.69721421136865
20
-357.29527008059688
30
0
0
LINE
5
1078
100
AcDbEntity
8
0
100
AcDbLine
10
326.51261617765806
20
-361.61148354571975
30
0
11
326.51261617765806
21
-361.70089895090308
31
0
0
LINE
5
1079
100
AcDbEntity
8
0
100
AcDbLine
10
312.50530021256679
20
-348.73127769116587
30
0
11
311.51302364444456
21
-348.73127769116587
31
0
0
LINE
5
1080
100
AcDbEntity
8
0
100
AcDbLine
10
313.34688625298804
20
-346.92416010875257
30
0
11
313.34688625298804
21
-348.29756237602714
31
0
0
SPLINE
5
1081
100
AcDbEntity
8
0
100
AcDbSpline
70
0
71
3
72
8
73
4
74
0
42
0.000000001
43
0.0000000001
44
0.0000000001
40
0
40
0
40
0
40
0
40
1
40
1
40
1
40
1
10
325.67745178265841
20
-351.54490301979882
30
0
10
325.87656008647849
20
-351.39030858850504
30
0
10
325.97605141976118
20
-351.22478423728199
30
0
10
325.97605141976118
20
-351.04794041874459
30
0
0
SPLINE
5
1082
100
AcDbEntity
8
0
100
AcDbSpline
70
0
71
3
72
8
73
4
74
0
42
0.000000001
43
0.0000000001
44
0.0000000001
40
0
40
0
40
0
40
0
40
1
40
1
40
1
40
1
10
325.07148755747659
20
-351.92232827941069
30
0
10
325.29276867991308
20
-351.81257231051222
30
0
10
325.49477269778401
20
-351.68673423377891
30
0
10
325.67745178265841
20
-351.54490301979882
30
0
0
SPLINE
5
1083
100
AcDbEntity
8
0
100
AcDbSpline
70
0
71
3
72
8
73
4
74
0
42
0.000000001
43
0.0000000001
44
0.0000000001
40
0
40
0
40
0
40
0
40
1
40
1
40
1
40
1
10
327.971687325608
20
-355.54538084292568
30
0
10
327.86194819821293
20
-353.95622504308119
30
0
10
327.40204626870843
20
-352.46341220397181
30
0
10
326.66859572823216
20
-351.1435608484345
30
0
0
LINE
5
1084
100
AcDbEntity
8
0
100
AcDbLine
10
326.81860035560686
20
-356.46157274768797
30
0
11
326.81860035560686
21
-356.00708549628541
31
0
0
LINE
5
1085
100
AcDbEntity
8
0
100
AcDbLine
10
324.97107524380232
20
-360.82325153141517
30
0
11
325.85955133648724
21
-360.0207700596016
31
0
0
SPLINE
5
1086
100
AcDbEntity
8
0
100
AcDbSpline
70
0
71
3
72
8
73
4
74
0
42
0.000000001
43
0.0000000001
44
0.0000000001
40
0
40
0
40
0
40
0
40
1
40
1
40
1
40
1
10
326.96267350259239
20
-356.91106283569451
30
0
10
327.00055608263835
20
-356.92401208241984
30
0
10
327.036430102228
20
-356.93098953339683
30
0
10
327.06981819371418
20
-356.93098953339683
30
0
0
SPLINE
5
1087
100
AcDbEntity
8
0
100
AcDbSpline
70
0
71
3
72
8
73
4
74
0
42
0.000000001
43
0.0000000001
44
0.0000000001
40
0
40
0
40
0
40
0
40
1
40
1
40
1
40
1
10
327.29104091909181
20
-355.81274143265887
30
0
10
327.29104091909181
20
-355.74496203890249
30
0
10
327.26862613642351
20
-355.69962480199746
30
0
10
327.22377662010643
20
-355.67669465495038
30
0
0
SPLINE
5
1088
100
AcDbEntity
8
0
100
AcDbSpline
70
0
71
3
72
8
73
4
74
0
42
0.000000001
43
0.0000000001
44
0.0000000001
40
0
40
0
40
0
40
0
40
1
40
1
40
1
40
1
10
326.94122161534835
20
-355.69663350297935
30
0
10
326.89837499772301
20
-355.73301303727453
30
0
10
326.87196435721364
20
-355.78982208789921
30
0
10
326.86348344708716
20
-355.86656324635686
30
0
0
SPLINE
5
1089
100
AcDbEntity
8
0
100
AcDbSpline
70
0
71
3
72
8
73
4
74
0
42
0.000000001
43
0.0000000001
44
0.0000000001
40
0
40
0
40
0
40
0
40
1
40
1
40
1
40
1
10
327.06981819371418
20
-356.93098953339683
30
0
10
327.12313905806616
20
-356.93098953339683
30
0
10
327.17197540934848
20
-356.91553832588818
30
0
10
327.21632063318208
20
-356.88564690433481
30
0
0
SPLINE
5
1090
100
AcDbEntity
8
0
100
AcDbSpline
70
0
71
3
72
8
73
4
74
0
42
0.000000001
43
0.0000000001
44
0.0000000001
40
0
40
0
40
0
40
0
40
1
40
1
40
1
40
1
10
306.87107614844172
20
-356.15342050928285
30
0
10
306.90111179221725
20
-356.21686460892374
30
0
10
306.9437421843524
20
-356.26962145366798
30
0
10
306.99827574478218
20
-356.31368885560647
30
0
0
SPLINE
5
1091
100
AcDbEntity
8
0
100
AcDbSpline
70
0
71
3
72
8
73
4
74
0
42
0.000000001
43
0.0000000001
44
0.0000000001
40
0
40
0
40
0
40
0
40
1
40
1
40
1
40
1
10
327.29106478837281
20
-356.6708638701304
30
0
10
327.28456620735926
20
-356.58964552764814
30
0
10
327.25066591306489
20
-356.53433149268778
30
0
10
327.18935184081317
20
-356.50545969119202
30
0
0
LINE
5
1092
100
AcDbEntity
8
0
100
AcDbLine
10
326.30404746044388
20
-360.0207700596016
30
0
11
326.30404746044388
21
-361.11369053453529
31
0
0
LINE
5
1093
100
AcDbEntity
8
0
100
AcDbLine
10
326.52650784758566
20
-361.46961593468086
30
0
11
326.30404746044388
21
-361.46961593468086
31
0
0
LINE
5
1094
100
AcDbEntity
8
0
100
AcDbLine
10
326.81860035560686
20
-356.00708549628541
30
0
11
327.0339146430789
21
-356.00708549628541
31
0
0
SPLINE
5
1095
100
AcDbEntity
8
0
100
AcDbSpline
70
0
71
3
72
8
73
4
74
0
42
0.000000001
43
0.0000000001
44
0.0000000001
40
0
40
0
40
0
40
0
40
1
40
1
40
1
40
1
10
326.66367445045694
20
-357.31719457241581
30
0
10
326.53062583777961
20
-357.27184520315791
30
0
10
326.4264713672444
20
-357.21204485351507
30
0
10
326.35073045388418
20
-357.13879511662424
30
0
0
SPLINE
5
1096
100
AcDbEntity
8
0
100
AcDbSpline
70
0
71
3
72
8
73
4
74
0
42
0.000000001
43
0.0000000001
44
0.0000000001
40
0
40
0
40
0
40
0
40
1
40
1
40
1
40
1
10
326.51261617765806
20
-361.70089895090308
30
0
10
327.32485231286546
20
-360.33583437806863
30
0
10
327.83930787959707
20
-358.77288106350477
30
0
10
327.96633264423821
20
-357.10165935030335
30
0
0
SPLINE
5
1097
100
AcDbEntity
8
0
100
AcDbSpline
70
0
71
3
72
8
73
4
74
0
42
0.000000001
43
0.0000000001
44
0.0000000001
40
0
40
0
40
0
40
0
40
1
40
1
40
1
40
1
10
326.35073045388418
20
-357.13879511662424
30
0
10
326.28341397679435
20
-357.07325751208248
30
0
10
326.2336437219177
20
-357.00254074087661
30
0
10
326.2010683542872
20
-356.92771919026109
30
0
0
LINE
5
1098
100
AcDbEntity
8
0
100
AcDbLine
10
327.29106478837286
20
-356.72418015114914
30
0
11
327.29106478837281
21
-356.6708638701304
31
0
0
LINE
5
1099
100
AcDbEntity
8
0
100
AcDbLine
10
326.99451888002704
20
-356.46157274768797
30
0
11
326.81860035560686
21
-356.46157274768797
31
0
0
LINE
5
1100
100
AcDbEntity
8
0
100
AcDbLine
10
326.30404746044388
20
-361.46961593468086
30
0
11
326.30404746044331
21
-361.51968478923033
31
0
0
LINE
5
1101
100
AcDbEntity
8
0
100
AcDbLine
10
311.72212738943603
20
-347.65477694498202
30
0
11
311.47946153008252
21
-347.65477694498202
31
0
0
LINE
5
1102
100
AcDbEntity
8
0
100
AcDbLine
10
321.97485090382435
20
-348.31589838745583
30
0
11
321.97485090382435
21
-347.63916395479379
31
0
0
LINE
5
1103
100
AcDbEntity
8
0
100
AcDbLine
10
321.97485090382435
20
-347.63916395479379
30
0
11
321.71934200526169
21
-347.63916395479379
31
0
0
SPLINE
5
1104
100
AcDbEntity
8
0
100
AcDbSpline
70
0
71
3
72
8
73
4
74
0
42
0.000000001
43
0.0000000001
44
0.0000000001
40
0
40
0
40
0
40
0
40
1
40
1
40
1
40
1
10
326.32493046383183
20
-361.58780051858844
30
0
10
326.33835698619237
20
-361.60357101305772
30
0
10
326.36988352914477
20
-361.61145530078602
30
0
10
326.41807523979753
20
-361.61148354571975
30
0
0
LINE
5
1105
100
AcDbEntity
8
0
100
AcDbLine
10
312.46045635801448
20
-348.40080866355635
30
0
11
312.50530021256679
21
-348.40080866355635
31
0
0
SPLINE
5
1106
100
AcDbEntity
8
0
100
AcDbSpline
70
0
71
3
72
8
73
4
74
0
42
0.000000001
43
0.0000000001
44
0.0000000001
40
0
40
0
40
0
40
0
40
1
40
1
40
1
40
1
10
313.34688625298804
20
-348.29756237602714
30
0
10
313.34688625298804
20
-348.33456468646585
30
0
10
313.35249005200484
20
-348.36081100998194
30
0
10
313.36410206180284
20
-348.37672998709803
30
0
0
LINE
5
1107
100
AcDbEntity
8
0
100
AcDbLine
10
326.21687828401775
20
-356.64395298125527
30
0
11
326.21687828401775
21
-356.64395298125527
31
0
0
LINE
5
1108
100
AcDbEntity
8
0
100
AcDbLine
10
311.47946153008252
20
-347.65477694498202
30
0
11
311.47946153008252
21
-347.48454793689865
31
0
0
SPLINE
5
1109
100
AcDbEntity
8
0
100
AcDbSpline
70
0
71
3
72
8
73
4
74
0
42
0.000000001
43
0.0000000001
44
0.0000000001
40
0
40
0
40
0
40
0
40
1
40
1
40
1
40
1
10
326.2010683542872
20
-356.92771919026109
30
0
10
326.09938241316252
20
-358.34499466993174
30
0
10
325.66321150978968
20
-359.66970031468219
30
0
10
324.97107524380232
20
-360.82325153141517
30
0
0
LINE
5
1110
100
AcDbEntity
8
0
100
AcDbLine
10
312.82143149508562
20
-348.73127364704828
30
0
11
312.54823256548639
21
-348.73127769116587
31
0
0
LINE
5
1111
100
AcDbEntity
8
0
100
AcDbLine
10
311.72212738943603
20
-348.2975691162232
30
0
11
311.72212738943603
21
-347.65477694498202
31
0
0
SPLINE
5
1112
100
AcDbEntity
8
0
100
AcDbSpline
70
0
71
3
72
8
73
4
74
0
42
0.000000001
43
0.0000000001
44
0.0000000001
40
0
40
0
40
0
40
0
40
1
40
1
40
1
40
1
10
327.22377662010643
20
-355.67669465495038
30
0
10
327.17892710378942
20
-355.65377665822996
30
0
10
327.13358945348568
20
-355.64231023666719
30
0
10
327.08723025906482
20
-355.64231023666719
30
0
0
SPLINE
5
1113
100
AcDbEntity
8
0
100
AcDbSpline
70
0
71
3
72
8
73
4
74
0
42
0.000000001
43
0.0000000001
44
0.0000000001
40
0
40
0
40
0
40
0
40
1
40
1
40
1
40
1
10
311.61370328328206
20
-348.40083158022304
30
0
10
311.65758463783493
20
-348.40083158022304
30
0
10
311.68641650056543
20
-348.3943825606184
30
0
10
311.7006099874863
20
-348.38147508513487
30
0
0
LINE
5
1114
100
AcDbEntity
8
0
100
AcDbLine
10
326.41807523979753
20
-361.61148354571975
30
0
11
326.51261617765806
21
-361.61148354571975
31
0
0
LINE
5
1115
100
AcDbEntity
8
0
100
AcDbLine
10
326.52650784758566
20
-361.11369053453529
30
0
11
326.52650784758566
21
-361.46961593468086
31
0
0
SPLINE
5
1116
100
AcDbEntity
8
0
100
AcDbSpline
70
0
71
3
72
8
73
4
74
0
42
0.000000001
43
0.0000000001
44
0.0000000001
40
0
40
0
40
0
40
0
40
1
40
1
40
1
40
1
10
307.48841591936923
20
-355.72811291472806
30
0
10
307.46448554519844
20
-355.78092907319785
30
0
10
307.45227770206736
20
-355.84870307479736
30
0
10
307.45227770206736
20
-355.93142683129128
30
0
0
SPLINE
5
1117
100
AcDbEntity
8
0
100
AcDbSpline
70
0
71
3
72
8
73
4
74
0
42
0.000000001
43
0.0000000001
44
0.0000000001
40
0
40
0
40
0
40
0
40
1
40
1
40
1
40
1
10
307.08676102088089
20
-355.48852056681085
30
0
10
307.00866912712974
20
-355.53545794423786
30
0
10
306.94519267454774
20
-355.59700265662491
30
0
10
306.89679537065075
20
-355.67426818436326
30
0
0
LINE
5
1118
100
AcDbEntity
8
0
100
AcDbLine
10
326.86348344708716
20
-355.86656324635686
30
0
11
326.21415686245047
21
-355.86656324635686
31
0
0
LINE
5
1119
100
AcDbEntity
8
0
100
AcDbLine
10
325.85955133648724
20
-360.0207700596016
30
0
11
326.30404746044388
21
-360.0207700596016
31
0
0
LINE
5
1120
100
AcDbEntity
8
0
100
AcDbLine
10
311.51302364444456
20
-348.40083158022304
30
0
11
311.61370328328206
21
-348.40083158022304
31
0
0
LINE
5
1121
100
AcDbEntity
8
0
100
AcDbLine
10
312.54823256548639
20
-348.73127769116587
30
0
11
312.50530021256679
21
-348.73127769116587
31
0
0
SPLINE
5
1122
100
AcDbEntity
8
0
100
AcDbSpline
70
0
71
3
72
8
73
4
74
0
42
0.000000001
43
0.0000000001
44
0.0000000001
40
0
40
0
40
0
40
0
40
1
40
1
40
1
40
1
10
311.7006099874863
20
-348.38147508513487
30
0
10
311.7148115806163
20
-348.36813488906324
30
0
10
311.72212738943603
20
-348.340164441365
30
0
10
311.72212738943603
20
-348.2975691162232
30
0
0
LINE
5
1123
100
AcDbEntity
8
0
100
AcDbLine
10
316.04398985782416
20
-346.41978866619888
30
0
11
316.04398985782416
21
-346.08934390329523
31
0
0
SPLINE
5
1124
100
AcDbEntity
8
0
100
AcDbSpline
70
0
71
3
72
8
73
4
74
0
42
0.000000001
43
0.0000000001
44
0.0000000001
40
0
40
0
40
0
40
0
40
1
40
1
40
1
40
1
10
318.35801767200559
20
-347.0673595825358
30
0
10
318.37006684193403
20
-347.05229928842584
30
0
10
318.38770093833028
20
-347.02304953353877
30
0
10
318.41094356086751
20
-346.98044612016179
30
0
0
LINE
5
1125
100
AcDbEntity
8
0
100
AcDbLine
10
317.13702344223492
20
-347.17822094359047
30
0
11
317.13702344223492
21
-347.25550940596946
31
0
0
SPLINE
5
1126
100
AcDbEntity
8
0
100
AcDbSpline
70
0
71
3
72
8
73
4
74
0
42
0.000000001
43
0.0000000001
44
0.0000000001
40
0
40
0
40
0
40
0
40
1
40
1
40
1
40
1
10
316.52913772195626
20
-357.03974123105377
30
0
10
316.32115338872876
20
-356.76462132759912
30
0
10
316.06882613232125
20
-356.52851366105256
30
0
10
315.83640941511936
20
-356.27495294876343
30
0
0
LINE
5
1127
100
AcDbEntity
8
0
100
AcDbLine
10
311.56908992546175
20
-347.38152407583993
30
0
11
311.56908992546175
21
-347.5651512277073
31
0
0
SPLINE
5
1128
100
AcDbEntity
8
0
100
AcDbSpline
70
0
71
3
72
8
73
4
74
0
42
0.000000001
43
0.0000000001
44
0.0000000001
40
0
40
0
40
0
40
0
40
1
40
1
40
1
40
1
10
314.99708935672305
20
-355.4481535504915
30
0
10
315.03260749395992
20
-355.73969524968948
30
0
10
315.1239694677696
20
-356.05916833939614
30
0
10
315.37260586470182
20
-356.24066289322525
30
0
0
LINE
5
1129
100
AcDbEntity
8
0
100
AcDbLine
10
323.97154945999745
20
-357.5380356948524
30
0
11
323.97154945999745
21
-357.5380356948524
31
0
0
SPLINE
5
1130
100
AcDbEntity
8
0
100
AcDbSpline
70
0
71
3
72
8
73
4
74
0
42
0.000000001
43
0.0000000001
44
0.0000000001
40
0
40
0
40
0
40
0
40
1
40
1
40
1
40
1
10
319.86177915878818
20
-355.58057874026736
30
0
10
319.909209057358
20
-355.6815941740827
30
0
10
319.99687795992219
20
-355.76084566101048
30
0
10
320.0985106449757
20
-355.80580981501521
30
0
0
SPLINE
5
1131
100
AcDbEntity
8
0
100
AcDbSpline
70
0
71
3
72
8
73
4
74
0
42
0.000000001
43
0.0000000001
44
0.0000000001
40
0
40
0
40
0
40
0
40
1
40
1
40
1
40
1
10
320.0985106449757
20
-355.80580981501521
30
0
10
320.09338338680834
20
-355.74770395066577
30
0
10
320.09584140151287
20
-355.67912786573339
30
0
10
320.15189378873936
20
-355.64504675627359
30
0
0
SPLINE
5
1132
100
AcDbEntity
8
0
100
AcDbSpline
70
0
71
3
72
8
73
4
74
0
42
0.000000001
43
0.0000000001
44
0.0000000001
40
0
40
0
40
0
40
0
40
1
40
1
40
1
40
1
10
311.81676646455134
20
-347.22707521480754
30
0
10
311.74110508550478
20
-347.28823034386136
30
0
10
311.65674750548243
20
-347.33897995821462
30
0
10
311.56908992546175
20
-347.38152407583993
30
0
0
SPLINE
5
1133
100
AcDbEntity
8
0
100
AcDbSpline
70
0
71
3
72
8
73
4
74
0
42
0.000000001
43
0.0000000001
44
0.0000000001
40
0
40
0
40
0
40
0
40
1
40
1
40
1
40
1
10
317.852848387949
20
-345.94554861415281
30
0
10
317.92077106928701
20
-345.94554861415281
30
0
10
317.98176883722977
20
-345.96874565499053
30
0
10
318.03022840256449
20
-346.0165322791492
30
0
0
LINE
5
1134
100
AcDbEntity
8
0
100
AcDbLine
10
316.82951946690127
20
-347.06262661685196
30
0
11
316.82951946690127
21
-345.77882990018526
31
0
0
SPLINE
5
1135
100
AcDbEntity
8
0
100
AcDbSpline
70
0
71
3
72
8
73
4
74
0
42
0.000000001
43
0.0000000001
44
0.0000000001
40
0
40
0
40
0
40
0
40
1
40
1
40
1
40
1
10
318.40180020629691
20
-355.86781420877458
30
0
10
318.10882284533494
20
-355.63786440333604
30
0
10
317.70435219848213
20
-355.62862224647802
30
0
10
317.410547536867
20
-355.39990589692127
30
0
0
SPLINE
5
1136
100
AcDbEntity
8
0
100
AcDbSpline
70
0
71
3
72
8
73
4
74
0
42
0.000000001
43
0.0000000001
44
0.0000000001
40
0
40
0
40
0
40
0
40
1
40
1
40
1
40
1
10
320.15189378873936
20
-355.64504675627359
30
0
10
320.24736528705682
20
-355.58447937231762
30
0
10
320.40196255821991
20
-355.58858684780563
30
0
10
320.47095261700832
20
-355.68713521867051
30
0
0
LINE
5
1137
100
AcDbEntity
8
0
100
AcDbLine
10
326.7066520795201
20
-351.81036691835658
30
0
11
326.62142017923657
21
-352.32626003410689
31
0
0
SPLINE
5
1138
100
AcDbEntity
8
0
100
AcDbSpline
70
0
71
3
72
8
73
4
74
0
42
0.000000001
43
0.0000000001
44
0.0000000001
40
0
40
0
40
0
40
0
40
1
40
1
40
1
40
1
10
318.06599051692552
20
-346.87502409733969
30
0
10
318.16818925216762
20
-346.82078843560259
30
0
10
318.26426249721663
20
-346.755791394786
30
0
10
318.35253652658344
20
-346.68100624122934
30
0
0
SPLINE
5
1139
100
AcDbEntity
8
0
100
AcDbSpline
70
0
71
3
72
8
73
4
74
0
42
0.000000001
43
0.0000000001
44
0.0000000001
40
0
40
0
40
0
40
0
40
1
40
1
40
1
40
1
10
311.81175445474997
20
-348.2975475475958
30
0
10
311.81175445474997
20
-348.35098515214378
30
0
10
311.80269967534281
20
-348.4091381978659
30
0
10
311.76144699725916
20
-348.44726881712745
30
0
0
SPLINE
5
1140
100
AcDbEntity
8
0
100
AcDbSpline
70
0
71
3
72
8
73
4
74
0
42
0.000000001
43
0.0000000001
44
0.0000000001
40
0
40
0
40
0
40
0
40
1
40
1
40
1
40
1
10
318.3319079138488
20
-347.18412131123461
30
0
10
318.29453825373713
20
-347.1932515808378
30
0
10
318.24753104787874
20
-347.19356028181801
30
0
10
318.20908957077404
20
-347.19356028181801
30
0
0
SPLINE
5
1141
100
AcDbEntity
8
0
100
AcDbSpline
70
0
71
3
72
8
73
4
74
0
42
0.000000001
43
0.0000000001
44
0.0000000001
40
0
40
0
40
0
40
0
40
1
40
1
40
1
40
1
10
318.43476016052858
20
-345.85899103413146
30
0
10
318.3647501752701
20
-345.81515416487264
30
0
10
318.2878859318451
20
-345.78503627273119
30
0
10
318.20793307894462
20
-345.7649572286237
30
0
0
LINE
5
1142
100
AcDbEntity
8
0
100
AcDbLine
10
317.15659454516623
20
-346.24455979864103
30
0
11
317.58242262664879
21
-346.24277229864197
31
0
0
LINE
5
1143
100
AcDbEntity
8
0
100
AcDbLine
10
317.69351126711507
20
-347.02925455804552
30
0
11
317.75500272296614
21
-347.00894499923231
31
0
0
SPLINE
5
1144
100
AcDbEntity
8
0
100
AcDbSpline
70
0
71
3
72
8
73
4
74
0
42
0.000000001
43
0.0000000001
44
0.0000000001
40
0
40
0
40
0
40
0
40
1
40
1
40
1
40
1
10
326.3736112626961
20
-351.57931576487948
30
0
10
326.28067826601142
20
-351.65805335144063
30
0
10
326.17956565495172
20
-351.72646632362802
30
0
10
326.07113736088928
20
-351.78411791673597
30
0
0
SPLINE
5
1145
100
AcDbEntity
8
0
100
AcDbSpline
70
0
71
3
72
8
73
4
74
0
42
0.000000001
43
0.0000000001
44
0.0000000001
40
0
40
0
40
0
40
0
40
1
40
1
40
1
40
1
10
318.58102318823188
20
-346.00179418438552
30
0
10
318.5439591196232
20
-345.94253035435037
30
0
10
318.49383984840694
20
-345.89598121221718
30
0
10
318.43476016052858
20
-345.85899103413146
30
0
0
LINE
5
1146
100
AcDbEntity
8
0
100
AcDbLine
10
311.56908992546175
20
-347.5651512277073
30
0
11
311.81175445474997
21
-347.5651512277073
31
0
0
LINE
5
1147
100
AcDbEntity
8
0
100
AcDbLine
10
311.61370328328206
20
-348.49043707690947
30
0
11
311.60265070975834
21
-348.49043707690947
31
0
0
SPLINE
5
1148
100
AcDbEntity
8
0
100
AcDbSpline
70
0
71
3
72
8
73
4
74
0
42
0.000000001
43
0.0000000001
44
0.0000000001
40
0
40
0
40
0
40
0
40
1
40
1
40
1
40
1
10
318.20793307894462
20
-345.7649572286237
30
0
10
318.11876111166987
20
-345.74256227111886
30
0
10
318.02734669014774
20
-345.73237783484944
30
0
10
317.93546227025979
20
-345.73237783484944
30
0
0
LINE
5
1149
100
AcDbEntity
8
0
100
AcDbLine
10
318.20908957077404
20
-347.19356028181801
30
0
11
317.69351126711507
21
-347.19356028181801
31
0
0
SPLINE
5
1150
100
AcDbEntity
8
0
100
AcDbSpline
70
0
71
3
72
8
73
4
74
0
42
0.000000001
43
0.0000000001
44
0.0000000001
40
0
40
0
40
0
40
0
40
1
40
1
40
1
40
1
10
317.63178025570852
20
-346.06909232814218
30
0
10
317.67478189784356
20
-345.98194700302309
30
0
10
317.75866495008847
20
-345.94554861415281
30
0
10
317.852848387949
20
-345.94554861415281
30
0
0
SPLINE
5
1151
100
AcDbEntity
8
0
100
AcDbSpline
70
0
71
3
72
8
73
4
74
0
42
0.000000001
43
0.0000000001
44
0.0000000001
40
0
40
0
40
0
40
0
40
1
40
1
40
1
40
1
10
318.63064422415437
20
-346.18488212056678
30
0
10
318.63064422415437
20
-346.11928520229958
30
0
10
318.61591527808338
20
-346.0575773771676
30
0
10
318.58102318823188
20
-346.00179418438552
30
0
0
SPLINE
5
1152
100
AcDbEntity
8
0
100
AcDbSpline
70
0
71
3
72
8
73
4
74
0
42
0.000000001
43
0.0000000001
44
0.0000000001
40
0
40
0
40
0
40
0
40
1
40
1
40
1
40
1
10
318.46358785332438
20
-347.07007316750185
30
0
10
318.45236150855879
20
-347.08930294690379
30
0
10
318.44028873895712
20
-347.10820515277641
30
0
10
318.42747348732968
20
-347.1239489027684
30
0
0
SPLINE
5
1153
100
AcDbEntity
8
0
100
AcDbSpline
70
0
71
3
72
8
73
4
74
0
42
0.000000001
43
0.0000000001
44
0.0000000001
40
0
40
0
40
0
40
0
40
1
40
1
40
1
40
1
10
326.27050948497083
20
-355.55909309782055
30
0
10
326.32569159605373
20
-355.45736605048683
30
0
10
326.42398977084036
20
-355.37022476948539
30
0
10
326.56651980834954
20
-355.29746976298645
30
0
0
LINE
5
1154
100
AcDbEntity
8
0
100
AcDbLine
10
326.37404358785921
20
-351.81036691835658
30
0
11
326.7066520795201
21
-351.81036691835658
31
0
0
LINE
5
1155
100
AcDbEntity
8
0
100
AcDbLine
10
315.40689187612224
20
-355.25967480548945
30
0
11
315.40689187612224
21
-355.25967480548945
31
0
0
SPLINE
5
1156
100
AcDbEntity
8
0
100
AcDbSpline
70
0
71
3
72
8
73
4
74
0
42
0.000000001
43
0.0000000001
44
0.0000000001
40
0
40
0
40
0
40
0
40
1
40
1
40
1
40
1
10
325.97605141976118
20
-351.04794041874459
30
0
10
325.97605141976118
20
-350.98598590243637
30
0
10
325.96098869918063
20
-350.94037499559681
30
0
10
325.93044080050345
20
-350.91025846946832
30
0
0
SPLINE
5
1157
100
AcDbEntity
8
0
100
AcDbSpline
70
0
71
3
72
8
73
4
74
0
42
0.000000001
43
0.0000000001
44
0.0000000001
40
0
40
0
40
0
40
0
40
1
40
1
40
1
40
1
10
317.75500272296614
20
-347.00894499923231
30
0
10
317.86237780297677
20
-346.97343227212616
30
0
10
317.96612798756456
20
-346.92801954502511
30
0
10
318.06599051692552
20
-346.87502409733969
30
0
0
SPLINE
5
1158
100
AcDbEntity
8
0
100
AcDbSpline
70
0
71
3
72
8
73
4
74
0
42
0.000000001
43
0.0000000001
44
0.0000000001
40
0
40
0
40
0
40
0
40
1
40
1
40
1
40
1
10
316.8639415044654
20
-347.19461040436653
30
0
10
316.83627032147302
20
-347.15666984066041
30
0
10
316.82951946690127
20
-347.10841679493319
30
0
10
316.82951946690127
20
-347.06262661685196
30
0
0
SPLINE
5
1159
100
AcDbEntity
8
0
100
AcDbSpline
70
0
71
3
72
8
73
4
74
0
42
0.000000001
43
0.0000000001
44
0.0000000001
40
0
40
0
40
0
40
0
40
1
40
1
40
1
40
1
10
317.76927078341635
20
-346.78579065947662
30
0
10
317.57275691586938
20
-346.93837113815715
30
0
10
317.3600473097685
20
-347.06838946652232
30
0
10
317.13702344223492
20
-347.17822094359047
30
0
0
SPLINE
5
1160
100
AcDbEntity
8
0
100
AcDbSpline
70
0
71
3
72
8
73
4
74
0
42
0.000000001
43
0.0000000001
44
0.0000000001
40
0
40
0
40
0
40
0
40
1
40
1
40
1
40
1
10
318.35253652658344
20
-346.68100624122934
30
0
10
318.43358493994089
20
-346.61233579355178
30
0
10
318.50383448075479
20
-346.53266805993218
30
0
10
318.55785593007374
20
-346.44099871520768
30
0
0
SPLINE
5
1161
100
AcDbEntity
8
0
100
AcDbSpline
70
0
71
3
72
8
73
4
74
0
42
0.000000001
43
0.0000000001
44
0.0000000001
40
0
40
0
40
0
40
0
40
1
40
1
40
1
40
1
10
323.64468994218993
20
-360.14593276868817
30
0
10
323.86252454175224
20
-359.73324686530344
30
0
10
323.98448227861826
20
-359.27540164821625
30
0
10
324.04217039460195
20
-358.81406231348387
30
0
0
SPLINE
5
1162
100
AcDbEntity
8
0
100
AcDbSpline
70
0
71
3
72
8
73
4
74
0
42
0.000000001
43
0.0000000001
44
0.0000000001
40
0
40
0
40
0
40
0
40
1
40
1
40
1
40
1
10
326.07113736088928
20
-351.78411791673597
30
0
10
325.96228134297087
20
-351.84177623206597
30
0
10
325.85429520577088
20
-351.88824177779406
30
0
10
325.74629086105472
20
-351.92396614705689
30
0
0
LINE
5
1163
100
AcDbEntity
8
0
100
AcDbLine
10
316.13361356202682
20
-346.14656545391961
30
0
11
316.13361356202682
21
-346.3301939718001
31
0
0
SPLINE
5
1164
100
AcDbEntity
8
0
100
AcDbSpline
70
0
71
3
72
8
73
4
74
0
42
0.000000001
43
0.0000000001
44
0.0000000001
40
0
40
0
40
0
40
0
40
1
40
1
40
1
40
1
10
318.12421919663433
20
-359.38380822986039
30
0
10
317.90720346798668
20
-359.54949569382831
30
0
10
317.72939551382882
20
-359.78807160220367
30
0
10
317.696755188682
20
-360.06544812330418
30
0
0
LINE
5
1165
100
AcDbEntity
8
0
100
AcDbLine
10
322.64068746394281
20
-347.07029154985469
30
0
11
322.64068746394281
21
-348.31586873059297
31
0
0
LINE
5
1166
100
AcDbEntity
8
0
100
AcDbLine
10
311.60265070975834
20
-348.49043707690947
30
0
11
311.60265070975834
21
-348.64162501310693
31
0
0
SPLINE
5
1167
100
AcDbEntity
8
0
100
AcDbSpline
70
0
71
3
72
8
73
4
74
0
42
0.000000001
43
0.0000000001
44
0.0000000001
40
0
40
0
40
0
40
0
40
1
40
1
40
1
40
1
10
311.76144699725916
20
-348.44726881712745
30
0
10
311.72206537963228
20
-348.48367261612862
30
0
10
311.66505007900753
20
-348.49043707690947
30
0
10
311.61370328328206
20
-348.49043707690947
30
0
0
LINE
5
1168
100
AcDbEntity
8
0
100
AcDbLine
10
311.81175445474997
20
-347.5651512277073
30
0
11
311.81175445474997
21
-348.2975475475958
31
0
0
LINE
5
1169
100
AcDbEntity
8
0
100
AcDbLine
10
316.16715696560453
20
-347.40672430295137
30
0
11
318.58224560816592
21
-347.40672430295137
31
0
0
SPLINE
5
1170
100
AcDbEntity
8
0
100
AcDbSpline
70
0
71
3
72
8
73
4
74
0
42
0.000000001
43
0.0000000001
44
0.0000000001
40
0
40
0
40
0
40
0
40
1
40
1
40
1
40
1
10
317.58242262664879
20
-346.24277229864197
30
0
10
317.59173542076161
20
-346.18233702252894
30
0
10
317.60650196813981
20
-346.12032588857363
30
0
10
317.63178025570852
20
-346.06909232814218
30
0
0
LINE
5
1171
100
AcDbEntity
8
0
100
AcDbLine
10
325.74629086105472
20
-351.92396614705689
30
0
11
325.74629086105472
21
-351.93385266665962
31
0
0
LINE
5
1172
100
AcDbEntity
8
0
100
AcDbLine
10
317.69351126711507
20
-347.19356028181801
30
0
11
317.69351126711507
21
-347.02925455804552
31
0
0
LINE
5
1173
100
AcDbEntity
8
0
100
AcDbLine
10
318.58224560816592
20
-347.40672430295137
30
0
11
318.6378135100984
21
-347.07007316750185
31
0
0
SPLINE
5
1174
100
AcDbEntity
8
0
100
AcDbSpline
70
0
71
3
72
8
73
4
74
0
42
0.000000001
43
0.0000000001
44
0.0000000001
40
0
40
0
40
0
40
0
40
1
40
1
40
1
40
1
10
312.01109839582494
20
-347.01378715609252
30
0
10
311.9568843206892
20
-347.09389167239163
30
0
10
311.89236583379392
20
-347.16596457104782
30
0
10
311.81676646455134
20
-347.22707521480754
30
0
0
SPLINE
5
1175
100
AcDbEntity
8
0
100
AcDbSpline
70
0
71
3
72
8
73
4
74
0
42
0.000000001
43
0.0000000001
44
0.0000000001
40
0
40
0
40
0
40
0
40
1
40
1
40
1
40
1
10
317.93546227025979
20
-345.73237783484944
30
0
10
317.77578666576591
20
-345.73237783484944
30
0
10
317.58733069363967
20
-345.75204975314006
30
0
10
317.44688756462625
20
-345.83449311747728
30
0
0
SPLINE
5
1176
100
AcDbEntity
8
0
100
AcDbSpline
70
0
71
3
72
8
73
4
74
0
42
0.000000001
43
0.0000000001
44
0.0000000001
40
0
40
0
40
0
40
0
40
1
40
1
40
1
40
1
10
318.03022840256449
20
-346.0165322791492
30
0
10
318.08465870319037
20
-346.07019906833767
30
0
10
318.10254206102451
20
-346.1437804228753
30
0
10
318.10254206102451
20
-346.21803712708595
30
0
0
SPLINE
5
1177
100
AcDbEntity
8
0
100
AcDbSpline
70
0
71
3
72
8
73
4
74
0
42
0.000000001
43
0.0000000001
44
0.0000000001
40
0
40
0
40
0
40
0
40
1
40
1
40
1
40
1
10
324.04217039460195
20
-358.81406231348387
30
0
10
324.09124615764887
20
-358.38968080389594
30
0
10
324.08898980961078
20
-357.95154122405364
30
0
10
323.97154945999745
20
-357.5380356948524
30
0
0
SPLINE
5
1178
100
AcDbEntity
8
0
100
AcDbSpline
70
0
71
3
72
8
73
4
74
0
42
0.000000001
43
0.0000000001
44
0.0000000001
40
0
40
0
40
0
40
0
40
1
40
1
40
1
40
1
10
317.04837343574417
20
-358.2389794918812
30
0
10
317.04981193737734
20
-358.17574029420092
30
0
10
317.04611681809826
20
-358.11229754259926
30
0
10
317.03256808934691
20
-358.05050209491839
30
0
0
SPLINE
5
1179
100
AcDbEntity
8
0
100
AcDbSpline
70
0
71
3
72
8
73
4
74
0
42
0.000000001
43
0.0000000001
44
0.0000000001
40
0
40
0
40
0
40
0
40
1
40
1
40
1
40
1
10
318.42747348732968
20
-347.1239489027684
30
0
10
318.40267941544681
20
-347.15439839458315
30
0
10
318.3700437994504
20
-347.17479692398439
30
0
10
318.3319079138488
20
-347.18412131123461
30
0
0
LINE
5
1180
100
AcDbEntity
8
0
100
AcDbLine
10
318.6378135100984
20
-347.07007316750185
30
0
11
318.46358785332438
21
-347.07007316750185
31
0
0
SPLINE
5
1181
100
AcDbEntity
8
0
100
AcDbSpline
70
0
71
3
72
8
73
4
74
0
42
0.000000001
43
0.0000000001
44
0.0000000001
40
0
40
0
40
0
40
0
40
1
40
1
40
1
40
1
10
318.55785593007374
20
-346.44099871520768
30
0
10
318.60446799867748
20
-346.3619065763591
30
0
10
318.63064422415437
20
-346.27683050940897
30
0
10
318.63064422415437
20
-346.18488212056678
30
0
0
SPLINE
5
1182
100
AcDbEntity
8
0
100
AcDbSpline
70
0
71
3
72
8
73
4
74
0
42
0.000000001
43
0.0000000001
44
0.0000000001
40
0
40
0
40
0
40
0
40
1
40
1
40
1
40
1
10
317.21649234905726
20
-346.06336720559602
30
0
10
317.18955449939773
20
-346.12152025131803
30
0
10
317.16890685234949
20
-346.18210650782311
30
0
10
317.15659454516623
20
-346.24455979864103
30
0
0
SPLINE
5
1183
100
AcDbEntity
8
0
100
AcDbSpline
70
0
71
3
72
8
73
4
74
0
42
0.000000001
43
0.0000000001
44
0.0000000001
40
0
40
0
40
0
40
0
40
1
40
1
40
1
40
1
10
317.44688756462625
20
-345.83449311747728
30
0
10
317.353804270556
20
-345.88914260927942
30
0
10
317.26280840622326
20
-345.96341146381684
30
0
10
317.21649234905726
20
-346.06336720559602
30
0
0
SPLINE
5
1184
100
AcDbEntity
8
0
100
AcDbSpline
70
0
71
3
72
8
73
4
74
0
42
0.000000001
43
0.0000000001
44
0.0000000001
40
0
40
0
40
0
40
0
40
1
40
1
40
1
40
1
10
326.17221830201095
20
-351.93385266666189
30
0
10
326.22041001551241
20
-351.93382979330801
30
0
10
326.25440289275457
20
-351.93166623247214
30
0
10
326.27376010492924
20
-351.92692407869288
30
0
0
SPLINE
5
1185
100
AcDbEntity
8
0
100
AcDbSpline
70
0
71
3
72
8
73
4
74
0
42
0.000000001
43
0.0000000001
44
0.0000000001
40
0
40
0
40
0
40
0
40
1
40
1
40
1
40
1
10
317.410547536867
20
-355.39990589692127
30
0
10
317.30029547156357
20
-355.31736816983914
30
0
10
317.23501021996287
20
-355.19048266663572
30
0
10
317.20071504187575
20
-355.05949373206187
30
0
0
SPLINE
5
1186
100
AcDbEntity
8
0
100
AcDbSpline
70
0
71
3
72
8
73
4
74
0
42
0.000000001
43
0.0000000001
44
0.0000000001
40
0
40
0
40
0
40
0
40
1
40
1
40
1
40
1
10
316.32595627897115
20
-347.21236869154359
30
0
10
316.28656756264951
20
-347.24875265530784
30
0
10
316.22955498583281
20
-347.25549787755739
30
0
10
316.17821895742901
20
-347.25548783734206
30
0
0
SPLINE
5
1187
100
AcDbEntity
8
0
100
AcDbSpline
70
0
71
3
72
8
73
4
74
0
42
0.000000001
43
0.0000000001
44
0.0000000001
40
0
40
0
40
0
40
0
40
1
40
1
40
1
40
1
10
315.94830741833033
20
-353.2320006088093
30
0
10
315.69536006388398
20
-353.23959679181189
30
0
10
315.45103475028287
20
-353.34369101398119
30
0
10
315.25065276509082
20
-353.49500298776036
30
0
0
SPLINE
5
1188
100
AcDbEntity
8
0
100
AcDbSpline
70
0
71
3
72
8
73
4
74
0
42
0.000000001
43
0.0000000001
44
0.0000000001
40
0
40
0
40
0
40
0
40
1
40
1
40
1
40
1
10
318.08664745645746
20
-355.80724682481849
30
0
10
318.18950915738543
20
-355.83578211892166
30
0
10
318.29257306419566
20
-355.88156690484595
30
0
10
318.40180020629691
20
-355.86781420877458
30
0
0
SPLINE
5
1189
100
AcDbEntity
8
0
100
AcDbSpline
70
0
71
3
72
8
73
4
74
0
42
0.000000001
43
0.0000000001
44
0.0000000001
40
0
40
0
40
0
40
0
40
1
40
1
40
1
40
1
10
315.65593665704125
20
-356.43694408920373
30
0
10
315.88301246084723
20
-356.796859667452
30
0
10
316.23349043452509
20
-357.04939049575472
30
0
10
316.51682070562265
20
-357.36044101847222
30
0
0
LINE
5
1190
100
AcDbEntity
8
0
100
AcDbLine
10
316.17821895742901
20
-347.25548783734206
30
0
11
316.16715696560453
21
-347.25548783734206
31
0
0
LINE
5
1191
100
AcDbEntity
8
0
100
AcDbLine
10
314.99708935672305
20
-355.4481535504915
30
0
11
314.99708935672305
21
-355.4481535504915
31
0
0
ENDSEC
0
SECTION
2
OBJECTS
0
DICTIONARY
5
C
100
AcDbDictionary
3
ACAD_GROUP
350
D
3
ACAD_MLINESTYLE
350
17
0
DICTIONARY
5
D
100
AcDbDictionary
0
DICTIONARY
5
1A
330
C
100
AcDbDictionary
0
DICTIONARY
5
17
100
AcDbDictionary
0
ENDSEC
0
EOF
