0
SECTION
2
HEADER
9
$INSUNITS
70
1
9
$ACADVER
1
AC1014
9
$HANDSEED
5
FFFF
0
ENDSEC
0
SECTION
2
TABLES
0
TABLE
2
VPORT
5
8
100
AcDbSymbolTable
0
ENDTAB
0
TABLE
2
LTYPE
5
5
100
AcDbSymbolTable
0
LTYPE
5
14
100
AcDbSymbolTableRecord
100
AcDbLinetypeTableRecord
2
BYBLOCK
70
0
0
LTYPE
5
15
100
AcDbSymbolTableRecord
100
AcDbLinetypeTableRecord
2
BYLAYER
70
0
0
ENDTAB
0
TABLE
2
LAYER
5
2
100
AcDbSymbolTable
70
2
0
LAYER
5
50
100
AcDbSymbolTableRecord
100
AcDbLayerTableRecord
2
0
70
0
6
CONTINUOUS
0
ENDTAB
0
TABLE
2
STYLE
5
3
100
AcDbSymbolTable
70
1
0
STYLE
5
11
100
AcDbSymbolTableRecord
100
AcDbTextStyleTableRecord
2
STANDARD
70
0
0
ENDTAB
0
TABLE
2
VIEW
5
6
100
AcDbSymbolTable
70
0
0
ENDTAB
0
TABLE
2
UCS
5
7
100
AcDbSymbolTable
70
0
0
ENDTAB
0
TABLE
2
APPID
5
9
100
AcDbSymbolTable
70
2
0
APPID
5
12
100
AcDbSymbolTableRecord
100
AcDbRegAppTableRecord
2
ACAD
70
0
0
ENDTAB
0
TABLE
2
DIMSTYLE
5
A
100
AcDbSymbolTable
70
1
0
ENDTAB
0
TABLE
2
BLOCK_RECORD
5
1
100
AcDbSymbolTable
70
1
0
BLOCK_RECORD
5
1F
100
AcDbSymbolTableRecord
100
AcDbBlockTableRecord
2
*MODEL_SPACE
0
BLOCK_RECORD
5
1B
100
AcDbSymbolTableRecord
100
AcDbBlockTableRecord
2
*PAPER_SPACE
0
ENDTAB
0
ENDSEC
0
SECTION
2
BLOCKS
0
BLOCK
5
20
100
AcDbEntity
100
AcDbBlockBegin
2
*MODEL_SPACE
0
ENDBLK
5
21
100
AcDbEntity
100
AcDbBlockEnd
0
BLOCK
5
1C
100
AcDbEntity
100
AcDbBlockBegin
2
*PAPER_SPACE
0
ENDBLK
5
1D
100
AcDbEntity
100
AcDbBlockEnd
0
ENDSEC
0
SECTION
2
ENTITIES
0
SPLINE
5
100
100
AcDbEntity
8
0
100
AcDbSpline
70
4
71
3
72
8
73
4
74
0
42
0.000000001
43
0.0000000001
44
0.0000000001
40
0
40
0
40
0
40
0
40
1
40
1
40
1
40
1
41
1
41
1
41
1
41
1
10
4.3458333333333341
20
-6.4500000000000002
30
0
10
4.4177083333333345
20
-6.3677083333333337
30
0
10
4.4854166666666675
20
-6.3125
30
0
10
4.5114583333333345
20
-6.3125
30
0
0
SPLINE
5
101
100
AcDbEntity
8
0
100
AcDbSpline
70
4
71
3
72
8
73
4
74
0
42
0.000000001
43
0.0000000001
44
0.0000000001
40
0
40
0
40
0
40
0
40
1
40
1
40
1
40
1
41
1
41
1
41
1
41
1
10
4.5114583333333345
20
-6.3125
30
0
10
4.526041666666667
20
-6.3125
30
0
10
4.5312500000000009
20
-6.3250000000000011
30
0
10
4.5375000000000005
20
-6.3718750000000002
30
0
0
SPLINE
5
102
100
AcDbEntity
8
0
100
AcDbSpline
70
4
71
3
72
8
73
4
74
0
42
0.000000001
43
0.0000000001
44
0.0000000001
40
0
40
0
40
0
40
0
40
1
40
1
40
1
40
1
41
1
41
1
41
1
41
1
10
4.5375000000000005
20
-6.3718750000000002
30
0
10
4.541666666666667
20
-6.4052083333333334
30
0
10
4.5562500000000012
20
-6.4645833333333327
30
0
10
4.5687500000000005
20
-6.5041666666666664
30
0
0
SPLINE
5
103
100
AcDbEntity
8
0
100
AcDbSpline
70
4
71
3
72
8
73
4
74
0
42
0.000000001
43
0.0000000001
44
0.0000000001
40
0
40
0
40
0
40
0
40
1
40
1
40
1
40
1
41
1
41
1
41
1
41
1
10
4.5687500000000005
20
-6.5041666666666664
30
0
10
4.5822916666666673
20
-6.5437500000000002
30
0
10
4.59375
20
-6.5864583333333337
30
0
10
4.59375
20
-6.5979166666666664
30
0
0
SPLINE
5
104
100
AcDbEntity
8
0
100
AcDbSpline
70
4
71
3
72
8
73
4
74
0
42
0.000000001
43
0.0000000001
44
0.0000000001
40
0
40
0
40
0
40
0
40
1
40
1
40
1
40
1
41
1
41
1
41
1
41
1
10
4.59375
20
-6.5979166666666664
30
0
10
4.59375
20
-6.6104166666666666
30
0
10
4.6229166666666677
20
-6.661458333333333
30
0
10
4.6572916666666666
20
-6.7114583333333329
30
0
0
SPLINE
5
105
100
AcDbEntity
8
0
100
AcDbSpline
70
4
71
3
72
8
73
4
74
0
42
0.000000001
43
0.0000000001
44
0.0000000001
40
0
40
0
40
0
40
0
40
1
40
1
40
1
40
1
41
1
41
1
41
1
41
1
10
4.6572916666666666
20
-6.7114583333333329
30
0
10
4.7354166666666675
20
-6.8239583333333327
30
0
10
4.8062500000000012
20
-6.8812499999999996
30
0
10
4.8958333333333339
20
-6.9020833333333336
30
0
0
SPLINE
5
106
100
AcDbEntity
8
0
100
AcDbSpline
70
4
71
3
72
8
73
4
74
0
42
0.000000001
43
0.0000000001
44
0.0000000001
40
0
40
0
40
0
40
0
40
1
40
1
40
1
40
1
41
1
41
1
41
1
41
1
10
4.8958333333333339
20
-6.9020833333333336
30
0
10
4.9312500000000004
20
-6.9104166666666664
30
0
10
4.9718750000000007
20
-6.9229166666666657
30
0
10
4.9875000000000007
20
-6.9312500000000004
30
0
0
LINE
5
107
100
AcDbEntity
8
0
100
AcDbLine
10
4.9875000000000007
20
-6.9312500000000004
30
0
11
5.0145833333333343
21
-6.9458333333333337
31
0
0
LINE
5
108
100
AcDbEntity
8
0
100
AcDbLine
10
5.0145833333333343
20
-6.9458333333333337
30
0
11
4.9760416666666671
21
-6.984375
31
0
0
SPLINE
5
109
100
AcDbEntity
8
0
100
AcDbSpline
70
4
71
3
72
8
73
4
74
0
42
0.000000001
43
0.0000000001
44
0.0000000001
40
0
40
0
40
0
40
0
40
1
40
1
40
1
40
1
41
1
41
1
41
1
41
1
10
4.9760416666666671
20
-6.984375
30
0
10
4.9260416666666673
20
-7.0343749999999998
30
0
10
4.9208333333333343
20
-7.0458333333333325
30
0
10
4.911458333333333
20
-7.1093750000000009
30
0
0
SPLINE
5
110
100
AcDbEntity
8
0
100
AcDbSpline
70
4
71
3
72
8
73
4
74
0
42
0.000000001
43
0.0000000001
44
0.0000000001
40
0
40
0
40
0
40
0
40
1
40
1
40
1
40
1
41
1
41
1
41
1
41
1
10
4.911458333333333
20
-7.1093750000000009
30
0
10
4.9000000000000012
20
-7.1885416666666666
30
0
10
4.8083333333333345
20
-7.4822916666666677
30
0
10
4.7510416666666675
20
-7.6260416666666657
30
0
0
SPLINE
5
111
100
AcDbEntity
8
0
100
AcDbSpline
70
4
71
3
72
8
73
4
74
0
42
0.000000001
43
0.0000000001
44
0.0000000001
40
0
40
0
40
0
40
0
40
1
40
1
40
1
40
1
41
1
41
1
41
1
41
1
10
4.7510416666666675
20
-7.6260416666666657
30
0
10
4.6604166666666673
20
-7.8489583333333348
30
0
10
4.5614583333333334
20
-7.9864583333333332
30
0
10
4.4197916666666677
20
-8.0916666666666668
30
0
0
SPLINE
5
112
100
AcDbEntity
8
0
100
AcDbSpline
70
4
71
3
72
8
73
4
74
0
42
0.000000001
43
0.0000000001
44
0.0000000001
40
0
40
0
40
0
40
0
40
1
40
1
40
1
40
1
41
1
41
1
41
1
41
1
10
4.4197916666666677
20
-8.0916666666666668
30
0
10
4.3312499999999998
20
-8.15625
30
0
10
4.2895833333333337
20
-8.1697916666666668
30
0
10
4.1937500000000005
20
-8.1645833333333329
30
0
0
SPLINE
5
113
100
AcDbEntity
8
0
100
AcDbSpline
70
4
71
3
72
8
73
4
74
0
42
0.000000001
43
0.0000000001
44
0.0000000001
40
0
40
0
40
0
40
0
40
1
40
1
40
1
40
1
41
1
41
1
41
1
41
1
10
4.1937500000000005
20
-8.1645833333333329
30
0
10
4.0479166666666675
20
-8.1572916666666657
30
0
10
3.947916666666667
20
-8.0666666666666664
30
0
10
3.890625
20
-7.8906250000000009
30
0
0
SPLINE
5
114
100
AcDbEntity
8
0
100
AcDbSpline
70
4
71
3
72
8
73
4
74
0
42
0.000000001
43
0.0000000001
44
0.0000000001
40
0
40
0
40
0
40
0
40
1
40
1
40
1
40
1
41
1
41
1
41
1
41
1
10
3.890625
20
-7.8906250000000009
30
0
10
3.8614583333333341
20
-7.8020833333333339
30
0
10
3.8614583333333341
20
-7.7999999999999998
30
0
10
3.8687500000000004
20
-7.6093750000000009
30
0
0
SPLINE
5
115
100
AcDbEntity
8
0
100
AcDbSpline
70
4
71
3
72
8
73
4
74
0
42
0.000000001
43
0.0000000001
44
0.0000000001
40
0
40
0
40
0
40
0
40
1
40
1
40
1
40
1
41
1
41
1
41
1
41
1
10
3.8687500000000004
20
-7.6093750000000009
30
0
10
3.8760416666666671
20
-7.4031250000000011
30
0
10
3.8885416666666672
20
-7.3385416666666679
30
0
10
3.9531250000000004
20
-7.15625
30
0
0
SPLINE
5
116
100
AcDbEntity
8
0
100
AcDbSpline
70
4
71
3
72
8
73
4
74
0
42
0.000000001
43
0.0000000001
44
0.0000000001
40
0
40
0
40
0
40
0
40
1
40
1
40
1
40
1
41
1
41
1
41
1
41
1
10
3.9531250000000004
20
-7.15625
30
0
10
3.9895833333333335
20
-7.052083333333333
30
0
10
4.098958333333333
20
-6.804166666666668
30
0
10
4.1156250000000005
20
-6.7874999999999996
30
0
0
SPLINE
5
117
100
AcDbEntity
8
0
100
AcDbSpline
70
4
71
3
72
8
73
4
74
0
42
0.000000001
43
0.0000000001
44
0.0000000001
40
0
40
0
40
0
40
0
40
1
40
1
40
1
40
1
41
1
41
1
41
1
41
1
10
4.1156250000000005
20
-6.7874999999999996
30
0
10
4.1208333333333336
20
-6.78125
30
0
10
4.125
20
-6.770833333333333
30
0
10
4.125
20
-6.7625000000000002
30
0
0
SPLINE
5
118
100
AcDbEntity
8
0
100
AcDbSpline
70
4
71
3
72
8
73
4
74
0
42
0.000000001
43
0.0000000001
44
0.0000000001
40
0
40
0
40
0
40
0
40
1
40
1
40
1
40
1
41
1
41
1
41
1
41
1
10
4.125
20
-6.7625000000000002
30
0
10
4.125
20
-6.741666666666668
30
0
10
4.2739583333333337
20
-6.5302083333333334
30
0
10
4.3458333333333341
20
-6.4500000000000002
30
0
0
SPLINE
5
119
100
AcDbEntity
8
0
100
AcDbSpline
70
4
71
3
72
8
73
4
74
0
42
0.000000001
43
0.0000000001
44
0.0000000001
40
0
40
0
40
0
40
0
40
1
40
1
40
1
40
1
41
1
41
1
41
1
41
1
10
3.296875
20
-6.0406249999999995
30
0
10
3.3302083333333341
20
-5.7906250000000004
30
0
10
3.3802083333333339
20
-5.6770833333333339
30
0
10
3.5156250000000004
20
-5.5406250000000004
30
0
0
SPLINE
5
120
100
AcDbEntity
8
0
100
AcDbSpline
70
4
71
3
72
8
73
4
74
0
42
0.000000001
43
0.0000000001
44
0.0000000001
40
0
40
0
40
0
40
0
40
1
40
1
40
1
40
1
41
1
41
1
41
1
41
1
10
3.5156250000000004
20
-5.5406250000000004
30
0
10
3.5916666666666668
20
-5.4645833333333336
30
0
10
3.6250000000000004
20
-5.4510416666666668
30
0
10
3.6458333333333335
20
-5.4895833333333339
30
0
0
SPLINE
5
121
100
AcDbEntity
8
0
100
AcDbSpline
70
4
71
3
72
8
73
4
74
0
42
0.000000001
43
0.0000000001
44
0.0000000001
40
0
40
0
40
0
40
0
40
1
40
1
40
1
40
1
41
1
41
1
41
1
41
1
10
3.6458333333333335
20
-5.4895833333333339
30
0
10
3.6593749999999998
20
-5.5145833333333334
30
0
10
3.6322916666666676
20
-5.6124999999999998
30
0
10
3.5791666666666671
20
-5.7374999999999998
30
0
0
SPLINE
5
122
100
AcDbEntity
8
0
100
AcDbSpline
70
4
71
3
72
8
73
4
74
0
42
0.000000001
43
0.0000000001
44
0.0000000001
40
0
40
0
40
0
40
0
40
1
40
1
40
1
40
1
41
1
41
1
41
1
41
1
10
3.5791666666666671
20
-5.7374999999999998
30
0
10
3.5302083333333338
20
-5.8489583333333339
30
0
10
3.3854166666666665
20
-6.1104166666666666
30
0
10
3.3447916666666671
20
-6.1583333333333341
30
0
0
SPLINE
5
123
100
AcDbEntity
8
0
100
AcDbSpline
70
4
71
3
72
8
73
4
74
0
42
0.000000001
43
0.0000000001
44
0.0000000001
40
0
40
0
40
0
40
0
40
1
40
1
40
1
40
1
41
1
41
1
41
1
41
1
10
3.3447916666666671
20
-6.1583333333333341
30
0
10
3.3093750000000011
20
-6.2000000000000002
30
0
10
3.2645833333333343
20
-6.213541666666667
30
0
10
3.2750000000000004
20
-6.1791666666666671
30
0
0
SPLINE
5
124
100
AcDbEntity
8
0
100
AcDbSpline
70
4
71
3
72
8
73
4
74
0
42
0.000000001
43
0.0000000001
44
0.0000000001
40
0
40
0
40
0
40
0
40
1
40
1
40
1
40
1
41
1
41
1
41
1
41
1
10
3.2750000000000004
20
-6.1791666666666671
30
0
10
3.2781250000000006
20
-6.1697916666666668
30
0
10
3.2875000000000005
20
-6.1072916666666668
30
0
10
3.296875
20
-6.0406249999999995
30
0
0
SPLINE
5
125
100
AcDbEntity
8
0
100
AcDbSpline
70
4
71
3
72
8
73
4
74
0
42
0.000000001
43
0.0000000001
44
0.0000000001
40
0
40
0
40
0
40
0
40
1
40
1
40
1
40
1
41
1
41
1
41
1
41
1
10
3.7583333333333337
20
-4.6864583333333334
30
0
10
3.7739583333333342
20
-4.682291666666667
30
0
10
3.8312500000000003
20
-4.6791666666666663
30
0
10
3.886458333333334
20
-4.6802083333333329
30
0
0
SPLINE
5
126
100
AcDbEntity
8
0
100
AcDbSpline
70
4
71
3
72
8
73
4
74
0
42
0.000000001
43
0.0000000001
44
0.0000000001
40
0
40
0
40
0
40
0
40
1
40
1
40
1
40
1
41
1
41
1
41
1
41
1
10
3.886458333333334
20
-4.6802083333333329
30
0
10
3.9770833333333337
20
-4.682291666666667
30
0
10
3.9906250000000005
20
-4.6854166666666668
30
0
10
4.036458333333333
20
-4.713541666666667
30
0
0
SPLINE
5
127
100
AcDbEntity
8
0
100
AcDbSpline
70
4
71
3
72
8
73
4
74
0
42
0.000000001
43
0.0000000001
44
0.0000000001
40
0
40
0
40
0
40
0
40
1
40
1
40
1
40
1
41
1
41
1
41
1
41
1
10
4.036458333333333
20
-4.713541666666667
30
0
10
4.1187500000000012
20
-4.7645833333333334
30
0
10
4.1437499999999998
20
-4.8041666666666663
30
0
10
4.1552083333333343
20
-4.901041666666667
30
0
0
SPLINE
5
128
100
AcDbEntity
8
0
100
AcDbSpline
70
4
71
3
72
8
73
4
74
0
42
0.000000001
43
0.0000000001
44
0.0000000001
40
0
40
0
40
0
40
0
40
1
40
1
40
1
40
1
41
1
41
1
41
1
41
1
10
4.1552083333333343
20
-4.901041666666667
30
0
10
4.1625000000000005
20
-4.9729166666666673
30
0
10
4.1604166666666673
20
-4.9968750000000002
30
0
10
4.1406250000000009
20
-5.078125
30
0
0
SPLINE
5
129
100
AcDbEntity
8
0
100
AcDbSpline
70
4
71
3
72
8
73
4
74
0
42
0.000000001
43
0.0000000001
44
0.0000000001
40
0
40
0
40
0
40
0
40
1
40
1
40
1
40
1
41
1
41
1
41
1
41
1
10
4.1406250000000009
20
-5.078125
30
0
10
4.1270833333333341
20
-5.1291666666666664
30
0
10
4.1135416666666673
20
-5.1947916666666663
30
0
10
4.109375
20
-5.2239583333333339
30
0
0
SPLINE
5
130
100
AcDbEntity
8
0
100
AcDbSpline
70
4
71
3
72
8
73
4
74
0
42
0.000000001
43
0.0000000001
44
0.0000000001
40
0
40
0
40
0
40
0
40
1
40
1
40
1
40
1
41
1
41
1
41
1
41
1
10
4.109375
20
-5.2239583333333339
30
0
10
4.1052083333333336
20
-5.2520833333333332
30
0
10
4.0958333333333341
20
-5.2875000000000005
30
0
10
4.088541666666667
20
-5.302083333333333
30
0
0
SPLINE
5
131
100
AcDbEntity
8
0
100
AcDbSpline
70
4
71
3
72
8
73
4
74
0
42
0.000000001
43
0.0000000001
44
0.0000000001
40
0
40
0
40
0
40
0
40
1
40
1
40
1
40
1
41
1
41
1
41
1
41
1
10
4.088541666666667
20
-5.302083333333333
30
0
10
4.0614583333333343
20
-5.3531250000000004
30
0
10
3.9708333333333341
20
-5.5583333333333336
30
0
10
3.9520833333333343
20
-5.609375
30
0
0
SPLINE
5
132
100
AcDbEntity
8
0
100
AcDbSpline
70
4
71
3
72
8
73
4
74
0
42
0.000000001
43
0.0000000001
44
0.0000000001
40
0
40
0
40
0
40
0
40
1
40
1
40
1
40
1
41
1
41
1
41
1
41
1
10
3.9520833333333343
20
-5.609375
30
0
10
3.932291666666667
20
-5.6656250000000004
30
0
10
3.8739583333333338
20
-5.7750000000000004
30
0
10
3.7677083333333341
20
-5.953125
30
0
0
SPLINE
5
133
100
AcDbEntity
8
0
100
AcDbSpline
70
4
71
3
72
8
73
4
74
0
42
0.000000001
43
0.0000000001
44
0.0000000001
40
0
40
0
40
0
40
0
40
1
40
1
40
1
40
1
41
1
41
1
41
1
41
1
10
3.7677083333333341
20
-5.953125
30
0
10
3.6645833333333333
20
-6.1260416666666657
30
0
10
3.6625000000000001
20
-6.130208333333333
30
0
10
3.6427083333333341
20
-6.1333333333333329
30
0
0
SPLINE
5
134
100
AcDbEntity
8
0
100
AcDbSpline
70
4
71
3
72
8
73
4
74
0
42
0.000000001
43
0.0000000001
44
0.0000000001
40
0
40
0
40
0
40
0
40
1
40
1
40
1
40
1
41
1
41
1
41
1
41
1
10
3.6427083333333341
20
-6.1333333333333329
30
0
10
3.6093750000000004
20
-6.1395833333333334
30
0
10
3.6239583333333338
20
-6.0989583333333339
30
0
10
3.6947916666666676
20
-5.9833333333333334
30
0
0
SPLINE
5
135
100
AcDbEntity
8
0
100
AcDbSpline
70
4
71
3
72
8
73
4
74
0
42
0.000000001
43
0.0000000001
44
0.0000000001
40
0
40
0
40
0
40
0
40
1
40
1
40
1
40
1
41
1
41
1
41
1
41
1
10
3.6947916666666676
20
-5.9833333333333334
30
0
10
3.8583333333333343
20
-5.7177083333333334
30
0
10
3.8958333333333335
20
-5.6177083333333337
30
0
10
3.8958333333333335
20
-5.447916666666667
30
0
0
SPLINE
5
136
100
AcDbEntity
8
0
100
AcDbSpline
70
4
71
3
72
8
73
4
74
0
42
0.000000001
43
0.0000000001
44
0.0000000001
40
0
40
0
40
0
40
0
40
1
40
1
40
1
40
1
41
1
41
1
41
1
41
1
10
3.8958333333333335
20
-5.447916666666667
30
0
10
3.8958333333333335
20
-5.3312499999999998
30
0
10
3.8781250000000003
20
-5.2833333333333323
30
0
10
3.8177083333333339
20
-5.2302083333333336
30
0
0
SPLINE
5
137
100
AcDbEntity
8
0
100
AcDbSpline
70
4
71
3
72
8
73
4
74
0
42
0.000000001
43
0.0000000001
44
0.0000000001
40
0
40
0
40
0
40
0
40
1
40
1
40
1
40
1
41
1
41
1
41
1
41
1
10
3.8177083333333339
20
-5.2302083333333336
30
0
10
3.7781250000000006
20
-5.1958333333333329
30
0
10
3.7760416666666665
20
-5.1947916666666663
30
0
10
3.7041666666666675
20
-5.2010416666666668
30
0
0
SPLINE
5
138
100
AcDbEntity
8
0
100
AcDbSpline
70
4
71
3
72
8
73
4
74
0
42
0.000000001
43
0.0000000001
44
0.0000000001
40
0
40
0
40
0
40
0
40
1
40
1
40
1
40
1
41
1
41
1
41
1
41
1
10
3.7041666666666675
20
-5.2010416666666668
30
0
10
3.5718750000000004
20
-5.2124999999999995
30
0
10
3.5156250000000004
20
-5.234375
30
0
10
3.4145833333333337
20
-5.3093749999999993
30
0
0
SPLINE
5
139
100
AcDbEntity
8
0
100
AcDbSpline
70
4
71
3
72
8
73
4
74
0
42
0.000000001
43
0.0000000001
44
0.0000000001
40
0
40
0
40
0
40
0
40
1
40
1
40
1
40
1
41
1
41
1
41
1
41
1
10
3.4145833333333337
20
-5.3093749999999993
30
0
10
3.2739583333333337
20
-5.4135416666666663
30
0
10
3.1656250000000008
20
-5.5364583333333339
30
0
10
3.1083333333333338
20
-5.65625
30
0
0
SPLINE
5
140
100
AcDbEntity
8
0
100
AcDbSpline
70
4
71
3
72
8
73
4
74
0
42
0.000000001
43
0.0000000001
44
0.0000000001
40
0
40
0
40
0
40
0
40
1
40
1
40
1
40
1
41
1
41
1
41
1
41
1
10
3.1083333333333338
20
-5.65625
30
0
10
3
20
-5.880208333333333
30
0
10
2.9500000000000002
20
-6.0218749999999988
30
0
10
2.921875
20
-6.1781249999999996
30
0
0
SPLINE
5
141
100
AcDbEntity
8
0
100
AcDbSpline
70
4
71
3
72
8
73
4
74
0
42
0.000000001
43
0.0000000001
44
0.0000000001
40
0
40
0
40
0
40
0
40
1
40
1
40
1
40
1
41
1
41
1
41
1
41
1
10
2.921875
20
-6.1781249999999996
30
0
10
2.8906250000000004
20
-6.3583333333333334
30
0
10
2.8895833333333338
20
-6.40625
30
0
10
2.9166666666666665
20
-6.5187499999999998
30
0
0
SPLINE
5
142
100
AcDbEntity
8
0
100
AcDbSpline
70
4
71
3
72
8
73
4
74
0
42
0.000000001
43
0.0000000001
44
0.0000000001
40
0
40
0
40
0
40
0
40
1
40
1
40
1
40
1
41
1
41
1
41
1
41
1
10
2.9166666666666665
20
-6.5187499999999998
30
0
10
2.9281250000000005
20
-6.5666666666666673
30
0
10
2.9375000000000004
20
-6.6250000000000009
30
0
10
2.9375000000000004
20
-6.6489583333333337
30
0
0
SPLINE
5
143
100
AcDbEntity
8
0
100
AcDbSpline
70
4
71
3
72
8
73
4
74
0
42
0.000000001
43
0.0000000001
44
0.0000000001
40
0
40
0
40
0
40
0
40
1
40
1
40
1
40
1
41
1
41
1
41
1
41
1
10
2.9375000000000004
20
-6.6489583333333337
30
0
10
2.9375000000000004
20
-6.6989583333333336
30
0
10
2.8885416666666672
20
-6.8020833333333339
30
0
10
2.8239583333333336
20
-6.8885416666666659
30
0
0
SPLINE
5
144
100
AcDbEntity
8
0
100
AcDbSpline
70
4
71
3
72
8
73
4
74
0
42
0.000000001
43
0.0000000001
44
0.0000000001
40
0
40
0
40
0
40
0
40
1
40
1
40
1
40
1
41
1
41
1
41
1
41
1
10
2.8239583333333336
20
-6.8885416666666659
30
0
10
2.8020833333333335
20
-6.9177083333333327
30
0
10
2.7385416666666673
20
-7.0187499999999998
30
0
10
2.6843750000000002
20
-7.1114583333333332
30
0
0
SPLINE
5
145
100
AcDbEntity
8
0
100
AcDbSpline
70
4
71
3
72
8
73
4
74
0
42
0.000000001
43
0.0000000001
44
0.0000000001
40
0
40
0
40
0
40
0
40
1
40
1
40
1
40
1
41
1
41
1
41
1
41
1
10
2.6843750000000002
20
-7.1114583333333332
30
0
10
2.6302083333333335
20
-7.2041666666666657
30
0
10
2.5562500000000004
20
-7.3156249999999998
30
0
10
2.5208333333333335
20
-7.359375
30
0
0
SPLINE
5
146
100
AcDbEntity
8
0
100
AcDbSpline
70
4
71
3
72
8
73
4
74
0
42
0.000000001
43
0.0000000001
44
0.0000000001
40
0
40
0
40
0
40
0
40
1
40
1
40
1
40
1
41
1
41
1
41
1
41
1
10
2.5208333333333335
20
-7.359375
30
0
10
2.4843750000000004
20
-7.4041666666666668
30
0
10
2.4427083333333335
20
-7.463541666666667
30
0
10
2.4281250000000005
20
-7.4937500000000004
30
0
0
SPLINE
5
147
100
AcDbEntity
8
0
100
AcDbSpline
70
4
71
3
72
8
73
4
74
0
42
0.000000001
43
0.0000000001
44
0.0000000001
40
0
40
0
40
0
40
0
40
1
40
1
40
1
40
1
41
1
41
1
41
1
41
1
10
2.4281250000000005
20
-7.4937500000000004
30
0
10
2.4135416666666671
20
-7.5229166666666671
30
0
10
2.3385416666666665
20
-7.640625
30
0
10
2.2614583333333336
20
-7.7552083333333348
30
0
0
SPLINE
5
148
100
AcDbEntity
8
0
100
AcDbSpline
70
4
71
3
72
8
73
4
74
0
42
0.000000001
43
0.0000000001
44
0.0000000001
40
0
40
0
40
0
40
0
40
1
40
1
40
1
40
1
41
1
41
1
41
1
41
1
10
2.2614583333333336
20
-7.7552083333333348
30
0
10
2.1843750000000006
20
-7.869791666666667
30
0
10
2.078125
20
-8.0385416666666671
30
0
10
2.0250000000000004
20
-8.1302083333333339
30
0
0
SPLINE
5
149
100
AcDbEntity
8
0
100
AcDbSpline
70
4
71
3
72
8
73
4
74
0
42
0.000000001
43
0.0000000001
44
0.0000000001
40
0
40
0
40
0
40
0
40
1
40
1
40
1
40
1
41
1
41
1
41
1
41
1
10
2.0250000000000004
20
-8.1302083333333339
30
0
10
1.9729166666666669
20
-8.2229166666666664
30
0
10
1.9218750000000002
20
-8.2979166666666657
30
0
10
1.9125000000000003
20
-8.2999999999999989
30
0
0
SPLINE
5
150
100
AcDbEntity
8
0
100
AcDbSpline
70
4
71
3
72
8
73
4
74
0
42
0.000000001
43
0.0000000001
44
0.0000000001
40
0
40
0
40
0
40
0
40
1
40
1
40
1
40
1
41
1
41
1
41
1
41
1
10
1.9125000000000003
20
-8.2999999999999989
30
0
10
1.8739583333333336
20
-8.3083333333333318
30
0
10
1.9000000000000001
20
-8.0458333333333343
30
0
10
1.9635416666666667
20
-7.7906250000000004
30
0
0
SPLINE
5
151
100
AcDbEntity
8
0
100
AcDbSpline
70
4
71
3
72
8
73
4
74
0
42
0.000000001
43
0.0000000001
44
0.0000000001
40
0
40
0
40
0
40
0
40
1
40
1
40
1
40
1
41
1
41
1
41
1
41
1
10
1.9635416666666667
20
-7.7906250000000004
30
0
10
1.9833333333333334
20
-7.7083333333333339
30
0
10
2
20
-7.6343750000000004
30
0
10
2
20
-7.6250000000000009
30
0
0
SPLINE
5
152
100
AcDbEntity
8
0
100
AcDbSpline
70
4
71
3
72
8
73
4
74
0
42
0.000000001
43
0.0000000001
44
0.0000000001
40
0
40
0
40
0
40
0
40
1
40
1
40
1
40
1
41
1
41
1
41
1
41
1
10
2
20
-7.6250000000000009
30
0
10
2
20
-7.616666666666668
30
0
10
2.0166666666666671
20
-7.5489583333333341
30
0
10
2.0364583333333335
20
-7.4739583333333339
30
0
0
SPLINE
5
153
100
AcDbEntity
8
0
100
AcDbSpline
70
4
71
3
72
8
73
4
74
0
42
0.000000001
43
0.0000000001
44
0.0000000001
40
0
40
0
40
0
40
0
40
1
40
1
40
1
40
1
41
1
41
1
41
1
41
1
10
2.0364583333333335
20
-7.4739583333333339
30
0
10
2.057291666666667
20
-7.4000000000000004
30
0
10
2.0875000000000004
20
-7.2864583333333339
30
0
10
2.105208333333334
20
-7.2239583333333339
30
0
0
SPLINE
5
154
100
AcDbEntity
8
0
100
AcDbSpline
70
4
71
3
72
8
73
4
74
0
42
0.000000001
43
0.0000000001
44
0.0000000001
40
0
40
0
40
0
40
0
40
1
40
1
40
1
40
1
41
1
41
1
41
1
41
1
10
2.105208333333334
20
-7.2239583333333339
30
0
10
2.1687500000000002
20
-6.9864583333333341
30
0
10
2.1802083333333337
20
-6.9500000000000002
30
0
10
2.2260416666666671
20
-6.8406250000000002
30
0
0
SPLINE
5
155
100
AcDbEntity
8
0
100
AcDbSpline
70
4
71
3
72
8
73
4
74
0
42
0.000000001
43
0.0000000001
44
0.0000000001
40
0
40
0
40
0
40
0
40
1
40
1
40
1
40
1
41
1
41
1
41
1
41
1
10
2.2260416666666671
20
-6.8406250000000002
30
0
10
2.2510416666666671
20
-6.7791666666666659
30
0
10
2.2979166666666671
20
-6.6604166666666673
30
0
10
2.3291666666666671
20
-6.5750000000000011
30
0
0
SPLINE
5
156
100
AcDbEntity
8
0
100
AcDbSpline
70
4
71
3
72
8
73
4
74
0
42
0.000000001
43
0.0000000001
44
0.0000000001
40
0
40
0
40
0
40
0
40
1
40
1
40
1
40
1
41
1
41
1
41
1
41
1
10
2.3291666666666671
20
-6.5750000000000011
30
0
10
2.3604166666666671
20
-6.4906249999999996
30
0
10
2.3968750000000001
20
-6.3979166666666671
30
0
10
2.4104166666666669
20
-6.3697916666666679
30
0
0
SPLINE
5
157
100
AcDbEntity
8
0
100
AcDbSpline
70
4
71
3
72
8
73
4
74
0
42
0.000000001
43
0.0000000001
44
0.0000000001
40
0
40
0
40
0
40
0
40
1
40
1
40
1
40
1
41
1
41
1
41
1
41
1
10
2.4104166666666669
20
-6.3697916666666679
30
0
10
2.4239583333333337
20
-6.3406250000000011
30
0
10
2.453125
20
-6.2781250000000011
30
0
10
2.4750000000000001
20
-6.229166666666667
30
0
0
SPLINE
5
158
100
AcDbEntity
8
0
100
AcDbSpline
70
4
71
3
72
8
73
4
74
0
42
0.000000001
43
0.0000000001
44
0.0000000001
40
0
40
0
40
0
40
0
40
1
40
1
40
1
40
1
41
1
41
1
41
1
41
1
10
2.4750000000000001
20
-6.229166666666667
30
0
10
2.4968750000000006
20
-6.1812499999999995
30
0
10
2.5531250000000005
20
-6.0781250000000009
30
0
10
2.6000000000000005
20
-6
30
0
0
SPLINE
5
159
100
AcDbEntity
8
0
100
AcDbSpline
70
4
71
3
72
8
73
4
74
0
42
0.000000001
43
0.0000000001
44
0.0000000001
40
0
40
0
40
0
40
0
40
1
40
1
40
1
40
1
41
1
41
1
41
1
41
1
10
2.6000000000000005
20
-6
30
0
10
2.6458333333333335
20
-5.9229166666666666
30
0
10
2.7041666666666671
20
-5.8218750000000004
30
0
10
2.729166666666667
20
-5.776041666666667
30
0
0
SPLINE
5
160
100
AcDbEntity
8
0
100
AcDbSpline
70
4
71
3
72
8
73
4
74
0
42
0.000000001
43
0.0000000001
44
0.0000000001
40
0
40
0
40
0
40
0
40
1
40
1
40
1
40
1
41
1
41
1
41
1
41
1
10
2.729166666666667
20
-5.776041666666667
30
0
10
2.7854166666666673
20
-5.6729166666666675
30
0
10
2.8354166666666667
20
-5.5979166666666673
30
0
10
2.9364583333333338
20
-5.463541666666667
30
0
0
SPLINE
5
161
100
AcDbEntity
8
0
100
AcDbSpline
70
4
71
3
72
8
73
4
74
0
42
0.000000001
43
0.0000000001
44
0.0000000001
40
0
40
0
40
0
40
0
40
1
40
1
40
1
40
1
41
1
41
1
41
1
41
1
10
2.9364583333333338
20
-5.463541666666667
30
0
10
2.980208333333334
20
-5.40625
30
0
10
3.0322916666666671
20
-5.3343750000000005
30
0
10
3.0531250000000001
20
-5.3041666666666663
30
0
0
SPLINE
5
162
100
AcDbEntity
8
0
100
AcDbSpline
70
4
71
3
72
8
73
4
74
0
42
0.000000001
43
0.0000000001
44
0.0000000001
40
0
40
0
40
0
40
0
40
1
40
1
40
1
40
1
41
1
41
1
41
1
41
1
10
3.0531250000000001
20
-5.3041666666666663
30
0
10
3.1187500000000008
20
-5.2052083333333332
30
0
10
3.4031250000000002
20
-4.9093749999999998
30
0
10
3.5072916666666676
20
-4.8322916666666673
30
0
0
SPLINE
5
163
100
AcDbEntity
8
0
100
AcDbSpline
70
4
71
3
72
8
73
4
74
0
42
0.000000001
43
0.0000000001
44
0.0000000001
40
0
40
0
40
0
40
0
40
1
40
1
40
1
40
1
41
1
41
1
41
1
41
1
10
3.5072916666666676
20
-4.8322916666666673
30
0
10
3.5989583333333335
20
-4.7635416666666668
30
0
10
3.698958333333334
20
-4.7062499999999998
30
0
10
3.7583333333333337
20
-4.6864583333333334
30
0
0
SPLINE
5
164
100
AcDbEntity
8
0
100
AcDbSpline
70
4
71
3
72
8
73
4
74
0
42
0.000000001
43
0.0000000001
44
0.0000000001
40
0
40
0
40
0
40
0
40
1
40
1
40
1
40
1
41
1
41
1
41
1
41
1
10
7.3333333333333339
20
-3.6531249999999997
30
0
10
7.408333333333335
20
-3.5645833333333328
30
0
10
7.479166666666667
20
-3.5114583333333327
30
0
10
7.5500000000000007
20
-3.4895833333333335
30
0
0
SPLINE
5
165
100
AcDbEntity
8
0
100
AcDbSpline
70
4
71
3
72
8
73
4
74
0
42
0.000000001
43
0.0000000001
44
0.0000000001
40
0
40
0
40
0
40
0
40
1
40
1
40
1
40
1
41
1
41
1
41
1
41
1
10
7.5500000000000007
20
-3.4895833333333335
30
0
10
7.5906250000000011
20
-3.4770833333333333
30
0
10
7.6072916666666686
20
-3.4812499999999993
30
0
10
7.6229166666666677
20
-3.510416666666667
30
0
0
SPLINE
5
166
100
AcDbEntity
8
0
100
AcDbSpline
70
4
71
3
72
8
73
4
74
0
42
0.000000001
43
0.0000000001
44
0.0000000001
40
0
40
0
40
0
40
0
40
1
40
1
40
1
40
1
41
1
41
1
41
1
41
1
10
7.6229166666666677
20
-3.510416666666667
30
0
10
7.6322916666666671
20
-3.5281249999999993
30
0
10
7.6354166666666679
20
-3.5635416666666662
30
0
10
7.6322916666666671
20
-3.6197916666666665
30
0
0
SPLINE
5
167
100
AcDbEntity
8
0
100
AcDbSpline
70
4
71
3
72
8
73
4
74
0
42
0.000000001
43
0.0000000001
44
0.0000000001
40
0
40
0
40
0
40
0
40
1
40
1
40
1
40
1
41
1
41
1
41
1
41
1
10
7.6322916666666671
20
-3.6197916666666665
30
0
10
7.6291666666666682
20
-3.6885416666666657
30
0
10
7.6229166666666677
20
-3.7145833333333322
30
0
10
7.5937500000000009
20
-3.7708333333333339
30
0
0
SPLINE
5
168
100
AcDbEntity
8
0
100
AcDbSpline
70
4
71
3
72
8
73
4
74
0
42
0.000000001
43
0.0000000001
44
0.0000000001
40
0
40
0
40
0
40
0
40
1
40
1
40
1
40
1
41
1
41
1
41
1
41
1
10
7.5937500000000009
20
-3.7708333333333339
30
0
10
7.5750000000000011
20
-3.8083333333333322
30
0
10
7.5343750000000007
20
-3.8999999999999999
30
0
10
7.5041666666666673
20
-3.9760416666666663
30
0
0
SPLINE
5
169
100
AcDbEntity
8
0
100
AcDbSpline
70
4
71
3
72
8
73
4
74
0
42
0.000000001
43
0.0000000001
44
0.0000000001
40
0
40
0
40
0
40
0
40
1
40
1
40
1
40
1
41
1
41
1
41
1
41
1
10
7.5041666666666673
20
-3.9760416666666663
30
0
10
7.4729166666666682
20
-4.0531249999999996
30
0
10
7.413541666666668
20
-4.1739583333333323
30
0
10
7.3666666666666671
20
-4.2520833333333332
30
0
0
SPLINE
5
170
100
AcDbEntity
8
0
100
AcDbSpline
70
4
71
3
72
8
73
4
74
0
42
0.000000001
43
0.0000000001
44
0.0000000001
40
0
40
0
40
0
40
0
40
1
40
1
40
1
40
1
41
1
41
1
41
1
41
1
10
7.3666666666666671
20
-4.2520833333333332
30
0
10
7.3208333333333337
20
-4.3281250000000009
30
0
10
7.2750000000000012
20
-4.4083333333333323
30
0
10
7.2635416666666677
20
-4.4291666666666663
30
0
0
SPLINE
5
171
100
AcDbEntity
8
0
100
AcDbSpline
70
4
71
3
72
8
73
4
74
0
42
0.000000001
43
0.0000000001
44
0.0000000001
40
0
40
0
40
0
40
0
40
1
40
1
40
1
40
1
41
1
41
1
41
1
41
1
10
7.2635416666666677
20
-4.4291666666666663
30
0
10
7.2468750000000002
20
-4.4625000000000004
30
0
10
7.1312500000000014
20
-4.6239583333333334
30
0
10
6.916666666666667
20
-4.911458333333333
30
0
0
SPLINE
5
172
100
AcDbEntity
8
0
100
AcDbSpline
70
4
71
3
72
8
73
4
74
0
42
0.000000001
43
0.0000000001
44
0.0000000001
40
0
40
0
40
0
40
0
40
1
40
1
40
1
40
1
41
1
41
1
41
1
41
1
10
6.916666666666667
20
-4.911458333333333
30
0
10
6.8822916666666671
20
-4.9572916666666664
30
0
10
6.8052083333333346
20
-5.0604166666666668
30
0
10
6.7458333333333345
20
-5.140625
30
0
0
SPLINE
5
173
100
AcDbEntity
8
0
100
AcDbSpline
70
4
71
3
72
8
73
4
74
0
42
0.000000001
43
0.0000000001
44
0.0000000001
40
0
40
0
40
0
40
0
40
1
40
1
40
1
40
1
41
1
41
1
41
1
41
1
10
6.7458333333333345
20
-5.140625
30
0
10
6.642708333333335
20
-5.2781250000000002
30
0
10
6.338541666666667
20
-5.6312500000000005
30
0
10
6.3062499999999995
20
-5.6489583333333329
30
0
0
SPLINE
5
174
100
AcDbEntity
8
0
100
AcDbSpline
70
4
71
3
72
8
73
4
74
0
42
0.000000001
43
0.0000000001
44
0.0000000001
40
0
40
0
40
0
40
0
40
1
40
1
40
1
40
1
41
1
41
1
41
1
41
1
10
6.3062499999999995
20
-5.6489583333333329
30
0
10
6.2781250000000011
20
-5.6645833333333337
30
0
10
6.2906250000000004
20
-5.5968749999999998
30
0
10
6.3375000000000004
20
-5.4770833333333329
30
0
0
SPLINE
5
175
100
AcDbEntity
8
0
100
AcDbSpline
70
4
71
3
72
8
73
4
74
0
42
0.000000001
43
0.0000000001
44
0.0000000001
40
0
40
0
40
0
40
0
40
1
40
1
40
1
40
1
41
1
41
1
41
1
41
1
10
6.3375000000000004
20
-5.4770833333333329
30
0
10
6.3635416666666673
20
-5.4125000000000005
30
0
10
6.40625
20
-5.3031250000000005
30
0
10
6.4333333333333345
20
-5.234375
30
0
0
SPLINE
5
176
100
AcDbEntity
8
0
100
AcDbSpline
70
4
71
3
72
8
73
4
74
0
42
0.000000001
43
0.0000000001
44
0.0000000001
40
0
40
0
40
0
40
0
40
1
40
1
40
1
40
1
41
1
41
1
41
1
41
1
10
6.4333333333333345
20
-5.234375
30
0
10
6.5718750000000012
20
-4.8791666666666673
30
0
10
6.7895833333333346
20
-4.4385416666666657
30
0
10
6.9447916666666671
20
-4.197916666666667
30
0
0
SPLINE
5
177
100
AcDbEntity
8
0
100
AcDbSpline
70
4
71
3
72
8
73
4
74
0
42
0.000000001
43
0.0000000001
44
0.0000000001
40
0
40
0
40
0
40
0
40
1
40
1
40
1
40
1
41
1
41
1
41
1
41
1
10
6.9447916666666671
20
-4.197916666666667
30
0
10
6.9906250000000005
20
-4.1260416666666666
30
0
10
7.0468750000000009
20
-4.0354166666666664
30
0
10
7.0687500000000005
20
-3.9958333333333327
30
0
0
SPLINE
5
178
100
AcDbEntity
8
0
100
AcDbSpline
70
4
71
3
72
8
73
4
74
0
42
0.000000001
43
0.0000000001
44
0.0000000001
40
0
40
0
40
0
40
0
40
1
40
1
40
1
40
1
41
1
41
1
41
1
41
1
10
7.0687500000000005
20
-3.9958333333333327
30
0
10
7.0906250000000011
20
-3.9572916666666669
30
0
10
7.1145833333333339
20
-3.9156249999999995
30
0
10
7.1218750000000002
20
-3.9041666666666663
30
0
0
SPLINE
5
179
100
AcDbEntity
8
0
100
AcDbSpline
70
4
71
3
72
8
73
4
74
0
42
0.000000001
43
0.0000000001
44
0.0000000001
40
0
40
0
40
0
40
0
40
1
40
1
40
1
40
1
41
1
41
1
41
1
41
1
10
7.1218750000000002
20
-3.9041666666666663
30
0
10
7.1281250000000007
20
-3.8927083333333332
30
0
10
7.1604166666666682
20
-3.8520833333333329
30
0
10
7.194791666666668
20
-3.8135416666666657
30
0
0
SPLINE
5
180
100
AcDbEntity
8
0
100
AcDbSpline
70
4
71
3
72
8
73
4
74
0
42
0.000000001
43
0.0000000001
44
0.0000000001
40
0
40
0
40
0
40
0
40
1
40
1
40
1
40
1
41
1
41
1
41
1
41
1
10
7.194791666666668
20
-3.8135416666666657
30
0
10
7.2281250000000012
20
-3.7760416666666665
30
0
10
7.2906250000000004
20
-3.7031250000000004
30
0
10
7.3333333333333339
20
-3.6531249999999997
30
0
0
SPLINE
5
181
100
AcDbEntity
8
0
100
AcDbSpline
70
4
71
3
72
8
73
4
74
0
42
0.000000001
43
0.0000000001
44
0.0000000001
40
0
40
0
40
0
40
0
40
1
40
1
40
1
40
1
41
1
41
1
41
1
41
1
10
17.1875
20
-1.9395833333333325
30
0
10
17.1875
20
-1.9145833333333329
30
0
10
17.296875
20
-1.84375
30
0
10
17.353125000000002
20
-1.8322916666666664
30
0
0
SPLINE
5
182
100
AcDbEntity
8
0
100
AcDbSpline
70
4
71
3
72
8
73
4
74
0
42
0.000000001
43
0.0000000001
44
0.0000000001
40
0
40
0
40
0
40
0
40
1
40
1
40
1
40
1
41
1
41
1
41
1
41
1
10
17.353125000000002
20
-1.8322916666666664
30
0
10
17.421875
20
-1.8187499999999992
30
0
10
17.445833333333336
20
-1.8218749999999997
30
0
10
17.478125000000002
20
-1.849999999999999
30
0
0
SPLINE
5
183
100
AcDbEntity
8
0
100
AcDbSpline
70
4
71
3
72
8
73
4
74
0
42
0.000000001
43
0.0000000001
44
0.0000000001
40
0
40
0
40
0
40
0
40
1
40
1
40
1
40
1
41
1
41
1
41
1
41
1
10
17.478125000000002
20
-1.849999999999999
30
0
10
17.495833333333334
20
-1.8645833333333333
30
0
10
17.523958333333336
20
-1.8989583333333331
30
0
10
17.539583333333336
20
-1.9260416666666664
30
0
0
SPLINE
5
184
100
AcDbEntity
8
0
100
AcDbSpline
70
4
71
3
72
8
73
4
74
0
42
0.000000001
43
0.0000000001
44
0.0000000001
40
0
40
0
40
0
40
0
40
1
40
1
40
1
40
1
41
1
41
1
41
1
41
1
10
17.539583333333336
20
-1.9260416666666664
30
0
10
17.56666666666667
20
-1.9718749999999996
30
0
10
17.567708333333336
20
-1.9802083333333325
30
0
10
17.565625000000004
20
-2.0989583333333335
30
0
0
SPLINE
5
185
100
AcDbEntity
8
0
100
AcDbSpline
70
4
71
3
72
8
73
4
74
0
42
0.000000001
43
0.0000000001
44
0.0000000001
40
0
40
0
40
0
40
0
40
1
40
1
40
1
40
1
41
1
41
1
41
1
41
1
10
17.565625000000004
20
-2.0989583333333335
30
0
10
17.564583333333335
20
-2.1875000000000004
30
0
10
17.556250000000002
20
-2.2604166666666665
30
0
10
17.537500000000001
20
-2.3489583333333335
30
0
0
SPLINE
5
186
100
AcDbEntity
8
0
100
AcDbSpline
70
4
71
3
72
8
73
4
74
0
42
0.000000001
43
0.0000000001
44
0.0000000001
40
0
40
0
40
0
40
0
40
1
40
1
40
1
40
1
41
1
41
1
41
1
41
1
10
17.537500000000001
20
-2.3489583333333335
30
0
10
17.522916666666671
20
-2.4177083333333327
30
0
10
17.510416666666668
20
-2.4854166666666657
30
0
10
17.510416666666668
20
-2.4989583333333334
30
0
0
SPLINE
5
187
100
AcDbEntity
8
0
100
AcDbSpline
70
4
71
3
72
8
73
4
74
0
42
0.000000001
43
0.0000000001
44
0.0000000001
40
0
40
0
40
0
40
0
40
1
40
1
40
1
40
1
41
1
41
1
41
1
41
1
10
17.510416666666668
20
-2.4989583333333334
30
0
10
17.510416666666668
20
-2.5135416666666663
30
0
10
17.504166666666666
20
-2.5322916666666657
30
0
10
17.495833333333334
20
-2.5406249999999999
30
0
0
SPLINE
5
188
100
AcDbEntity
8
0
100
AcDbSpline
70
4
71
3
72
8
73
4
74
0
42
0.000000001
43
0.0000000001
44
0.0000000001
40
0
40
0
40
0
40
0
40
1
40
1
40
1
40
1
41
1
41
1
41
1
41
1
10
17.495833333333334
20
-2.5406249999999999
30
0
10
17.482291666666669
20
-2.5562499999999999
30
0
10
17.427083333333336
20
-2.7302083333333327
30
0
10
17.427083333333336
20
-2.7572916666666663
30
0
0
SPLINE
5
189
100
AcDbEntity
8
0
100
AcDbSpline
70
4
71
3
72
8
73
4
74
0
42
0.000000001
43
0.0000000001
44
0.0000000001
40
0
40
0
40
0
40
0
40
1
40
1
40
1
40
1
41
1
41
1
41
1
41
1
10
17.427083333333336
20
-2.7572916666666663
30
0
10
17.427083333333336
20
-2.7697916666666664
30
0
10
17.419791666666672
20
-2.78125
30
0
10
17.338541666666668
20
-2.9093749999999998
30
0
0
SPLINE
5
190
100
AcDbEntity
8
0
100
AcDbSpline
70
4
71
3
72
8
73
4
74
0
42
0.000000001
43
0.0000000001
44
0.0000000001
40
0
40
0
40
0
40
0
40
1
40
1
40
1
40
1
41
1
41
1
41
1
41
1
10
17.338541666666668
20
-2.9093749999999998
30
0
10
17.313541666666669
20
-2.947916666666667
30
0
10
17.285416666666666
20
-3
30
0
10
17.276041666666668
20
-3.0239583333333329
30
0
0
SPLINE
5
191
100
AcDbEntity
8
0
100
AcDbSpline
70
4
71
3
72
8
73
4
74
0
42
0.000000001
43
0.0000000001
44
0.0000000001
40
0
40
0
40
0
40
0
40
1
40
1
40
1
40
1
41
1
41
1
41
1
41
1
10
17.276041666666668
20
-3.0239583333333329
30
0
10
17.264583333333334
20
-3.0531249999999992
30
0
10
17.236458333333335
20
-3.0864583333333333
30
0
10
17.190625000000004
20
-3.125
30
0
0
SPLINE
5
192
100
AcDbEntity
8
0
100
AcDbSpline
70
4
71
3
72
8
73
4
74
0
42
0.000000001
43
0.0000000001
44
0.0000000001
40
0
40
0
40
0
40
0
40
1
40
1
40
1
40
1
41
1
41
1
41
1
41
1
10
17.190625000000004
20
-3.125
30
0
10
17.09375
20
-3.2072916666666664
30
0
10
17.06666666666667
20
-3.2218749999999998
30
0
10
17.017708333333335
20
-3.2208333333333332
30
0
0
SPLINE
5
193
100
AcDbEntity
8
0
100
AcDbSpline
70
4
71
3
72
8
73
4
74
0
42
0.000000001
43
0.0000000001
44
0.0000000001
40
0
40
0
40
0
40
0
40
1
40
1
40
1
40
1
41
1
41
1
41
1
41
1
10
17.017708333333335
20
-3.2208333333333332
30
0
10
16.965625000000003
20
-3.2187500000000004
30
0
10
16.936458333333334
20
-3.1999999999999997
30
0
10
16.90625
20
-3.1510416666666674
30
0
0
SPLINE
5
194
100
AcDbEntity
8
0
100
AcDbSpline
70
4
71
3
72
8
73
4
74
0
42
0.000000001
43
0.0000000001
44
0.0000000001
40
0
40
0
40
0
40
0
40
1
40
1
40
1
40
1
41
1
41
1
41
1
41
1
10
16.90625
20
-3.1510416666666674
30
0
10
16.884375000000002
20
-3.1156249999999992
30
0
10
16.883333333333336
20
-3.1062499999999993
30
0
10
16.888541666666669
20
-2.9187499999999997
30
0
0
SPLINE
5
195
100
AcDbEntity
8
0
100
AcDbSpline
70
4
71
3
72
8
73
4
74
0
42
0.000000001
43
0.0000000001
44
0.0000000001
40
0
40
0
40
0
40
0
40
1
40
1
40
1
40
1
41
1
41
1
41
1
41
1
10
16.888541666666669
20
-2.9187499999999997
30
0
10
16.892708333333335
20
-2.7552083333333335
30
0
10
16.897916666666667
20
-2.6989583333333327
30
0
10
16.925000000000004
20
-2.5677083333333335
30
0
0
SPLINE
5
196
100
AcDbEntity
8
0
100
AcDbSpline
70
4
71
3
72
8
73
4
74
0
42
0.000000001
43
0.0000000001
44
0.0000000001
40
0
40
0
40
0
40
0
40
1
40
1
40
1
40
1
41
1
41
1
41
1
41
1
10
16.925000000000004
20
-2.5677083333333335
30
0
10
16.942708333333332
20
-2.4812499999999993
30
0
10
16.966666666666669
20
-2.3854166666666665
30
0
10
16.977083333333336
20
-2.354166666666667
30
0
0
SPLINE
5
197
100
AcDbEntity
8
0
100
AcDbSpline
70
4
71
3
72
8
73
4
74
0
42
0.000000001
43
0.0000000001
44
0.0000000001
40
0
40
0
40
0
40
0
40
1
40
1
40
1
40
1
41
1
41
1
41
1
41
1
10
16.977083333333336
20
-2.354166666666667
30
0
10
17.008333333333336
20
-2.2624999999999993
30
0
10
17.096875000000004
20
-2.0822916666666664
30
0
10
17.14479166666667
20
-2.0124999999999993
30
0
0
SPLINE
5
198
100
AcDbEntity
8
0
100
AcDbSpline
70
4
71
3
72
8
73
4
74
0
42
0.000000001
43
0.0000000001
44
0.0000000001
40
0
40
0
40
0
40
0
40
1
40
1
40
1
40
1
41
1
41
1
41
1
41
1
10
17.14479166666667
20
-2.0124999999999993
30
0
10
17.167708333333337
20
-1.9781249999999999
30
0
10
17.1875
20
-1.944791666666666
30
0
10
17.1875
20
-1.9395833333333325
30
0
0
SPLINE
5
199
100
AcDbEntity
8
0
100
AcDbSpline
70
4
71
3
72
8
73
4
74
0
42
0.000000001
43
0.0000000001
44
0.0000000001
40
0
40
0
40
0
40
0
40
1
40
1
40
1
40
1
41
1
41
1
41
1
41
1
10
14.839583333333337
20
-2.2562499999999992
30
0
10
14.973958333333334
20
-1.8947916666666667
30
0
10
15.196875000000002
20
-1.5124999999999995
30
0
10
15.305208333333336
20
-1.4593749999999992
30
0
0
SPLINE
5
200
100
AcDbEntity
8
0
100
AcDbSpline
70
4
71
3
72
8
73
4
74
0
42
0.000000001
43
0.0000000001
44
0.0000000001
40
0
40
0
40
0
40
0
40
1
40
1
40
1
40
1
41
1
41
1
41
1
41
1
10
15.305208333333336
20
-1.4593749999999992
30
0
10
15.35729166666667
20
-1.4333333333333325
30
0
10
15.358333333333336
20
-1.4333333333333325
30
0
10
15.379166666666668
20
-1.4541666666666657
30
0
0
SPLINE
5
201
100
AcDbEntity
8
0
100
AcDbSpline
70
4
71
3
72
8
73
4
74
0
42
0.000000001
43
0.0000000001
44
0.0000000001
40
0
40
0
40
0
40
0
40
1
40
1
40
1
40
1
41
1
41
1
41
1
41
1
10
15.379166666666668
20
-1.4541666666666657
30
0
10
15.402083333333337
20
-1.4770833333333331
30
0
10
15.400000000000002
20
-1.5177083333333328
30
0
10
15.369791666666668
20
-1.6239583333333329
30
0
0
SPLINE
5
202
100
AcDbEntity
8
0
100
AcDbSpline
70
4
71
3
72
8
73
4
74
0
42
0.000000001
43
0.0000000001
44
0.0000000001
40
0
40
0
40
0
40
0
40
1
40
1
40
1
40
1
41
1
41
1
41
1
41
1
10
15.369791666666668
20
-1.6239583333333329
30
0
10
15.32604166666667
20
-1.7812500000000002
30
0
10
15.28125
20
-1.897916666666666
30
0
10
15.229166666666668
20
-1.9906249999999992
30
0
0
SPLINE
5
203
100
AcDbEntity
8
0
100
AcDbSpline
70
4
71
3
72
8
73
4
74
0
42
0.000000001
43
0.0000000001
44
0.0000000001
40
0
40
0
40
0
40
0
40
1
40
1
40
1
40
1
41
1
41
1
41
1
41
1
10
15.229166666666668
20
-1.9906249999999992
30
0
10
15.201041666666669
20
-2.0395833333333333
30
0
10
15.171875
20
-2.0958333333333328
30
0
10
15.163541666666669
20
-2.1156249999999992
30
0
0
SPLINE
5
204
100
AcDbEntity
8
0
100
AcDbSpline
70
4
71
3
72
8
73
4
74
0
42
0.000000001
43
0.0000000001
44
0.0000000001
40
0
40
0
40
0
40
0
40
1
40
1
40
1
40
1
41
1
41
1
41
1
41
1
10
15.163541666666669
20
-2.1156249999999992
30
0
10
15.142708333333335
20
-2.1656249999999999
30
0
10
14.893750000000002
20
-2.5822916666666664
30
0
10
14.829166666666667
20
-2.6760416666666664
30
0
0
SPLINE
5
205
100
AcDbEntity
8
0
100
AcDbSpline
70
4
71
3
72
8
73
4
74
0
42
0.000000001
43
0.0000000001
44
0.0000000001
40
0
40
0
40
0
40
0
40
1
40
1
40
1
40
1
41
1
41
1
41
1
41
1
10
14.829166666666667
20
-2.6760416666666664
30
0
10
14.760416666666668
20
-2.7749999999999999
30
0
10
14.762500000000001
20
-2.7729166666666663
30
0
10
14.702083333333334
20
-2.8666666666666663
30
0
0
SPLINE
5
206
100
AcDbEntity
8
0
100
AcDbSpline
70
4
71
3
72
8
73
4
74
0
42
0.000000001
43
0.0000000001
44
0.0000000001
40
0
40
0
40
0
40
0
40
1
40
1
40
1
40
1
41
1
41
1
41
1
41
1
10
14.702083333333334
20
-2.8666666666666663
30
0
10
14.673958333333333
20
-2.9114583333333335
30
0
10
14.647916666666669
20
-2.947916666666667
30
0
10
14.643750000000002
20
-2.947916666666667
30
0
0
SPLINE
5
207
100
AcDbEntity
8
0
100
AcDbSpline
70
4
71
3
72
8
73
4
74
0
42
0.000000001
43
0.0000000001
44
0.0000000001
40
0
40
0
40
0
40
0
40
1
40
1
40
1
40
1
41
1
41
1
41
1
41
1
10
14.643750000000002
20
-2.947916666666667
30
0
10
14.613541666666666
20
-2.947916666666667
30
0
10
14.673958333333333
20
-2.6885416666666662
30
0
10
14.738541666666668
20
-2.5437499999999993
30
0
0
SPLINE
5
208
100
AcDbEntity
8
0
100
AcDbSpline
70
4
71
3
72
8
73
4
74
0
42
0.000000001
43
0.0000000001
44
0.0000000001
40
0
40
0
40
0
40
0
40
1
40
1
40
1
40
1
41
1
41
1
41
1
41
1
10
14.738541666666668
20
-2.5437499999999993
30
0
10
14.761458333333335
20
-2.4906249999999992
30
0
10
14.78125
20
-2.4395833333333328
30
0
10
14.78125
20
-2.4302083333333333
30
0
0
SPLINE
5
209
100
AcDbEntity
8
0
100
AcDbSpline
70
4
71
3
72
8
73
4
74
0
42
0.000000001
43
0.0000000001
44
0.0000000001
40
0
40
0
40
0
40
0
40
1
40
1
40
1
40
1
41
1
41
1
41
1
41
1
10
14.78125
20
-2.4302083333333333
30
0
10
14.78125
20
-2.4197916666666663
30
0
10
14.807291666666668
20
-2.3416666666666663
30
0
10
14.839583333333337
20
-2.2562499999999992
30
0
0
SPLINE
5
210
100
AcDbEntity
8
0
100
AcDbSpline
70
4
71
3
72
8
73
4
74
0
42
0.000000001
43
0.0000000001
44
0.0000000001
40
0
40
0
40
0
40
0
40
1
40
1
40
1
40
1
41
1
41
1
41
1
41
1
10
15.839583333333335
20
-0.9718749999999996
30
0
10
15.80104166666667
20
-0.8968749999999992
30
0
10
15.666666666666666
20
-0.83229166666666643
30
0
10
15.588541666666668
20
-0.85104166666666592
30
0
0
SPLINE
5
211
100
AcDbEntity
8
0
100
AcDbSpline
70
4
71
3
72
8
73
4
74
0
42
0.000000001
43
0.0000000001
44
0.0000000001
40
0
40
0
40
0
40
0
40
1
40
1
40
1
40
1
41
1
41
1
41
1
41
1
10
15.588541666666668
20
-0.85104166666666592
30
0
10
15.526041666666668
20
-0.86458333333333337
30
0
10
15.473958333333336
20
-0.88854166666666634
30
0
10
15.409375000000004
20
-0.93020833333333286
30
0
0
SPLINE
5
212
100
AcDbEntity
8
0
100
AcDbSpline
70
4
71
3
72
8
73
4
74
0
42
0.000000001
43
0.0000000001
44
0.0000000001
40
0
40
0
40
0
40
0
40
1
40
1
40
1
40
1
41
1
41
1
41
1
41
1
10
15.409375000000004
20
-0.93020833333333286
30
0
10
15.332291666666668
20
-0.98020833333333246
30
0
10
15.146875000000003
20
-1.1510416666666667
30
0
10
15.110416666666669
20
-1.2041666666666657
30
0
0
SPLINE
5
213
100
AcDbEntity
8
0
100
AcDbSpline
70
4
71
3
72
8
73
4
74
0
42
0.000000001
43
0.0000000001
44
0.0000000001
40
0
40
0
40
0
40
0
40
1
40
1
40
1
40
1
41
1
41
1
41
1
41
1
10
15.110416666666669
20
-1.2041666666666657
30
0
10
15.098958333333336
20
-1.2218749999999996
30
0
10
15.05625
20
-1.2739583333333331
30
0
10
15.016666666666667
20
-1.3187499999999992
30
0
0
SPLINE
5
214
100
AcDbEntity
8
0
100
AcDbSpline
70
4
71
3
72
8
73
4
74
0
42
0.000000001
43
0.0000000001
44
0.0000000001
40
0
40
0
40
0
40
0
40
1
40
1
40
1
40
1
41
1
41
1
41
1
41
1
10
15.016666666666667
20
-1.3187499999999992
30
0
10
14.978125000000002
20
-1.3645833333333335
30
0
10
14.902083333333335
20
-1.4666666666666661
30
0
10
14.84791666666667
20
-1.546875
30
0
0
SPLINE
5
215
100
AcDbEntity
8
0
100
AcDbSpline
70
4
71
3
72
8
73
4
74
0
42
0.000000001
43
0.0000000001
44
0.0000000001
40
0
40
0
40
0
40
0
40
1
40
1
40
1
40
1
41
1
41
1
41
1
41
1
10
14.84791666666667
20
-1.546875
30
0
10
14.79479166666667
20
-1.6270833333333325
30
0
10
14.725000000000001
20
-1.7302083333333327
30
0
10
14.692708333333336
20
-1.7760416666666667
30
0
0
SPLINE
5
216
100
AcDbEntity
8
0
100
AcDbSpline
70
4
71
3
72
8
73
4
74
0
42
0.000000001
43
0.0000000001
44
0.0000000001
40
0
40
0
40
0
40
0
40
1
40
1
40
1
40
1
41
1
41
1
41
1
41
1
10
14.692708333333336
20
-1.7760416666666667
30
0
10
14.62916666666667
20
-1.8656249999999992
30
0
10
14.584375000000003
20
-1.9562499999999998
30
0
10
14.398958333333335
20
-2.3593750000000004
30
0
0
SPLINE
5
217
100
AcDbEntity
8
0
100
AcDbSpline
70
4
71
3
72
8
73
4
74
0
42
0.000000001
43
0.0000000001
44
0.0000000001
40
0
40
0
40
0
40
0
40
1
40
1
40
1
40
1
41
1
41
1
41
1
41
1
10
14.398958333333335
20
-2.3593750000000004
30
0
10
14.272916666666669
20
-2.6343749999999999
30
0
10
14.180208333333336
20
-2.859375
30
0
10
14.152083333333335
20
-2.963541666666667
30
0
0
SPLINE
5
218
100
AcDbEntity
8
0
100
AcDbSpline
70
4
71
3
72
8
73
4
74
0
42
0.000000001
43
0.0000000001
44
0.0000000001
40
0
40
0
40
0
40
0
40
1
40
1
40
1
40
1
41
1
41
1
41
1
41
1
10
14.152083333333335
20
-2.963541666666667
30
0
10
14.142708333333335
20
-2.9979166666666663
30
0
10
14.114583333333336
20
-3.0916666666666663
30
0
10
14.089583333333335
20
-3.1718750000000004
30
0
0
SPLINE
5
219
100
AcDbEntity
8
0
100
AcDbSpline
70
4
71
3
72
8
73
4
74
0
42
0.000000001
43
0.0000000001
44
0.0000000001
40
0
40
0
40
0
40
0
40
1
40
1
40
1
40
1
41
1
41
1
41
1
41
1
10
14.089583333333335
20
-3.1718750000000004
30
0
10
14.017708333333335
20
-3.3999999999999999
30
0
10
13.939583333333337
20
-3.6895833333333328
30
0
10
13.906250000000002
20
-3.8489583333333335
30
0
0
SPLINE
5
220
100
AcDbEntity
8
0
100
AcDbSpline
70
4
71
3
72
8
73
4
74
0
42
0.000000001
43
0.0000000001
44
0.0000000001
40
0
40
0
40
0
40
0
40
1
40
1
40
1
40
1
41
1
41
1
41
1
41
1
10
13.906250000000002
20
-3.8489583333333335
30
0
10
13.890625000000002
20
-3.9291666666666663
30
0
10
13.86354166666667
20
-4.0458333333333334
30
0
10
13.847916666666666
20
-4.1083333333333334
30
0
0
SPLINE
5
221
100
AcDbEntity
8
0
100
AcDbSpline
70
4
71
3
72
8
73
4
74
0
42
0.000000001
43
0.0000000001
44
0.0000000001
40
0
40
0
40
0
40
0
40
1
40
1
40
1
40
1
41
1
41
1
41
1
41
1
10
13.847916666666666
20
-4.1083333333333334
30
0
10
13.820833333333335
20
-4.2145833333333327
30
0
10
13.814583333333335
20
-4.2281250000000004
30
0
10
13.737500000000002
20
-4.3354166666666663
30
0
0
SPLINE
5
222
100
AcDbEntity
8
0
100
AcDbSpline
70
4
71
3
72
8
73
4
74
0
42
0.000000001
43
0.0000000001
44
0.0000000001
40
0
40
0
40
0
40
0
40
1
40
1
40
1
40
1
41
1
41
1
41
1
41
1
10
13.737500000000002
20
-4.3354166666666663
30
0
10
13.642708333333335
20
-4.4677083333333334
30
0
10
13.439583333333335
20
-4.7249999999999996
30
0
10
13.350000000000001
20
-4.822916666666667
30
0
0
SPLINE
5
223
100
AcDbEntity
8
0
100
AcDbSpline
70
4
71
3
72
8
73
4
74
0
42
0.000000001
43
0.0000000001
44
0.0000000001
40
0
40
0
40
0
40
0
40
1
40
1
40
1
40
1
41
1
41
1
41
1
41
1
10
13.350000000000001
20
-4.822916666666667
30
0
10
13.252083333333335
20
-4.9312499999999995
30
0
10
13.197916666666668
20
-4.9541666666666666
30
0
10
13.197916666666668
20
-4.8864583333333336
30
0
0
SPLINE
5
224
100
AcDbEntity
8
0
100
AcDbSpline
70
4
71
3
72
8
73
4
74
0
42
0.000000001
43
0.0000000001
44
0.0000000001
40
0
40
0
40
0
40
0
40
1
40
1
40
1
40
1
41
1
41
1
41
1
41
1
10
13.197916666666668
20
-4.8864583333333336
30
0
10
13.197916666666668
20
-4.8406250000000002
30
0
10
13.245833333333334
20
-4.5906249999999993
30
0
10
13.291666666666668
20
-4.3958333333333339
30
0
0
SPLINE
5
225
100
AcDbEntity
8
0
100
AcDbSpline
70
4
71
3
72
8
73
4
74
0
42
0.000000001
43
0.0000000001
44
0.0000000001
40
0
40
0
40
0
40
0
40
1
40
1
40
1
40
1
41
1
41
1
41
1
41
1
10
13.291666666666668
20
-4.3958333333333339
30
0
10
13.405208333333336
20
-3.9177083333333331
30
0
10
13.446875000000002
20
-3.6802083333333333
30
0
10
13.447916666666668
20
-3.5166666666666662
30
0
0
SPLINE
5
226
100
AcDbEntity
8
0
100
AcDbSpline
70
4
71
3
72
8
73
4
74
0
42
0.000000001
43
0.0000000001
44
0.0000000001
40
0
40
0
40
0
40
0
40
1
40
1
40
1
40
1
41
1
41
1
41
1
41
1
10
13.447916666666668
20
-3.5166666666666662
30
0
10
13.447916666666668
20
-3.4270833333333339
30
0
10
13.443750000000003
20
-3.4052083333333334
30
0
10
13.41979166666667
20
-3.3499999999999992
30
0
0
SPLINE
5
227
100
AcDbEntity
8
0
100
AcDbSpline
70
4
71
3
72
8
73
4
74
0
42
0.000000001
43
0.0000000001
44
0.0000000001
40
0
40
0
40
0
40
0
40
1
40
1
40
1
40
1
41
1
41
1
41
1
41
1
10
13.41979166666667
20
-3.3499999999999992
30
0
10
13.353125000000002
20
-3.1979166666666665
30
0
10
13.322916666666666
20
-3.177083333333333
30
0
10
13.172916666666669
20
-3.177083333333333
30
0
0
LINE
5
228
100
AcDbEntity
8
0
100
AcDbLine
10
13.172916666666669
20
-3.177083333333333
30
0
11
13.090625000000003
21
-3.177083333333333
31
0
0
LINE
5
229
100
AcDbEntity
8
0
100
AcDbLine
10
13.090625000000003
20
-3.177083333333333
30
0
11
12.959375000000001
21
-3.2520833333333328
31
0
0
SPLINE
5
230
100
AcDbEntity
8
0
100
AcDbSpline
70
4
71
3
72
8
73
4
74
0
42
0.000000001
43
0.0000000001
44
0.0000000001
40
0
40
0
40
0
40
0
40
1
40
1
40
1
40
1
41
1
41
1
41
1
41
1
10
12.959375000000001
20
-3.2520833333333328
30
0
10
12.818750000000003
20
-3.3333333333333339
30
0
10
12.621875000000001
20
-3.4749999999999996
30
0
10
12.530208333333334
20
-3.5604166666666663
30
0
0
SPLINE
5
231
100
AcDbEntity
8
0
100
AcDbSpline
70
4
71
3
72
8
73
4
74
0
42
0.000000001
43
0.0000000001
44
0.0000000001
40
0
40
0
40
0
40
0
40
1
40
1
40
1
40
1
41
1
41
1
41
1
41
1
10
12.530208333333334
20
-3.5604166666666663
30
0
10
12.446875000000002
20
-3.6385416666666668
30
0
10
12.385416666666668
20
-3.6875
30
0
10
12.369791666666668
20
-3.6875
30
0
0
SPLINE
5
232
100
AcDbEntity
8
0
100
AcDbSpline
70
4
71
3
72
8
73
4
74
0
42
0.000000001
43
0.0000000001
44
0.0000000001
40
0
40
0
40
0
40
0
40
1
40
1
40
1
40
1
41
1
41
1
41
1
41
1
10
12.369791666666668
20
-3.6875
30
0
10
12.362499999999999
20
-3.6875
30
0
10
12.348958333333334
20
-3.6697916666666663
30
0
10
12.340625000000001
20
-3.6479166666666663
30
0
0
SPLINE
5
233
100
AcDbEntity
8
0
100
AcDbSpline
70
4
71
3
72
8
73
4
74
0
42
0.000000001
43
0.0000000001
44
0.0000000001
40
0
40
0
40
0
40
0
40
1
40
1
40
1
40
1
41
1
41
1
41
1
41
1
10
12.340625000000001
20
-3.6479166666666663
30
0
10
12.318750000000001
20
-3.5927083333333329
30
0
10
12.279166666666667
20
-3.557291666666667
30
0
10
12.191666666666668
20
-3.5135416666666663
30
0
0
SPLINE
5
234
100
AcDbEntity
8
0
100
AcDbSpline
70
4
71
3
72
8
73
4
74
0
42
0.000000001
43
0.0000000001
44
0.0000000001
40
0
40
0
40
0
40
0
40
1
40
1
40
1
40
1
41
1
41
1
41
1
41
1
10
12.191666666666668
20
-3.5135416666666663
30
0
10
12.126041666666669
20
-3.4822916666666663
30
0
10
12.108333333333336
20
-3.4770833333333333
30
0
10
12.063541666666669
20
-3.4812499999999993
30
0
0
SPLINE
5
235
100
AcDbEntity
8
0
100
AcDbSpline
70
4
71
3
72
8
73
4
74
0
42
0.000000001
43
0.0000000001
44
0.0000000001
40
0
40
0
40
0
40
0
40
1
40
1
40
1
40
1
41
1
41
1
41
1
41
1
10
12.063541666666669
20
-3.4812499999999993
30
0
10
11.996875000000001
20
-3.4874999999999998
30
0
10
11.863541666666668
20
-3.5520833333333335
30
0
10
11.753125000000001
20
-3.6312499999999992
30
0
0
SPLINE
5
236
100
AcDbEntity
8
0
100
AcDbSpline
70
4
71
3
72
8
73
4
74
0
42
0.000000001
43
0.0000000001
44
0.0000000001
40
0
40
0
40
0
40
0
40
1
40
1
40
1
40
1
41
1
41
1
41
1
41
1
10
11.753125000000001
20
-3.6312499999999992
30
0
10
11.642708333333333
20
-3.7114583333333329
30
0
10
11.362500000000001
20
-3.96875
30
0
10
11.321875000000002
20
-4.0270833333333327
30
0
0
SPLINE
5
237
100
AcDbEntity
8
0
100
AcDbSpline
70
4
71
3
72
8
73
4
74
0
42
0.000000001
43
0.0000000001
44
0.0000000001
40
0
40
0
40
0
40
0
40
1
40
1
40
1
40
1
41
1
41
1
41
1
41
1
10
11.321875000000002
20
-4.0270833333333327
30
0
10
11.277083333333335
20
-4.0927083333333334
30
0
10
11.258333333333333
20
-4.088541666666667
30
0
10
11.214583333333335
20
-4.0020833333333332
30
0
0
SPLINE
5
238
100
AcDbEntity
8
0
100
AcDbSpline
70
4
71
3
72
8
73
4
74
0
42
0.000000001
43
0.0000000001
44
0.0000000001
40
0
40
0
40
0
40
0
40
1
40
1
40
1
40
1
41
1
41
1
41
1
41
1
10
11.214583333333335
20
-4.0020833333333332
30
0
10
11.165625000000002
20
-3.9062500000000004
30
0
10
11.134375000000002
20
-3.8708333333333331
30
0
10
11.067708333333334
20
-3.8374999999999999
30
0
0
SPLINE
5
239
100
AcDbEntity
8
0
100
AcDbSpline
70
4
71
3
72
8
73
4
74
0
42
0.000000001
43
0.0000000001
44
0.0000000001
40
0
40
0
40
0
40
0
40
1
40
1
40
1
40
1
41
1
41
1
41
1
41
1
10
11.067708333333334
20
-3.8374999999999999
30
0
10
11.019791666666668
20
-3.8145833333333328
30
0
10
10.997916666666667
20
-3.8104166666666663
30
0
10
10.927083333333334
20
-3.8114583333333334
30
0
0
SPLINE
5
240
100
AcDbEntity
8
0
100
AcDbSpline
70
4
71
3
72
8
73
4
74
0
42
0.000000001
43
0.0000000001
44
0.0000000001
40
0
40
0
40
0
40
0
40
1
40
1
40
1
40
1
41
1
41
1
41
1
41
1
10
10.927083333333334
20
-3.8114583333333334
30
0
10
10.880208333333334
20
-3.8125000000000004
30
0
10
10.820833333333335
20
-3.8177083333333339
30
0
10
10.794791666666667
20
-3.8239583333333327
30
0
0
SPLINE
5
241
100
AcDbEntity
8
0
100
AcDbSpline
70
4
71
3
72
8
73
4
74
0
42
0.000000001
43
0.0000000001
44
0.0000000001
40
0
40
0
40
0
40
0
40
1
40
1
40
1
40
1
41
1
41
1
41
1
41
1
10
10.794791666666667
20
-3.8239583333333327
30
0
10
10.754166666666668
20
-3.8322916666666664
30
0
10
10.744791666666668
20
-3.8312499999999998
30
0
10
10.737500000000001
20
-3.8177083333333339
30
0
0
SPLINE
5
242
100
AcDbEntity
8
0
100
AcDbSpline
70
4
71
3
72
8
73
4
74
0
42
0.000000001
43
0.0000000001
44
0.0000000001
40
0
40
0
40
0
40
0
40
1
40
1
40
1
40
1
41
1
41
1
41
1
41
1
10
10.737500000000001
20
-3.8177083333333339
30
0
10
10.725000000000003
20
-3.7968750000000004
30
0
10
10.711458333333335
20
-3.8062499999999999
30
0
10
10.694791666666667
20
-3.8447916666666662
30
0
0
SPLINE
5
243
100
AcDbEntity
8
0
100
AcDbSpline
70
4
71
3
72
8
73
4
74
0
42
0.000000001
43
0.0000000001
44
0.0000000001
40
0
40
0
40
0
40
0
40
1
40
1
40
1
40
1
41
1
41
1
41
1
41
1
10
10.694791666666667
20
-3.8447916666666662
30
0
10
10.687500000000002
20
-3.8614583333333328
30
0
10
10.633333333333335
20
-3.9281249999999992
30
0
10
10.572916666666668
20
-3.9916666666666658
30
0
0
SPLINE
5
244
100
AcDbEntity
8
0
100
AcDbSpline
70
4
71
3
72
8
73
4
74
0
42
0.000000001
43
0.0000000001
44
0.0000000001
40
0
40
0
40
0
40
0
40
1
40
1
40
1
40
1
41
1
41
1
41
1
41
1
10
10.572916666666668
20
-3.9916666666666658
30
0
10
10.453125
20
-4.119791666666667
30
0
10
10.357291666666669
20
-4.2458333333333327
30
0
10
10.293750000000001
20
-4.359375
30
0
0
SPLINE
5
245
100
AcDbEntity
8
0
100
AcDbSpline
70
4
71
3
72
8
73
4
74
0
42
0.000000001
43
0.0000000001
44
0.0000000001
40
0
40
0
40
0
40
0
40
1
40
1
40
1
40
1
41
1
41
1
41
1
41
1
10
10.293750000000001
20
-4.359375
30
0
10
10.111458333333333
20
-4.6833333333333327
30
0
10
10.072916666666668
20
-4.7562499999999988
30
0
10
10.066666666666668
20
-4.7729166666666663
30
0
0
SPLINE
5
246
100
AcDbEntity
8
0
100
AcDbSpline
70
4
71
3
72
8
73
4
74
0
42
0.000000001
43
0.0000000001
44
0.0000000001
40
0
40
0
40
0
40
0
40
1
40
1
40
1
40
1
41
1
41
1
41
1
41
1
10
10.066666666666668
20
-4.7729166666666663
30
0
10
10.055208333333335
20
-4.8093749999999993
30
0
10
9.970833333333335
20
-4.9760416666666663
30
0
10
9.9281249999999996
20
-5.0447916666666668
30
0
0
SPLINE
5
247
100
AcDbEntity
8
0
100
AcDbSpline
70
4
71
3
72
8
73
4
74
0
42
0.000000001
43
0.0000000001
44
0.0000000001
40
0
40
0
40
0
40
0
40
1
40
1
40
1
40
1
41
1
41
1
41
1
41
1
10
9.9281249999999996
20
-5.0447916666666668
30
0
10
9.8802083333333339
20
-5.1229166666666659
30
0
10
9.7843750000000025
20
-5.3208333333333337
30
0
10
9.7343750000000018
20
-5.4437500000000005
30
0
0
SPLINE
5
248
100
AcDbEntity
8
0
100
AcDbSpline
70
4
71
3
72
8
73
4
74
0
42
0.000000001
43
0.0000000001
44
0.0000000001
40
0
40
0
40
0
40
0
40
1
40
1
40
1
40
1
41
1
41
1
41
1
41
1
10
9.7343750000000018
20
-5.4437500000000005
30
0
10
9.6812500000000004
20
-5.5718750000000004
30
0
10
9.486458333333335
20
-5.9562499999999998
30
0
10
9.3885416666666686
20
-6.1250000000000009
30
0
0
SPLINE
5
249
100
AcDbEntity
8
0
100
AcDbSpline
70
4
71
3
72
8
73
4
74
0
42
0.000000001
43
0.0000000001
44
0.0000000001
40
0
40
0
40
0
40
0
40
1
40
1
40
1
40
1
41
1
41
1
41
1
41
1
10
9.3885416666666686
20
-6.1250000000000009
30
0
10
9.2718750000000014
20
-6.3250000000000011
30
0
10
9.1864583333333343
20
-6.4124999999999988
30
0
10
9.1364583333333353
20
-6.3864583333333327
30
0
0
SPLINE
5
250
100
AcDbEntity
8
0
100
AcDbSpline
70
4
71
3
72
8
73
4
74
0
42
0.000000001
43
0.0000000001
44
0.0000000001
40
0
40
0
40
0
40
0
40
1
40
1
40
1
40
1
41
1
41
1
41
1
41
1
10
9.1364583333333353
20
-6.3864583333333327
30
0
10
9.1260416666666675
20
-6.380208333333333
30
0
10
9.1145833333333339
20
-6.3677083333333337
30
0
10
9.1104166666666675
20
-6.3593750000000009
30
0
0
SPLINE
5
251
100
AcDbEntity
8
0
100
AcDbSpline
70
4
71
3
72
8
73
4
74
0
42
0.000000001
43
0.0000000001
44
0.0000000001
40
0
40
0
40
0
40
0
40
1
40
1
40
1
40
1
41
1
41
1
41
1
41
1
10
9.1104166666666675
20
-6.3593750000000009
30
0
10
9.1020833333333346
20
-6.3375000000000004
30
0
10
9.1208333333333336
20
-6.130208333333333
30
0
10
9.1354166666666679
20
-6.0833333333333339
30
0
0
SPLINE
5
252
100
AcDbEntity
8
0
100
AcDbSpline
70
4
71
3
72
8
73
4
74
0
42
0.000000001
43
0.0000000001
44
0.0000000001
40
0
40
0
40
0
40
0
40
1
40
1
40
1
40
1
41
1
41
1
41
1
41
1
10
9.1354166666666679
20
-6.0833333333333339
30
0
10
9.1416666666666675
20
-6.0635416666666666
30
0
10
9.1552083333333343
20
-6.0041666666666664
30
0
10
9.1656250000000021
20
-5.953125
30
0
0
SPLINE
5
253
100
AcDbEntity
8
0
100
AcDbSpline
70
4
71
3
72
8
73
4
74
0
42
0.000000001
43
0.0000000001
44
0.0000000001
40
0
40
0
40
0
40
0
40
1
40
1
40
1
40
1
41
1
41
1
41
1
41
1
10
9.1656250000000021
20
-5.953125
30
0
10
9.1760416666666682
20
-5.901041666666667
30
0
10
9.2166666666666668
20
-5.7468749999999993
30
0
10
9.2541666666666682
20
-5.609375
30
0
0
SPLINE
5
254
100
AcDbEntity
8
0
100
AcDbSpline
70
4
71
3
72
8
73
4
74
0
42
0.000000001
43
0.0000000001
44
0.0000000001
40
0
40
0
40
0
40
0
40
1
40
1
40
1
40
1
41
1
41
1
41
1
41
1
10
9.2541666666666682
20
-5.609375
30
0
10
9.3333333333333339
20
-5.3260416666666659
30
0
10
9.40625
20
-5.0364583333333339
30
0
10
9.4322916666666661
20
-4.9083333333333332
30
0
0
SPLINE
5
255
100
AcDbEntity
8
0
100
AcDbSpline
70
4
71
3
72
8
73
4
74
0
42
0.000000001
43
0.0000000001
44
0.0000000001
40
0
40
0
40
0
40
0
40
1
40
1
40
1
40
1
41
1
41
1
41
1
41
1
10
9.4322916666666661
20
-4.9083333333333332
30
0
10
9.4416666666666682
20
-4.8604166666666666
30
0
10
9.4593750000000014
20
-4.7947916666666659
30
0
10
9.4697916666666675
20
-4.7624999999999993
30
0
0
SPLINE
5
256
100
AcDbEntity
8
0
100
AcDbSpline
70
4
71
3
72
8
73
4
74
0
42
0.000000001
43
0.0000000001
44
0.0000000001
40
0
40
0
40
0
40
0
40
1
40
1
40
1
40
1
41
1
41
1
41
1
41
1
10
9.4697916666666675
20
-4.7624999999999993
30
0
10
9.5062500000000014
20
-4.6593749999999998
30
0
10
9.5520833333333339
20
-4.4552083333333323
30
0
10
9.5520833333333339
20
-4.3999999999999995
30
0
0
SPLINE
5
257
100
AcDbEntity
8
0
100
AcDbSpline
70
4
71
3
72
8
73
4
74
0
42
0.000000001
43
0.0000000001
44
0.0000000001
40
0
40
0
40
0
40
0
40
1
40
1
40
1
40
1
41
1
41
1
41
1
41
1
10
9.5520833333333339
20
-4.3999999999999995
30
0
10
9.5520833333333339
20
-4.3666666666666663
30
0
10
9.5468750000000018
20
-4.3416666666666668
30
0
10
9.5374999999999996
20
-4.3343749999999996
30
0
0
SPLINE
5
258
100
AcDbEntity
8
0
100
AcDbSpline
70
4
71
3
72
8
73
4
74
0
42
0.000000001
43
0.0000000001
44
0.0000000001
40
0
40
0
40
0
40
0
40
1
40
1
40
1
40
1
41
1
41
1
41
1
41
1
10
9.5374999999999996
20
-4.3343749999999996
30
0
10
9.5145833333333343
20
-4.3156249999999998
30
0
10
9.4104166666666682
20
-4.3374999999999995
30
0
10
9.2760416666666679
20
-4.3895833333333334
30
0
0
SPLINE
5
259
100
AcDbEntity
8
0
100
AcDbSpline
70
4
71
3
72
8
73
4
74
0
42
0.000000001
43
0.0000000001
44
0.0000000001
40
0
40
0
40
0
40
0
40
1
40
1
40
1
40
1
41
1
41
1
41
1
41
1
10
9.2760416666666679
20
-4.3895833333333334
30
0
10
9.2135416666666679
20
-4.4145833333333329
30
0
10
9.125
20
-4.447916666666667
30
0
10
9.0791666666666675
20
-4.463541666666667
30
0
0
LINE
5
260
100
AcDbEntity
8
0
100
AcDbLine
10
9.0791666666666675
20
-4.463541666666667
30
0
11
8.9968750000000011
21
-4.4927083333333337
31
0
0
LINE
5
261
100
AcDbEntity
8
0
100
AcDbLine
10
8.9968750000000011
20
-4.4927083333333337
30
0
11
8.9635416666666661
21
-4.5666666666666664
31
0
0
SPLINE
5
262
100
AcDbEntity
8
0
100
AcDbSpline
70
4
71
3
72
8
73
4
74
0
42
0.000000001
43
0.0000000001
44
0.0000000001
40
0
40
0
40
0
40
0
40
1
40
1
40
1
40
1
41
1
41
1
41
1
41
1
10
8.9635416666666661
20
-4.5666666666666664
30
0
10
8.9447916666666689
20
-4.6072916666666668
30
0
10
8.921875
20
-4.666666666666667
30
0
10
8.9125000000000014
20
-4.697916666666667
30
0
0
SPLINE
5
263
100
AcDbEntity
8
0
100
AcDbSpline
70
4
71
3
72
8
73
4
74
0
42
0.000000001
43
0.0000000001
44
0.0000000001
40
0
40
0
40
0
40
0
40
1
40
1
40
1
40
1
41
1
41
1
41
1
41
1
10
8.9125000000000014
20
-4.697916666666667
30
0
10
8.875
20
-4.8291666666666657
30
0
10
8.7822916666666675
20
-5.1885416666666675
30
0
10
8.7656250000000018
20
-5.265625
30
0
0
SPLINE
5
264
100
AcDbEntity
8
0
100
AcDbSpline
70
4
71
3
72
8
73
4
74
0
42
0.000000001
43
0.0000000001
44
0.0000000001
40
0
40
0
40
0
40
0
40
1
40
1
40
1
40
1
41
1
41
1
41
1
41
1
10
8.7656250000000018
20
-5.265625
30
0
10
8.7364583333333332
20
-5.4031249999999993
30
0
10
8.5968750000000007
20
-5.9572916666666664
30
0
10
8.5291666666666668
20
-6.2083333333333339
30
0
0
LINE
5
265
100
AcDbEntity
8
0
100
AcDbLine
10
8.5291666666666668
20
-6.2083333333333339
30
0
11
8.4645833333333336
21
-6.4427083333333339
31
0
0
LINE
5
266
100
AcDbEntity
8
0
100
AcDbLine
10
8.4645833333333336
20
-6.4427083333333339
30
0
11
8.3500000000000014
21
-6.5583333333333327
31
0
0
SPLINE
5
267
100
AcDbEntity
8
0
100
AcDbSpline
70
4
71
3
72
8
73
4
74
0
42
0.000000001
43
0.0000000001
44
0.0000000001
40
0
40
0
40
0
40
0
40
1
40
1
40
1
40
1
41
1
41
1
41
1
41
1
10
8.3500000000000014
20
-6.5583333333333327
30
0
10
8.2229166666666682
20
-6.6854166666666659
30
0
10
8.1125000000000007
20
-6.7635416666666668
30
0
10
8.0229166666666671
20
-6.791666666666667
30
0
0
SPLINE
5
268
100
AcDbEntity
8
0
100
AcDbSpline
70
4
71
3
72
8
73
4
74
0
42
0.000000001
43
0.0000000001
44
0.0000000001
40
0
40
0
40
0
40
0
40
1
40
1
40
1
40
1
41
1
41
1
41
1
41
1
10
8.0229166666666671
20
-6.791666666666667
30
0
10
7.9677083333333352
20
-6.8093750000000011
30
0
10
7.9614583333333346
20
-6.8093750000000011
30
0
10
7.9333333333333336
20
-6.7927083333333336
30
0
0
SPLINE
5
269
100
AcDbEntity
8
0
100
AcDbSpline
70
4
71
3
72
8
73
4
74
0
42
0.000000001
43
0.0000000001
44
0.0000000001
40
0
40
0
40
0
40
0
40
1
40
1
40
1
40
1
41
1
41
1
41
1
41
1
10
7.9333333333333336
20
-6.7927083333333336
30
0
10
7.8406250000000011
20
-6.7395833333333339
30
0
10
7.8479166666666682
20
-6.6302083333333339
30
0
10
7.979166666666667
20
-6.104166666666667
30
0
0
SPLINE
5
270
100
AcDbEntity
8
0
100
AcDbSpline
70
4
71
3
72
8
73
4
74
0
42
0.000000001
43
0.0000000001
44
0.0000000001
40
0
40
0
40
0
40
0
40
1
40
1
40
1
40
1
41
1
41
1
41
1
41
1
10
7.979166666666667
20
-6.104166666666667
30
0
10
7.994791666666667
20
-6.0385416666666671
30
0
10
8.0166666666666675
20
-5.9447916666666671
30
0
10
8.0260416666666679
20
-5.8958333333333339
30
0
0
SPLINE
5
271
100
AcDbEntity
8
0
100
AcDbSpline
70
4
71
3
72
8
73
4
74
0
42
0.000000001
43
0.0000000001
44
0.0000000001
40
0
40
0
40
0
40
0
40
1
40
1
40
1
40
1
41
1
41
1
41
1
41
1
10
8.0260416666666679
20
-5.8958333333333339
30
0
10
8.048958333333335
20
-5.7822916666666666
30
0
10
8.0791666666666675
20
-5.6729166666666675
30
0
10
8.1677083333333353
20
-5.3906250000000009
30
0
0
SPLINE
5
272
100
AcDbEntity
8
0
100
AcDbSpline
70
4
71
3
72
8
73
4
74
0
42
0.000000001
43
0.0000000001
44
0.0000000001
40
0
40
0
40
0
40
0
40
1
40
1
40
1
40
1
41
1
41
1
41
1
41
1
10
8.1677083333333353
20
-5.3906250000000009
30
0
10
8.2479166666666668
20
-5.1312500000000005
30
0
10
8.3093750000000011
20
-4.9000000000000004
30
0
10
8.3187500000000014
20
-4.8197916666666663
30
0
0
SPLINE
5
273
100
AcDbEntity
8
0
100
AcDbSpline
70
4
71
3
72
8
73
4
74
0
42
0.000000001
43
0.0000000001
44
0.0000000001
40
0
40
0
40
0
40
0
40
1
40
1
40
1
40
1
41
1
41
1
41
1
41
1
10
8.3187500000000014
20
-4.8197916666666663
30
0
10
8.3270833333333361
20
-4.7489583333333334
30
0
10
8.3125
20
-4.7125000000000004
30
0
10
8.2739583333333346
20
-4.7052083333333323
30
0
0
SPLINE
5
274
100
AcDbEntity
8
0
100
AcDbSpline
70
4
71
3
72
8
73
4
74
0
42
0.000000001
43
0.0000000001
44
0.0000000001
40
0
40
0
40
0
40
0
40
1
40
1
40
1
40
1
41
1
41
1
41
1
41
1
10
8.2739583333333346
20
-4.7052083333333323
30
0
10
8.2354166666666675
20
-4.697916666666667
30
0
10
8.203125
20
-4.7062499999999998
30
0
10
8.0416666666666679
20
-4.7635416666666668
30
0
0
SPLINE
5
275
100
AcDbEntity
8
0
100
AcDbSpline
70
4
71
3
72
8
73
4
74
0
42
0.000000001
43
0.0000000001
44
0.0000000001
40
0
40
0
40
0
40
0
40
1
40
1
40
1
40
1
41
1
41
1
41
1
41
1
10
8.0416666666666679
20
-4.7635416666666668
30
0
10
7.8833333333333346
20
-4.8197916666666663
30
0
10
7.8010416666666673
20
-4.8583333333333334
30
0
10
7.7718750000000005
20
-4.8895833333333334
30
0
0
SPLINE
5
276
100
AcDbEntity
8
0
100
AcDbSpline
70
4
71
3
72
8
73
4
74
0
42
0.000000001
43
0.0000000001
44
0.0000000001
40
0
40
0
40
0
40
0
40
1
40
1
40
1
40
1
41
1
41
1
41
1
41
1
10
7.7718750000000005
20
-4.8895833333333334
30
0
10
7.7427083333333346
20
-4.9208333333333334
30
0
10
7.569791666666668
20
-5.4260416666666664
30
0
10
7.5354166666666682
20
-5.578125
30
0
0
SPLINE
5
277
100
AcDbEntity
8
0
100
AcDbSpline
70
4
71
3
72
8
73
4
74
0
42
0.000000001
43
0.0000000001
44
0.0000000001
40
0
40
0
40
0
40
0
40
1
40
1
40
1
40
1
41
1
41
1
41
1
41
1
10
7.5354166666666682
20
-5.578125
30
0
10
7.5218750000000014
20
-5.6406250000000009
30
0
10
7.4968750000000011
20
-5.7322916666666668
30
0
10
7.4802083333333336
20
-5.7812500000000009
30
0
0
SPLINE
5
278
100
AcDbEntity
8
0
100
AcDbSpline
70
4
71
3
72
8
73
4
74
0
42
0.000000001
43
0.0000000001
44
0.0000000001
40
0
40
0
40
0
40
0
40
1
40
1
40
1
40
1
41
1
41
1
41
1
41
1
10
7.4802083333333336
20
-5.7812500000000009
30
0
10
7.463541666666667
20
-5.8302083333333332
30
0
10
7.4302083333333337
20
-5.9333333333333327
30
0
10
7.4072916666666675
20
-6.010416666666667
30
0
0
SPLINE
5
279
100
AcDbEntity
8
0
100
AcDbSpline
70
4
71
3
72
8
73
4
74
0
42
0.000000001
43
0.0000000001
44
0.0000000001
40
0
40
0
40
0
40
0
40
1
40
1
40
1
40
1
41
1
41
1
41
1
41
1
10
7.4072916666666675
20
-6.010416666666667
30
0
10
7.2781250000000011
20
-6.4416666666666673
30
0
10
7.2458333333333336
20
-6.541666666666667
30
0
10
7.220833333333335
20
-6.5874999999999995
30
0
0
SPLINE
5
280
100
AcDbEntity
8
0
100
AcDbSpline
70
4
71
3
72
8
73
4
74
0
42
0.000000001
43
0.0000000001
44
0.0000000001
40
0
40
0
40
0
40
0
40
1
40
1
40
1
40
1
41
1
41
1
41
1
41
1
10
7.220833333333335
20
-6.5874999999999995
30
0
10
7.1406250000000009
20
-6.7354166666666657
30
0
10
6.6937500000000005
20
-7.1864583333333334
30
0
10
6.5552083333333337
20
-7.2593749999999995
30
0
0
SPLINE
5
281
100
AcDbEntity
8
0
100
AcDbSpline
70
4
71
3
72
8
73
4
74
0
42
0.000000001
43
0.0000000001
44
0.0000000001
40
0
40
0
40
0
40
0
40
1
40
1
40
1
40
1
41
1
41
1
41
1
41
1
10
6.5552083333333337
20
-7.2593749999999995
30
0
10
6.5187500000000016
20
-7.2781250000000011
30
0
10
6.345833333333335
20
-7.2739583333333329
30
0
10
6.3000000000000007
20
-7.2520833333333341
30
0
0
SPLINE
5
282
100
AcDbEntity
8
0
100
AcDbSpline
70
4
71
3
72
8
73
4
74
0
42
0.000000001
43
0.0000000001
44
0.0000000001
40
0
40
0
40
0
40
0
40
1
40
1
40
1
40
1
41
1
41
1
41
1
41
1
10
6.3000000000000007
20
-7.2520833333333341
30
0
10
6.25
20
-7.2291666666666661
30
0
10
6.1645833333333346
20
-7.1218750000000002
30
0
10
6.1364583333333336
20
-7.0468750000000009
30
0
0
SPLINE
5
283
100
AcDbEntity
8
0
100
AcDbSpline
70
4
71
3
72
8
73
4
74
0
42
0.000000001
43
0.0000000001
44
0.0000000001
40
0
40
0
40
0
40
0
40
1
40
1
40
1
40
1
41
1
41
1
41
1
41
1
10
6.1364583333333336
20
-7.0468750000000009
30
0
10
6.0895833333333336
20
-6.9208333333333334
30
0
10
6.0822916666666673
20
-6.5447916666666668
30
0
10
6.1239583333333334
20
-6.3541666666666661
30
0
0
SPLINE
5
284
100
AcDbEntity
8
0
100
AcDbSpline
70
4
71
3
72
8
73
4
74
0
42
0.000000001
43
0.0000000001
44
0.0000000001
40
0
40
0
40
0
40
0
40
1
40
1
40
1
40
1
41
1
41
1
41
1
41
1
10
6.1239583333333334
20
-6.3541666666666661
30
0
10
6.15625
20
-6.2010416666666668
30
0
10
6.1781250000000005
20
-6.1656250000000004
30
0
10
6.338541666666667
20
-6
30
0
0
SPLINE
5
285
100
AcDbEntity
8
0
100
AcDbSpline
70
4
71
3
72
8
73
4
74
0
42
0.000000001
43
0.0000000001
44
0.0000000001
40
0
40
0
40
0
40
0
40
1
40
1
40
1
40
1
41
1
41
1
41
1
41
1
10
6.338541666666667
20
-6
30
0
10
6.3916666666666675
20
-5.9458333333333337
30
0
10
6.4718750000000007
20
-5.854166666666667
30
0
10
6.5166666666666675
20
-5.796875
30
0
0
SPLINE
5
286
100
AcDbEntity
8
0
100
AcDbSpline
70
4
71
3
72
8
73
4
74
0
42
0.000000001
43
0.0000000001
44
0.0000000001
40
0
40
0
40
0
40
0
40
1
40
1
40
1
40
1
41
1
41
1
41
1
41
1
10
6.5166666666666675
20
-5.796875
30
0
10
6.5614583333333343
20
-5.739583333333333
30
0
10
6.6437500000000007
20
-5.6385416666666668
30
0
10
6.6989583333333336
20
-5.572916666666667
30
0
0
SPLINE
5
287
100
AcDbEntity
8
0
100
AcDbSpline
70
4
71
3
72
8
73
4
74
0
42
0.000000001
43
0.0000000001
44
0.0000000001
40
0
40
0
40
0
40
0
40
1
40
1
40
1
40
1
41
1
41
1
41
1
41
1
10
6.6989583333333336
20
-5.572916666666667
30
0
10
6.7541666666666682
20
-5.5072916666666663
30
0
10
6.8291666666666675
20
-5.416666666666667
30
0
10
6.8656250000000005
20
-5.3729166666666659
30
0
0
SPLINE
5
288
100
AcDbEntity
8
0
100
AcDbSpline
70
4
71
3
72
8
73
4
74
0
42
0.000000001
43
0.0000000001
44
0.0000000001
40
0
40
0
40
0
40
0
40
1
40
1
40
1
40
1
41
1
41
1
41
1
41
1
10
6.8656250000000005
20
-5.3729166666666659
30
0
10
6.9020833333333336
20
-5.328125
30
0
10
6.984375
20
-5.2302083333333336
30
0
10
7.0489583333333341
20
-5.1541666666666668
30
0
0
SPLINE
5
289
100
AcDbEntity
8
0
100
AcDbSpline
70
4
71
3
72
8
73
4
74
0
42
0.000000001
43
0.0000000001
44
0.0000000001
40
0
40
0
40
0
40
0
40
1
40
1
40
1
40
1
41
1
41
1
41
1
41
1
10
7.0489583333333341
20
-5.1541666666666668
30
0
10
7.226041666666668
20
-4.9427083333333339
30
0
10
7.5989583333333339
20
-4.4135416666666663
30
0
10
7.7291666666666679
20
-4.1875000000000009
30
0
0
SPLINE
5
290
100
AcDbEntity
8
0
100
AcDbSpline
70
4
71
3
72
8
73
4
74
0
42
0.000000001
43
0.0000000001
44
0.0000000001
40
0
40
0
40
0
40
0
40
1
40
1
40
1
40
1
41
1
41
1
41
1
41
1
10
7.7291666666666679
20
-4.1875000000000009
30
0
10
7.7541666666666682
20
-4.1447916666666673
30
0
10
7.8093750000000002
20
-4.0531249999999996
30
0
10
7.8531250000000012
20
-3.984375
30
0
0
SPLINE
5
291
100
AcDbEntity
8
0
100
AcDbSpline
70
4
71
3
72
8
73
4
74
0
42
0.000000001
43
0.0000000001
44
0.0000000001
40
0
40
0
40
0
40
0
40
1
40
1
40
1
40
1
41
1
41
1
41
1
41
1
10
7.8531250000000012
20
-3.984375
30
0
10
7.8958333333333339
20
-3.9156249999999995
30
0
10
7.9625000000000012
20
-3.7937499999999997
30
0
10
8.0010416666666675
20
-3.713541666666667
30
0
0
SPLINE
5
292
100
AcDbEntity
8
0
100
AcDbSpline
70
4
71
3
72
8
73
4
74
0
42
0.000000001
43
0.0000000001
44
0.0000000001
40
0
40
0
40
0
40
0
40
1
40
1
40
1
40
1
41
1
41
1
41
1
41
1
10
8.0010416666666675
20
-3.713541666666667
30
0
10
8.1718750000000018
20
-3.3552083333333327
30
0
10
8.2197916666666675
20
-3.166666666666667
30
0
10
8.1666666666666679
20
-3.0625000000000004
30
0
0
SPLINE
5
293
100
AcDbEntity
8
0
100
AcDbSpline
70
4
71
3
72
8
73
4
74
0
42
0.000000001
43
0.0000000001
44
0.0000000001
40
0
40
0
40
0
40
0
40
1
40
1
40
1
40
1
41
1
41
1
41
1
41
1
10
8.1666666666666679
20
-3.0625000000000004
30
0
10
8.0750000000000011
20
-2.8822916666666663
30
0
10
7.897916666666668
20
-2.8374999999999999
30
0
10
7.7083333333333339
20
-2.9458333333333329
30
0
0
SPLINE
5
294
100
AcDbEntity
8
0
100
AcDbSpline
70
4
71
3
72
8
73
4
74
0
42
0.000000001
43
0.0000000001
44
0.0000000001
40
0
40
0
40
0
40
0
40
1
40
1
40
1
40
1
41
1
41
1
41
1
41
1
10
7.7083333333333339
20
-2.9458333333333329
30
0
10
7.5395833333333346
20
-3.0427083333333327
30
0
10
7.3291666666666666
20
-3.2229166666666664
30
0
10
7.2718750000000005
20
-3.3218749999999999
30
0
0
SPLINE
5
295
100
AcDbEntity
8
0
100
AcDbSpline
70
4
71
3
72
8
73
4
74
0
42
0.000000001
43
0.0000000001
44
0.0000000001
40
0
40
0
40
0
40
0
40
1
40
1
40
1
40
1
41
1
41
1
41
1
41
1
10
7.2718750000000005
20
-3.3218749999999999
30
0
10
7.2489583333333343
20
-3.359375
30
0
10
7.1760416666666682
20
-3.4489583333333327
30
0
10
7.1072916666666668
20
-3.5208333333333339
30
0
0
SPLINE
5
296
100
AcDbEntity
8
0
100
AcDbSpline
70
4
71
3
72
8
73
4
74
0
42
0.000000001
43
0.0000000001
44
0.0000000001
40
0
40
0
40
0
40
0
40
1
40
1
40
1
40
1
41
1
41
1
41
1
41
1
10
7.1072916666666668
20
-3.5208333333333339
30
0
10
6.9447916666666671
20
-3.6937499999999992
30
0
10
6.8916666666666675
20
-3.7614583333333322
30
0
10
6.7833333333333341
20
-3.9395833333333332
30
0
0
SPLINE
5
297
100
AcDbEntity
8
0
100
AcDbSpline
70
4
71
3
72
8
73
4
74
0
42
0.000000001
43
0.0000000001
44
0.0000000001
40
0
40
0
40
0
40
0
40
1
40
1
40
1
40
1
41
1
41
1
41
1
41
1
10
6.7833333333333341
20
-3.9395833333333332
30
0
10
6.7322916666666686
20
-4.0218749999999996
30
0
10
6.6625000000000014
20
-4.1333333333333329
30
0
10
6.6281250000000016
20
-4.1875000000000009
30
0
0
SPLINE
5
298
100
AcDbEntity
8
0
100
AcDbSpline
70
4
71
3
72
8
73
4
74
0
42
0.000000001
43
0.0000000001
44
0.0000000001
40
0
40
0
40
0
40
0
40
1
40
1
40
1
40
1
41
1
41
1
41
1
41
1
10
6.6281250000000016
20
-4.1875000000000009
30
0
10
6.507291666666668
20
-4.3781249999999998
30
0
10
6.4500000000000002
20
-4.473958333333333
30
0
10
6.4343750000000011
20
-4.510416666666667
30
0
0
SPLINE
5
299
100
AcDbEntity
8
0
100
AcDbSpline
70
4
71
3
72
8
73
4
74
0
42
0.000000001
43
0.0000000001
44
0.0000000001
40
0
40
0
40
0
40
0
40
1
40
1
40
1
40
1
41
1
41
1
41
1
41
1
10
6.4343750000000011
20
-4.510416666666667
30
0
10
6.4270833333333339
20
-4.5302083333333334
30
0
10
6.4000000000000012
20
-4.5749999999999993
30
0
10
6.3770833333333341
20
-4.6083333333333334
30
0
0
SPLINE
5
300
100
AcDbEntity
8
0
100
AcDbSpline
70
4
71
3
72
8
73
4
74
0
42
0.000000001
43
0.0000000001
44
0.0000000001
40
0
40
0
40
0
40
0
40
1
40
1
40
1
40
1
41
1
41
1
41
1
41
1
10
6.3770833333333341
20
-4.6083333333333334
30
0
10
6.3531250000000004
20
-4.6427083333333332
30
0
10
6.3333333333333339
20
-4.6781249999999996
30
0
10
6.3333333333333339
20
-4.6875
30
0
0
SPLINE
5
301
100
AcDbEntity
8
0
100
AcDbSpline
70
4
71
3
72
8
73
4
74
0
42
0.000000001
43
0.0000000001
44
0.0000000001
40
0
40
0
40
0
40
0
40
1
40
1
40
1
40
1
41
1
41
1
41
1
41
1
10
6.3333333333333339
20
-4.6875
30
0
10
6.3333333333333339
20
-4.7052083333333323
30
0
10
6.2875000000000005
20
-4.7864583333333339
30
0
10
6.2427083333333337
20
-4.8499999999999996
30
0
0
SPLINE
5
302
100
AcDbEntity
8
0
100
AcDbSpline
70
4
71
3
72
8
73
4
74
0
42
0.000000001
43
0.0000000001
44
0.0000000001
40
0
40
0
40
0
40
0
40
1
40
1
40
1
40
1
41
1
41
1
41
1
41
1
10
6.2427083333333337
20
-4.8499999999999996
30
0
10
6.2302083333333336
20
-4.8677083333333329
30
0
10
6.2062500000000007
20
-4.9177083333333336
30
0
10
6.1885416666666675
20
-4.9604166666666663
30
0
0
SPLINE
5
303
100
AcDbEntity
8
0
100
AcDbSpline
70
4
71
3
72
8
73
4
74
0
42
0.000000001
43
0.0000000001
44
0.0000000001
40
0
40
0
40
0
40
0
40
1
40
1
40
1
40
1
41
1
41
1
41
1
41
1
10
6.1885416666666675
20
-4.9604166666666663
30
0
10
6.1708333333333334
20
-5.0041666666666664
30
0
10
6.1218750000000011
20
-5.1166666666666663
30
0
10
6.0781250000000009
20
-5.2104166666666663
30
0
0
SPLINE
5
304
100
AcDbEntity
8
0
100
AcDbSpline
70
4
71
3
72
8
73
4
74
0
42
0.000000001
43
0.0000000001
44
0.0000000001
40
0
40
0
40
0
40
0
40
1
40
1
40
1
40
1
41
1
41
1
41
1
41
1
10
6.0781250000000009
20
-5.2104166666666663
30
0
10
6.0343750000000007
20
-5.3031250000000005
30
0
10
5.96875
20
-5.4499999999999993
30
0
10
5.932291666666667
20
-5.5364583333333339
30
0
0
SPLINE
5
305
100
AcDbEntity
8
0
100
AcDbSpline
70
4
71
3
72
8
73
4
74
0
42
0.000000001
43
0.0000000001
44
0.0000000001
40
0
40
0
40
0
40
0
40
1
40
1
40
1
40
1
41
1
41
1
41
1
41
1
10
5.932291666666667
20
-5.5364583333333339
30
0
10
5.8500000000000005
20
-5.729166666666667
30
0
10
5.666666666666667
20
-6.213541666666667
30
0
10
5.666666666666667
20
-6.2374999999999998
30
0
0
SPLINE
5
306
100
AcDbEntity
8
0
100
AcDbSpline
70
4
71
3
72
8
73
4
74
0
42
0.000000001
43
0.0000000001
44
0.0000000001
40
0
40
0
40
0
40
0
40
1
40
1
40
1
40
1
41
1
41
1
41
1
41
1
10
5.666666666666667
20
-6.2374999999999998
30
0
10
5.6656250000000004
20
-6.2666666666666666
30
0
10
5.6468750000000005
20
-6.2833333333333341
30
0
10
5.5052083333333339
20
-6.3822916666666671
30
0
0
SPLINE
5
307
100
AcDbEntity
8
0
100
AcDbSpline
70
4
71
3
72
8
73
4
74
0
42
0.000000001
43
0.0000000001
44
0.0000000001
40
0
40
0
40
0
40
0
40
1
40
1
40
1
40
1
41
1
41
1
41
1
41
1
10
5.5052083333333339
20
-6.3822916666666671
30
0
10
5.3718750000000011
20
-6.4749999999999996
30
0
10
5.3125
20
-6.510416666666667
30
0
10
5.2927083333333345
20
-6.510416666666667
30
0
0
SPLINE
5
308
100
AcDbEntity
8
0
100
AcDbSpline
70
4
71
3
72
8
73
4
74
0
42
0.000000001
43
0.0000000001
44
0.0000000001
40
0
40
0
40
0
40
0
40
1
40
1
40
1
40
1
41
1
41
1
41
1
41
1
10
5.2927083333333345
20
-6.510416666666667
30
0
10
5.28125
20
-6.510416666666667
30
0
10
5.2562500000000005
20
-6.4375000000000009
30
0
10
5.2385416666666673
20
-6.3541666666666661
30
0
0
SPLINE
5
309
100
AcDbEntity
8
0
100
AcDbSpline
70
4
71
3
72
8
73
4
74
0
42
0.000000001
43
0.0000000001
44
0.0000000001
40
0
40
0
40
0
40
0
40
1
40
1
40
1
40
1
41
1
41
1
41
1
41
1
10
5.2385416666666673
20
-6.3541666666666661
30
0
10
5.2322916666666668
20
-6.322916666666667
30
0
10
5.2104166666666671
20
-6.2541666666666664
30
0
10
5.1895833333333341
20
-6.203125
30
0
0
SPLINE
5
310
100
AcDbEntity
8
0
100
AcDbSpline
70
4
71
3
72
8
73
4
74
0
42
0.000000001
43
0.0000000001
44
0.0000000001
40
0
40
0
40
0
40
0
40
1
40
1
40
1
40
1
41
1
41
1
41
1
41
1
10
5.1895833333333341
20
-6.203125
30
0
10
5.1343750000000012
20
-6.0635416666666666
30
0
10
5.0864583333333337
20
-6
30
0
10
4.9906250000000005
20
-5.9375000000000009
30
0
0
SPLINE
5
311
100
AcDbEntity
8
0
100
AcDbSpline
70
4
71
3
72
8
73
4
74
0
42
0.000000001
43
0.0000000001
44
0.0000000001
40
0
40
0
40
0
40
0
40
1
40
1
40
1
40
1
41
1
41
1
41
1
41
1
10
4.9906250000000005
20
-5.9375000000000009
30
0
10
4.9416666666666673
20
-5.90625
30
0
10
4.9239583333333341
20
-5.9020833333333336
30
0
10
4.8270833333333343
20
-5.8927083333333332
30
0
0
SPLINE
5
312
100
AcDbEntity
8
0
100
AcDbSpline
70
4
71
3
72
8
73
4
74
0
42
0.000000001
43
0.0000000001
44
0.0000000001
40
0
40
0
40
0
40
0
40
1
40
1
40
1
40
1
41
1
41
1
41
1
41
1
10
4.8270833333333343
20
-5.8927083333333332
30
0
10
4.7270833333333337
20
-5.8833333333333329
30
0
10
4.7114583333333337
20
-5.8843750000000004
30
0
10
4.647916666666668
20
-5.9052083333333334
30
0
0
SPLINE
5
313
100
AcDbEntity
8
0
100
AcDbSpline
70
4
71
3
72
8
73
4
74
0
42
0.000000001
43
0.0000000001
44
0.0000000001
40
0
40
0
40
0
40
0
40
1
40
1
40
1
40
1
41
1
41
1
41
1
41
1
10
4.647916666666668
20
-5.9052083333333334
30
0
10
4.609375
20
-5.9177083333333327
30
0
10
4.5458333333333343
20
-5.9447916666666671
30
0
10
4.5052083333333339
20
-5.963541666666667
30
0
0
SPLINE
5
314
100
AcDbEntity
8
0
100
AcDbSpline
70
4
71
3
72
8
73
4
74
0
42
0.000000001
43
0.0000000001
44
0.0000000001
40
0
40
0
40
0
40
0
40
1
40
1
40
1
40
1
41
1
41
1
41
1
41
1
10
4.5052083333333339
20
-5.963541666666667
30
0
10
4.421875
20
-6.0041666666666664
30
0
10
4.2552083333333339
20
-6.1218750000000011
30
0
10
4.2020833333333343
20
-6.1760416666666673
30
0
0
SPLINE
5
315
100
AcDbEntity
8
0
100
AcDbSpline
70
4
71
3
72
8
73
4
74
0
42
0.000000001
43
0.0000000001
44
0.0000000001
40
0
40
0
40
0
40
0
40
1
40
1
40
1
40
1
41
1
41
1
41
1
41
1
10
4.2020833333333343
20
-6.1760416666666673
30
0
10
4.182291666666667
20
-6.1968750000000004
30
0
10
4.1302083333333339
20
-6.2510416666666657
30
0
10
4.0854166666666671
20
-6.296875
30
0
0
SPLINE
5
316
100
AcDbEntity
8
0
100
AcDbSpline
70
4
71
3
72
8
73
4
74
0
42
0.000000001
43
0.0000000001
44
0.0000000001
40
0
40
0
40
0
40
0
40
1
40
1
40
1
40
1
41
1
41
1
41
1
41
1
10
4.0854166666666671
20
-6.296875
30
0
10
3.865625000000001
20
-6.526041666666667
30
0
10
3.6677083333333336
20
-6.8822916666666671
30
0
10
3.5145833333333343
20
-7.3260416666666668
30
0
0
SPLINE
5
317
100
AcDbEntity
8
0
100
AcDbSpline
70
4
71
3
72
8
73
4
74
0
42
0.000000001
43
0.0000000001
44
0.0000000001
40
0
40
0
40
0
40
0
40
1
40
1
40
1
40
1
41
1
41
1
41
1
41
1
10
3.5145833333333343
20
-7.3260416666666668
30
0
10
3.4895833333333335
20
-7.3989583333333329
30
0
10
3.4562500000000003
20
-7.4885416666666664
30
0
10
3.4416666666666673
20
-7.5239583333333337
30
0
0
SPLINE
5
318
100
AcDbEntity
8
0
100
AcDbSpline
70
4
71
3
72
8
73
4
74
0
42
0.000000001
43
0.0000000001
44
0.0000000001
40
0
40
0
40
0
40
0
40
1
40
1
40
1
40
1
41
1
41
1
41
1
41
1
10
3.4416666666666673
20
-7.5239583333333337
30
0
10
3.4270833333333339
20
-7.5593750000000011
30
0
10
3.3947916666666673
20
-7.6937500000000005
30
0
10
3.3687500000000004
20
-7.8218750000000004
30
0
0
SPLINE
5
319
100
AcDbEntity
8
0
100
AcDbSpline
70
4
71
3
72
8
73
4
74
0
42
0.000000001
43
0.0000000001
44
0.0000000001
40
0
40
0
40
0
40
0
40
1
40
1
40
1
40
1
41
1
41
1
41
1
41
1
10
3.3687500000000004
20
-7.8218750000000004
30
0
10
3.34375
20
-7.9510416666666659
30
0
10
3.3156250000000003
20
-8.0791666666666657
30
0
10
3.3062500000000008
20
-8.1083333333333325
30
0
0
SPLINE
5
320
100
AcDbEntity
8
0
100
AcDbSpline
70
4
71
3
72
8
73
4
74
0
42
0.000000001
43
0.0000000001
44
0.0000000001
40
0
40
0
40
0
40
0
40
1
40
1
40
1
40
1
41
1
41
1
41
1
41
1
10
3.3062500000000008
20
-8.1083333333333325
30
0
10
3.2875000000000005
20
-8.1656250000000004
30
0
10
3.1291666666666673
20
-8.392708333333335
30
0
10
3.0041666666666673
20
-8.5416666666666679
30
0
0
SPLINE
5
321
100
AcDbEntity
8
0
100
AcDbSpline
70
4
71
3
72
8
73
4
74
0
42
0.000000001
43
0.0000000001
44
0.0000000001
40
0
40
0
40
0
40
0
40
1
40
1
40
1
40
1
41
1
41
1
41
1
41
1
10
3.0041666666666673
20
-8.5416666666666679
30
0
10
2.7541666666666673
20
-8.8385416666666679
30
0
10
2.5052083333333335
20
-9.0093750000000004
30
0
10
2.3218750000000004
20
-9.0104166666666679
30
0
0
SPLINE
5
322
100
AcDbEntity
8
0
100
AcDbSpline
70
4
71
3
72
8
73
4
74
0
42
0.000000001
43
0.0000000001
44
0.0000000001
40
0
40
0
40
0
40
0
40
1
40
1
40
1
40
1
41
1
41
1
41
1
41
1
10
2.3218750000000004
20
-9.0104166666666679
30
0
10
2.2020833333333334
20
-9.0104166666666679
30
0
10
1.9583333333333333
20
-8.8041666666666671
30
0
10
1.9583333333333333
20
-8.7020833333333343
30
0
0
SPLINE
5
323
100
AcDbEntity
8
0
100
AcDbSpline
70
4
71
3
72
8
73
4
74
0
42
0.000000001
43
0.0000000001
44
0.0000000001
40
0
40
0
40
0
40
0
40
1
40
1
40
1
40
1
41
1
41
1
41
1
41
1
10
1.9583333333333333
20
-8.7020833333333343
30
0
10
1.9583333333333333
20
-8.6906249999999989
30
0
10
1.9864583333333337
20
-8.6364583333333336
30
0
10
2.0218750000000005
20
-8.5822916666666682
30
0
0
SPLINE
5
324
100
AcDbEntity
8
0
100
AcDbSpline
70
4
71
3
72
8
73
4
74
0
42
0.000000001
43
0.0000000001
44
0.0000000001
40
0
40
0
40
0
40
0
40
1
40
1
40
1
40
1
41
1
41
1
41
1
41
1
10
2.0218750000000005
20
-8.5822916666666682
30
0
10
2.0562500000000004
20
-8.5281250000000011
30
0
10
2.1010416666666671
20
-8.4541666666666657
30
0
10
2.1208333333333336
20
-8.4166666666666679
30
0
0
SPLINE
5
325
100
AcDbEntity
8
0
100
AcDbSpline
70
4
71
3
72
8
73
4
74
0
42
0.000000001
43
0.0000000001
44
0.0000000001
40
0
40
0
40
0
40
0
40
1
40
1
40
1
40
1
41
1
41
1
41
1
41
1
10
2.1208333333333336
20
-8.4166666666666679
30
0
10
2.1406250000000004
20
-8.3791666666666682
30
0
10
2.1947916666666671
20
-8.2937500000000011
30
0
10
2.2427083333333337
20
-8.2270833333333329
30
0
0
SPLINE
5
326
100
AcDbEntity
8
0
100
AcDbSpline
70
4
71
3
72
8
73
4
74
0
42
0.000000001
43
0.0000000001
44
0.0000000001
40
0
40
0
40
0
40
0
40
1
40
1
40
1
40
1
41
1
41
1
41
1
41
1
10
2.2427083333333337
20
-8.2270833333333329
30
0
10
2.2895833333333337
20
-8.1604166666666664
30
0
10
2.370833333333334
20
-8.0395833333333329
30
0
10
2.421875
20
-7.9583333333333339
30
0
0
SPLINE
5
327
100
AcDbEntity
8
0
100
AcDbSpline
70
4
71
3
72
8
73
4
74
0
42
0.000000001
43
0.0000000001
44
0.0000000001
40
0
40
0
40
0
40
0
40
1
40
1
40
1
40
1
41
1
41
1
41
1
41
1
10
2.421875
20
-7.9583333333333339
30
0
10
2.542708333333334
20
-7.7666666666666666
30
0
10
2.947916666666667
20
-7.1489583333333337
30
0
10
3.0239583333333337
20
-7.0395833333333337
30
0
0
SPLINE
5
328
100
AcDbEntity
8
0
100
AcDbSpline
70
4
71
3
72
8
73
4
74
0
42
0.000000001
43
0.0000000001
44
0.0000000001
40
0
40
0
40
0
40
0
40
1
40
1
40
1
40
1
41
1
41
1
41
1
41
1
10
3.0239583333333337
20
-7.0395833333333337
30
0
10
3.0562500000000004
20
-6.991666666666668
30
0
10
3.09375
20
-6.9343750000000002
30
0
10
3.1458333333333335
20
-6.8531250000000004
30
0
0
SPLINE
5
329
100
AcDbEntity
8
0
100
AcDbSpline
70
4
71
3
72
8
73
4
74
0
42
0.000000001
43
0.0000000001
44
0.0000000001
40
0
40
0
40
0
40
0
40
1
40
1
40
1
40
1
41
1
41
1
41
1
41
1
10
3.1458333333333335
20
-6.8531250000000004
30
0
10
3.1749999999999998
20
-6.8062500000000004
30
0
10
3.2218749999999998
20
-6.770833333333333
30
0
10
3.3333333333333339
20
-6.7072916666666664
30
0
0
SPLINE
5
330
100
AcDbEntity
8
0
100
AcDbSpline
70
4
71
3
72
8
73
4
74
0
42
0.000000001
43
0.0000000001
44
0.0000000001
40
0
40
0
40
0
40
0
40
1
40
1
40
1
40
1
41
1
41
1
41
1
41
1
10
3.3333333333333339
20
-6.7072916666666664
30
0
10
3.4354166666666668
20
-6.6500000000000004
30
0
10
3.6218750000000006
20
-6.5083333333333329
30
0
10
3.713541666666667
20
-6.4197916666666677
30
0
0
SPLINE
5
331
100
AcDbEntity
8
0
100
AcDbSpline
70
4
71
3
72
8
73
4
74
0
42
0.000000001
43
0.0000000001
44
0.0000000001
40
0
40
0
40
0
40
0
40
1
40
1
40
1
40
1
41
1
41
1
41
1
41
1
10
3.713541666666667
20
-6.4197916666666677
30
0
10
3.7541666666666669
20
-6.380208333333333
30
0
10
3.8312500000000003
20
-6.2927083333333327
30
0
10
3.885416666666667
20
-6.223958333333333
30
0
0
SPLINE
5
332
100
AcDbEntity
8
0
100
AcDbSpline
70
4
71
3
72
8
73
4
74
0
42
0.000000001
43
0.0000000001
44
0.0000000001
40
0
40
0
40
0
40
0
40
1
40
1
40
1
40
1
41
1
41
1
41
1
41
1
10
3.885416666666667
20
-6.223958333333333
30
0
10
3.9395833333333337
20
-6.15625
30
0
10
4.0187500000000007
20
-6.0614583333333334
30
0
10
4.0604166666666668
20
-6.0125000000000002
30
0
0
SPLINE
5
333
100
AcDbEntity
8
0
100
AcDbSpline
70
4
71
3
72
8
73
4
74
0
42
0.000000001
43
0.0000000001
44
0.0000000001
40
0
40
0
40
0
40
0
40
1
40
1
40
1
40
1
41
1
41
1
41
1
41
1
10
4.0604166666666668
20
-6.0125000000000002
30
0
10
4.163541666666668
20
-5.8937499999999998
30
0
10
4.2875000000000005
20
-5.7052083333333332
30
0
10
4.3489583333333339
20
-5.572916666666667
30
0
0
SPLINE
5
334
100
AcDbEntity
8
0
100
AcDbSpline
70
4
71
3
72
8
73
4
74
0
42
0.000000001
43
0.0000000001
44
0.0000000001
40
0
40
0
40
0
40
0
40
1
40
1
40
1
40
1
41
1
41
1
41
1
41
1
10
4.3489583333333339
20
-5.572916666666667
30
0
10
4.3760416666666666
20
-5.5124999999999993
30
0
10
4.4020833333333336
20
-5.4583333333333339
30
0
10
4.40625
20
-5.4531250000000009
30
0
0
SPLINE
5
335
100
AcDbEntity
8
0
100
AcDbSpline
70
4
71
3
72
8
73
4
74
0
42
0.000000001
43
0.0000000001
44
0.0000000001
40
0
40
0
40
0
40
0
40
1
40
1
40
1
40
1
41
1
41
1
41
1
41
1
10
4.40625
20
-5.4531250000000009
30
0
10
4.4500000000000011
20
-5.3937499999999998
30
0
10
4.546875
20
-5.1947916666666663
30
0
10
4.59375
20
-5.0677083333333339
30
0
0
SPLINE
5
336
100
AcDbEntity
8
0
100
AcDbSpline
70
4
71
3
72
8
73
4
74
0
42
0.000000001
43
0.0000000001
44
0.0000000001
40
0
40
0
40
0
40
0
40
1
40
1
40
1
40
1
41
1
41
1
41
1
41
1
10
4.59375
20
-5.0677083333333339
30
0
10
4.604166666666667
20
-5.0385416666666663
30
0
10
4.6270833333333341
20
-4.984375
30
0
10
4.6447916666666673
20
-4.9458333333333329
30
0
0
SPLINE
5
337
100
AcDbEntity
8
0
100
AcDbSpline
70
4
71
3
72
8
73
4
74
0
42
0.000000001
43
0.0000000001
44
0.0000000001
40
0
40
0
40
0
40
0
40
1
40
1
40
1
40
1
41
1
41
1
41
1
41
1
10
4.6447916666666673
20
-4.9458333333333329
30
0
10
4.6625000000000005
20
-4.9083333333333332
30
0
10
4.6854166666666668
20
-4.8447916666666657
30
0
10
4.6968750000000004
20
-4.8052083333333329
30
0
0
SPLINE
5
338
100
AcDbEntity
8
0
100
AcDbSpline
70
4
71
3
72
8
73
4
74
0
42
0.000000001
43
0.0000000001
44
0.0000000001
40
0
40
0
40
0
40
0
40
1
40
1
40
1
40
1
41
1
41
1
41
1
41
1
10
4.6968750000000004
20
-4.8052083333333329
30
0
10
4.7083333333333339
20
-4.7666666666666657
30
0
10
4.7322916666666668
20
-4.6854166666666668
30
0
10
4.75
20
-4.6250000000000009
30
0
0
SPLINE
5
339
100
AcDbEntity
8
0
100
AcDbSpline
70
4
71
3
72
8
73
4
74
0
42
0.000000001
43
0.0000000001
44
0.0000000001
40
0
40
0
40
0
40
0
40
1
40
1
40
1
40
1
41
1
41
1
41
1
41
1
10
4.75
20
-4.6250000000000009
30
0
10
4.7822916666666675
20
-4.5177083333333332
30
0
10
4.7822916666666675
20
-4.5125000000000002
30
0
10
4.7791666666666668
20
-4.333333333333333
30
0
0
SPLINE
5
340
100
AcDbEntity
8
0
100
AcDbSpline
70
4
71
3
72
8
73
4
74
0
42
0.000000001
43
0.0000000001
44
0.0000000001
40
0
40
0
40
0
40
0
40
1
40
1
40
1
40
1
41
1
41
1
41
1
41
1
10
4.7791666666666668
20
-4.333333333333333
30
0
10
4.7750000000000004
20
-4.1541666666666659
30
0
10
4.7739583333333337
20
-4.1499999999999995
30
0
10
4.744791666666667
20
-4.0947916666666657
30
0
0
SPLINE
5
341
100
AcDbEntity
8
0
100
AcDbSpline
70
4
71
3
72
8
73
4
74
0
42
0.000000001
43
0.0000000001
44
0.0000000001
40
0
40
0
40
0
40
0
40
1
40
1
40
1
40
1
41
1
41
1
41
1
41
1
10
4.744791666666667
20
-4.0947916666666657
30
0
10
4.6958333333333337
20
-4.0062499999999996
30
0
10
4.6697916666666677
20
-3.984375
30
0
10
4.5739583333333336
20
-3.9541666666666662
30
0
0
SPLINE
5
342
100
AcDbEntity
8
0
100
AcDbSpline
70
4
71
3
72
8
73
4
74
0
42
0.000000001
43
0.0000000001
44
0.0000000001
40
0
40
0
40
0
40
0
40
1
40
1
40
1
40
1
41
1
41
1
41
1
41
1
10
4.5739583333333336
20
-3.9541666666666662
30
0
10
4.4229166666666666
20
-3.9062500000000004
30
0
10
4.3020833333333339
20
-3.9208333333333329
30
0
10
4.1072916666666668
20
-4.010416666666667
30
0
0
SPLINE
5
343
100
AcDbEntity
8
0
100
AcDbSpline
70
4
71
3
72
8
73
4
74
0
42
0.000000001
43
0.0000000001
44
0.0000000001
40
0
40
0
40
0
40
0
40
1
40
1
40
1
40
1
41
1
41
1
41
1
41
1
10
4.1072916666666668
20
-4.010416666666667
30
0
10
4.010416666666667
20
-4.0552083333333329
30
0
10
3.78125
20
-4.203125
30
0
10
3.6718750000000004
20
-4.2906249999999995
30
0
0
SPLINE
5
344
100
AcDbEntity
8
0
100
AcDbSpline
70
4
71
3
72
8
73
4
74
0
42
0.000000001
43
0.0000000001
44
0.0000000001
40
0
40
0
40
0
40
0
40
1
40
1
40
1
40
1
41
1
41
1
41
1
41
1
10
3.6718750000000004
20
-4.2906249999999995
30
0
10
3.6322916666666676
20
-4.322916666666667
30
0
10
3.5791666666666671
20
-4.3624999999999998
30
0
10
3.5541666666666676
20
-4.3791666666666664
30
0
0
SPLINE
5
345
100
AcDbEntity
8
0
100
AcDbSpline
70
4
71
3
72
8
73
4
74
0
42
0.000000001
43
0.0000000001
44
0.0000000001
40
0
40
0
40
0
40
0
40
1
40
1
40
1
40
1
41
1
41
1
41
1
41
1
10
3.5541666666666676
20
-4.3791666666666664
30
0
10
3.4427083333333335
20
-4.4541666666666657
30
0
10
3.0437499999999997
20
-4.875
30
0
10
2.9000000000000008
20
-5.0677083333333339
30
0
0
SPLINE
5
346
100
AcDbEntity
8
0
100
AcDbSpline
70
4
71
3
72
8
73
4
74
0
42
0.000000001
43
0.0000000001
44
0.0000000001
40
0
40
0
40
0
40
0
40
1
40
1
40
1
40
1
41
1
41
1
41
1
41
1
10
2.9000000000000008
20
-5.0677083333333339
30
0
10
2.8708333333333336
20
-5.1072916666666668
30
0
10
2.8010416666666673
20
-5.1895833333333323
30
0
10
2.7458333333333336
20
-5.2489583333333334
30
0
0
SPLINE
5
347
100
AcDbEntity
8
0
100
AcDbSpline
70
4
71
3
72
8
73
4
74
0
42
0.000000001
43
0.0000000001
44
0.0000000001
40
0
40
0
40
0
40
0
40
1
40
1
40
1
40
1
41
1
41
1
41
1
41
1
10
2.7458333333333336
20
-5.2489583333333334
30
0
10
2.6864583333333338
20
-5.3135416666666675
30
0
10
2.6135416666666669
20
-5.4083333333333332
30
0
10
2.5645833333333337
20
-5.4833333333333334
30
0
0
SPLINE
5
348
100
AcDbEntity
8
0
100
AcDbSpline
70
4
71
3
72
8
73
4
74
0
42
0.000000001
43
0.0000000001
44
0.0000000001
40
0
40
0
40
0
40
0
40
1
40
1
40
1
40
1
41
1
41
1
41
1
41
1
10
2.5645833333333337
20
-5.4833333333333334
30
0
10
2.5208333333333335
20
-5.5520833333333339
30
0
10
2.4031250000000006
20
-5.7312499999999993
30
0
10
2.3031250000000001
20
-5.880208333333333
30
0
0
SPLINE
5
349
100
AcDbEntity
8
0
100
AcDbSpline
70
4
71
3
72
8
73
4
74
0
42
0.000000001
43
0.0000000001
44
0.0000000001
40
0
40
0
40
0
40
0
40
1
40
1
40
1
40
1
41
1
41
1
41
1
41
1
10
2.3031250000000001
20
-5.880208333333333
30
0
10
2.2041666666666671
20
-6.0291666666666668
30
0
10
2.1104166666666671
20
-6.1739583333333341
30
0
10
2.0968750000000003
20
-6.203125
30
0
0
SPLINE
5
350
100
AcDbEntity
8
0
100
AcDbSpline
70
4
71
3
72
8
73
4
74
0
42
0.000000001
43
0.0000000001
44
0.0000000001
40
0
40
0
40
0
40
0
40
1
40
1
40
1
40
1
41
1
41
1
41
1
41
1
10
2.0968750000000003
20
-6.203125
30
0
10
2.0822916666666669
20
-6.2312500000000011
30
0
10
2.0385416666666667
20
-6.3062499999999995
30
0
10
2.0010416666666671
20
-6.3708333333333327
30
0
0
SPLINE
5
351
100
AcDbEntity
8
0
100
AcDbSpline
70
4
71
3
72
8
73
4
74
0
42
0.000000001
43
0.0000000001
44
0.0000000001
40
0
40
0
40
0
40
0
40
1
40
1
40
1
40
1
41
1
41
1
41
1
41
1
10
2.0010416666666671
20
-6.3708333333333327
30
0
10
1.9625000000000001
20
-6.4343750000000011
30
0
10
1.9010416666666667
20
-6.5531249999999996
30
0
10
1.8656250000000003
20
-6.6364583333333327
30
0
0
SPLINE
5
352
100
AcDbEntity
8
0
100
AcDbSpline
70
4
71
3
72
8
73
4
74
0
42
0.000000001
43
0.0000000001
44
0.0000000001
40
0
40
0
40
0
40
0
40
1
40
1
40
1
40
1
41
1
41
1
41
1
41
1
10
1.8656250000000003
20
-6.6364583333333327
30
0
10
1.8291666666666668
20
-6.71875
30
0
10
1.779166666666667
20
-6.8333333333333339
30
0
10
1.7531250000000003
20
-6.890625
30
0
0
SPLINE
5
353
100
AcDbEntity
8
0
100
AcDbSpline
70
4
71
3
72
8
73
4
74
0
42
0.000000001
43
0.0000000001
44
0.0000000001
40
0
40
0
40
0
40
0
40
1
40
1
40
1
40
1
41
1
41
1
41
1
41
1
10
1.7531250000000003
20
-6.890625
30
0
10
1.6989583333333338
20
-7.0114583333333327
30
0
10
1.5937500000000002
20
-7.2677083333333341
30
0
10
1.5312500000000002
20
-7.4322916666666679
30
0
0
SPLINE
5
354
100
AcDbEntity
8
0
100
AcDbSpline
70
4
71
3
72
8
73
4
74
0
42
0.000000001
43
0.0000000001
44
0.0000000001
40
0
40
0
40
0
40
0
40
1
40
1
40
1
40
1
41
1
41
1
41
1
41
1
10
1.5312500000000002
20
-7.4322916666666679
30
0
10
1.5062500000000001
20
-7.494791666666667
30
0
10
1.4656250000000002
20
-7.5937500000000009
30
0
10
1.440625
20
-7.651041666666667
30
0
0
SPLINE
5
355
100
AcDbEntity
8
0
100
AcDbSpline
70
4
71
3
72
8
73
4
74
0
42
0.000000001
43
0.0000000001
44
0.0000000001
40
0
40
0
40
0
40
0
40
1
40
1
40
1
40
1
41
1
41
1
41
1
41
1
10
1.440625
20
-7.651041666666667
30
0
10
1.4145833333333335
20
-7.7083333333333339
30
0
10
1.3833333333333335
20
-7.7927083333333327
30
0
10
1.3708333333333333
20
-7.8385416666666679
30
0
0
SPLINE
5
356
100
AcDbEntity
8
0
100
AcDbSpline
70
4
71
3
72
8
73
4
74
0
42
0.000000001
43
0.0000000001
44
0.0000000001
40
0
40
0
40
0
40
0
40
1
40
1
40
1
40
1
41
1
41
1
41
1
41
1
10
1.3708333333333333
20
-7.8385416666666679
30
0
10
1.357291666666667
20
-7.8843750000000004
30
0
10
1.3375000000000001
20
-7.9447916666666671
30
0
10
1.325
20
-7.9739583333333339
30
0
0
SPLINE
5
357
100
AcDbEntity
8
0
100
AcDbSpline
70
4
71
3
72
8
73
4
74
0
42
0.000000001
43
0.0000000001
44
0.0000000001
40
0
40
0
40
0
40
0
40
1
40
1
40
1
40
1
41
1
41
1
41
1
41
1
10
1.325
20
-7.9739583333333339
30
0
10
1.3125000000000002
20
-8.002083333333335
30
0
10
1.294791666666667
20
-8.0562500000000004
30
0
10
1.2854166666666667
20
-8.09375
30
0
0
SPLINE
5
358
100
AcDbEntity
8
0
100
AcDbSpline
70
4
71
3
72
8
73
4
74
0
42
0.000000001
43
0.0000000001
44
0.0000000001
40
0
40
0
40
0
40
0
40
1
40
1
40
1
40
1
41
1
41
1
41
1
41
1
10
1.2854166666666667
20
-8.09375
30
0
10
1.2770833333333336
20
-8.1312499999999996
30
0
10
1.2583333333333335
20
-8.1875000000000018
30
0
10
1.2447916666666667
20
-8.2197916666666675
30
0
0
SPLINE
5
359
100
AcDbEntity
8
0
100
AcDbSpline
70
4
71
3
72
8
73
4
74
0
42
0.000000001
43
0.0000000001
44
0.0000000001
40
0
40
0
40
0
40
0
40
1
40
1
40
1
40
1
41
1
41
1
41
1
41
1
10
1.2447916666666667
20
-8.2197916666666675
30
0
10
1.2312500000000002
20
-8.2510416666666657
30
0
10
1.2208333333333334
20
-8.2916666666666661
30
0
10
1.2208333333333334
20
-8.3083333333333318
30
0
0
SPLINE
5
360
100
AcDbEntity
8
0
100
AcDbSpline
70
4
71
3
72
8
73
4
74
0
42
0.000000001
43
0.0000000001
44
0.0000000001
40
0
40
0
40
0
40
0
40
1
40
1
40
1
40
1
41
1
41
1
41
1
41
1
10
1.2208333333333334
20
-8.3083333333333318
30
0
10
1.2208333333333334
20
-8.3250000000000011
30
0
10
1.2072916666666669
20
-8.3802083333333339
30
0
10
1.1895833333333334
20
-8.4322916666666679
30
0
0
SPLINE
5
361
100
AcDbEntity
8
0
100
AcDbSpline
70
4
71
3
72
8
73
4
74
0
42
0.000000001
43
0.0000000001
44
0.0000000001
40
0
40
0
40
0
40
0
40
1
40
1
40
1
40
1
41
1
41
1
41
1
41
1
10
1.1895833333333334
20
-8.4322916666666679
30
0
10
1.1500000000000001
20
-8.5510416666666664
30
0
10
1.1395833333333336
20
-8.6000000000000014
30
0
10
1.1197916666666667
20
-8.7604166666666661
30
0
0
SPLINE
5
362
100
AcDbEntity
8
0
100
AcDbSpline
70
4
71
3
72
8
73
4
74
0
42
0.000000001
43
0.0000000001
44
0.0000000001
40
0
40
0
40
0
40
0
40
1
40
1
40
1
40
1
41
1
41
1
41
1
41
1
10
1.1197916666666667
20
-8.7604166666666661
30
0
10
1.1104166666666668
20
-8.8322916666666664
30
0
10
1.0958333333333334
20
-8.9166666666666679
30
0
10
1.0875000000000001
20
-8.9489583333333353
30
0
0
SPLINE
5
363
100
AcDbEntity
8
0
100
AcDbSpline
70
4
71
3
72
8
73
4
74
0
42
0.000000001
43
0.0000000001
44
0.0000000001
40
0
40
0
40
0
40
0
40
1
40
1
40
1
40
1
41
1
41
1
41
1
41
1
10
1.0875000000000001
20
-8.9489583333333353
30
0
10
1.0802083333333334
20
-8.9812500000000011
30
0
10
1.0729166666666667
20
-9.03125
30
0
10
1.0729166666666667
20
-9.0583333333333336
30
0
0
SPLINE
5
364
100
AcDbEntity
8
0
100
AcDbSpline
70
4
71
3
72
8
73
4
74
0
42
0.000000001
43
0.0000000001
44
0.0000000001
40
0
40
0
40
0
40
0
40
1
40
1
40
1
40
1
41
1
41
1
41
1
41
1
10
1.0729166666666667
20
-9.0583333333333336
30
0
10
1.0729166666666667
20
-9.0864583333333329
30
0
10
1.0677083333333335
20
-9.1270833333333332
30
0
10
1.0614583333333334
20
-9.1500000000000004
30
0
0
SPLINE
5
365
100
AcDbEntity
8
0
100
AcDbSpline
70
4
71
3
72
8
73
4
74
0
42
0.000000001
43
0.0000000001
44
0.0000000001
40
0
40
0
40
0
40
0
40
1
40
1
40
1
40
1
41
1
41
1
41
1
41
1
10
1.0614583333333334
20
-9.1500000000000004
30
0
10
1.0552083333333335
20
-9.171875
30
0
10
1.0447916666666668
20
-9.2645833333333325
30
0
10
1.0375000000000001
20
-9.3552083333333336
30
0
0
LINE
5
366
100
AcDbEntity
8
0
100
AcDbLine
10
1.0375000000000001
20
-9.3552083333333336
30
0
11
1.0239583333333337
21
-9.5197916666666682
31
0
0
LINE
5
367
100
AcDbEntity
8
0
100
AcDbLine
10
1.0239583333333337
20
-9.5197916666666682
30
0
11
0.94791666666666674
21
-9.6375000000000011
31
0
0
SPLINE
5
368
100
AcDbEntity
8
0
100
AcDbSpline
70
4
71
3
72
8
73
4
74
0
42
0.000000001
43
0.0000000001
44
0.0000000001
40
0
40
0
40
0
40
0
40
1
40
1
40
1
40
1
41
1
41
1
41
1
41
1
10
0.94791666666666674
20
-9.6375000000000011
30
0
10
0.81562500000000027
20
-9.8416666666666668
30
0
10
0.74687500000000007
20
-9.955208333333335
30
0
10
0.58958333333333346
20
-10.227083333333335
30
0
0
SPLINE
5
369
100
AcDbEntity
8
0
100
AcDbSpline
70
4
71
3
72
8
73
4
74
0
42
0.000000001
43
0.0000000001
44
0.0000000001
40
0
40
0
40
0
40
0
40
1
40
1
40
1
40
1
41
1
41
1
41
1
41
1
10
0.58958333333333346
20
-10.227083333333335
30
0
10
0.53958333333333341
20
-10.314583333333335
30
0
10
0.53229166666666672
20
-10.363541666666666
30
0
10
0.5625
20
-10.405208333333334
30
0
0
SPLINE
5
370
100
AcDbEntity
8
0
100
AcDbSpline
70
4
71
3
72
8
73
4
74
0
42
0.000000001
43
0.0000000001
44
0.0000000001
40
0
40
0
40
0
40
0
40
1
40
1
40
1
40
1
41
1
41
1
41
1
41
1
10
0.5625
20
-10.405208333333334
30
0
10
0.57500000000000007
20
-10.422916666666667
30
0
10
0.59375
20
-10.4375
30
0
10
0.60520833333333335
20
-10.4375
30
0
0
SPLINE
5
371
100
AcDbEntity
8
0
100
AcDbSpline
70
4
71
3
72
8
73
4
74
0
42
0.000000001
43
0.0000000001
44
0.0000000001
40
0
40
0
40
0
40
0
40
1
40
1
40
1
40
1
41
1
41
1
41
1
41
1
10
0.60520833333333335
20
-10.4375
30
0
10
0.65625000000000011
20
-10.4375
30
0
10
0.81354166666666683
20
-10.352083333333333
30
0
10
0.86666666666666681
20
-10.295833333333334
30
0
0
SPLINE
5
372
100
AcDbEntity
8
0
100
AcDbSpline
70
4
71
3
72
8
73
4
74
0
42
0.000000001
43
0.0000000001
44
0.0000000001
40
0
40
0
40
0
40
0
40
1
40
1
40
1
40
1
41
1
41
1
41
1
41
1
10
0.86666666666666681
20
-10.295833333333334
30
0
10
0.8822916666666667
20
-10.279166666666667
30
0
10
0.93333333333333346
20
-10.198958333333335
30
0
10
0.98125000000000007
20
-10.117708333333333
30
0
0
SPLINE
5
373
100
AcDbEntity
8
0
100
AcDbSpline
70
4
71
3
72
8
73
4
74
0
42
0.000000001
43
0.0000000001
44
0.0000000001
40
0
40
0
40
0
40
0
40
1
40
1
40
1
40
1
41
1
41
1
41
1
41
1
10
0.98125000000000007
20
-10.117708333333333
30
0
10
1.029166666666667
20
-10.036458333333334
30
0
10
1.0906250000000002
20
-9.9416666666666682
30
0
10
1.1177083333333335
20
-9.90625
30
0
0
SPLINE
5
374
100
AcDbEntity
8
0
100
AcDbSpline
70
4
71
3
72
8
73
4
74
0
42
0.000000001
43
0.0000000001
44
0.0000000001
40
0
40
0
40
0
40
0
40
1
40
1
40
1
40
1
41
1
41
1
41
1
41
1
10
1.1177083333333335
20
-9.90625
30
0
10
1.1645833333333335
20
-9.8468749999999989
30
0
10
1.1697916666666668
20
-9.8427083333333325
30
0
10
1.2062500000000003
20
-9.845833333333335
30
0
0
SPLINE
5
375
100
AcDbEntity
8
0
100
AcDbSpline
70
4
71
3
72
8
73
4
74
0
42
0.000000001
43
0.0000000001
44
0.0000000001
40
0
40
0
40
0
40
0
40
1
40
1
40
1
40
1
41
1
41
1
41
1
41
1
10
1.2062500000000003
20
-9.845833333333335
30
0
10
1.2395833333333333
20
-9.8489583333333339
30
0
10
1.2458333333333336
20
-9.8531250000000004
30
0
10
1.25
20
-9.8802083333333339
30
0
0
SPLINE
5
376
100
AcDbEntity
8
0
100
AcDbSpline
70
4
71
3
72
8
73
4
74
0
42
0.000000001
43
0.0000000001
44
0.0000000001
40
0
40
0
40
0
40
0
40
1
40
1
40
1
40
1
41
1
41
1
41
1
41
1
10
1.25
20
-9.8802083333333339
30
0
10
1.2541666666666669
20
-9.9041666666666668
30
0
10
1.2666666666666668
20
-9.9177083333333353
30
0
10
1.3041666666666667
20
-9.9375000000000018
30
0
0
SPLINE
5
377
100
AcDbEntity
8
0
100
AcDbSpline
70
4
71
3
72
8
73
4
74
0
42
0.000000001
43
0.0000000001
44
0.0000000001
40
0
40
0
40
0
40
0
40
1
40
1
40
1
40
1
41
1
41
1
41
1
41
1
10
1.3041666666666667
20
-9.9375000000000018
30
0
10
1.3302083333333334
20
-9.9520833333333343
30
0
10
1.3604166666666666
20
-9.9718750000000007
30
0
10
1.3718750000000002
20
-9.9812500000000011
30
0
0
SPLINE
5
378
100
AcDbEntity
8
0
100
AcDbSpline
70
4
71
3
72
8
73
4
74
0
42
0.000000001
43
0.0000000001
44
0.0000000001
40
0
40
0
40
0
40
0
40
1
40
1
40
1
40
1
41
1
41
1
41
1
41
1
10
1.3718750000000002
20
-9.9812500000000011
30
0
10
1.3822916666666669
20
-9.9906250000000014
30
0
10
1.4375
20
-10.010416666666668
30
0
10
1.4958333333333333
20
-10.025
30
0
0
SPLINE
5
379
100
AcDbEntity
8
0
100
AcDbSpline
70
4
71
3
72
8
73
4
74
0
42
0.000000001
43
0.0000000001
44
0.0000000001
40
0
40
0
40
0
40
0
40
1
40
1
40
1
40
1
41
1
41
1
41
1
41
1
10
1.4958333333333333
20
-10.025
30
0
10
1.5906250000000002
20
-10.048958333333335
30
0
10
1.6093750000000002
20
-10.051041666666666
30
0
10
1.6885416666666671
20
-10.041666666666668
30
0
0
SPLINE
5
380
100
AcDbEntity
8
0
100
AcDbSpline
70
4
71
3
72
8
73
4
74
0
42
0.000000001
43
0.0000000001
44
0.0000000001
40
0
40
0
40
0
40
0
40
1
40
1
40
1
40
1
41
1
41
1
41
1
41
1
10
1.6885416666666671
20
-10.041666666666668
30
0
10
1.7364583333333334
20
-10.036458333333334
30
0
10
1.7906250000000001
20
-10.034374999999999
30
0
10
1.8083333333333336
20
-10.037500000000001
30
0
0
SPLINE
5
381
100
AcDbEntity
8
0
100
AcDbSpline
70
4
71
3
72
8
73
4
74
0
42
0.000000001
43
0.0000000001
44
0.0000000001
40
0
40
0
40
0
40
0
40
1
40
1
40
1
40
1
41
1
41
1
41
1
41
1
10
1.8083333333333336
20
-10.037500000000001
30
0
10
1.8510416666666671
20
-10.045833333333333
30
0
10
1.9010416666666667
20
-10.019791666666668
30
0
10
1.9218750000000002
20
-9.9791666666666679
30
0
0
SPLINE
5
382
100
AcDbEntity
8
0
100
AcDbSpline
70
4
71
3
72
8
73
4
74
0
42
0.000000001
43
0.0000000001
44
0.0000000001
40
0
40
0
40
0
40
0
40
1
40
1
40
1
40
1
41
1
41
1
41
1
41
1
10
1.9218750000000002
20
-9.9791666666666679
30
0
10
1.9312500000000004
20
-9.9614583333333329
30
0
10
1.9437500000000001
20
-9.9479166666666679
30
0
10
1.951041666666667
20
-9.9479166666666679
30
0
0
SPLINE
5
383
100
AcDbEntity
8
0
100
AcDbSpline
70
4
71
3
72
8
73
4
74
0
42
0.000000001
43
0.0000000001
44
0.0000000001
40
0
40
0
40
0
40
0
40
1
40
1
40
1
40
1
41
1
41
1
41
1
41
1
10
1.951041666666667
20
-9.9479166666666679
30
0
10
2.0125000000000006
20
-9.9479166666666679
30
0
10
2.4364583333333334
20
-9.6052083333333336
30
0
10
2.65625
20
-9.3791666666666664
30
0
0
SPLINE
5
384
100
AcDbEntity
8
0
100
AcDbSpline
70
4
71
3
72
8
73
4
74
0
42
0.000000001
43
0.0000000001
44
0.0000000001
40
0
40
0
40
0
40
0
40
1
40
1
40
1
40
1
41
1
41
1
41
1
41
1
10
2.65625
20
-9.3791666666666664
30
0
10
2.8229166666666665
20
-9.2072916666666664
30
0
10
3.1281250000000003
20
-8.8468750000000007
30
0
10
3.1854166666666668
20
-8.7552083333333339
30
0
0
SPLINE
5
385
100
AcDbEntity
8
0
100
AcDbSpline
70
4
71
3
72
8
73
4
74
0
42
0.000000001
43
0.0000000001
44
0.0000000001
40
0
40
0
40
0
40
0
40
1
40
1
40
1
40
1
41
1
41
1
41
1
41
1
10
3.1854166666666668
20
-8.7552083333333339
30
0
10
3.2395833333333339
20
-8.6677083333333336
30
0
10
3.3385416666666665
20
-8.5416666666666679
30
0
10
3.3572916666666672
20
-8.5354166666666664
30
0
0
SPLINE
5
386
100
AcDbEntity
8
0
100
AcDbSpline
70
4
71
3
72
8
73
4
74
0
42
0.000000001
43
0.0000000001
44
0.0000000001
40
0
40
0
40
0
40
0
40
1
40
1
40
1
40
1
41
1
41
1
41
1
41
1
10
3.3572916666666672
20
-8.5354166666666664
30
0
10
3.3770833333333341
20
-8.5291666666666668
30
0
10
3.416666666666667
20
-8.5562500000000004
30
0
10
3.416666666666667
20
-8.5760416666666668
30
0
0
SPLINE
5
387
100
AcDbEntity
8
0
100
AcDbSpline
70
4
71
3
72
8
73
4
74
0
42
0.000000001
43
0.0000000001
44
0.0000000001
40
0
40
0
40
0
40
0
40
1
40
1
40
1
40
1
41
1
41
1
41
1
41
1
10
3.416666666666667
20
-8.5760416666666668
30
0
10
3.416666666666667
20
-8.6083333333333343
30
0
10
3.4968750000000002
20
-8.7468750000000011
30
0
10
3.5395833333333337
20
-8.7885416666666671
30
0
0
SPLINE
5
388
100
AcDbEntity
8
0
100
AcDbSpline
70
4
71
3
72
8
73
4
74
0
42
0.000000001
43
0.0000000001
44
0.0000000001
40
0
40
0
40
0
40
0
40
1
40
1
40
1
40
1
41
1
41
1
41
1
41
1
10
3.5395833333333337
20
-8.7885416666666671
30
0
10
3.6270833333333341
20
-8.8729166666666668
30
0
10
3.6656250000000004
20
-8.892708333333335
30
0
10
3.7822916666666671
20
-8.9177083333333336
30
0
0
SPLINE
5
389
100
AcDbEntity
8
0
100
AcDbSpline
70
4
71
3
72
8
73
4
74
0
42
0.000000001
43
0.0000000001
44
0.0000000001
40
0
40
0
40
0
40
0
40
1
40
1
40
1
40
1
41
1
41
1
41
1
41
1
10
3.7822916666666671
20
-8.9177083333333336
30
0
10
3.8791666666666673
20
-8.9375
30
0
10
3.8989583333333337
20
-8.9385416666666675
30
0
10
3.984375
20
-8.9281250000000014
30
0
0
SPLINE
5
390
100
AcDbEntity
8
0
100
AcDbSpline
70
4
71
3
72
8
73
4
74
0
42
0.000000001
43
0.0000000001
44
0.0000000001
40
0
40
0
40
0
40
0
40
1
40
1
40
1
40
1
41
1
41
1
41
1
41
1
10
3.984375
20
-8.9281250000000014
30
0
10
4.0958333333333341
20
-8.9135416666666671
30
0
10
4.1854166666666677
20
-8.8916666666666675
30
0
10
4.244791666666667
20
-8.8635416666666682
30
0
0
SPLINE
5
391
100
AcDbEntity
8
0
100
AcDbSpline
70
4
71
3
72
8
73
4
74
0
42
0.000000001
43
0.0000000001
44
0.0000000001
40
0
40
0
40
0
40
0
40
1
40
1
40
1
40
1
41
1
41
1
41
1
41
1
10
4.244791666666667
20
-8.8635416666666682
30
0
10
4.2989583333333341
20
-8.8375000000000004
30
0
10
4.4562500000000007
20
-8.6979166666666679
30
0
10
4.5531250000000005
20
-8.5875000000000004
30
0
0
SPLINE
5
392
100
AcDbEntity
8
0
100
AcDbSpline
70
4
71
3
72
8
73
4
74
0
42
0.000000001
43
0.0000000001
44
0.0000000001
40
0
40
0
40
0
40
0
40
1
40
1
40
1
40
1
41
1
41
1
41
1
41
1
10
4.5531250000000005
20
-8.5875000000000004
30
0
10
4.7770833333333336
20
-8.3343749999999996
30
0
10
5.0166666666666675
20
-7.885416666666667
30
0
10
5.1187500000000004
20
-7.5260416666666679
30
0
0
SPLINE
5
393
100
AcDbEntity
8
0
100
AcDbSpline
70
4
71
3
72
8
73
4
74
0
42
0.000000001
43
0.0000000001
44
0.0000000001
40
0
40
0
40
0
40
0
40
1
40
1
40
1
40
1
41
1
41
1
41
1
41
1
10
5.1187500000000004
20
-7.5260416666666679
30
0
10
5.1333333333333337
20
-7.4739583333333339
30
0
10
5.1572916666666675
20
-7.3875000000000011
30
0
10
5.1729166666666675
20
-7.3333333333333339
30
0
0
SPLINE
5
394
100
AcDbEntity
8
0
100
AcDbSpline
70
4
71
3
72
8
73
4
74
0
42
0.000000001
43
0.0000000001
44
0.0000000001
40
0
40
0
40
0
40
0
40
1
40
1
40
1
40
1
41
1
41
1
41
1
41
1
10
5.1729166666666675
20
-7.3333333333333339
30
0
10
5.1885416666666675
20
-7.2791666666666659
30
0
10
5.2093750000000005
20
-7.1916666666666664
30
0
10
5.21875
20
-7.1406250000000009
30
0
0
SPLINE
5
395
100
AcDbEntity
8
0
100
AcDbSpline
70
4
71
3
72
8
73
4
74
0
42
0.000000001
43
0.0000000001
44
0.0000000001
40
0
40
0
40
0
40
0
40
1
40
1
40
1
40
1
41
1
41
1
41
1
41
1
10
5.21875
20
-7.1406250000000009
30
0
10
5.2281250000000004
20
-7.088541666666667
30
0
10
5.2479166666666677
20
-6.9979166666666677
30
0
10
5.2614583333333336
20
-6.9385416666666657
30
0
0
LINE
5
396
100
AcDbEntity
8
0
100
AcDbLine
10
5.2614583333333336
20
-6.9385416666666657
30
0
11
5.2864583333333339
21
-6.8312499999999998
31
0
0
LINE
5
397
100
AcDbEntity
8
0
100
AcDbLine
10
5.2864583333333339
20
-6.8312499999999998
30
0
11
5.3927083333333341
21
-6.7781250000000011
31
0
0
SPLINE
5
398
100
AcDbEntity
8
0
100
AcDbSpline
70
4
71
3
72
8
73
4
74
0
42
0.000000001
43
0.0000000001
44
0.0000000001
40
0
40
0
40
0
40
0
40
1
40
1
40
1
40
1
41
1
41
1
41
1
41
1
10
5.3927083333333341
20
-6.7781250000000011
30
0
10
5.4510416666666677
20
-6.7489583333333334
30
0
10
5.5020833333333341
20
-6.7281250000000004
30
0
10
5.5062500000000005
20
-6.7312500000000011
30
0
0
SPLINE
5
399
100
AcDbEntity
8
0
100
AcDbSpline
70
4
71
3
72
8
73
4
74
0
42
0.000000001
43
0.0000000001
44
0.0000000001
40
0
40
0
40
0
40
0
40
1
40
1
40
1
40
1
41
1
41
1
41
1
41
1
10
5.5062500000000005
20
-6.7312500000000011
30
0
10
5.5093749999999995
20
-6.7354166666666657
30
0
10
5.5010416666666675
20
-6.819791666666668
30
0
10
5.4864583333333341
20
-6.9187500000000011
30
0
0
SPLINE
5
400
100
AcDbEntity
8
0
100
AcDbSpline
70
4
71
3
72
8
73
4
74
0
42
0.000000001
43
0.0000000001
44
0.0000000001
40
0
40
0
40
0
40
0
40
1
40
1
40
1
40
1
41
1
41
1
41
1
41
1
10
5.4864583333333341
20
-6.9187500000000011
30
0
10
5.4708333333333341
20
-7.0177083333333332
30
0
10
5.4541666666666675
20
-7.1385416666666668
30
0
10
5.447916666666667
20
-7.1875
30
0
0
SPLINE
5
401
100
AcDbEntity
8
0
100
AcDbSpline
70
4
71
3
72
8
73
4
74
0
42
0.000000001
43
0.0000000001
44
0.0000000001
40
0
40
0
40
0
40
0
40
1
40
1
40
1
40
1
41
1
41
1
41
1
41
1
10
5.447916666666667
20
-7.1875
30
0
10
5.4270833333333339
20
-7.3614583333333341
30
0
10
5.4416666666666664
20
-7.6552083333333343
30
0
10
5.476041666666668
20
-7.7343750000000009
30
0
0
SPLINE
5
402
100
AcDbEntity
8
0
100
AcDbSpline
70
4
71
3
72
8
73
4
74
0
42
0.000000001
43
0.0000000001
44
0.0000000001
40
0
40
0
40
0
40
0
40
1
40
1
40
1
40
1
41
1
41
1
41
1
41
1
10
5.476041666666668
20
-7.7343750000000009
30
0
10
5.5114583333333336
20
-7.8177083333333339
30
0
10
5.5833333333333339
20
-7.9333333333333327
30
0
10
5.6125000000000016
20
-7.9552083333333341
30
0
0
SPLINE
5
403
100
AcDbEntity
8
0
100
AcDbSpline
70
4
71
3
72
8
73
4
74
0
42
0.000000001
43
0.0000000001
44
0.0000000001
40
0
40
0
40
0
40
0
40
1
40
1
40
1
40
1
41
1
41
1
41
1
41
1
10
5.6125000000000016
20
-7.9552083333333341
30
0
10
5.6739583333333341
20
-8.0010416666666657
30
0
10
5.7687500000000007
20
-8.03125
30
0
10
5.8531250000000004
20
-8.0322916666666675
30
0
0
SPLINE
5
404
100
AcDbEntity
8
0
100
AcDbSpline
70
4
71
3
72
8
73
4
74
0
42
0.000000001
43
0.0000000001
44
0.0000000001
40
0
40
0
40
0
40
0
40
1
40
1
40
1
40
1
41
1
41
1
41
1
41
1
10
5.8531250000000004
20
-8.0322916666666675
30
0
10
5.9812500000000011
20
-8.033333333333335
30
0
10
6.0833333333333339
20
-8.002083333333335
30
0
10
6.257291666666668
20
-7.908333333333335
30
0
0
SPLINE
5
405
100
AcDbEntity
8
0
100
AcDbSpline
70
4
71
3
72
8
73
4
74
0
42
0.000000001
43
0.0000000001
44
0.0000000001
40
0
40
0
40
0
40
0
40
1
40
1
40
1
40
1
41
1
41
1
41
1
41
1
10
6.257291666666668
20
-7.908333333333335
30
0
10
6.3395833333333345
20
-7.8635416666666664
30
0
10
6.4885416666666682
20
-7.7302083333333327
30
0
10
6.8052083333333346
20
-7.4177083333333327
30
0
0
SPLINE
5
406
100
AcDbEntity
8
0
100
AcDbSpline
70
4
71
3
72
8
73
4
74
0
42
0.000000001
43
0.0000000001
44
0.0000000001
40
0
40
0
40
0
40
0
40
1
40
1
40
1
40
1
41
1
41
1
41
1
41
1
10
6.8052083333333346
20
-7.4177083333333327
30
0
10
6.9927083333333346
20
-7.2322916666666668
30
0
10
7.1489583333333346
20
-7.0822916666666664
30
0
10
7.1520833333333336
20
-7.0854166666666671
30
0
0
SPLINE
5
407
100
AcDbEntity
8
0
100
AcDbSpline
70
4
71
3
72
8
73
4
74
0
42
0.000000001
43
0.0000000001
44
0.0000000001
40
0
40
0
40
0
40
0
40
1
40
1
40
1
40
1
41
1
41
1
41
1
41
1
10
7.1520833333333336
20
-7.0854166666666671
30
0
10
7.1552083333333343
20
-7.088541666666667
30
0
10
7.1625000000000005
20
-7.1395833333333334
30
0
10
7.1677083333333336
20
-7.1989583333333336
30
0
0
SPLINE
5
408
100
AcDbEntity
8
0
100
AcDbSpline
70
4
71
3
72
8
73
4
74
0
42
0.000000001
43
0.0000000001
44
0.0000000001
40
0
40
0
40
0
40
0
40
1
40
1
40
1
40
1
41
1
41
1
41
1
41
1
10
7.1677083333333336
20
-7.1989583333333336
30
0
10
7.1812500000000012
20
-7.3385416666666679
30
0
10
7.1989583333333345
20
-7.3927083333333341
30
0
10
7.2479166666666677
20
-7.4406249999999998
30
0
0
SPLINE
5
409
100
AcDbEntity
8
0
100
AcDbSpline
70
4
71
3
72
8
73
4
74
0
42
0.000000001
43
0.0000000001
44
0.0000000001
40
0
40
0
40
0
40
0
40
1
40
1
40
1
40
1
41
1
41
1
41
1
41
1
10
7.2479166666666677
20
-7.4406249999999998
30
0
10
7.3093750000000011
20
-7.5010416666666657
30
0
10
7.3760416666666675
20
-7.5260416666666679
30
0
10
7.4750000000000005
20
-7.5260416666666679
30
0
0
LINE
5
410
100
AcDbEntity
8
0
100
AcDbLine
10
7.4750000000000005
20
-7.5260416666666679
30
0
11
7.5593750000000011
21
-7.5260416666666679
31
0
0
LINE
5
411
100
AcDbEntity
8
0
100
AcDbLine
10
7.5593750000000011
20
-7.5260416666666679
30
0
11
7.7302083333333336
21
-7.4416666666666673
31
0
0
SPLINE
5
412
100
AcDbEntity
8
0
100
AcDbSpline
70
4
71
3
72
8
73
4
74
0
42
0.000000001
43
0.0000000001
44
0.0000000001
40
0
40
0
40
0
40
0
40
1
40
1
40
1
40
1
41
1
41
1
41
1
41
1
10
7.7302083333333336
20
-7.4416666666666673
30
0
10
7.9145833333333355
20
-7.3510416666666671
30
0
10
8.1072916666666686
20
-7.2270833333333337
30
0
10
8.3093750000000011
20
-7.067708333333333
30
0
0
SPLINE
5
413
100
AcDbEntity
8
0
100
AcDbSpline
70
4
71
3
72
8
73
4
74
0
42
0.000000001
43
0.0000000001
44
0.0000000001
40
0
40
0
40
0
40
0
40
1
40
1
40
1
40
1
41
1
41
1
41
1
41
1
10
8.3093750000000011
20
-7.067708333333333
30
0
10
8.3802083333333339
20
-7.0135416666666668
30
0
10
8.4489583333333336
20
-6.9635416666666679
30
0
10
8.4625000000000021
20
-6.958333333333333
30
0
0
SPLINE
5
414
100
AcDbEntity
8
0
100
AcDbSpline
70
4
71
3
72
8
73
4
74
0
42
0.000000001
43
0.0000000001
44
0.0000000001
40
0
40
0
40
0
40
0
40
1
40
1
40
1
40
1
41
1
41
1
41
1
41
1
10
8.4625000000000021
20
-6.958333333333333
30
0
10
8.484375
20
-6.9500000000000002
30
0
10
8.4979166666666686
20
-6.9572916666666673
30
0
10
8.5687499999999996
20
-7.0166666666666657
30
0
0
SPLINE
5
415
100
AcDbEntity
8
0
100
AcDbSpline
70
4
71
3
72
8
73
4
74
0
42
0.000000001
43
0.0000000001
44
0.0000000001
40
0
40
0
40
0
40
0
40
1
40
1
40
1
40
1
41
1
41
1
41
1
41
1
10
8.5687499999999996
20
-7.0166666666666657
30
0
10
8.6614583333333339
20
-7.09375
30
0
10
8.7166666666666686
20
-7.1145833333333339
30
0
10
8.8218750000000004
20
-7.1145833333333339
30
0
0
SPLINE
5
416
100
AcDbEntity
8
0
100
AcDbSpline
70
4
71
3
72
8
73
4
74
0
42
0.000000001
43
0.0000000001
44
0.0000000001
40
0
40
0
40
0
40
0
40
1
40
1
40
1
40
1
41
1
41
1
41
1
41
1
10
8.8218750000000004
20
-7.1145833333333339
30
0
10
8.9614583333333346
20
-7.1135416666666664
30
0
10
9.0354166666666682
20
-7.0760416666666659
30
0
10
9.1812500000000021
20
-6.932291666666667
30
0
0
SPLINE
5
417
100
AcDbEntity
8
0
100
AcDbSpline
70
4
71
3
72
8
73
4
74
0
42
0.000000001
43
0.0000000001
44
0.0000000001
40
0
40
0
40
0
40
0
40
1
40
1
40
1
40
1
41
1
41
1
41
1
41
1
10
9.1812500000000021
20
-6.932291666666667
30
0
10
9.3156250000000025
20
-6.7989583333333341
30
0
10
9.3635416666666682
20
-6.7333333333333334
30
0
10
9.5145833333333343
20
-6.4781249999999995
30
0
0
SPLINE
5
418
100
AcDbEntity
8
0
100
AcDbSpline
70
4
71
3
72
8
73
4
74
0
42
0.000000001
43
0.0000000001
44
0.0000000001
40
0
40
0
40
0
40
0
40
1
40
1
40
1
40
1
41
1
41
1
41
1
41
1
10
9.5145833333333343
20
-6.4781249999999995
30
0
10
9.5270833333333353
20
-6.4583333333333339
30
0
10
9.5531250000000014
20
-6.4156250000000004
30
0
10
9.5739583333333336
20
-6.3843749999999995
30
0
0
SPLINE
5
419
100
AcDbEntity
8
0
100
AcDbSpline
70
4
71
3
72
8
73
4
74
0
42
0.000000001
43
0.0000000001
44
0.0000000001
40
0
40
0
40
0
40
0
40
1
40
1
40
1
40
1
41
1
41
1
41
1
41
1
10
9.5739583333333336
20
-6.3843749999999995
30
0
10
9.6218750000000011
20
-6.3125
30
0
10
9.6385416666666686
20
-6.2781250000000011
30
0
10
9.7864583333333339
20
-5.96875
30
0
0
SPLINE
5
420
100
AcDbEntity
8
0
100
AcDbSpline
70
4
71
3
72
8
73
4
74
0
42
0.000000001
43
0.0000000001
44
0.0000000001
40
0
40
0
40
0
40
0
40
1
40
1
40
1
40
1
41
1
41
1
41
1
41
1
10
9.7864583333333339
20
-5.96875
30
0
10
9.8541666666666679
20
-5.8281250000000009
30
0
10
9.9479166666666679
20
-5.6385416666666668
30
0
10
9.9947916666666679
20
-5.5468750000000009
30
0
0
SPLINE
5
421
100
AcDbEntity
8
0
100
AcDbSpline
70
4
71
3
72
8
73
4
74
0
42
0.000000001
43
0.0000000001
44
0.0000000001
40
0
40
0
40
0
40
0
40
1
40
1
40
1
40
1
41
1
41
1
41
1
41
1
10
9.9947916666666679
20
-5.5468750000000009
30
0
10
10.042708333333334
20
-5.4552083333333332
30
0
10
10.0875
20
-5.3614583333333332
30
0
10
10.09375
20
-5.338541666666667
30
0
0
SPLINE
5
422
100
AcDbEntity
8
0
100
AcDbSpline
70
4
71
3
72
8
73
4
74
0
42
0.000000001
43
0.0000000001
44
0.0000000001
40
0
40
0
40
0
40
0
40
1
40
1
40
1
40
1
41
1
41
1
41
1
41
1
10
10.09375
20
-5.338541666666667
30
0
10
10.101041666666669
20
-5.3156249999999998
30
0
10
10.113541666666668
20
-5.2875000000000005
30
0
10
10.120833333333335
20
-5.276041666666667
30
0
0
SPLINE
5
423
100
AcDbEntity
8
0
100
AcDbSpline
70
4
71
3
72
8
73
4
74
0
42
0.000000001
43
0.0000000001
44
0.0000000001
40
0
40
0
40
0
40
0
40
1
40
1
40
1
40
1
41
1
41
1
41
1
41
1
10
10.120833333333335
20
-5.276041666666667
30
0
10
10.128125000000001
20
-5.2645833333333334
30
0
10
10.177083333333334
20
-5.161458333333333
30
0
10
10.229166666666666
20
-5.046875
30
0
0
SPLINE
5
424
100
AcDbEntity
8
0
100
AcDbSpline
70
4
71
3
72
8
73
4
74
0
42
0.000000001
43
0.0000000001
44
0.0000000001
40
0
40
0
40
0
40
0
40
1
40
1
40
1
40
1
41
1
41
1
41
1
41
1
10
10.229166666666666
20
-5.046875
30
0
10
10.440625000000001
20
-4.5854166666666663
30
0
10
10.537500000000001
20
-4.4437499999999996
30
0
10
10.587500000000002
20
-4.5229166666666663
30
0
0
SPLINE
5
425
100
AcDbEntity
8
0
100
AcDbSpline
70
4
71
3
72
8
73
4
74
0
42
0.000000001
43
0.0000000001
44
0.0000000001
40
0
40
0
40
0
40
0
40
1
40
1
40
1
40
1
41
1
41
1
41
1
41
1
10
10.587500000000002
20
-4.5229166666666663
30
0
10
10.6
20
-4.5437499999999993
30
0
10
10.584375
20
-4.6531250000000002
30
0
10
10.552083333333334
20
-4.760416666666667
30
0
0
SPLINE
5
426
100
AcDbEntity
8
0
100
AcDbSpline
70
4
71
3
72
8
73
4
74
0
42
0.000000001
43
0.0000000001
44
0.0000000001
40
0
40
0
40
0
40
0
40
1
40
1
40
1
40
1
41
1
41
1
41
1
41
1
10
10.552083333333334
20
-4.760416666666667
30
0
10
10.541666666666668
20
-4.7979166666666657
30
0
10
10.515625000000002
20
-4.901041666666667
30
0
10
10.494791666666668
20
-4.9895833333333339
30
0
0
SPLINE
5
427
100
AcDbEntity
8
0
100
AcDbSpline
70
4
71
3
72
8
73
4
74
0
42
0.000000001
43
0.0000000001
44
0.0000000001
40
0
40
0
40
0
40
0
40
1
40
1
40
1
40
1
41
1
41
1
41
1
41
1
10
10.494791666666668
20
-4.9895833333333339
30
0
10
10.473958333333334
20
-5.078125
30
0
10
10.442708333333334
20
-5.197916666666667
30
0
10
10.427083333333334
20
-5.255208333333333
30
0
0
SPLINE
5
428
100
AcDbEntity
8
0
100
AcDbSpline
70
4
71
3
72
8
73
4
74
0
42
0.000000001
43
0.0000000001
44
0.0000000001
40
0
40
0
40
0
40
0
40
1
40
1
40
1
40
1
41
1
41
1
41
1
41
1
10
10.427083333333334
20
-5.255208333333333
30
0
10
10.410416666666668
20
-5.3125
30
0
10
10.354166666666668
20
-5.5354166666666664
30
0
10
10.302083333333334
20
-5.75
30
0
0
SPLINE
5
429
100
AcDbEntity
8
0
100
AcDbSpline
70
4
71
3
72
8
73
4
74
0
42
0.000000001
43
0.0000000001
44
0.0000000001
40
0
40
0
40
0
40
0
40
1
40
1
40
1
40
1
41
1
41
1
41
1
41
1
10
10.302083333333334
20
-5.75
30
0
10
10.25
20
-5.9645833333333327
30
0
10
10.193750000000001
20
-6.1760416666666673
30
0
10
10.177083333333334
20
-6.2187500000000009
30
0
0
SPLINE
5
430
100
AcDbEntity
8
0
100
AcDbSpline
70
4
71
3
72
8
73
4
74
0
42
0.000000001
43
0.0000000001
44
0.0000000001
40
0
40
0
40
0
40
0
40
1
40
1
40
1
40
1
41
1
41
1
41
1
41
1
10
10.177083333333334
20
-6.2187500000000009
30
0
10
10.144791666666668
20
-6.3041666666666671
30
0
10
10.104166666666668
20
-6.4687500000000009
30
0
10
10.104166666666668
20
-6.5177083333333341
30
0
0
SPLINE
5
431
100
AcDbEntity
8
0
100
AcDbSpline
70
4
71
3
72
8
73
4
74
0
42
0.000000001
43
0.0000000001
44
0.0000000001
40
0
40
0
40
0
40
0
40
1
40
1
40
1
40
1
41
1
41
1
41
1
41
1
10
10.104166666666668
20
-6.5177083333333341
30
0
10
10.104166666666668
20
-6.548958333333335
30
0
10
10.131250000000001
20
-6.583333333333333
30
0
10
10.154166666666669
20
-6.583333333333333
30
0
0
SPLINE
5
432
100
AcDbEntity
8
0
100
AcDbSpline
70
4
71
3
72
8
73
4
74
0
42
0.000000001
43
0.0000000001
44
0.0000000001
40
0
40
0
40
0
40
0
40
1
40
1
40
1
40
1
41
1
41
1
41
1
41
1
10
10.154166666666669
20
-6.583333333333333
30
0
10
10.161458333333334
20
-6.583333333333333
30
0
10
10.206250000000001
20
-6.5645833333333341
30
0
10
10.255208333333334
20
-6.541666666666667
30
0
0
SPLINE
5
433
100
AcDbEntity
8
0
100
AcDbSpline
70
4
71
3
72
8
73
4
74
0
42
0.000000001
43
0.0000000001
44
0.0000000001
40
0
40
0
40
0
40
0
40
1
40
1
40
1
40
1
41
1
41
1
41
1
41
1
10
10.255208333333334
20
-6.541666666666667
30
0
10
10.304166666666669
20
-6.5187499999999998
30
0
10
10.347916666666668
20
-6.5
30
0
10
10.354166666666668
20
-6.5
30
0
0
SPLINE
5
434
100
AcDbEntity
8
0
100
AcDbSpline
70
4
71
3
72
8
73
4
74
0
42
0.000000001
43
0.0000000001
44
0.0000000001
40
0
40
0
40
0
40
0
40
1
40
1
40
1
40
1
41
1
41
1
41
1
41
1
10
10.354166666666668
20
-6.5
30
0
10
10.383333333333335
20
-6.5
30
0
10
10.594791666666667
20
-6.4208333333333334
30
0
10
10.637500000000001
20
-6.3937500000000007
30
0
0
SPLINE
5
435
100
AcDbEntity
8
0
100
AcDbSpline
70
4
71
3
72
8
73
4
74
0
42
0.000000001
43
0.0000000001
44
0.0000000001
40
0
40
0
40
0
40
0
40
1
40
1
40
1
40
1
41
1
41
1
41
1
41
1
10
10.637500000000001
20
-6.3937500000000007
30
0
10
10.707291666666668
20
-6.3499999999999996
30
0
10
10.739583333333334
20
-6.2781250000000011
30
0
10
10.789583333333333
20
-6.0510416666666664
30
0
0
SPLINE
5
436
100
AcDbEntity
8
0
100
AcDbSpline
70
4
71
3
72
8
73
4
74
0
42
0.000000001
43
0.0000000001
44
0.0000000001
40
0
40
0
40
0
40
0
40
1
40
1
40
1
40
1
41
1
41
1
41
1
41
1
10
10.789583333333333
20
-6.0510416666666664
30
0
10
10.8125
20
-5.9510416666666659
30
0
10
10.846875000000001
20
-5.8041666666666663
30
0
10
10.867708333333333
20
-5.7239583333333339
30
0
0
SPLINE
5
437
100
AcDbEntity
8
0
100
AcDbSpline
70
4
71
3
72
8
73
4
74
0
42
0.000000001
43
0.0000000001
44
0.0000000001
40
0
40
0
40
0
40
0
40
1
40
1
40
1
40
1
41
1
41
1
41
1
41
1
10
10.867708333333333
20
-5.7239583333333339
30
0
10
10.888541666666667
20
-5.6437499999999998
30
0
10
10.938541666666667
20
-5.4447916666666663
30
0
10
10.979166666666668
20
-5.28125
30
0
0
SPLINE
5
438
100
AcDbEntity
8
0
100
AcDbSpline
70
4
71
3
72
8
73
4
74
0
42
0.000000001
43
0.0000000001
44
0.0000000001
40
0
40
0
40
0
40
0
40
1
40
1
40
1
40
1
41
1
41
1
41
1
41
1
10
10.979166666666668
20
-5.28125
30
0
10
11.054166666666669
20
-4.9812499999999993
30
0
10
11.089583333333335
20
-4.8499999999999996
30
0
10
11.146875000000001
20
-4.6635416666666663
30
0
0
SPLINE
5
439
100
AcDbEntity
8
0
100
AcDbSpline
70
4
71
3
72
8
73
4
74
0
42
0.000000001
43
0.0000000001
44
0.0000000001
40
0
40
0
40
0
40
0
40
1
40
1
40
1
40
1
41
1
41
1
41
1
41
1
10
11.146875000000001
20
-4.6635416666666663
30
0
10
11.183333333333335
20
-4.5437499999999993
30
0
10
11.260416666666668
20
-4.4229166666666666
30
0
10
11.402083333333335
20
-4.2593750000000004
30
0
0
SPLINE
5
440
100
AcDbEntity
8
0
100
AcDbSpline
70
4
71
3
72
8
73
4
74
0
42
0.000000001
43
0.0000000001
44
0.0000000001
40
0
40
0
40
0
40
0
40
1
40
1
40
1
40
1
41
1
41
1
41
1
41
1
10
11.402083333333335
20
-4.2593750000000004
30
0
10
11.495833333333335
20
-4.1499999999999995
30
0
10
11.565625000000001
20
-4.104166666666667
30
0
10
11.635416666666668
20
-4.104166666666667
30
0
0
SPLINE
5
441
100
AcDbEntity
8
0
100
AcDbSpline
70
4
71
3
72
8
73
4
74
0
42
0.000000001
43
0.0000000001
44
0.0000000001
40
0
40
0
40
0
40
0
40
1
40
1
40
1
40
1
41
1
41
1
41
1
41
1
10
11.635416666666668
20
-4.104166666666667
30
0
10
11.681250000000002
20
-4.104166666666667
30
0
10
11.717708333333336
20
-4.1374999999999993
30
0
10
11.728125
20
-4.1885416666666657
30
0
0
SPLINE
5
442
100
AcDbEntity
8
0
100
AcDbSpline
70
4
71
3
72
8
73
4
74
0
42
0.000000001
43
0.0000000001
44
0.0000000001
40
0
40
0
40
0
40
0
40
1
40
1
40
1
40
1
41
1
41
1
41
1
41
1
10
11.728125
20
-4.1885416666666657
30
0
10
11.736458333333335
20
-4.2281250000000004
30
0
10
11.644791666666668
20
-4.6958333333333337
30
0
10
11.562500000000002
20
-5.03125
30
0
0
SPLINE
5
443
100
AcDbEntity
8
0
100
AcDbSpline
70
4
71
3
72
8
73
4
74
0
42
0.000000001
43
0.0000000001
44
0.0000000001
40
0
40
0
40
0
40
0
40
1
40
1
40
1
40
1
41
1
41
1
41
1
41
1
10
11.562500000000002
20
-5.03125
30
0
10
11.534375000000001
20
-5.1489583333333329
30
0
10
11.5
20
-5.2958333333333334
30
0
10
11.486458333333335
20
-5.359375
30
0
0
SPLINE
5
444
100
AcDbEntity
8
0
100
AcDbSpline
70
4
71
3
72
8
73
4
74
0
42
0.000000001
43
0.0000000001
44
0.0000000001
40
0
40
0
40
0
40
0
40
1
40
1
40
1
40
1
41
1
41
1
41
1
41
1
10
11.486458333333335
20
-5.359375
30
0
10
11.472916666666668
20
-5.421875
30
0
10
11.432291666666668
20
-5.5843750000000005
30
0
10
11.397916666666667
20
-5.71875
30
0
0
SPLINE
5
445
100
AcDbEntity
8
0
100
AcDbSpline
70
4
71
3
72
8
73
4
74
0
42
0.000000001
43
0.0000000001
44
0.0000000001
40
0
40
0
40
0
40
0
40
1
40
1
40
1
40
1
41
1
41
1
41
1
41
1
10
11.397916666666667
20
-5.71875
30
0
10
11.321875000000002
20
-6.0135416666666668
30
0
10
11.313541666666667
20
-6.0625
30
0
10
11.338541666666668
20
-6.0864583333333337
30
0
0
SPLINE
5
446
100
AcDbEntity
8
0
100
AcDbSpline
70
4
71
3
72
8
73
4
74
0
42
0.000000001
43
0.0000000001
44
0.0000000001
40
0
40
0
40
0
40
0
40
1
40
1
40
1
40
1
41
1
41
1
41
1
41
1
10
11.338541666666668
20
-6.0864583333333337
30
0
10
11.347916666666668
20
-6.0958333333333341
30
0
10
11.369791666666668
20
-6.104166666666667
30
0
10
11.386458333333335
20
-6.104166666666667
30
0
0
SPLINE
5
447
100
AcDbEntity
8
0
100
AcDbSpline
70
4
71
3
72
8
73
4
74
0
42
0.000000001
43
0.0000000001
44
0.0000000001
40
0
40
0
40
0
40
0
40
1
40
1
40
1
40
1
41
1
41
1
41
1
41
1
10
11.386458333333335
20
-6.104166666666667
30
0
10
11.420833333333336
20
-6.104166666666667
30
0
10
11.639583333333336
20
-6.0364583333333339
30
0
10
11.672916666666669
20
-6.015625
30
0
0
SPLINE
5
448
100
AcDbEntity
8
0
100
AcDbSpline
70
4
71
3
72
8
73
4
74
0
42
0.000000001
43
0.0000000001
44
0.0000000001
40
0
40
0
40
0
40
0
40
1
40
1
40
1
40
1
41
1
41
1
41
1
41
1
10
11.672916666666669
20
-6.015625
30
0
10
11.685416666666667
20
-6.007291666666668
30
0
10
11.736458333333335
20
-5.9895833333333339
30
0
10
11.786458333333334
20
-5.9749999999999988
30
0
0
SPLINE
5
449
100
AcDbEntity
8
0
100
AcDbSpline
70
4
71
3
72
8
73
4
74
0
42
0.000000001
43
0.0000000001
44
0.0000000001
40
0
40
0
40
0
40
0
40
1
40
1
40
1
40
1
41
1
41
1
41
1
41
1
10
11.786458333333334
20
-5.9749999999999988
30
0
10
11.876041666666669
20
-5.9489583333333327
30
0
10
11.908333333333335
20
-5.9302083333333329
30
0
10
11.928125000000001
20
-5.8937499999999998
30
0
0
SPLINE
5
450
100
AcDbEntity
8
0
100
AcDbSpline
70
4
71
3
72
8
73
4
74
0
42
0.000000001
43
0.0000000001
44
0.0000000001
40
0
40
0
40
0
40
0
40
1
40
1
40
1
40
1
41
1
41
1
41
1
41
1
10
11.928125000000001
20
-5.8937499999999998
30
0
10
11.934375000000001
20
-5.8833333333333329
30
0
10
11.961458333333335
20
-5.7614583333333336
30
0
10
11.989583333333334
20
-5.6218750000000002
30
0
0
SPLINE
5
451
100
AcDbEntity
8
0
100
AcDbSpline
70
4
71
3
72
8
73
4
74
0
42
0.000000001
43
0.0000000001
44
0.0000000001
40
0
40
0
40
0
40
0
40
1
40
1
40
1
40
1
41
1
41
1
41
1
41
1
10
11.989583333333334
20
-5.6218750000000002
30
0
10
12.017708333333335
20
-5.4833333333333334
30
0
10
12.052083333333334
20
-5.322916666666667
30
0
10
12.065625000000001
20
-5.265625
30
0
0
SPLINE
5
452
100
AcDbEntity
8
0
100
AcDbSpline
70
4
71
3
72
8
73
4
74
0
42
0.000000001
43
0.0000000001
44
0.0000000001
40
0
40
0
40
0
40
0
40
1
40
1
40
1
40
1
41
1
41
1
41
1
41
1
10
12.065625000000001
20
-5.265625
30
0
10
12.080208333333335
20
-5.208333333333333
30
0
10
12.107291666666667
20
-5.0749999999999993
30
0
10
12.125
20
-4.9687500000000009
30
0
0
SPLINE
5
453
100
AcDbEntity
8
0
100
AcDbSpline
70
4
71
3
72
8
73
4
74
0
42
0.000000001
43
0.0000000001
44
0.0000000001
40
0
40
0
40
0
40
0
40
1
40
1
40
1
40
1
41
1
41
1
41
1
41
1
10
12.125
20
-4.9687500000000009
30
0
10
12.143750000000001
20
-4.8624999999999998
30
0
10
12.166666666666668
20
-4.7406249999999996
30
0
10
12.177083333333334
20
-4.697916666666667
30
0
0
SPLINE
5
454
100
AcDbEntity
8
0
100
AcDbSpline
70
4
71
3
72
8
73
4
74
0
42
0.000000001
43
0.0000000001
44
0.0000000001
40
0
40
0
40
0
40
0
40
1
40
1
40
1
40
1
41
1
41
1
41
1
41
1
10
12.177083333333334
20
-4.697916666666667
30
0
10
12.188541666666667
20
-4.6552083333333334
30
0
10
12.211458333333333
20
-4.5437499999999993
30
0
10
12.228125000000002
20
-4.4510416666666659
30
0
0
SPLINE
5
455
100
AcDbEntity
8
0
100
AcDbSpline
70
4
71
3
72
8
73
4
74
0
42
0.000000001
43
0.0000000001
44
0.0000000001
40
0
40
0
40
0
40
0
40
1
40
1
40
1
40
1
41
1
41
1
41
1
41
1
10
12.228125000000002
20
-4.4510416666666659
30
0
10
12.263541666666667
20
-4.2614583333333327
30
0
10
12.288541666666667
20
-4.1770833333333339
30
0
10
12.335416666666669
20
-4.0937500000000009
30
0
0
SPLINE
5
456
100
AcDbEntity
8
0
100
AcDbSpline
70
4
71
3
72
8
73
4
74
0
42
0.000000001
43
0.0000000001
44
0.0000000001
40
0
40
0
40
0
40
0
40
1
40
1
40
1
40
1
41
1
41
1
41
1
41
1
10
12.335416666666669
20
-4.0937500000000009
30
0
10
12.378124999999999
20
-4.0187499999999998
30
0
10
12.475000000000003
20
-3.9104166666666669
30
0
10
12.566666666666668
20
-3.8364583333333333
30
0
0
SPLINE
5
457
100
AcDbEntity
8
0
100
AcDbSpline
70
4
71
3
72
8
73
4
74
0
42
0.000000001
43
0.0000000001
44
0.0000000001
40
0
40
0
40
0
40
0
40
1
40
1
40
1
40
1
41
1
41
1
41
1
41
1
10
12.566666666666668
20
-3.8364583333333333
30
0
10
12.635416666666668
20
-3.7802083333333329
30
0
10
12.643750000000001
20
-3.7760416666666665
30
0
10
12.705208333333335
20
-3.7729166666666663
30
0
0
SPLINE
5
458
100
AcDbEntity
8
0
100
AcDbSpline
70
4
71
3
72
8
73
4
74
0
42
0.000000001
43
0.0000000001
44
0.0000000001
40
0
40
0
40
0
40
0
40
1
40
1
40
1
40
1
41
1
41
1
41
1
41
1
10
12.705208333333335
20
-3.7729166666666663
30
0
10
12.753124999999999
20
-3.7697916666666669
30
0
10
12.777083333333335
20
-3.7729166666666663
30
0
10
12.796875
20
-3.7854166666666664
30
0
0
SPLINE
5
459
100
AcDbEntity
8
0
100
AcDbSpline
70
4
71
3
72
8
73
4
74
0
42
0.000000001
43
0.0000000001
44
0.0000000001
40
0
40
0
40
0
40
0
40
1
40
1
40
1
40
1
41
1
41
1
41
1
41
1
10
12.796875
20
-3.7854166666666664
30
0
10
12.860416666666669
20
-3.8270833333333329
30
0
10
12.85729166666667
20
-3.9854166666666662
30
0
10
12.787500000000001
20
-4.2989583333333332
30
0
0
SPLINE
5
460
100
AcDbEntity
8
0
100
AcDbSpline
70
4
71
3
72
8
73
4
74
0
42
0.000000001
43
0.0000000001
44
0.0000000001
40
0
40
0
40
0
40
0
40
1
40
1
40
1
40
1
41
1
41
1
41
1
41
1
10
12.787500000000001
20
-4.2989583333333332
30
0
10
12.761458333333335
20
-4.4124999999999996
30
0
10
12.735416666666671
20
-4.5499999999999998
30
0
10
12.729166666666668
20
-4.604166666666667
30
0
0
SPLINE
5
461
100
AcDbEntity
8
0
100
AcDbSpline
70
4
71
3
72
8
73
4
74
0
42
0.000000001
43
0.0000000001
44
0.0000000001
40
0
40
0
40
0
40
0
40
1
40
1
40
1
40
1
41
1
41
1
41
1
41
1
10
12.729166666666668
20
-4.604166666666667
30
0
10
12.721875000000001
20
-4.6583333333333323
30
0
10
12.690625000000001
20
-4.8156249999999998
30
0
10
12.658333333333335
20
-4.953125
30
0
0
SPLINE
5
462
100
AcDbEntity
8
0
100
AcDbSpline
70
4
71
3
72
8
73
4
74
0
42
0.000000001
43
0.0000000001
44
0.0000000001
40
0
40
0
40
0
40
0
40
1
40
1
40
1
40
1
41
1
41
1
41
1
41
1
10
12.658333333333335
20
-4.953125
30
0
10
12.602083333333333
20
-5.1927083333333339
30
0
10
12.600000000000001
20
-5.2093750000000005
30
0
10
12.598958333333334
20
-5.3510416666666663
30
0
0
SPLINE
5
463
100
AcDbEntity
8
0
100
AcDbSpline
70
4
71
3
72
8
73
4
74
0
42
0.000000001
43
0.0000000001
44
0.0000000001
40
0
40
0
40
0
40
0
40
1
40
1
40
1
40
1
41
1
41
1
41
1
41
1
10
12.598958333333334
20
-5.3510416666666663
30
0
10
12.598958333333334
20
-5.4927083333333329
30
0
10
12.600000000000001
20
-5.4989583333333334
30
0
10
12.623958333333334
20
-5.5250000000000004
30
0
0
SPLINE
5
464
100
AcDbEntity
8
0
100
AcDbSpline
70
4
71
3
72
8
73
4
74
0
42
0.000000001
43
0.0000000001
44
0.0000000001
40
0
40
0
40
0
40
0
40
1
40
1
40
1
40
1
41
1
41
1
41
1
41
1
10
12.623958333333334
20
-5.5250000000000004
30
0
10
12.705208333333335
20
-5.6114583333333332
30
0
10
12.855208333333334
20
-5.6145833333333339
30
0
10
12.980208333333335
20
-5.5322916666666666
30
0
0
SPLINE
5
465
100
AcDbEntity
8
0
100
AcDbSpline
70
4
71
3
72
8
73
4
74
0
42
0.000000001
43
0.0000000001
44
0.0000000001
40
0
40
0
40
0
40
0
40
1
40
1
40
1
40
1
41
1
41
1
41
1
41
1
10
12.980208333333335
20
-5.5322916666666666
30
0
10
13.04479166666667
20
-5.4885416666666664
30
0
10
13.358333333333334
20
-5.1854166666666668
30
0
10
13.397916666666667
20
-5.1260416666666675
30
0
0
SPLINE
5
466
100
AcDbEntity
8
0
100
AcDbSpline
70
4
71
3
72
8
73
4
74
0
42
0.000000001
43
0.0000000001
44
0.0000000001
40
0
40
0
40
0
40
0
40
1
40
1
40
1
40
1
41
1
41
1
41
1
41
1
10
13.397916666666667
20
-5.1260416666666675
30
0
10
13.415625000000002
20
-5.1000000000000005
30
0
10
13.457291666666666
20
-5.0499999999999998
30
0
10
13.48854166666667
20
-5.0156250000000009
30
0
0
SPLINE
5
467
100
AcDbEntity
8
0
100
AcDbSpline
70
4
71
3
72
8
73
4
74
0
42
0.000000001
43
0.0000000001
44
0.0000000001
40
0
40
0
40
0
40
0
40
1
40
1
40
1
40
1
41
1
41
1
41
1
41
1
10
13.48854166666667
20
-5.0156250000000009
30
0
10
13.520833333333336
20
-4.9802083333333336
30
0
10
13.571875000000002
20
-4.9145833333333329
30
0
10
13.603125000000002
20
-4.869791666666667
30
0
0
SPLINE
5
468
100
AcDbEntity
8
0
100
AcDbSpline
70
4
71
3
72
8
73
4
74
0
42
0.000000001
43
0.0000000001
44
0.0000000001
40
0
40
0
40
0
40
0
40
1
40
1
40
1
40
1
41
1
41
1
41
1
41
1
10
13.603125000000002
20
-4.869791666666667
30
0
10
13.70729166666667
20
-4.7177083333333334
30
0
10
13.741666666666667
20
-4.6749999999999998
30
0
10
13.751041666666669
20
-4.6843749999999993
30
0
0
SPLINE
5
469
100
AcDbEntity
8
0
100
AcDbSpline
70
4
71
3
72
8
73
4
74
0
42
0.000000001
43
0.0000000001
44
0.0000000001
40
0
40
0
40
0
40
0
40
1
40
1
40
1
40
1
41
1
41
1
41
1
41
1
10
13.751041666666669
20
-4.6843749999999993
30
0
10
13.756250000000001
20
-4.6895833333333332
30
0
10
13.76354166666667
20
-4.7374999999999998
30
0
10
13.766666666666669
20
-4.791666666666667
30
0
0
SPLINE
5
470
100
AcDbEntity
8
0
100
AcDbSpline
70
4
71
3
72
8
73
4
74
0
42
0.000000001
43
0.0000000001
44
0.0000000001
40
0
40
0
40
0
40
0
40
1
40
1
40
1
40
1
41
1
41
1
41
1
41
1
10
13.766666666666669
20
-4.791666666666667
30
0
10
13.777083333333335
20
-4.9562499999999998
30
0
10
13.811458333333336
20
-5.046875
30
0
10
13.892708333333333
20
-5.1177083333333329
30
0
0
SPLINE
5
471
100
AcDbEntity
8
0
100
AcDbSpline
70
4
71
3
72
8
73
4
74
0
42
0.000000001
43
0.0000000001
44
0.0000000001
40
0
40
0
40
0
40
0
40
1
40
1
40
1
40
1
41
1
41
1
41
1
41
1
10
13.892708333333333
20
-5.1177083333333329
30
0
10
13.980208333333335
20
-5.1947916666666663
30
0
10
14.161458333333334
20
-5.234375
30
0
10
14.219791666666669
20
-5.1895833333333323
30
0
0
SPLINE
5
472
100
AcDbEntity
8
0
100
AcDbSpline
70
4
71
3
72
8
73
4
74
0
42
0.000000001
43
0.0000000001
44
0.0000000001
40
0
40
0
40
0
40
0
40
1
40
1
40
1
40
1
41
1
41
1
41
1
41
1
10
14.219791666666669
20
-5.1895833333333323
30
0
10
14.233333333333336
20
-5.1791666666666663
30
0
10
14.268750000000002
20
-5.1572916666666675
30
0
10
14.297916666666669
20
-5.1416666666666666
30
0
0
SPLINE
5
473
100
AcDbEntity
8
0
100
AcDbSpline
70
4
71
3
72
8
73
4
74
0
42
0.000000001
43
0.0000000001
44
0.0000000001
40
0
40
0
40
0
40
0
40
1
40
1
40
1
40
1
41
1
41
1
41
1
41
1
10
14.297916666666669
20
-5.1416666666666666
30
0
10
14.369791666666668
20
-5.1031250000000004
30
0
10
14.454166666666667
20
-5.0135416666666668
30
0
10
14.590625000000001
20
-4.8333333333333339
30
0
0
SPLINE
5
474
100
AcDbEntity
8
0
100
AcDbSpline
70
4
71
3
72
8
73
4
74
0
42
0.000000001
43
0.0000000001
44
0.0000000001
40
0
40
0
40
0
40
0
40
1
40
1
40
1
40
1
41
1
41
1
41
1
41
1
10
14.590625000000001
20
-4.8333333333333339
30
0
10
14.753125000000002
20
-4.6177083333333329
30
0
10
14.762500000000001
20
-4.6010416666666663
30
0
10
14.908333333333337
20
-4.25
30
0
0
SPLINE
5
475
100
AcDbEntity
8
0
100
AcDbSpline
70
4
71
3
72
8
73
4
74
0
42
0.000000001
43
0.0000000001
44
0.0000000001
40
0
40
0
40
0
40
0
40
1
40
1
40
1
40
1
41
1
41
1
41
1
41
1
10
14.908333333333337
20
-4.25
30
0
10
15.011458333333337
20
-4.0010416666666657
30
0
10
15.102083333333336
20
-3.6843749999999997
30
0
10
15.126041666666669
20
-3.4864583333333328
30
0
0
SPLINE
5
476
100
AcDbEntity
8
0
100
AcDbSpline
70
4
71
3
72
8
73
4
74
0
42
0.000000001
43
0.0000000001
44
0.0000000001
40
0
40
0
40
0
40
0
40
1
40
1
40
1
40
1
41
1
41
1
41
1
41
1
10
15.126041666666669
20
-3.4864583333333328
30
0
10
15.141666666666669
20
-3.3552083333333327
30
0
10
15.129166666666668
20
-3.3708333333333322
30
0
10
15.305208333333336
20
-3.2770833333333322
30
0
0
SPLINE
5
477
100
AcDbEntity
8
0
100
AcDbSpline
70
4
71
3
72
8
73
4
74
0
42
0.000000001
43
0.0000000001
44
0.0000000001
40
0
40
0
40
0
40
0
40
1
40
1
40
1
40
1
41
1
41
1
41
1
41
1
10
15.305208333333336
20
-3.2770833333333322
30
0
10
15.366666666666669
20
-3.2437500000000004
30
0
10
15.43125
20
-3.2052083333333328
30
0
10
15.446875
20
-3.1916666666666669
30
0
0
SPLINE
5
478
100
AcDbEntity
8
0
100
AcDbSpline
70
4
71
3
72
8
73
4
74
0
42
0.000000001
43
0.0000000001
44
0.0000000001
40
0
40
0
40
0
40
0
40
1
40
1
40
1
40
1
41
1
41
1
41
1
41
1
10
15.446875
20
-3.1916666666666669
30
0
10
15.476041666666667
20
-3.1677083333333327
30
0
10
15.51041666666667
20
-3.1583333333333323
30
0
10
15.51041666666667
20
-3.1749999999999998
30
0
0
SPLINE
5
479
100
AcDbEntity
8
0
100
AcDbSpline
70
4
71
3
72
8
73
4
74
0
42
0.000000001
43
0.0000000001
44
0.0000000001
40
0
40
0
40
0
40
0
40
1
40
1
40
1
40
1
41
1
41
1
41
1
41
1
10
15.51041666666667
20
-3.1749999999999998
30
0
10
15.51041666666667
20
-3.1947916666666663
30
0
10
15.467708333333334
20
-3.369791666666667
30
0
10
15.434375000000003
20
-3.4895833333333335
30
0
0
SPLINE
5
480
100
AcDbEntity
8
0
100
AcDbSpline
70
4
71
3
72
8
73
4
74
0
42
0.000000001
43
0.0000000001
44
0.0000000001
40
0
40
0
40
0
40
0
40
1
40
1
40
1
40
1
41
1
41
1
41
1
41
1
10
15.434375000000003
20
-3.4895833333333335
30
0
10
15.414583333333335
20
-3.5614583333333334
30
0
10
15.387500000000001
20
-3.666666666666667
30
0
10
15.375000000000002
20
-3.7239583333333339
30
0
0
SPLINE
5
481
100
AcDbEntity
8
0
100
AcDbSpline
70
4
71
3
72
8
73
4
74
0
42
0.000000001
43
0.0000000001
44
0.0000000001
40
0
40
0
40
0
40
0
40
1
40
1
40
1
40
1
41
1
41
1
41
1
41
1
10
15.375000000000002
20
-3.7239583333333339
30
0
10
15.362500000000004
20
-3.78125
30
0
10
15.340625000000001
20
-3.8677083333333333
30
0
10
15.32604166666667
20
-3.9166666666666665
30
0
0
SPLINE
5
482
100
AcDbEntity
8
0
100
AcDbSpline
70
4
71
3
72
8
73
4
74
0
42
0.000000001
43
0.0000000001
44
0.0000000001
40
0
40
0
40
0
40
0
40
1
40
1
40
1
40
1
41
1
41
1
41
1
41
1
10
15.32604166666667
20
-3.9166666666666665
30
0
10
15.30729166666667
20
-3.9822916666666668
30
0
10
15.298958333333337
20
-4.0395833333333329
30
0
10
15.29479166666667
20
-4.135416666666667
30
0
0
SPLINE
5
483
100
AcDbEntity
8
0
100
AcDbSpline
70
4
71
3
72
8
73
4
74
0
42
0.000000001
43
0.0000000001
44
0.0000000001
40
0
40
0
40
0
40
0
40
1
40
1
40
1
40
1
41
1
41
1
41
1
41
1
10
15.29479166666667
20
-4.135416666666667
30
0
10
15.290625000000002
20
-4.2520833333333332
30
0
10
15.291666666666666
20
-4.2708333333333339
30
0
10
15.311458333333334
20
-4.3135416666666657
30
0
0
SPLINE
5
484
100
AcDbEntity
8
0
100
AcDbSpline
70
4
71
3
72
8
73
4
74
0
42
0.000000001
43
0.0000000001
44
0.0000000001
40
0
40
0
40
0
40
0
40
1
40
1
40
1
40
1
41
1
41
1
41
1
41
1
10
15.311458333333334
20
-4.3135416666666657
30
0
10
15.346875000000001
20
-4.3916666666666657
30
0
10
15.44166666666667
20
-4.447916666666667
30
0
10
15.539583333333336
20
-4.447916666666667
30
0
0
SPLINE
5
485
100
AcDbEntity
8
0
100
AcDbSpline
70
4
71
3
72
8
73
4
74
0
42
0.000000001
43
0.0000000001
44
0.0000000001
40
0
40
0
40
0
40
0
40
1
40
1
40
1
40
1
41
1
41
1
41
1
41
1
10
15.539583333333336
20
-4.447916666666667
30
0
10
15.583333333333334
20
-4.447916666666667
30
0
10
15.608333333333336
20
-4.4364583333333334
30
0
10
15.760416666666668
20
-4.3458333333333332
30
0
0
SPLINE
5
486
100
AcDbEntity
8
0
100
AcDbSpline
70
4
71
3
72
8
73
4
74
0
42
0.000000001
43
0.0000000001
44
0.0000000001
40
0
40
0
40
0
40
0
40
1
40
1
40
1
40
1
41
1
41
1
41
1
41
1
10
15.760416666666668
20
-4.3458333333333332
30
0
10
15.920833333333336
20
-4.2520833333333332
30
0
10
15.942708333333334
20
-4.2343750000000009
30
0
10
16.079166666666669
20
-4.1010416666666663
30
0
0
SPLINE
5
487
100
AcDbEntity
8
0
100
AcDbSpline
70
4
71
3
72
8
73
4
74
0
42
0.000000001
43
0.0000000001
44
0.0000000001
40
0
40
0
40
0
40
0
40
1
40
1
40
1
40
1
41
1
41
1
41
1
41
1
10
16.079166666666669
20
-4.1010416666666663
30
0
10
16.164583333333336
20
-4.0187499999999998
30
0
10
16.261458333333337
20
-3.9114583333333339
30
0
10
16.308333333333334
20
-3.8479166666666664
30
0
0
SPLINE
5
488
100
AcDbEntity
8
0
100
AcDbSpline
70
4
71
3
72
8
73
4
74
0
42
0.000000001
43
0.0000000001
44
0.0000000001
40
0
40
0
40
0
40
0
40
1
40
1
40
1
40
1
41
1
41
1
41
1
41
1
10
16.308333333333334
20
-3.8479166666666664
30
0
10
16.353125000000002
20
-3.7885416666666663
30
0
10
16.392708333333335
20
-3.7406249999999992
30
0
10
16.396875000000001
20
-3.7416666666666663
30
0
0
SPLINE
5
489
100
AcDbEntity
8
0
100
AcDbSpline
70
4
71
3
72
8
73
4
74
0
42
0.000000001
43
0.0000000001
44
0.0000000001
40
0
40
0
40
0
40
0
40
1
40
1
40
1
40
1
41
1
41
1
41
1
41
1
10
16.396875000000001
20
-3.7416666666666663
30
0
10
16.402083333333337
20
-3.7437499999999999
30
0
10
16.428125000000001
20
-3.7770833333333327
30
0
10
16.455208333333335
20
-3.8177083333333339
30
0
0
SPLINE
5
490
100
AcDbEntity
8
0
100
AcDbSpline
70
4
71
3
72
8
73
4
74
0
42
0.000000001
43
0.0000000001
44
0.0000000001
40
0
40
0
40
0
40
0
40
1
40
1
40
1
40
1
41
1
41
1
41
1
41
1
10
16.455208333333335
20
-3.8177083333333339
30
0
10
16.496875000000003
20
-3.8781249999999998
30
0
10
16.515625
20
-3.8958333333333335
30
0
10
16.567708333333332
20
-3.921875
30
0
0
SPLINE
5
491
100
AcDbEntity
8
0
100
AcDbSpline
70
4
71
3
72
8
73
4
74
0
42
0.000000001
43
0.0000000001
44
0.0000000001
40
0
40
0
40
0
40
0
40
1
40
1
40
1
40
1
41
1
41
1
41
1
41
1
10
16.567708333333332
20
-3.921875
30
0
10
16.625
20
-3.9499999999999993
30
0
10
16.639583333333334
20
-3.9531250000000004
30
0
10
16.734375000000004
20
-3.9531250000000004
30
0
0
LINE
5
492
100
AcDbEntity
8
0
100
AcDbLine
10
16.734375000000004
20
-3.9531250000000004
30
0
11
16.838541666666668
21
-3.9531250000000004
31
0
0
LINE
5
493
100
AcDbEntity
8
0
100
AcDbLine
10
16.838541666666668
20
-3.9531250000000004
30
0
11
16.916666666666668
21
-3.9020833333333322
31
0
0
SPLINE
5
494
100
AcDbEntity
8
0
100
AcDbSpline
70
4
71
3
72
8
73
4
74
0
42
0.000000001
43
0.0000000001
44
0.0000000001
40
0
40
0
40
0
40
0
40
1
40
1
40
1
40
1
41
1
41
1
41
1
41
1
10
16.916666666666668
20
-3.9020833333333322
30
0
10
17.028125000000003
20
-3.8291666666666657
30
0
10
17.296875
20
-3.5583333333333327
30
0
10
17.34791666666667
20
-3.4656249999999993
30
0
0
SPLINE
5
495
100
AcDbEntity
8
0
100
AcDbSpline
70
4
71
3
72
8
73
4
74
0
42
0.000000001
43
0.0000000001
44
0.0000000001
40
0
40
0
40
0
40
0
40
1
40
1
40
1
40
1
41
1
41
1
41
1
41
1
10
17.34791666666667
20
-3.4656249999999993
30
0
10
17.370833333333337
20
-3.4249999999999998
30
0
10
17.393750000000004
20
-3.3958333333333335
30
0
10
17.403125000000003
20
-3.3958333333333335
30
0
0
SPLINE
5
496
100
AcDbEntity
8
0
100
AcDbSpline
70
4
71
3
72
8
73
4
74
0
42
0.000000001
43
0.0000000001
44
0.0000000001
40
0
40
0
40
0
40
0
40
1
40
1
40
1
40
1
41
1
41
1
41
1
41
1
10
17.403125000000003
20
-3.3958333333333335
30
0
10
17.412500000000001
20
-3.3958333333333335
30
0
10
17.435416666666672
20
-3.4114583333333335
30
0
10
17.454166666666669
20
-3.4312499999999995
30
0
0
SPLINE
5
497
100
AcDbEntity
8
0
100
AcDbSpline
70
4
71
3
72
8
73
4
74
0
42
0.000000001
43
0.0000000001
44
0.0000000001
40
0
40
0
40
0
40
0
40
1
40
1
40
1
40
1
41
1
41
1
41
1
41
1
10
17.454166666666669
20
-3.4312499999999995
30
0
10
17.472916666666666
20
-3.4510416666666668
30
0
10
17.503125000000004
20
-3.4697916666666662
30
0
10
17.520833333333332
20
-3.4739583333333339
30
0
0
SPLINE
5
498
100
AcDbEntity
8
0
100
AcDbSpline
70
4
71
3
72
8
73
4
74
0
42
0.000000001
43
0.0000000001
44
0.0000000001
40
0
40
0
40
0
40
0
40
1
40
1
40
1
40
1
41
1
41
1
41
1
41
1
10
17.520833333333332
20
-3.4739583333333339
30
0
10
17.621875000000003
20
-3.4958333333333327
30
0
10
17.863541666666666
20
-3.2729166666666658
30
0
10
18.021875000000005
20
-3.0124999999999993
30
0
0
SPLINE
5
499
100
AcDbEntity
8
0
100
AcDbSpline
70
4
71
3
72
8
73
4
74
0
42
0.000000001
43
0.0000000001
44
0.0000000001
40
0
40
0
40
0
40
0
40
1
40
1
40
1
40
1
41
1
41
1
41
1
41
1
10
18.021875000000005
20
-3.0124999999999993
30
0
10
18.058333333333334
20
-2.953125
30
0
10
18.112500000000004
20
-2.8708333333333327
30
0
10
18.142708333333335
20
-2.8302083333333328
30
0
0
SPLINE
5
500
100
AcDbEntity
8
0
100
AcDbSpline
70
4
71
3
72
8
73
4
74
0
42
0.000000001
43
0.0000000001
44
0.0000000001
40
0
40
0
40
0
40
0
40
1
40
1
40
1
40
1
41
1
41
1
41
1
41
1
10
18.142708333333335
20
-2.8302083333333328
30
0
10
18.172916666666669
20
-2.7885416666666663
30
0
10
18.211458333333336
20
-2.7333333333333329
30
0
10
18.230208333333334
20
-2.7072916666666669
30
0
0
SPLINE
5
501
100
AcDbEntity
8
0
100
AcDbSpline
70
4
71
3
72
8
73
4
74
0
42
0.000000001
43
0.0000000001
44
0.0000000001
40
0
40
0
40
0
40
0
40
1
40
1
40
1
40
1
41
1
41
1
41
1
41
1
10
18.230208333333334
20
-2.7072916666666669
30
0
10
18.288541666666671
20
-2.6218749999999993
30
0
10
18.381250000000001
20
-2.5802083333333328
30
0
10
18.420833333333334
20
-2.6208333333333322
30
0
0
SPLINE
5
502
100
AcDbEntity
8
0
100
AcDbSpline
70
4
71
3
72
8
73
4
74
0
42
0.000000001
43
0.0000000001
44
0.0000000001
40
0
40
0
40
0
40
0
40
1
40
1
40
1
40
1
41
1
41
1
41
1
41
1
10
18.420833333333334
20
-2.6208333333333322
30
0
10
18.433333333333334
20
-2.6333333333333329
30
0
10
18.4375
20
-2.6572916666666657
30
0
10
18.436458333333338
20
-2.7239583333333335
30
0
0
SPLINE
5
503
100
AcDbEntity
8
0
100
AcDbSpline
70
4
71
3
72
8
73
4
74
0
42
0.000000001
43
0.0000000001
44
0.0000000001
40
0
40
0
40
0
40
0
40
1
40
1
40
1
40
1
41
1
41
1
41
1
41
1
10
18.436458333333338
20
-2.7239583333333335
30
0
10
18.434375000000003
20
-2.8135416666666662
30
0
10
18.444791666666667
20
-2.8437500000000004
30
0
10
18.477083333333336
20
-2.8437500000000004
30
0
0
SPLINE
5
504
100
AcDbEntity
8
0
100
AcDbSpline
70
4
71
3
72
8
73
4
74
0
42
0.000000001
43
0.0000000001
44
0.0000000001
40
0
40
0
40
0
40
0
40
1
40
1
40
1
40
1
41
1
41
1
41
1
41
1
10
18.477083333333336
20
-2.8437500000000004
30
0
10
18.502083333333335
20
-2.8437500000000004
30
0
10
18.569791666666667
20
-2.765625
30
0
10
18.578125
20
-2.7270833333333329
30
0
0
SPLINE
5
505
100
AcDbEntity
8
0
100
AcDbSpline
70
4
71
3
72
8
73
4
74
0
42
0.000000001
43
0.0000000001
44
0.0000000001
40
0
40
0
40
0
40
0
40
1
40
1
40
1
40
1
41
1
41
1
41
1
41
1
10
18.578125
20
-2.7270833333333329
30
0
10
18.588541666666668
20
-2.6802083333333329
30
0
10
18.73854166666667
20
-2.4427083333333335
30
0
10
18.793750000000003
20
-2.3864583333333327
30
0
0
SPLINE
5
506
100
AcDbEntity
8
0
100
AcDbSpline
70
4
71
3
72
8
73
4
74
0
42
0.000000001
43
0.0000000001
44
0.0000000001
40
0
40
0
40
0
40
0
40
1
40
1
40
1
40
1
41
1
41
1
41
1
41
1
10
18.793750000000003
20
-2.3864583333333327
30
0
10
18.844791666666669
20
-2.3343749999999992
30
0
10
18.885416666666668
20
-2.3145833333333328
30
0
10
18.967708333333334
20
-2.3010416666666664
30
0
0
SPLINE
5
507
100
AcDbEntity
8
0
100
AcDbSpline
70
4
71
3
72
8
73
4
74
0
42
0.000000001
43
0.0000000001
44
0.0000000001
40
0
40
0
40
0
40
0
40
1
40
1
40
1
40
1
41
1
41
1
41
1
41
1
10
18.967708333333334
20
-2.3010416666666664
30
0
10
19.017708333333335
20
-2.2937499999999997
30
0
10
19.03125
20
-2.2947916666666663
30
0
10
19.070833333333336
20
-2.3135416666666657
30
0
0
SPLINE
5
508
100
AcDbEntity
8
0
100
AcDbSpline
70
4
71
3
72
8
73
4
74
0
42
0.000000001
43
0.0000000001
44
0.0000000001
40
0
40
0
40
0
40
0
40
1
40
1
40
1
40
1
41
1
41
1
41
1
41
1
10
19.070833333333336
20
-2.3135416666666657
30
0
10
19.127083333333335
20
-2.3416666666666663
30
0
10
19.147916666666667
20
-2.3729166666666663
30
0
10
19.14479166666667
20
-2.4239583333333328
30
0
0
SPLINE
5
509
100
AcDbEntity
8
0
100
AcDbSpline
70
4
71
3
72
8
73
4
74
0
42
0.000000001
43
0.0000000001
44
0.0000000001
40
0
40
0
40
0
40
0
40
1
40
1
40
1
40
1
41
1
41
1
41
1
41
1
10
19.14479166666667
20
-2.4239583333333328
30
0
10
19.143750000000004
20
-2.4458333333333329
30
0
10
19.145833333333336
20
-2.4739583333333335
30
0
10
19.150000000000002
20
-2.4874999999999998
30
0
0
SPLINE
5
510
100
AcDbEntity
8
0
100
AcDbSpline
70
4
71
3
72
8
73
4
74
0
42
0.000000001
43
0.0000000001
44
0.0000000001
40
0
40
0
40
0
40
0
40
1
40
1
40
1
40
1
41
1
41
1
41
1
41
1
10
19.150000000000002
20
-2.4874999999999998
30
0
10
19.155208333333334
20
-2.5031249999999994
30
0
10
19.152083333333337
20
-2.5197916666666664
30
0
10
19.140625
20
-2.5374999999999992
30
0
0
SPLINE
5
511
100
AcDbEntity
8
0
100
AcDbSpline
70
4
71
3
72
8
73
4
74
0
42
0.000000001
43
0.0000000001
44
0.0000000001
40
0
40
0
40
0
40
0
40
1
40
1
40
1
40
1
41
1
41
1
41
1
41
1
10
19.140625
20
-2.5374999999999992
30
0
10
19.131250000000001
20
-2.5520833333333335
30
0
10
19.127083333333335
20
-2.5718749999999999
30
0
10
19.130208333333336
20
-2.5833333333333335
30
0
0
SPLINE
5
512
100
AcDbEntity
8
0
100
AcDbSpline
70
4
71
3
72
8
73
4
74
0
42
0.000000001
43
0.0000000001
44
0.0000000001
40
0
40
0
40
0
40
0
40
1
40
1
40
1
40
1
41
1
41
1
41
1
41
1
10
19.130208333333336
20
-2.5833333333333335
30
0
10
19.134375000000002
20
-2.5947916666666662
30
0
10
19.130208333333336
20
-2.6135416666666669
30
0
10
19.121875000000003
20
-2.6260416666666657
30
0
0
SPLINE
5
513
100
AcDbEntity
8
0
100
AcDbSpline
70
4
71
3
72
8
73
4
74
0
42
0.000000001
43
0.0000000001
44
0.0000000001
40
0
40
0
40
0
40
0
40
1
40
1
40
1
40
1
41
1
41
1
41
1
41
1
10
19.121875000000003
20
-2.6260416666666657
30
0
10
19.11354166666667
20
-2.6374999999999993
30
0
10
19.108333333333334
20
-2.65625
30
0
10
19.111458333333335
20
-2.6677083333333322
30
0
0
SPLINE
5
514
100
AcDbEntity
8
0
100
AcDbSpline
70
4
71
3
72
8
73
4
74
0
42
0.000000001
43
0.0000000001
44
0.0000000001
40
0
40
0
40
0
40
0
40
1
40
1
40
1
40
1
41
1
41
1
41
1
41
1
10
19.111458333333335
20
-2.6677083333333322
30
0
10
19.114583333333336
20
-2.6802083333333329
30
0
10
19.110416666666669
20
-2.6895833333333328
30
0
10
19.100000000000001
20
-2.6937499999999992
30
0
0
SPLINE
5
515
100
AcDbEntity
8
0
100
AcDbSpline
70
4
71
3
72
8
73
4
74
0
42
0.000000001
43
0.0000000001
44
0.0000000001
40
0
40
0
40
0
40
0
40
1
40
1
40
1
40
1
41
1
41
1
41
1
41
1
10
19.100000000000001
20
-2.6937499999999992
30
0
10
19.090625000000003
20
-2.6979166666666665
30
0
10
19.073958333333337
20
-2.7177083333333334
30
0
10
19.062500000000004
20
-2.7385416666666664
30
0
0
SPLINE
5
516
100
AcDbEntity
8
0
100
AcDbSpline
70
4
71
3
72
8
73
4
74
0
42
0.000000001
43
0.0000000001
44
0.0000000001
40
0
40
0
40
0
40
0
40
1
40
1
40
1
40
1
41
1
41
1
41
1
41
1
10
19.062500000000004
20
-2.7385416666666664
30
0
10
19.052083333333336
20
-2.7593749999999999
30
0
10
19.030208333333338
20
-2.7874999999999992
30
0
10
19.014583333333338
20
-2.8020833333333335
30
0
0
SPLINE
5
517
100
AcDbEntity
8
0
100
AcDbSpline
70
4
71
3
72
8
73
4
74
0
42
0.000000001
43
0.0000000001
44
0.0000000001
40
0
40
0
40
0
40
0
40
1
40
1
40
1
40
1
41
1
41
1
41
1
41
1
10
19.014583333333338
20
-2.8020833333333335
30
0
10
18.998958333333334
20
-2.8166666666666664
30
0
10
18.976041666666667
20
-2.8499999999999992
30
0
10
18.964583333333337
20
-2.8770833333333328
30
0
0
SPLINE
5
518
100
AcDbEntity
8
0
100
AcDbSpline
70
4
71
3
72
8
73
4
74
0
42
0.000000001
43
0.0000000001
44
0.0000000001
40
0
40
0
40
0
40
0
40
1
40
1
40
1
40
1
41
1
41
1
41
1
41
1
10
18.964583333333337
20
-2.8770833333333328
30
0
10
18.952083333333334
20
-2.9052083333333329
30
0
10
18.905208333333334
20
-2.9656249999999993
30
0
10
18.854166666666668
20
-3.0187499999999998
30
0
0
SPLINE
5
519
100
AcDbEntity
8
0
100
AcDbSpline
70
4
71
3
72
8
73
4
74
0
42
0.000000001
43
0.0000000001
44
0.0000000001
40
0
40
0
40
0
40
0
40
1
40
1
40
1
40
1
41
1
41
1
41
1
41
1
10
18.854166666666668
20
-3.0187499999999998
30
0
10
18.805208333333336
20
-3.0697916666666658
30
0
10
18.735416666666669
20
-3.1447916666666669
30
0
10
18.697916666666668
20
-3.1864583333333334
30
0
0
SPLINE
5
520
100
AcDbEntity
8
0
100
AcDbSpline
70
4
71
3
72
8
73
4
74
0
42
0.000000001
43
0.0000000001
44
0.0000000001
40
0
40
0
40
0
40
0
40
1
40
1
40
1
40
1
41
1
41
1
41
1
41
1
10
18.697916666666668
20
-3.1864583333333334
30
0
10
18.660416666666666
20
-3.2270833333333329
30
0
10
18.617708333333336
20
-3.2677083333333332
30
0
10
18.602083333333336
20
-3.276041666666667
30
0
0
SPLINE
5
521
100
AcDbEntity
8
0
100
AcDbSpline
70
4
71
3
72
8
73
4
74
0
42
0.000000001
43
0.0000000001
44
0.0000000001
40
0
40
0
40
0
40
0
40
1
40
1
40
1
40
1
41
1
41
1
41
1
41
1
10
18.602083333333336
20
-3.276041666666667
30
0
10
18.585416666666667
20
-3.2854166666666669
30
0
10
18.572916666666668
20
-3.2989583333333328
30
0
10
18.572916666666668
20
-3.307291666666667
30
0
0
SPLINE
5
522
100
AcDbEntity
8
0
100
AcDbSpline
70
4
71
3
72
8
73
4
74
0
42
0.000000001
43
0.0000000001
44
0.0000000001
40
0
40
0
40
0
40
0
40
1
40
1
40
1
40
1
41
1
41
1
41
1
41
1
10
18.572916666666668
20
-3.307291666666667
30
0
10
18.572916666666668
20
-3.3260416666666663
30
0
10
18.359375
20
-3.5395833333333333
30
0
10
18.286458333333332
20
-3.59375
30
0
0
SPLINE
5
523
100
AcDbEntity
8
0
100
AcDbSpline
70
4
71
3
72
8
73
4
74
0
42
0.000000001
43
0.0000000001
44
0.0000000001
40
0
40
0
40
0
40
0
40
1
40
1
40
1
40
1
41
1
41
1
41
1
41
1
10
18.286458333333332
20
-3.59375
30
0
10
18.258333333333336
20
-3.6156249999999996
30
0
10
18.202083333333334
20
-3.6593749999999998
30
0
10
18.161458333333336
20
-3.6916666666666664
30
0
0
SPLINE
5
524
100
AcDbEntity
8
0
100
AcDbSpline
70
4
71
3
72
8
73
4
74
0
42
0.000000001
43
0.0000000001
44
0.0000000001
40
0
40
0
40
0
40
0
40
1
40
1
40
1
40
1
41
1
41
1
41
1
41
1
10
18.161458333333336
20
-3.6916666666666664
30
0
10
18.121874999999999
20
-3.7239583333333339
30
0
10
18.036458333333336
20
-3.7864583333333335
30
0
10
17.971875000000004
20
-3.8291666666666657
30
0
0
SPLINE
5
525
100
AcDbEntity
8
0
100
AcDbSpline
70
4
71
3
72
8
73
4
74
0
42
0.000000001
43
0.0000000001
44
0.0000000001
40
0
40
0
40
0
40
0
40
1
40
1
40
1
40
1
41
1
41
1
41
1
41
1
10
17.971875000000004
20
-3.8291666666666657
30
0
10
17.908333333333335
20
-3.8729166666666663
30
0
10
17.853125000000002
20
-3.9145833333333333
30
0
10
17.850000000000005
20
-3.9229166666666657
30
0
0
SPLINE
5
526
100
AcDbEntity
8
0
100
AcDbSpline
70
4
71
3
72
8
73
4
74
0
42
0.000000001
43
0.0000000001
44
0.0000000001
40
0
40
0
40
0
40
0
40
1
40
1
40
1
40
1
41
1
41
1
41
1
41
1
10
17.850000000000005
20
-3.9229166666666657
30
0
10
17.846875000000001
20
-3.9312500000000004
30
0
10
17.819791666666667
20
-3.9499999999999993
30
0
10
17.789583333333336
20
-3.9645833333333331
30
0
0
SPLINE
5
527
100
AcDbEntity
8
0
100
AcDbSpline
70
4
71
3
72
8
73
4
74
0
42
0.000000001
43
0.0000000001
44
0.0000000001
40
0
40
0
40
0
40
0
40
1
40
1
40
1
40
1
41
1
41
1
41
1
41
1
10
17.789583333333336
20
-3.9645833333333331
30
0
10
17.716666666666669
20
-3.9989583333333334
30
0
10
17.701041666666669
20
-4.0083333333333337
30
0
10
17.640625
20
-4.0531249999999996
30
0
0
SPLINE
5
528
100
AcDbEntity
8
0
100
AcDbSpline
70
4
71
3
72
8
73
4
74
0
42
0.000000001
43
0.0000000001
44
0.0000000001
40
0
40
0
40
0
40
0
40
1
40
1
40
1
40
1
41
1
41
1
41
1
41
1
10
17.640625
20
-4.0531249999999996
30
0
10
17.611458333333335
20
-4.0739583333333327
30
0
10
17.565625000000004
20
-4.104166666666667
30
0
10
17.536458333333332
20
-4.119791666666667
30
0
0
SPLINE
5
529
100
AcDbEntity
8
0
100
AcDbSpline
70
4
71
3
72
8
73
4
74
0
42
0.000000001
43
0.0000000001
44
0.0000000001
40
0
40
0
40
0
40
0
40
1
40
1
40
1
40
1
41
1
41
1
41
1
41
1
10
17.536458333333332
20
-4.119791666666667
30
0
10
17.508333333333336
20
-4.135416666666667
30
0
10
17.480208333333334
20
-4.1520833333333327
30
0
10
17.473958333333336
20
-4.15625
30
0
0
SPLINE
5
530
100
AcDbEntity
8
0
100
AcDbSpline
70
4
71
3
72
8
73
4
74
0
42
0.000000001
43
0.0000000001
44
0.0000000001
40
0
40
0
40
0
40
0
40
1
40
1
40
1
40
1
41
1
41
1
41
1
41
1
10
17.473958333333336
20
-4.15625
30
0
10
17.460416666666667
20
-4.166666666666667
30
0
10
17.364583333333332
20
-4.21875
30
0
10
17.22291666666667
20
-4.291666666666667
30
0
0
SPLINE
5
531
100
AcDbEntity
8
0
100
AcDbSpline
70
4
71
3
72
8
73
4
74
0
42
0.000000001
43
0.0000000001
44
0.0000000001
40
0
40
0
40
0
40
0
40
1
40
1
40
1
40
1
41
1
41
1
41
1
41
1
10
17.22291666666667
20
-4.291666666666667
30
0
10
17.159375000000004
20
-4.3249999999999993
30
0
10
17.0625
20
-4.3781249999999998
30
0
10
17.007291666666667
20
-4.4104166666666664
30
0
0
SPLINE
5
532
100
AcDbEntity
8
0
100
AcDbSpline
70
4
71
3
72
8
73
4
74
0
42
0.000000001
43
0.0000000001
44
0.0000000001
40
0
40
0
40
0
40
0
40
1
40
1
40
1
40
1
41
1
41
1
41
1
41
1
10
17.007291666666667
20
-4.4104166666666664
30
0
10
16.953125000000004
20
-4.4427083333333339
30
0
10
16.905208333333338
20
-4.46875
30
0
10
16.902083333333334
20
-4.46875
30
0
0
SPLINE
5
533
100
AcDbEntity
8
0
100
AcDbSpline
70
4
71
3
72
8
73
4
74
0
42
0.000000001
43
0.0000000001
44
0.0000000001
40
0
40
0
40
0
40
0
40
1
40
1
40
1
40
1
41
1
41
1
41
1
41
1
10
16.902083333333334
20
-4.46875
30
0
10
16.898958333333336
20
-4.46875
30
0
10
16.831250000000004
20
-4.5010416666666657
30
0
10
16.753125000000004
20
-4.5406249999999995
30
0
0
SPLINE
5
534
100
AcDbEntity
8
0
100
AcDbSpline
70
4
71
3
72
8
73
4
74
0
42
0.000000001
43
0.0000000001
44
0.0000000001
40
0
40
0
40
0
40
0
40
1
40
1
40
1
40
1
41
1
41
1
41
1
41
1
10
16.753125000000004
20
-4.5406249999999995
30
0
10
16.542708333333337
20
-4.6447916666666664
30
0
10
16.540625000000002
20
-4.6468749999999996
30
0
10
16.492708333333336
20
-4.6791666666666663
30
0
0
SPLINE
5
535
100
AcDbEntity
8
0
100
AcDbSpline
70
4
71
3
72
8
73
4
74
0
42
0.000000001
43
0.0000000001
44
0.0000000001
40
0
40
0
40
0
40
0
40
1
40
1
40
1
40
1
41
1
41
1
41
1
41
1
10
16.492708333333336
20
-4.6791666666666663
30
0
10
16.46875
20
-4.6947916666666663
30
0
10
16.446875000000002
20
-4.7083333333333339
30
0
10
16.442708333333336
20
-4.7083333333333339
30
0
0
SPLINE
5
536
100
AcDbEntity
8
0
100
AcDbSpline
70
4
71
3
72
8
73
4
74
0
42
0.000000001
43
0.0000000001
44
0.0000000001
40
0
40
0
40
0
40
0
40
1
40
1
40
1
40
1
41
1
41
1
41
1
41
1
10
16.442708333333336
20
-4.7083333333333339
30
0
10
16.434375000000003
20
-4.7083333333333339
30
0
10
16.290625000000002
20
-4.7749999999999995
30
0
10
16.229166666666668
20
-4.807291666666667
30
0
0
SPLINE
5
537
100
AcDbEntity
8
0
100
AcDbSpline
70
4
71
3
72
8
73
4
74
0
42
0.000000001
43
0.0000000001
44
0.0000000001
40
0
40
0
40
0
40
0
40
1
40
1
40
1
40
1
41
1
41
1
41
1
41
1
10
16.229166666666668
20
-4.807291666666667
30
0
10
15.952083333333336
20
-4.953125
30
0
10
15.577083333333336
20
-5.1291666666666664
30
0
10
15.427083333333332
20
-5.1854166666666668
30
0
0
SPLINE
5
538
100
AcDbEntity
8
0
100
AcDbSpline
70
4
71
3
72
8
73
4
74
0
42
0.000000001
43
0.0000000001
44
0.0000000001
40
0
40
0
40
0
40
0
40
1
40
1
40
1
40
1
41
1
41
1
41
1
41
1
10
15.427083333333332
20
-5.1854166666666668
30
0
10
15.395833333333334
20
-5.1968750000000004
30
0
10
15.332291666666668
20
-5.2239583333333339
30
0
10
15.286458333333336
20
-5.244791666666667
30
0
0
SPLINE
5
539
100
AcDbEntity
8
0
100
AcDbSpline
70
4
71
3
72
8
73
4
74
0
42
0.000000001
43
0.0000000001
44
0.0000000001
40
0
40
0
40
0
40
0
40
1
40
1
40
1
40
1
41
1
41
1
41
1
41
1
10
15.286458333333336
20
-5.244791666666667
30
0
10
15.240625000000001
20
-5.2666666666666675
30
0
10
15.180208333333335
20
-5.291666666666667
30
0
10
15.151041666666668
20
-5.302083333333333
30
0
0
SPLINE
5
540
100
AcDbEntity
8
0
100
AcDbSpline
70
4
71
3
72
8
73
4
74
0
42
0.000000001
43
0.0000000001
44
0.0000000001
40
0
40
0
40
0
40
0
40
1
40
1
40
1
40
1
41
1
41
1
41
1
41
1
10
15.151041666666668
20
-5.302083333333333
30
0
10
15.12291666666667
20
-5.3125
30
0
10
15.078125000000002
20
-5.3291666666666675
30
0
10
15.052083333333336
20
-5.338541666666667
30
0
0
SPLINE
5
541
100
AcDbEntity
8
0
100
AcDbSpline
70
4
71
3
72
8
73
4
74
0
42
0.000000001
43
0.0000000001
44
0.0000000001
40
0
40
0
40
0
40
0
40
1
40
1
40
1
40
1
41
1
41
1
41
1
41
1
10
15.052083333333336
20
-5.338541666666667
30
0
10
14.995833333333337
20
-5.359375
30
0
10
14.561458333333336
20
-5.5489583333333332
30
0
10
14.368750000000002
20
-5.6364583333333345
30
0
0
SPLINE
5
542
100
AcDbEntity
8
0
100
AcDbSpline
70
4
71
3
72
8
73
4
74
0
42
0.000000001
43
0.0000000001
44
0.0000000001
40
0
40
0
40
0
40
0
40
1
40
1
40
1
40
1
41
1
41
1
41
1
41
1
10
14.368750000000002
20
-5.6364583333333345
30
0
10
14.293750000000003
20
-5.6697916666666668
30
0
10
14.229166666666668
20
-5.697916666666667
30
0
10
14.225000000000003
20
-5.697916666666667
30
0
0
SPLINE
5
543
100
AcDbEntity
8
0
100
AcDbSpline
70
4
71
3
72
8
73
4
74
0
42
0.000000001
43
0.0000000001
44
0.0000000001
40
0
40
0
40
0
40
0
40
1
40
1
40
1
40
1
41
1
41
1
41
1
41
1
10
14.225000000000003
20
-5.697916666666667
30
0
10
14.219791666666669
20
-5.697916666666667
30
0
10
14.175000000000002
20
-5.7166666666666668
30
0
10
14.123958333333334
20
-5.739583333333333
30
0
0
SPLINE
5
544
100
AcDbEntity
8
0
100
AcDbSpline
70
4
71
3
72
8
73
4
74
0
42
0.000000001
43
0.0000000001
44
0.0000000001
40
0
40
0
40
0
40
0
40
1
40
1
40
1
40
1
41
1
41
1
41
1
41
1
10
14.123958333333334
20
-5.739583333333333
30
0
10
14.072916666666668
20
-5.7625000000000002
30
0
10
14.026041666666668
20
-5.7812500000000009
30
0
10
14.019791666666668
20
-5.7812500000000009
30
0
0
SPLINE
5
545
100
AcDbEntity
8
0
100
AcDbSpline
70
4
71
3
72
8
73
4
74
0
42
0.000000001
43
0.0000000001
44
0.0000000001
40
0
40
0
40
0
40
0
40
1
40
1
40
1
40
1
41
1
41
1
41
1
41
1
10
14.019791666666668
20
-5.7812500000000009
30
0
10
14.014583333333336
20
-5.7812500000000009
30
0
10
13.954166666666669
20
-5.8062500000000004
30
0
10
13.887500000000003
20
-5.8375000000000004
30
0
0
SPLINE
5
546
100
AcDbEntity
8
0
100
AcDbSpline
70
4
71
3
72
8
73
4
74
0
42
0.000000001
43
0.0000000001
44
0.0000000001
40
0
40
0
40
0
40
0
40
1
40
1
40
1
40
1
41
1
41
1
41
1
41
1
10
13.887500000000003
20
-5.8375000000000004
30
0
10
13.819791666666669
20
-5.8687500000000004
30
0
10
13.751041666666669
20
-5.8968750000000005
30
0
10
13.734375
20
-5.901041666666667
30
0
0
SPLINE
5
547
100
AcDbEntity
8
0
100
AcDbSpline
70
4
71
3
72
8
73
4
74
0
42
0.000000001
43
0.0000000001
44
0.0000000001
40
0
40
0
40
0
40
0
40
1
40
1
40
1
40
1
41
1
41
1
41
1
41
1
10
13.734375
20
-5.901041666666667
30
0
10
13.716666666666669
20
-5.9052083333333334
30
0
10
13.654166666666669
20
-5.9281249999999988
30
0
10
13.59375
20
-5.953125
30
0
0
SPLINE
5
548
100
AcDbEntity
8
0
100
AcDbSpline
70
4
71
3
72
8
73
4
74
0
42
0.000000001
43
0.0000000001
44
0.0000000001
40
0
40
0
40
0
40
0
40
1
40
1
40
1
40
1
41
1
41
1
41
1
41
1
10
13.59375
20
-5.953125
30
0
10
13.34375
20
-6.0562500000000004
30
0
10
13.303125000000001
20
-6.0718750000000004
30
0
10
13.213541666666668
20
-6.1052083333333327
30
0
0
SPLINE
5
549
100
AcDbEntity
8
0
100
AcDbSpline
70
4
71
3
72
8
73
4
74
0
42
0.000000001
43
0.0000000001
44
0.0000000001
40
0
40
0
40
0
40
0
40
1
40
1
40
1
40
1
41
1
41
1
41
1
41
1
10
13.213541666666668
20
-6.1052083333333327
30
0
10
13.162500000000001
20
-6.1229166666666668
30
0
10
13.059375000000001
20
-6.1645833333333329
30
0
10
12.984375
20
-6.1958333333333337
30
0
0
SPLINE
5
550
100
AcDbEntity
8
0
100
AcDbSpline
70
4
71
3
72
8
73
4
74
0
42
0.000000001
43
0.0000000001
44
0.0000000001
40
0
40
0
40
0
40
0
40
1
40
1
40
1
40
1
41
1
41
1
41
1
41
1
10
12.984375
20
-6.1958333333333337
30
0
10
12.753124999999999
20
-6.2927083333333327
30
0
10
12.576041666666667
20
-6.3635416666666673
30
0
10
12.417708333333335
20
-6.421875
30
0
0
SPLINE
5
551
100
AcDbEntity
8
0
100
AcDbSpline
70
4
71
3
72
8
73
4
74
0
42
0.000000001
43
0.0000000001
44
0.0000000001
40
0
40
0
40
0
40
0
40
1
40
1
40
1
40
1
41
1
41
1
41
1
41
1
10
12.417708333333335
20
-6.421875
30
0
10
12.334375000000001
20
-6.4520833333333334
30
0
10
12.179166666666667
20
-6.510416666666667
30
0
10
12.072916666666668
20
-6.5510416666666673
30
0
0
SPLINE
5
552
100
AcDbEntity
8
0
100
AcDbSpline
70
4
71
3
72
8
73
4
74
0
42
0.000000001
43
0.0000000001
44
0.0000000001
40
0
40
0
40
0
40
0
40
1
40
1
40
1
40
1
41
1
41
1
41
1
41
1
10
12.072916666666668
20
-6.5510416666666673
30
0
10
11.966666666666667
20
-6.5916666666666659
30
0
10
11.872916666666667
20
-6.6250000000000009
30
0
10
11.864583333333334
20
-6.6250000000000009
30
0
0
SPLINE
5
553
100
AcDbEntity
8
0
100
AcDbSpline
70
4
71
3
72
8
73
4
74
0
42
0.000000001
43
0.0000000001
44
0.0000000001
40
0
40
0
40
0
40
0
40
1
40
1
40
1
40
1
41
1
41
1
41
1
41
1
10
11.864583333333334
20
-6.6250000000000009
30
0
10
11.855208333333335
20
-6.6250000000000009
30
0
10
11.843750000000002
20
-6.6291666666666664
30
0
10
11.838541666666668
20
-6.6343750000000004
30
0
0
SPLINE
5
554
100
AcDbEntity
8
0
100
AcDbSpline
70
4
71
3
72
8
73
4
74
0
42
0.000000001
43
0.0000000001
44
0.0000000001
40
0
40
0
40
0
40
0
40
1
40
1
40
1
40
1
41
1
41
1
41
1
41
1
10
11.838541666666668
20
-6.6343750000000004
30
0
10
11.832291666666668
20
-6.6395833333333334
30
0
10
11.708333333333334
20
-6.6843750000000011
30
0
10
11.562500000000002
20
-6.7343750000000009
30
0
0
SPLINE
5
555
100
AcDbEntity
8
0
100
AcDbSpline
70
4
71
3
72
8
73
4
74
0
42
0.000000001
43
0.0000000001
44
0.0000000001
40
0
40
0
40
0
40
0
40
1
40
1
40
1
40
1
41
1
41
1
41
1
41
1
10
11.562500000000002
20
-6.7343750000000009
30
0
10
11.416666666666668
20
-6.7843750000000007
30
0
10
11.184375000000001
20
-6.864583333333333
30
0
10
11.046875
20
-6.913541666666668
30
0
0
SPLINE
5
556
100
AcDbEntity
8
0
100
AcDbSpline
70
4
71
3
72
8
73
4
74
0
42
0.000000001
43
0.0000000001
44
0.0000000001
40
0
40
0
40
0
40
0
40
1
40
1
40
1
40
1
41
1
41
1
41
1
41
1
10
11.046875
20
-6.913541666666668
30
0
10
10.909374999999999
20
-6.9624999999999995
30
0
10
10.761458333333335
20
-7.0135416666666668
30
0
10
10.71875
20
-7.0281250000000002
30
0
0
SPLINE
5
557
100
AcDbEntity
8
0
100
AcDbSpline
70
4
71
3
72
8
73
4
74
0
42
0.000000001
43
0.0000000001
44
0.0000000001
40
0
40
0
40
0
40
0
40
1
40
1
40
1
40
1
41
1
41
1
41
1
41
1
10
10.71875
20
-7.0281250000000002
30
0
10
10.676041666666668
20
-7.0427083333333327
30
0
10
10.601041666666667
20
-7.0697916666666671
30
0
10
10.552083333333334
20
-7.088541666666667
30
0
0
SPLINE
5
558
100
AcDbEntity
8
0
100
AcDbSpline
70
4
71
3
72
8
73
4
74
0
42
0.000000001
43
0.0000000001
44
0.0000000001
40
0
40
0
40
0
40
0
40
1
40
1
40
1
40
1
41
1
41
1
41
1
41
1
10
10.552083333333334
20
-7.088541666666667
30
0
10
10.503125000000001
20
-7.1072916666666668
30
0
10
10.421875000000002
20
-7.1354166666666661
30
0
10
10.369791666666668
20
-7.1510416666666679
30
0
0
SPLINE
5
559
100
AcDbEntity
8
0
100
AcDbSpline
70
4
71
3
72
8
73
4
74
0
42
0.000000001
43
0.0000000001
44
0.0000000001
40
0
40
0
40
0
40
0
40
1
40
1
40
1
40
1
41
1
41
1
41
1
41
1
10
10.369791666666668
20
-7.1510416666666679
30
0
10
10.231250000000001
20
-7.1927083333333339
30
0
10
10.059375000000001
20
-7.2677083333333341
30
0
10
10.014583333333334
20
-7.3062500000000004
30
0
0
SPLINE
5
560
100
AcDbEntity
8
0
100
AcDbSpline
70
4
71
3
72
8
73
4
74
0
42
0.000000001
43
0.0000000001
44
0.0000000001
40
0
40
0
40
0
40
0
40
1
40
1
40
1
40
1
41
1
41
1
41
1
41
1
10
10.014583333333334
20
-7.3062500000000004
30
0
10
9.9833333333333361
20
-7.3333333333333339
30
0
10
9.9760416666666671
20
-7.3468749999999989
30
0
10
9.9770833333333346
20
-7.375
30
0
0
SPLINE
5
561
100
AcDbEntity
8
0
100
AcDbSpline
70
4
71
3
72
8
73
4
74
0
42
0.000000001
43
0.0000000001
44
0.0000000001
40
0
40
0
40
0
40
0
40
1
40
1
40
1
40
1
41
1
41
1
41
1
41
1
10
9.9770833333333346
20
-7.375
30
0
10
9.9770833333333346
20
-7.3947916666666664
30
0
10
9.986458333333335
20
-7.4187500000000002
30
0
10
9.9989583333333343
20
-7.4302083333333337
30
0
0
SPLINE
5
562
100
AcDbEntity
8
0
100
AcDbSpline
70
4
71
3
72
8
73
4
74
0
42
0.000000001
43
0.0000000001
44
0.0000000001
40
0
40
0
40
0
40
0
40
1
40
1
40
1
40
1
41
1
41
1
41
1
41
1
10
9.9989583333333343
20
-7.4302083333333337
30
0
10
10.017708333333333
20
-7.4500000000000011
30
0
10
10.023958333333335
20
-7.4500000000000011
30
0
10
10.101041666666669
20
-7.4375000000000009
30
0
0
SPLINE
5
563
100
AcDbEntity
8
0
100
AcDbSpline
70
4
71
3
72
8
73
4
74
0
42
0.000000001
43
0.0000000001
44
0.0000000001
40
0
40
0
40
0
40
0
40
1
40
1
40
1
40
1
41
1
41
1
41
1
41
1
10
10.101041666666669
20
-7.4375000000000009
30
0
10
10.145833333333334
20
-7.4302083333333337
30
0
10
10.212500000000002
20
-7.4145833333333329
30
0
10
10.25
20
-7.401041666666667
30
0
0
SPLINE
5
564
100
AcDbEntity
8
0
100
AcDbSpline
70
4
71
3
72
8
73
4
74
0
42
0.000000001
43
0.0000000001
44
0.0000000001
40
0
40
0
40
0
40
0
40
1
40
1
40
1
40
1
41
1
41
1
41
1
41
1
10
10.25
20
-7.401041666666667
30
0
10
10.287500000000001
20
-7.3885416666666677
30
0
10
10.373958333333336
20
-7.3625000000000007
30
0
10
10.442708333333334
20
-7.3437500000000009
30
0
0
SPLINE
5
565
100
AcDbEntity
8
0
100
AcDbSpline
70
4
71
3
72
8
73
4
74
0
42
0.000000001
43
0.0000000001
44
0.0000000001
40
0
40
0
40
0
40
0
40
1
40
1
40
1
40
1
41
1
41
1
41
1
41
1
10
10.442708333333334
20
-7.3437500000000009
30
0
10
10.601041666666667
20
-7.3020833333333339
30
0
10
10.762500000000001
20
-7.2479166666666668
30
0
10
10.869791666666668
20
-7.2031250000000009
30
0
0
SPLINE
5
566
100
AcDbEntity
8
0
100
AcDbSpline
70
4
71
3
72
8
73
4
74
0
42
0.000000001
43
0.0000000001
44
0.0000000001
40
0
40
0
40
0
40
0
40
1
40
1
40
1
40
1
41
1
41
1
41
1
41
1
10
10.869791666666668
20
-7.2031250000000009
30
0
10
10.915625000000002
20
-7.1833333333333336
30
0
10
11.011458333333335
20
-7.1500000000000004
30
0
10
11.083333333333334
20
-7.1302083333333339
30
0
0
SPLINE
5
567
100
AcDbEntity
8
0
100
AcDbSpline
70
4
71
3
72
8
73
4
74
0
42
0.000000001
43
0.0000000001
44
0.0000000001
40
0
40
0
40
0
40
0
40
1
40
1
40
1
40
1
41
1
41
1
41
1
41
1
10
11.083333333333334
20
-7.1302083333333339
30
0
10
11.201041666666667
20
-7.0958333333333341
30
0
10
11.333333333333334
20
-7.0541666666666671
30
0
10
11.723958333333334
20
-6.9270833333333339
30
0
0
SPLINE
5
568
100
AcDbEntity
8
0
100
AcDbSpline
70
4
71
3
72
8
73
4
74
0
42
0.000000001
43
0.0000000001
44
0.0000000001
40
0
40
0
40
0
40
0
40
1
40
1
40
1
40
1
41
1
41
1
41
1
41
1
10
11.723958333333334
20
-6.9270833333333339
30
0
10
11.792708333333335
20
-6.9052083333333334
30
0
10
11.895833333333334
20
-6.875
30
0
10
11.953125000000002
20
-6.8593750000000009
30
0
0
SPLINE
5
569
100
AcDbEntity
8
0
100
AcDbSpline
70
4
71
3
72
8
73
4
74
0
42
0.000000001
43
0.0000000001
44
0.0000000001
40
0
40
0
40
0
40
0
40
1
40
1
40
1
40
1
41
1
41
1
41
1
41
1
10
11.953125000000002
20
-6.8593750000000009
30
0
10
12.010416666666668
20
-6.8437500000000009
30
0
10
12.153125000000001
20
-6.804166666666668
30
0
10
12.270833333333334
20
-6.770833333333333
30
0
0
SPLINE
5
570
100
AcDbEntity
8
0
100
AcDbSpline
70
4
71
3
72
8
73
4
74
0
42
0.000000001
43
0.0000000001
44
0.0000000001
40
0
40
0
40
0
40
0
40
1
40
1
40
1
40
1
41
1
41
1
41
1
41
1
10
12.270833333333334
20
-6.770833333333333
30
0
10
12.694791666666669
20
-6.6510416666666661
30
0
10
12.751041666666669
20
-6.6406250000000009
30
0
10
13.380208333333334
20
-6.5604166666666668
30
0
0
SPLINE
5
571
100
AcDbEntity
8
0
100
AcDbSpline
70
4
71
3
72
8
73
4
74
0
42
0.000000001
43
0.0000000001
44
0.0000000001
40
0
40
0
40
0
40
0
40
1
40
1
40
1
40
1
41
1
41
1
41
1
41
1
10
13.380208333333334
20
-6.5604166666666668
30
0
10
13.506250000000001
20
-6.5447916666666668
30
0
10
13.979166666666668
20
-6.5447916666666668
30
0
10
14.16979166666667
20
-6.5604166666666668
30
0
0
SPLINE
5
572
100
AcDbEntity
8
0
100
AcDbSpline
70
4
71
3
72
8
73
4
74
0
42
0.000000001
43
0.0000000001
44
0.0000000001
40
0
40
0
40
0
40
0
40
1
40
1
40
1
40
1
41
1
41
1
41
1
41
1
10
14.16979166666667
20
-6.5604166666666668
30
0
10
14.307291666666666
20
-6.5718749999999995
30
0
10
14.489583333333336
20
-6.6114583333333341
30
0
10
14.689583333333333
20
-6.671875
30
0
0
LINE
5
573
100
AcDbEntity
8
0
100
AcDbLine
10
14.689583333333331
20
-6.671875
30
0
11
14.801041666666668
21
-6.7052083333333341
31
0
0
LINE
5
574
100
AcDbEntity
8
0
100
AcDbLine
10
14.801041666666668
20
-6.7052083333333341
30
0
11
14.831250000000004
21
-6.6624999999999996
31
0
0
SPLINE
5
575
100
AcDbEntity
8
0
100
AcDbSpline
70
4
71
3
72
8
73
4
74
0
42
0.000000001
43
0.0000000001
44
0.0000000001
40
0
40
0
40
0
40
0
40
1
40
1
40
1
40
1
41
1
41
1
41
1
41
1
10
14.831250000000004
20
-6.6624999999999996
30
0
10
14.84791666666667
20
-6.6385416666666668
30
0
10
14.882291666666667
20
-6.5729166666666679
30
0
10
14.90625
20
-6.515625
30
0
0
SPLINE
5
576
100
AcDbEntity
8
0
100
AcDbSpline
70
4
71
3
72
8
73
4
74
0
42
0.000000001
43
0.0000000001
44
0.0000000001
40
0
40
0
40
0
40
0
40
1
40
1
40
1
40
1
41
1
41
1
41
1
41
1
10
14.90625
20
-6.515625
30
0
10
14.963541666666668
20
-6.380208333333333
30
0
10
14.994791666666668
20
-6.319791666666668
30
0
10
15.014583333333336
20
-6.3031249999999996
30
0
0
SPLINE
5
577
100
AcDbEntity
8
0
100
AcDbSpline
70
4
71
3
72
8
73
4
74
0
42
0.000000001
43
0.0000000001
44
0.0000000001
40
0
40
0
40
0
40
0
40
1
40
1
40
1
40
1
41
1
41
1
41
1
41
1
10
15.014583333333336
20
-6.3031249999999996
30
0
10
15.023958333333335
20
-6.2947916666666659
30
0
10
15.031250000000002
20
-6.2802083333333334
30
0
10
15.031250000000002
20
-6.2687499999999998
30
0
0
SPLINE
5
578
100
AcDbEntity
8
0
100
AcDbSpline
70
4
71
3
72
8
73
4
74
0
42
0.000000001
43
0.0000000001
44
0.0000000001
40
0
40
0
40
0
40
0
40
1
40
1
40
1
40
1
41
1
41
1
41
1
41
1
10
15.031250000000002
20
-6.2687499999999998
30
0
10
15.031250000000002
20
-6.234375
30
0
10
15.360416666666669
20
-5.9145833333333329
30
0
10
15.526041666666668
20
-5.7885416666666663
30
0
0
SPLINE
5
579
100
AcDbEntity
8
0
100
AcDbSpline
70
4
71
3
72
8
73
4
74
0
42
0.000000001
43
0.0000000001
44
0.0000000001
40
0
40
0
40
0
40
0
40
1
40
1
40
1
40
1
41
1
41
1
41
1
41
1
10
15.526041666666668
20
-5.7885416666666663
30
0
10
15.606249999999999
20
-5.7270833333333329
30
0
10
15.708333333333334
20
-5.6479166666666663
30
0
10
15.753125000000004
20
-5.6114583333333332
30
0
0
SPLINE
5
580
100
AcDbEntity
8
0
100
AcDbSpline
70
4
71
3
72
8
73
4
74
0
42
0.000000001
43
0.0000000001
44
0.0000000001
40
0
40
0
40
0
40
0
40
1
40
1
40
1
40
1
41
1
41
1
41
1
41
1
10
15.753125000000004
20
-5.6114583333333332
30
0
10
15.844791666666671
20
-5.5385416666666663
30
0
10
15.845833333333333
20
-5.5375000000000005
30
0
10
16.133333333333336
20
-5.3343750000000005
30
0
0
SPLINE
5
581
100
AcDbEntity
8
0
100
AcDbSpline
70
4
71
3
72
8
73
4
74
0
42
0.000000001
43
0.0000000001
44
0.0000000001
40
0
40
0
40
0
40
0
40
1
40
1
40
1
40
1
41
1
41
1
41
1
41
1
10
16.133333333333336
20
-5.3343750000000005
30
0
10
16.247916666666669
20
-5.2541666666666664
30
0
10
16.348958333333332
20
-5.1875
30
0
10
16.358333333333334
20
-5.1875
30
0
0
SPLINE
5
582
100
AcDbEntity
8
0
100
AcDbSpline
70
4
71
3
72
8
73
4
74
0
42
0.000000001
43
0.0000000001
44
0.0000000001
40
0
40
0
40
0
40
0
40
1
40
1
40
1
40
1
41
1
41
1
41
1
41
1
10
16.358333333333334
20
-5.1875
30
0
10
16.367708333333336
20
-5.1875
30
0
10
16.375000000000004
20
-5.1833333333333336
30
0
10
16.375000000000004
20
-5.1781250000000005
30
0
0
SPLINE
5
583
100
AcDbEntity
8
0
100
AcDbSpline
70
4
71
3
72
8
73
4
74
0
42
0.000000001
43
0.0000000001
44
0.0000000001
40
0
40
0
40
0
40
0
40
1
40
1
40
1
40
1
41
1
41
1
41
1
41
1
10
16.375000000000004
20
-5.1781250000000005
30
0
10
16.375000000000004
20
-5.1729166666666675
30
0
10
16.384375000000002
20
-5.1656249999999995
30
0
10
16.39479166666667
20
-5.161458333333333
30
0
0
SPLINE
5
584
100
AcDbEntity
8
0
100
AcDbSpline
70
4
71
3
72
8
73
4
74
0
42
0.000000001
43
0.0000000001
44
0.0000000001
40
0
40
0
40
0
40
0
40
1
40
1
40
1
40
1
41
1
41
1
41
1
41
1
10
16.39479166666667
20
-5.161458333333333
30
0
10
16.40625
20
-5.1583333333333332
30
0
10
16.432291666666668
20
-5.1416666666666666
30
0
10
16.454166666666669
20
-5.1239583333333334
30
0
0
SPLINE
5
585
100
AcDbEntity
8
0
100
AcDbSpline
70
4
71
3
72
8
73
4
74
0
42
0.000000001
43
0.0000000001
44
0.0000000001
40
0
40
0
40
0
40
0
40
1
40
1
40
1
40
1
41
1
41
1
41
1
41
1
10
16.454166666666669
20
-5.1239583333333334
30
0
10
16.475000000000005
20
-5.1072916666666668
30
0
10
16.529166666666669
20
-5.0749999999999993
30
0
10
16.573958333333337
20
-5.0531250000000005
30
0
0
SPLINE
5
586
100
AcDbEntity
8
0
100
AcDbSpline
70
4
71
3
72
8
73
4
74
0
42
0.000000001
43
0.0000000001
44
0.0000000001
40
0
40
0
40
0
40
0
40
1
40
1
40
1
40
1
41
1
41
1
41
1
41
1
10
16.573958333333337
20
-5.0531250000000005
30
0
10
16.618750000000002
20
-5.0302083333333334
30
0
10
16.665625000000002
20
-5.0031249999999998
30
0
10
16.678125000000005
20
-4.9916666666666663
30
0
0
SPLINE
5
587
100
AcDbEntity
8
0
100
AcDbSpline
70
4
71
3
72
8
73
4
74
0
42
0.000000001
43
0.0000000001
44
0.0000000001
40
0
40
0
40
0
40
0
40
1
40
1
40
1
40
1
41
1
41
1
41
1
41
1
10
16.678125000000005
20
-4.9916666666666663
30
0
10
16.726041666666671
20
-4.9458333333333329
30
0
10
17.204166666666669
20
-4.6374999999999993
30
0
10
17.343750000000004
20
-4.5614583333333334
30
0
0
SPLINE
5
588
100
AcDbEntity
8
0
100
AcDbSpline
70
4
71
3
72
8
73
4
74
0
42
0.000000001
43
0.0000000001
44
0.0000000001
40
0
40
0
40
0
40
0
40
1
40
1
40
1
40
1
41
1
41
1
41
1
41
1
10
17.343750000000004
20
-4.5614583333333334
30
0
10
17.360416666666669
20
-4.5520833333333339
30
0
10
17.41041666666667
20
-4.5166666666666666
30
0
10
17.454166666666669
20
-4.4833333333333334
30
0
0
SPLINE
5
589
100
AcDbEntity
8
0
100
AcDbSpline
70
4
71
3
72
8
73
4
74
0
42
0.000000001
43
0.0000000001
44
0.0000000001
40
0
40
0
40
0
40
0
40
1
40
1
40
1
40
1
41
1
41
1
41
1
41
1
10
17.454166666666669
20
-4.4833333333333334
30
0
10
17.497916666666669
20
-4.4489583333333327
30
0
10
17.554166666666667
20
-4.4114583333333339
30
0
10
17.578125
20
-4.3989583333333337
30
0
0
SPLINE
5
590
100
AcDbEntity
8
0
100
AcDbSpline
70
4
71
3
72
8
73
4
74
0
42
0.000000001
43
0.0000000001
44
0.0000000001
40
0
40
0
40
0
40
0
40
1
40
1
40
1
40
1
41
1
41
1
41
1
41
1
10
17.578125
20
-4.3989583333333337
30
0
10
17.603125000000002
20
-4.3864583333333327
30
0
10
17.626041666666669
20
-4.3708333333333327
30
0
10
17.630208333333336
20
-4.3656249999999996
30
0
0
SPLINE
5
591
100
AcDbEntity
8
0
100
AcDbSpline
70
4
71
3
72
8
73
4
74
0
42
0.000000001
43
0.0000000001
44
0.0000000001
40
0
40
0
40
0
40
0
40
1
40
1
40
1
40
1
41
1
41
1
41
1
41
1
10
17.630208333333336
20
-4.3656249999999996
30
0
10
17.633333333333336
20
-4.359375
30
0
10
17.643750000000001
20
-4.354166666666667
30
0
10
17.652083333333334
20
-4.354166666666667
30
0
0
SPLINE
5
592
100
AcDbEntity
8
0
100
AcDbSpline
70
4
71
3
72
8
73
4
74
0
42
0.000000001
43
0.0000000001
44
0.0000000001
40
0
40
0
40
0
40
0
40
1
40
1
40
1
40
1
41
1
41
1
41
1
41
1
10
17.652083333333334
20
-4.354166666666667
30
0
10
17.659375000000001
20
-4.354166666666667
30
0
10
17.721875000000004
20
-4.3125
30
0
10
17.788541666666667
20
-4.2625000000000002
30
0
0
SPLINE
5
593
100
AcDbEntity
8
0
100
AcDbSpline
70
4
71
3
72
8
73
4
74
0
42
0.000000001
43
0.0000000001
44
0.0000000001
40
0
40
0
40
0
40
0
40
1
40
1
40
1
40
1
41
1
41
1
41
1
41
1
10
17.788541666666667
20
-4.2625000000000002
30
0
10
17.856250000000003
20
-4.2114583333333337
30
0
10
17.918749999999999
20
-4.1656250000000004
30
0
10
17.929166666666667
20
-4.1604166666666664
30
0
0
SPLINE
5
594
100
AcDbEntity
8
0
100
AcDbSpline
70
4
71
3
72
8
73
4
74
0
42
0.000000001
43
0.0000000001
44
0.0000000001
40
0
40
0
40
0
40
0
40
1
40
1
40
1
40
1
41
1
41
1
41
1
41
1
10
17.929166666666667
20
-4.1604166666666664
30
0
10
17.938541666666669
20
-4.1552083333333334
30
0
10
18.01979166666667
20
-4.0895833333333327
30
0
10
18.111458333333335
20
-4.0145833333333334
30
0
0
SPLINE
5
595
100
AcDbEntity
8
0
100
AcDbSpline
70
4
71
3
72
8
73
4
74
0
42
0.000000001
43
0.0000000001
44
0.0000000001
40
0
40
0
40
0
40
0
40
1
40
1
40
1
40
1
41
1
41
1
41
1
41
1
10
18.111458333333335
20
-4.0145833333333334
30
0
10
18.202083333333334
20
-3.9385416666666662
30
0
10
18.305208333333336
20
-3.8572916666666663
30
0
10
18.340625000000003
20
-3.8322916666666664
30
0
0
SPLINE
5
596
100
AcDbEntity
8
0
100
AcDbSpline
70
4
71
3
72
8
73
4
74
0
42
0.000000001
43
0.0000000001
44
0.0000000001
40
0
40
0
40
0
40
0
40
1
40
1
40
1
40
1
41
1
41
1
41
1
41
1
10
18.340625000000003
20
-3.8322916666666664
30
0
10
18.465624999999999
20
-3.7427083333333329
30
0
10
18.726041666666667
20
-3.510416666666667
30
0
10
18.867708333333336
20
-3.3614583333333332
30
0
0
SPLINE
5
597
100
AcDbEntity
8
0
100
AcDbSpline
70
4
71
3
72
8
73
4
74
0
42
0.000000001
43
0.0000000001
44
0.0000000001
40
0
40
0
40
0
40
0
40
1
40
1
40
1
40
1
41
1
41
1
41
1
41
1
10
18.867708333333336
20
-3.3614583333333332
30
0
10
18.945833333333336
20
-3.2781249999999993
30
0
10
19.010416666666668
20
-3.2062499999999994
30
0
10
19.010416666666668
20
-3.2010416666666659
30
0
0
SPLINE
5
598
100
AcDbEntity
8
0
100
AcDbSpline
70
4
71
3
72
8
73
4
74
0
42
0.000000001
43
0.0000000001
44
0.0000000001
40
0
40
0
40
0
40
0
40
1
40
1
40
1
40
1
41
1
41
1
41
1
41
1
10
19.010416666666668
20
-3.2010416666666659
30
0
10
19.010416666666668
20
-3.1958333333333333
30
0
10
19.040625000000002
20
-3.1572916666666657
30
0
10
19.078125000000004
20
-3.1166666666666658
30
0
0
SPLINE
5
599
100
AcDbEntity
8
0
100
AcDbSpline
70
4
71
3
72
8
73
4
74
0
42
0.000000001
43
0.0000000001
44
0.0000000001
40
0
40
0
40
0
40
0
40
1
40
1
40
1
40
1
41
1
41
1
41
1
41
1
10
19.078125000000004
20
-3.1166666666666658
30
0
10
19.115625000000001
20
-3.0749999999999993
30
0
10
19.145833333333336
20
-3.0354166666666664
30
0
10
19.145833333333336
20
-3.0281249999999993
30
0
0
SPLINE
5
600
100
AcDbEntity
8
0
100
AcDbSpline
70
4
71
3
72
8
73
4
74
0
42
0.000000001
43
0.0000000001
44
0.0000000001
40
0
40
0
40
0
40
0
40
1
40
1
40
1
40
1
41
1
41
1
41
1
41
1
10
19.145833333333336
20
-3.0281249999999993
30
0
10
19.145833333333336
20
-3.0208333333333335
30
0
10
19.169791666666672
20
-2.9854166666666662
30
0
10
19.197916666666668
20
-2.9489583333333327
30
0
0
SPLINE
5
601
100
AcDbEntity
8
0
100
AcDbSpline
70
4
71
3
72
8
73
4
74
0
42
0.000000001
43
0.0000000001
44
0.0000000001
40
0
40
0
40
0
40
0
40
1
40
1
40
1
40
1
41
1
41
1
41
1
41
1
10
19.197916666666668
20
-2.9489583333333327
30
0
10
19.227083333333336
20
-2.9114583333333335
30
0
10
19.250000000000004
20
-2.8739583333333334
30
0
10
19.250000000000004
20
-2.8635416666666664
30
0
0
SPLINE
5
602
100
AcDbEntity
8
0
100
AcDbSpline
70
4
71
3
72
8
73
4
74
0
42
0.000000001
43
0.0000000001
44
0.0000000001
40
0
40
0
40
0
40
0
40
1
40
1
40
1
40
1
41
1
41
1
41
1
41
1
10
19.250000000000004
20
-2.8635416666666664
30
0
10
19.250000000000004
20
-2.854166666666667
30
0
10
19.257291666666671
20
-2.8406249999999993
30
0
10
19.265625000000004
20
-2.8333333333333335
30
0
0
SPLINE
5
603
100
AcDbEntity
8
0
100
AcDbSpline
70
4
71
3
72
8
73
4
74
0
42
0.000000001
43
0.0000000001
44
0.0000000001
40
0
40
0
40
0
40
0
40
1
40
1
40
1
40
1
41
1
41
1
41
1
41
1
10
19.265625000000004
20
-2.8333333333333335
30
0
10
19.273958333333336
20
-2.8260416666666663
30
0
10
19.281250000000004
20
-2.8093749999999993
30
0
10
19.281250000000004
20
-2.7968750000000004
30
0
0
SPLINE
5
604
100
AcDbEntity
8
0
100
AcDbSpline
70
4
71
3
72
8
73
4
74
0
42
0.000000001
43
0.0000000001
44
0.0000000001
40
0
40
0
40
0
40
0
40
1
40
1
40
1
40
1
41
1
41
1
41
1
41
1
10
19.281250000000004
20
-2.7968750000000004
30
0
10
19.281250000000004
20
-2.7843749999999998
30
0
10
19.290625000000002
20
-2.7624999999999993
30
0
10
19.30104166666667
20
-2.7479166666666663
30
0
0
SPLINE
5
605
100
AcDbEntity
8
0
100
AcDbSpline
70
4
71
3
72
8
73
4
74
0
42
0.000000001
43
0.0000000001
44
0.0000000001
40
0
40
0
40
0
40
0
40
1
40
1
40
1
40
1
41
1
41
1
41
1
41
1
10
19.30104166666667
20
-2.7479166666666663
30
0
10
19.3125
20
-2.734375
30
0
10
19.329166666666669
20
-2.6947916666666663
30
0
10
19.338541666666668
20
-2.6614583333333335
30
0
0
SPLINE
5
606
100
AcDbEntity
8
0
100
AcDbSpline
70
4
71
3
72
8
73
4
74
0
42
0.000000001
43
0.0000000001
44
0.0000000001
40
0
40
0
40
0
40
0
40
1
40
1
40
1
40
1
41
1
41
1
41
1
41
1
10
19.338541666666668
20
-2.6614583333333335
30
0
10
19.348958333333336
20
-2.6270833333333328
30
0
10
19.367708333333336
20
-2.5781250000000004
30
0
10
19.381250000000005
20
-2.5520833333333335
30
0
0
SPLINE
5
607
100
AcDbEntity
8
0
100
AcDbSpline
70
4
71
3
72
8
73
4
74
0
42
0.000000001
43
0.0000000001
44
0.0000000001
40
0
40
0
40
0
40
0
40
1
40
1
40
1
40
1
41
1
41
1
41
1
41
1
10
19.381250000000005
20
-2.5520833333333335
30
0
10
19.39479166666667
20
-2.526041666666667
30
0
10
19.40625
20
-2.5
30
0
10
19.40625
20
-2.4937499999999999
30
0
0
SPLINE
5
608
100
AcDbEntity
8
0
100
AcDbSpline
70
4
71
3
72
8
73
4
74
0
42
0.000000001
43
0.0000000001
44
0.0000000001
40
0
40
0
40
0
40
0
40
1
40
1
40
1
40
1
41
1
41
1
41
1
41
1
10
19.40625
20
-2.4937499999999999
30
0
10
19.40625
20
-2.4874999999999998
30
0
10
19.418750000000003
20
-2.453125
30
0
10
19.433333333333334
20
-2.4156249999999999
30
0
0
SPLINE
5
609
100
AcDbEntity
8
0
100
AcDbSpline
70
4
71
3
72
8
73
4
74
0
42
0.000000001
43
0.0000000001
44
0.0000000001
40
0
40
0
40
0
40
0
40
1
40
1
40
1
40
1
41
1
41
1
41
1
41
1
10
19.433333333333334
20
-2.4156249999999999
30
0
10
19.458333333333332
20
-2.3552083333333322
30
0
10
19.459375000000001
20
-2.34375
30
0
10
19.449999999999999
20
-2.2864583333333335
30
0
0
SPLINE
5
610
100
AcDbEntity
8
0
100
AcDbSpline
70
4
71
3
72
8
73
4
74
0
42
0.000000001
43
0.0000000001
44
0.0000000001
40
0
40
0
40
0
40
0
40
1
40
1
40
1
40
1
41
1
41
1
41
1
41
1
10
19.449999999999999
20
-2.2864583333333335
30
0
10
19.433333333333334
20
-2.1906249999999994
30
0
10
19.400000000000002
20
-2.1114583333333328
30
0
10
19.34375
20
-2.041666666666667
30
0
0
SPLINE
5
611
100
AcDbEntity
8
0
100
AcDbSpline
70
4
71
3
72
8
73
4
74
0
42
0.000000001
43
0.0000000001
44
0.0000000001
40
0
40
0
40
0
40
0
40
1
40
1
40
1
40
1
41
1
41
1
41
1
41
1
10
19.34375
20
-2.041666666666667
30
0
10
19.284375000000004
20
-1.9677083333333334
30
0
10
19.258333333333336
20
-1.9458333333333331
30
0
10
19.209375000000005
20
-1.929166666666666
30
0
0
SPLINE
5
612
100
AcDbEntity
8
0
100
AcDbSpline
70
4
71
3
72
8
73
4
74
0
42
0.000000001
43
0.0000000001
44
0.0000000001
40
0
40
0
40
0
40
0
40
1
40
1
40
1
40
1
41
1
41
1
41
1
41
1
10
19.209375000000005
20
-1.929166666666666
30
0
10
19.141666666666669
20
-1.9062500000000002
30
0
10
19.092708333333334
20
-1.9135416666666663
30
0
10
18.993750000000002
20
-1.9624999999999999
30
0
0
SPLINE
5
613
100
AcDbEntity
8
0
100
AcDbSpline
70
4
71
3
72
8
73
4
74
0
42
0.000000001
43
0.0000000001
44
0.0000000001
40
0
40
0
40
0
40
0
40
1
40
1
40
1
40
1
41
1
41
1
41
1
41
1
10
18.993750000000002
20
-1.9624999999999999
30
0
10
18.902083333333337
20
-2.0083333333333329
30
0
10
18.861458333333335
20
-2.0374999999999992
30
0
10
18.776041666666668
20
-2.1218749999999997
30
0
0
SPLINE
5
614
100
AcDbEntity
8
0
100
AcDbSpline
70
4
71
3
72
8
73
4
74
0
42
0.000000001
43
0.0000000001
44
0.0000000001
40
0
40
0
40
0
40
0
40
1
40
1
40
1
40
1
41
1
41
1
41
1
41
1
10
18.776041666666668
20
-2.1218749999999997
30
0
10
18.751041666666669
20
-2.1447916666666664
30
0
10
18.720833333333335
20
-2.1697916666666663
30
0
10
18.709375000000001
20
-2.1770833333333335
30
0
0
SPLINE
5
615
100
AcDbEntity
8
0
100
AcDbSpline
70
4
71
3
72
8
73
4
74
0
42
0.000000001
43
0.0000000001
44
0.0000000001
40
0
40
0
40
0
40
0
40
1
40
1
40
1
40
1
41
1
41
1
41
1
41
1
10
18.709375000000001
20
-2.1770833333333335
30
0
10
18.696875000000002
20
-2.1833333333333322
30
0
10
18.682291666666668
20
-2.1999999999999993
30
0
10
18.677083333333332
20
-2.2135416666666665
30
0
0
SPLINE
5
616
100
AcDbEntity
8
0
100
AcDbSpline
70
4
71
3
72
8
73
4
74
0
42
0.000000001
43
0.0000000001
44
0.0000000001
40
0
40
0
40
0
40
0
40
1
40
1
40
1
40
1
41
1
41
1
41
1
41
1
10
18.677083333333332
20
-2.2135416666666665
30
0
10
18.671875000000004
20
-2.2270833333333329
30
0
10
18.651041666666668
20
-2.25
30
0
10
18.630208333333336
20
-2.2656250000000004
30
0
0
LINE
5
617
100
AcDbEntity
8
0
100
AcDbLine
10
18.630208333333336
20
-2.2656250000000004
30
0
11
18.592708333333334
21
-2.2947916666666663
31
0
0
LINE
5
618
100
AcDbEntity
8
0
100
AcDbLine
10
18.592708333333334
20
-2.2947916666666663
30
0
11
18.529166666666669
21
-2.2614583333333331
31
0
0
SPLINE
5
619
100
AcDbEntity
8
0
100
AcDbSpline
70
4
71
3
72
8
73
4
74
0
42
0.000000001
43
0.0000000001
44
0.0000000001
40
0
40
0
40
0
40
0
40
1
40
1
40
1
40
1
41
1
41
1
41
1
41
1
10
18.529166666666669
20
-2.2614583333333327
30
0
10
18.442708333333336
20
-2.2177083333333334
30
0
10
18.387500000000003
20
-2.2177083333333334
30
0
10
18.315625000000004
20
-2.2624999999999993
30
0
0
SPLINE
5
620
100
AcDbEntity
8
0
100
AcDbSpline
70
4
71
3
72
8
73
4
74
0
42
0.000000001
43
0.0000000001
44
0.0000000001
40
0
40
0
40
0
40
0
40
1
40
1
40
1
40
1
41
1
41
1
41
1
41
1
10
18.315625000000004
20
-2.2624999999999993
30
0
10
18.262499999999999
20
-2.2958333333333329
30
0
10
18.173958333333335
20
-2.3895833333333334
30
0
10
18.155208333333334
20
-2.4312499999999999
30
0
0
SPLINE
5
621
100
AcDbEntity
8
0
100
AcDbSpline
70
4
71
3
72
8
73
4
74
0
42
0.000000001
43
0.0000000001
44
0.0000000001
40
0
40
0
40
0
40
0
40
1
40
1
40
1
40
1
41
1
41
1
41
1
41
1
10
18.155208333333334
20
-2.4312499999999999
30
0
10
18.150000000000002
20
-2.4437499999999992
30
0
10
18.119791666666668
20
-2.4833333333333334
30
0
10
18.088541666666668
20
-2.5208333333333335
30
0
0
SPLINE
5
622
100
AcDbEntity
8
0
100
AcDbSpline
70
4
71
3
72
8
73
4
74
0
42
0.000000001
43
0.0000000001
44
0.0000000001
40
0
40
0
40
0
40
0
40
1
40
1
40
1
40
1
41
1
41
1
41
1
41
1
10
18.088541666666668
20
-2.5208333333333335
30
0
10
18.057291666666668
20
-2.5583333333333327
30
0
10
18.003125000000001
20
-2.6427083333333328
30
0
10
17.967708333333334
20
-2.7083333333333335
30
0
0
SPLINE
5
623
100
AcDbEntity
8
0
100
AcDbSpline
70
4
71
3
72
8
73
4
74
0
42
0.000000001
43
0.0000000001
44
0.0000000001
40
0
40
0
40
0
40
0
40
1
40
1
40
1
40
1
41
1
41
1
41
1
41
1
10
17.967708333333334
20
-2.7083333333333335
30
0
10
17.932291666666668
20
-2.7739583333333329
30
0
10
17.894791666666666
20
-2.8343749999999992
30
0
10
17.885416666666668
20
-2.8406249999999993
30
0
0
SPLINE
5
624
100
AcDbEntity
8
0
100
AcDbSpline
70
4
71
3
72
8
73
4
74
0
42
0.000000001
43
0.0000000001
44
0.0000000001
40
0
40
0
40
0
40
0
40
1
40
1
40
1
40
1
41
1
41
1
41
1
41
1
10
17.885416666666668
20
-2.8406249999999993
30
0
10
17.875
20
-2.8479166666666664
30
0
10
17.864583333333336
20
-2.8656249999999992
30
0
10
17.860416666666669
20
-2.8791666666666669
30
0
0
SPLINE
5
625
100
AcDbEntity
8
0
100
AcDbSpline
70
4
71
3
72
8
73
4
74
0
42
0.000000001
43
0.0000000001
44
0.0000000001
40
0
40
0
40
0
40
0
40
1
40
1
40
1
40
1
41
1
41
1
41
1
41
1
10
17.860416666666669
20
-2.8791666666666669
30
0
10
17.846875000000001
20
-2.932291666666667
30
0
10
17.775000000000002
20
-2.9260416666666669
30
0
10
17.765625
20
-2.8708333333333327
30
0
0
SPLINE
5
626
100
AcDbEntity
8
0
100
AcDbSpline
70
4
71
3
72
8
73
4
74
0
42
0.000000001
43
0.0000000001
44
0.0000000001
40
0
40
0
40
0
40
0
40
1
40
1
40
1
40
1
41
1
41
1
41
1
41
1
10
17.765625
20
-2.8708333333333327
30
0
10
17.757291666666667
20
-2.8312499999999998
30
0
10
17.787500000000001
20
-2.6499999999999999
30
0
10
17.807291666666668
20
-2.619791666666667
30
0
0
SPLINE
5
627
100
AcDbEntity
8
0
100
AcDbSpline
70
4
71
3
72
8
73
4
74
0
42
0.000000001
43
0.0000000001
44
0.0000000001
40
0
40
0
40
0
40
0
40
1
40
1
40
1
40
1
41
1
41
1
41
1
41
1
10
17.807291666666668
20
-2.619791666666667
30
0
10
17.814583333333335
20
-2.6083333333333334
30
0
10
17.825000000000003
20
-2.5781250000000004
30
0
10
17.831250000000001
20
-2.5520833333333335
30
0
0
SPLINE
5
628
100
AcDbEntity
8
0
100
AcDbSpline
70
4
71
3
72
8
73
4
74
0
42
0.000000001
43
0.0000000001
44
0.0000000001
40
0
40
0
40
0
40
0
40
1
40
1
40
1
40
1
41
1
41
1
41
1
41
1
10
17.831250000000001
20
-2.5520833333333335
30
0
10
17.836458333333336
20
-2.526041666666667
30
0
10
17.854166666666668
20
-2.4583333333333335
30
0
10
17.869791666666668
20
-2.401041666666667
30
0
0
SPLINE
5
629
100
AcDbEntity
8
0
100
AcDbSpline
70
4
71
3
72
8
73
4
74
0
42
0.000000001
43
0.0000000001
44
0.0000000001
40
0
40
0
40
0
40
0
40
1
40
1
40
1
40
1
41
1
41
1
41
1
41
1
10
17.869791666666668
20
-2.401041666666667
30
0
10
17.885416666666668
20
-2.34375
30
0
10
17.905208333333334
20
-2.2708333333333335
30
0
10
17.913541666666671
20
-2.2395833333333335
30
0
0
SPLINE
5
630
100
AcDbEntity
8
0
100
AcDbSpline
70
4
71
3
72
8
73
4
74
0
42
0.000000001
43
0.0000000001
44
0.0000000001
40
0
40
0
40
0
40
0
40
1
40
1
40
1
40
1
41
1
41
1
41
1
41
1
10
17.913541666666671
20
-2.2395833333333335
30
0
10
17.921875000000004
20
-2.2083333333333335
30
0
10
17.933333333333337
20
-2.1583333333333328
30
0
10
17.939583333333335
20
-2.1302083333333335
30
0
0
SPLINE
5
631
100
AcDbEntity
8
0
100
AcDbSpline
70
4
71
3
72
8
73
4
74
0
42
0.000000001
43
0.0000000001
44
0.0000000001
40
0
40
0
40
0
40
0
40
1
40
1
40
1
40
1
41
1
41
1
41
1
41
1
10
17.939583333333335
20
-2.1302083333333335
30
0
10
17.951041666666669
20
-2.0760416666666663
30
0
10
18.094791666666669
20
-1.616666666666666
30
0
10
18.120833333333337
20
-1.5520833333333335
30
0
0
SPLINE
5
632
100
AcDbEntity
8
0
100
AcDbSpline
70
4
71
3
72
8
73
4
74
0
42
0.000000001
43
0.0000000001
44
0.0000000001
40
0
40
0
40
0
40
0
40
1
40
1
40
1
40
1
41
1
41
1
41
1
41
1
10
18.120833333333337
20
-1.5520833333333335
30
0
10
18.164583333333336
20
-1.4416666666666664
30
0
10
18.270833333333336
20
-1.1302083333333333
30
0
10
18.270833333333336
20
-1.1104166666666659
30
0
0
SPLINE
5
633
100
AcDbEntity
8
0
100
AcDbSpline
70
4
71
3
72
8
73
4
74
0
42
0.000000001
43
0.0000000001
44
0.0000000001
40
0
40
0
40
0
40
0
40
1
40
1
40
1
40
1
41
1
41
1
41
1
41
1
10
18.270833333333336
20
-1.1104166666666659
30
0
10
18.270833333333336
20
-1.085416666666666
30
0
10
18.21875
20
-1.0520833333333335
30
0
10
18.181250000000002
20
-1.0520833333333335
30
0
0
SPLINE
5
634
100
AcDbEntity
8
0
100
AcDbSpline
70
4
71
3
72
8
73
4
74
0
42
0.000000001
43
0.0000000001
44
0.0000000001
40
0
40
0
40
0
40
0
40
1
40
1
40
1
40
1
41
1
41
1
41
1
41
1
10
18.181250000000002
20
-1.0520833333333335
30
0
10
18.161458333333336
20
-1.0520833333333335
30
0
10
18.128125000000004
20
-1.0583333333333325
30
0
10
18.107291666666669
20
-1.0666666666666664
30
0
0
SPLINE
5
635
100
AcDbEntity
8
0
100
AcDbSpline
70
4
71
3
72
8
73
4
74
0
42
0.000000001
43
0.0000000001
44
0.0000000001
40
0
40
0
40
0
40
0
40
1
40
1
40
1
40
1
41
1
41
1
41
1
41
1
10
18.107291666666669
20
-1.0666666666666664
30
0
10
18.085416666666671
20
-1.0749999999999993
30
0
10
18.03541666666667
20
-1.0916666666666661
30
0
10
17.994791666666668
20
-1.1041666666666667
30
0
0
SPLINE
5
636
100
AcDbEntity
8
0
100
AcDbSpline
70
4
71
3
72
8
73
4
74
0
42
0.000000001
43
0.0000000001
44
0.0000000001
40
0
40
0
40
0
40
0
40
1
40
1
40
1
40
1
41
1
41
1
41
1
41
1
10
17.994791666666668
20
-1.1041666666666667
30
0
10
17.955208333333335
20
-1.116666666666666
30
0
10
17.913541666666671
20
-1.1354166666666667
30
0
10
17.902083333333337
20
-1.1447916666666664
30
0
0
SPLINE
5
637
100
AcDbEntity
8
0
100
AcDbSpline
70
4
71
3
72
8
73
4
74
0
42
0.000000001
43
0.0000000001
44
0.0000000001
40
0
40
0
40
0
40
0
40
1
40
1
40
1
40
1
41
1
41
1
41
1
41
1
10
17.902083333333337
20
-1.1447916666666664
30
0
10
17.872916666666669
20
-1.1697916666666663
30
0
10
17.848958333333336
20
-1.2249999999999992
30
0
10
17.821875000000002
20
-1.3229166666666667
30
0
0
SPLINE
5
638
100
AcDbEntity
8
0
100
AcDbSpline
70
4
71
3
72
8
73
4
74
0
42
0.000000001
43
0.0000000001
44
0.0000000001
40
0
40
0
40
0
40
0
40
1
40
1
40
1
40
1
41
1
41
1
41
1
41
1
10
17.821875000000002
20
-1.3229166666666667
30
0
10
17.776041666666668
20
-1.4968749999999993
30
0
10
17.771875000000001
20
-1.5
30
0
10
17.670833333333338
20
-1.4479166666666667
30
0
0
SPLINE
5
639
100
AcDbEntity
8
0
100
AcDbSpline
70
4
71
3
72
8
73
4
74
0
42
0.000000001
43
0.0000000001
44
0.0000000001
40
0
40
0
40
0
40
0
40
1
40
1
40
1
40
1
41
1
41
1
41
1
41
1
10
17.670833333333338
20
-1.4479166666666667
30
0
10
17.591666666666669
20
-1.4083333333333328
30
0
10
17.481249999999999
20
-1.3791666666666664
30
0
10
17.458333333333336
20
-1.3937499999999996
30
0
0
SPLINE
5
640
100
AcDbEntity
8
0
100
AcDbSpline
70
4
71
3
72
8
73
4
74
0
42
0.000000001
43
0.0000000001
44
0.0000000001
40
0
40
0
40
0
40
0
40
1
40
1
40
1
40
1
41
1
41
1
41
1
41
1
10
17.458333333333336
20
-1.3937499999999996
30
0
10
17.448958333333334
20
-1.3989583333333329
30
0
10
17.42604166666667
20
-1.4072916666666657
30
0
10
17.40625
20
-1.4114583333333333
30
0
0
SPLINE
5
641
100
AcDbEntity
8
0
100
AcDbSpline
70
4
71
3
72
8
73
4
74
0
42
0.000000001
43
0.0000000001
44
0.0000000001
40
0
40
0
40
0
40
0
40
1
40
1
40
1
40
1
41
1
41
1
41
1
41
1
10
17.40625
20
-1.4114583333333333
30
0
10
17.34791666666667
20
-1.4239583333333328
30
0
10
17.194791666666667
20
-1.5062499999999992
30
0
10
17.159375000000004
20
-1.5437499999999993
30
0
0
SPLINE
5
642
100
AcDbEntity
8
0
100
AcDbSpline
70
4
71
3
72
8
73
4
74
0
42
0.000000001
43
0.0000000001
44
0.0000000001
40
0
40
0
40
0
40
0
40
1
40
1
40
1
40
1
41
1
41
1
41
1
41
1
10
17.159375000000004
20
-1.5437499999999993
30
0
10
17.140625000000004
20
-1.5625
30
0
10
17.106249999999999
20
-1.5968749999999996
30
0
10
17.082291666666666
20
-1.619791666666667
30
0
0
SPLINE
5
643
100
AcDbEntity
8
0
100
AcDbSpline
70
4
71
3
72
8
73
4
74
0
42
0.000000001
43
0.0000000001
44
0.0000000001
40
0
40
0
40
0
40
0
40
1
40
1
40
1
40
1
41
1
41
1
41
1
41
1
10
17.082291666666666
20
-1.619791666666667
30
0
10
17.059375000000003
20
-1.6427083333333328
30
0
10
17.023958333333336
20
-1.6864583333333332
30
0
10
17.00416666666667
20
-1.7166666666666666
30
0
0
SPLINE
5
644
100
AcDbEntity
8
0
100
AcDbSpline
70
4
71
3
72
8
73
4
74
0
42
0.000000001
43
0.0000000001
44
0.0000000001
40
0
40
0
40
0
40
0
40
1
40
1
40
1
40
1
41
1
41
1
41
1
41
1
10
17.00416666666667
20
-1.7166666666666666
30
0
10
16.984375
20
-1.7458333333333325
30
0
10
16.955208333333335
20
-1.7864583333333333
30
0
10
16.938541666666669
20
-1.8052083333333331
30
0
0
SPLINE
5
645
100
AcDbEntity
8
0
100
AcDbSpline
70
4
71
3
72
8
73
4
74
0
42
0.000000001
43
0.0000000001
44
0.0000000001
40
0
40
0
40
0
40
0
40
1
40
1
40
1
40
1
41
1
41
1
41
1
41
1
10
16.938541666666669
20
-1.8052083333333331
30
0
10
16.894791666666666
20
-1.8562499999999995
30
0
10
16.792708333333337
20
-2.0260416666666665
30
0
10
16.760416666666668
20
-2.1031249999999999
30
0
0
SPLINE
5
646
100
AcDbEntity
8
0
100
AcDbSpline
70
4
71
3
72
8
73
4
74
0
42
0.000000001
43
0.0000000001
44
0.0000000001
40
0
40
0
40
0
40
0
40
1
40
1
40
1
40
1
41
1
41
1
41
1
41
1
10
16.760416666666668
20
-2.1031249999999999
30
0
10
16.708333333333336
20
-2.2260416666666663
30
0
10
16.659375000000001
20
-2.3322916666666664
30
0
10
16.648958333333336
20
-2.3458333333333328
30
0
0
SPLINE
5
647
100
AcDbEntity
8
0
100
AcDbSpline
70
4
71
3
72
8
73
4
74
0
42
0.000000001
43
0.0000000001
44
0.0000000001
40
0
40
0
40
0
40
0
40
1
40
1
40
1
40
1
41
1
41
1
41
1
41
1
10
16.648958333333336
20
-2.3458333333333328
30
0
10
16.631250000000001
20
-2.3677083333333329
30
0
10
16.492708333333336
20
-2.8208333333333329
30
0
10
16.463541666666668
20
-2.9499999999999997
30
0
0
SPLINE
5
648
100
AcDbEntity
8
0
100
AcDbSpline
70
4
71
3
72
8
73
4
74
0
42
0.000000001
43
0.0000000001
44
0.0000000001
40
0
40
0
40
0
40
0
40
1
40
1
40
1
40
1
41
1
41
1
41
1
41
1
10
16.463541666666668
20
-2.9499999999999997
30
0
10
16.447916666666668
20
-3.0145833333333334
30
0
10
16.430208333333336
20
-3.0958333333333328
30
0
10
16.421875
20
-3.1302083333333335
30
0
0
SPLINE
5
649
100
AcDbEntity
8
0
100
AcDbSpline
70
4
71
3
72
8
73
4
74
0
42
0.000000001
43
0.0000000001
44
0.0000000001
40
0
40
0
40
0
40
0
40
1
40
1
40
1
40
1
41
1
41
1
41
1
41
1
10
16.421875
20
-3.1302083333333335
30
0
10
16.413541666666667
20
-3.1645833333333329
30
0
10
16.402083333333337
20
-3.2322916666666663
30
0
10
16.395833333333332
20
-3.2812500000000004
30
0
0
SPLINE
5
650
100
AcDbEntity
8
0
100
AcDbSpline
70
4
71
3
72
8
73
4
74
0
42
0.000000001
43
0.0000000001
44
0.0000000001
40
0
40
0
40
0
40
0
40
1
40
1
40
1
40
1
41
1
41
1
41
1
41
1
10
16.395833333333332
20
-3.2812500000000004
30
0
10
16.381250000000001
20
-3.3927083333333328
30
0
10
16.346875000000004
20
-3.4666666666666663
30
0
10
16.253125000000004
20
-3.5791666666666657
30
0
0
SPLINE
5
651
100
AcDbEntity
8
0
100
AcDbSpline
70
4
71
3
72
8
73
4
74
0
42
0.000000001
43
0.0000000001
44
0.0000000001
40
0
40
0
40
0
40
0
40
1
40
1
40
1
40
1
41
1
41
1
41
1
41
1
10
16.253125000000004
20
-3.5791666666666657
30
0
10
16.060416666666669
20
-3.8114583333333334
30
0
10
16.059375000000003
20
-3.8125000000000004
30
0
10
16.016666666666669
20
-3.8239583333333327
30
0
0
SPLINE
5
652
100
AcDbEntity
8
0
100
AcDbSpline
70
4
71
3
72
8
73
4
74
0
42
0.000000001
43
0.0000000001
44
0.0000000001
40
0
40
0
40
0
40
0
40
1
40
1
40
1
40
1
41
1
41
1
41
1
41
1
10
16.016666666666669
20
-3.8239583333333327
30
0
10
15.928125000000003
20
-3.8479166666666664
30
0
10
15.900000000000002
20
-3.8125000000000004
30
0
10
15.911458333333334
20
-3.6927083333333335
30
0
0
SPLINE
5
653
100
AcDbEntity
8
0
100
AcDbSpline
70
4
71
3
72
8
73
4
74
0
42
0.000000001
43
0.0000000001
44
0.0000000001
40
0
40
0
40
0
40
0
40
1
40
1
40
1
40
1
41
1
41
1
41
1
41
1
10
15.911458333333334
20
-3.6927083333333335
30
0
10
15.922916666666669
20
-3.5739583333333322
30
0
10
15.973958333333334
20
-3.3302083333333328
30
0
10
16.025000000000002
20
-3.1458333333333335
30
0
0
SPLINE
5
654
100
AcDbEntity
8
0
100
AcDbSpline
70
4
71
3
72
8
73
4
74
0
42
0.000000001
43
0.0000000001
44
0.0000000001
40
0
40
0
40
0
40
0
40
1
40
1
40
1
40
1
41
1
41
1
41
1
41
1
10
16.025000000000002
20
-3.1458333333333335
30
0
10
16.052083333333336
20
-3.0510416666666669
30
0
10
16.089583333333334
20
-2.9104166666666664
30
0
10
16.110416666666669
20
-2.8333333333333335
30
0
0
SPLINE
5
655
100
AcDbEntity
8
0
100
AcDbSpline
70
4
71
3
72
8
73
4
74
0
42
0.000000001
43
0.0000000001
44
0.0000000001
40
0
40
0
40
0
40
0
40
1
40
1
40
1
40
1
41
1
41
1
41
1
41
1
10
16.110416666666669
20
-2.8333333333333335
30
0
10
16.150000000000002
20
-2.682291666666667
30
0
10
16.170833333333334
20
-2.6156249999999992
30
0
10
16.1875
20
-2.5864583333333329
30
0
0
SPLINE
5
656
100
AcDbEntity
8
0
100
AcDbSpline
70
4
71
3
72
8
73
4
74
0
42
0.000000001
43
0.0000000001
44
0.0000000001
40
0
40
0
40
0
40
0
40
1
40
1
40
1
40
1
41
1
41
1
41
1
41
1
10
16.1875
20
-2.5864583333333329
30
0
10
16.192708333333332
20
-2.5760416666666663
30
0
10
16.204166666666669
20
-2.5395833333333329
30
0
10
16.212500000000002
20
-2.5052083333333335
30
0
0
SPLINE
5
657
100
AcDbEntity
8
0
100
AcDbSpline
70
4
71
3
72
8
73
4
74
0
42
0.000000001
43
0.0000000001
44
0.0000000001
40
0
40
0
40
0
40
0
40
1
40
1
40
1
40
1
41
1
41
1
41
1
41
1
10
16.212500000000002
20
-2.5052083333333335
30
0
10
16.227083333333336
20
-2.4447916666666663
30
0
10
16.253125000000004
20
-2.3520833333333329
30
0
10
16.291666666666668
20
-2.2239583333333335
30
0
0
SPLINE
5
658
100
AcDbEntity
8
0
100
AcDbSpline
70
4
71
3
72
8
73
4
74
0
42
0.000000001
43
0.0000000001
44
0.0000000001
40
0
40
0
40
0
40
0
40
1
40
1
40
1
40
1
41
1
41
1
41
1
41
1
10
16.291666666666668
20
-2.2239583333333335
30
0
10
16.302083333333336
20
-2.1895833333333328
30
0
10
16.313541666666669
20
-2.1333333333333329
30
0
10
16.317708333333336
20
-2.0989583333333335
30
0
0
SPLINE
5
659
100
AcDbEntity
8
0
100
AcDbSpline
70
4
71
3
72
8
73
4
74
0
42
0.000000001
43
0.0000000001
44
0.0000000001
40
0
40
0
40
0
40
0
40
1
40
1
40
1
40
1
41
1
41
1
41
1
41
1
10
16.317708333333336
20
-2.0989583333333335
30
0
10
16.322916666666668
20
-2.0458333333333334
30
0
10
16.320833333333336
20
-2.03125
30
0
10
16.305208333333336
20
-2.0124999999999993
30
0
0
LINE
5
660
100
AcDbEntity
8
0
100
AcDbLine
10
16.305208333333336
20
-2.0124999999999993
30
0
11
16.286458333333336
21
-1.9885416666666667
31
0
0
LINE
5
661
100
AcDbEntity
8
0
100
AcDbLine
10
16.286458333333336
20
-1.9885416666666667
30
0
11
16.178125000000001
21
-2.020833333333333
31
0
0
SPLINE
5
662
100
AcDbEntity
8
0
100
AcDbSpline
70
4
71
3
72
8
73
4
74
0
42
0.000000001
43
0.0000000001
44
0.0000000001
40
0
40
0
40
0
40
0
40
1
40
1
40
1
40
1
41
1
41
1
41
1
41
1
10
16.178125000000001
20
-2.0208333333333335
30
0
10
16.01979166666667
20
-2.0677083333333335
30
0
10
16.001041666666669
20
-2.0802083333333328
30
0
10
15.925000000000002
20
-2.1843749999999993
30
0
0
SPLINE
5
663
100
AcDbEntity
8
0
100
AcDbSpline
70
4
71
3
72
8
73
4
74
0
42
0.000000001
43
0.0000000001
44
0.0000000001
40
0
40
0
40
0
40
0
40
1
40
1
40
1
40
1
41
1
41
1
41
1
41
1
10
15.925000000000002
20
-2.1843749999999993
30
0
10
15.850000000000001
20
-2.2885416666666663
30
0
10
15.78541666666667
20
-2.3895833333333334
30
0
10
15.75
20
-2.4583333333333335
30
0
0
SPLINE
5
664
100
AcDbEntity
8
0
100
AcDbSpline
70
4
71
3
72
8
73
4
74
0
42
0.000000001
43
0.0000000001
44
0.0000000001
40
0
40
0
40
0
40
0
40
1
40
1
40
1
40
1
41
1
41
1
41
1
41
1
10
15.75
20
-2.4583333333333335
30
0
10
15.737500000000001
20
-2.4843750000000004
30
0
10
15.68541666666667
20
-2.5687499999999992
30
0
10
15.634375
20
-2.6458333333333335
30
0
0
SPLINE
5
665
100
AcDbEntity
8
0
100
AcDbSpline
70
4
71
3
72
8
73
4
74
0
42
0.000000001
43
0.0000000001
44
0.0000000001
40
0
40
0
40
0
40
0
40
1
40
1
40
1
40
1
41
1
41
1
41
1
41
1
10
15.634375
20
-2.6458333333333335
30
0
10
15.5625
20
-2.7552083333333335
30
0
10
15.521875000000003
20
-2.8052083333333329
30
0
10
15.450000000000003
20
-2.8718749999999997
30
0
0
SPLINE
5
666
100
AcDbEntity
8
0
100
AcDbSpline
70
4
71
3
72
8
73
4
74
0
42
0.000000001
43
0.0000000001
44
0.0000000001
40
0
40
0
40
0
40
0
40
1
40
1
40
1
40
1
41
1
41
1
41
1
41
1
10
15.450000000000003
20
-2.8718749999999997
30
0
10
15.339583333333335
20
-2.9729166666666669
30
0
10
15.187500000000002
20
-3.0697916666666658
30
0
10
15.057291666666668
20
-3.119791666666667
30
0
0
SPLINE
5
667
100
AcDbEntity
8
0
100
AcDbSpline
70
4
71
3
72
8
73
4
74
0
42
0.000000001
43
0.0000000001
44
0.0000000001
40
0
40
0
40
0
40
0
40
1
40
1
40
1
40
1
41
1
41
1
41
1
41
1
10
15.057291666666668
20
-3.119791666666667
30
0
10
15.006250000000003
20
-3.140625
30
0
10
14.957291666666668
20
-3.1604166666666664
30
0
10
14.950000000000001
20
-3.1656249999999999
30
0
0
SPLINE
5
668
100
AcDbEntity
8
0
100
AcDbSpline
70
4
71
3
72
8
73
4
74
0
42
0.000000001
43
0.0000000001
44
0.0000000001
40
0
40
0
40
0
40
0
40
1
40
1
40
1
40
1
41
1
41
1
41
1
41
1
10
14.950000000000001
20
-3.1656249999999999
30
0
10
14.941666666666668
20
-3.1708333333333334
30
0
10
14.923958333333335
20
-3.2510416666666657
30
0
10
14.905208333333334
20
-3.3708333333333322
30
0
0
SPLINE
5
669
100
AcDbEntity
8
0
100
AcDbSpline
70
4
71
3
72
8
73
4
74
0
42
0.000000001
43
0.0000000001
44
0.0000000001
40
0
40
0
40
0
40
0
40
1
40
1
40
1
40
1
41
1
41
1
41
1
41
1
10
14.905208333333334
20
-3.3708333333333322
30
0
10
14.888541666666669
20
-3.4791666666666665
30
0
10
14.869791666666666
20
-3.5812499999999998
30
0
10
14.86354166666667
20
-3.5989583333333335
30
0
0
SPLINE
5
670
100
AcDbEntity
8
0
100
AcDbSpline
70
4
71
3
72
8
73
4
74
0
42
0.000000001
43
0.0000000001
44
0.0000000001
40
0
40
0
40
0
40
0
40
1
40
1
40
1
40
1
41
1
41
1
41
1
41
1
10
14.86354166666667
20
-3.5989583333333335
30
0
10
14.857291666666669
20
-3.6156249999999996
30
0
10
14.840625000000003
20
-3.6718750000000004
30
0
10
14.827083333333336
20
-3.7239583333333339
30
0
0
SPLINE
5
671
100
AcDbEntity
8
0
100
AcDbSpline
70
4
71
3
72
8
73
4
74
0
42
0.000000001
43
0.0000000001
44
0.0000000001
40
0
40
0
40
0
40
0
40
1
40
1
40
1
40
1
41
1
41
1
41
1
41
1
10
14.827083333333336
20
-3.7239583333333339
30
0
10
14.739583333333334
20
-4.0385416666666663
30
0
10
14.573958333333335
20
-4.4187499999999993
30
0
10
14.476041666666669
20
-4.5281249999999993
30
0
0
SPLINE
5
672
100
AcDbEntity
8
0
100
AcDbSpline
70
4
71
3
72
8
73
4
74
0
42
0.000000001
43
0.0000000001
44
0.0000000001
40
0
40
0
40
0
40
0
40
1
40
1
40
1
40
1
41
1
41
1
41
1
41
1
10
14.476041666666669
20
-4.5281249999999993
30
0
10
14.429166666666669
20
-4.5812499999999998
30
0
10
14.375
20
-4.541666666666667
30
0
10
14.375
20
-4.4552083333333323
30
0
0
SPLINE
5
673
100
AcDbEntity
8
0
100
AcDbSpline
70
4
71
3
72
8
73
4
74
0
42
0.000000001
43
0.0000000001
44
0.0000000001
40
0
40
0
40
0
40
0
40
1
40
1
40
1
40
1
41
1
41
1
41
1
41
1
10
14.375
20
-4.4552083333333323
30
0
10
14.375
20
-4.2906249999999995
30
0
10
14.430208333333335
20
-3.8843749999999999
30
0
10
14.484375000000002
20
-3.6458333333333335
30
0
0
SPLINE
5
674
100
AcDbEntity
8
0
100
AcDbSpline
70
4
71
3
72
8
73
4
74
0
42
0.000000001
43
0.0000000001
44
0.0000000001
40
0
40
0
40
0
40
0
40
1
40
1
40
1
40
1
41
1
41
1
41
1
41
1
10
14.484375000000002
20
-3.6458333333333335
30
0
10
14.533333333333335
20
-3.4333333333333331
30
0
10
14.509375000000002
20
-3.4718749999999998
30
0
10
14.856250000000003
20
-3.0364583333333335
30
0
0
SPLINE
5
675
100
AcDbEntity
8
0
100
AcDbSpline
70
4
71
3
72
8
73
4
74
0
42
0.000000001
43
0.0000000001
44
0.0000000001
40
0
40
0
40
0
40
0
40
1
40
1
40
1
40
1
41
1
41
1
41
1
41
1
10
14.856250000000003
20
-3.0364583333333335
30
0
10
14.981250000000001
20
-2.8791666666666669
30
0
10
15.258333333333336
20
-2.4604166666666658
30
0
10
15.354166666666668
20
-2.2864583333333335
30
0
0
SPLINE
5
676
100
AcDbEntity
8
0
100
AcDbSpline
70
4
71
3
72
8
73
4
74
0
42
0.000000001
43
0.0000000001
44
0.0000000001
40
0
40
0
40
0
40
0
40
1
40
1
40
1
40
1
41
1
41
1
41
1
41
1
10
15.354166666666668
20
-2.2864583333333335
30
0
10
15.363541666666668
20
-2.2687499999999998
30
0
10
15.382291666666669
20
-2.2364583333333328
30
0
10
15.396875000000003
20
-2.2135416666666665
30
0
0
SPLINE
5
677
100
AcDbEntity
8
0
100
AcDbSpline
70
4
71
3
72
8
73
4
74
0
42
0.000000001
43
0.0000000001
44
0.0000000001
40
0
40
0
40
0
40
0
40
1
40
1
40
1
40
1
41
1
41
1
41
1
41
1
10
15.396875000000003
20
-2.2135416666666665
30
0
10
15.419791666666669
20
-2.1791666666666663
30
0
10
15.579166666666669
20
-1.8843749999999999
30
0
10
15.612500000000002
20
-1.8156249999999996
30
0
0
SPLINE
5
678
100
AcDbEntity
8
0
100
AcDbSpline
70
4
71
3
72
8
73
4
74
0
42
0.000000001
43
0.0000000001
44
0.0000000001
40
0
40
0
40
0
40
0
40
1
40
1
40
1
40
1
41
1
41
1
41
1
41
1
10
15.612500000000002
20
-1.8156249999999996
30
0
10
15.617708333333338
20
-1.8052083333333331
30
0
10
15.62916666666667
20
-1.7822916666666657
30
0
10
15.638541666666669
20
-1.765625
30
0
0
SPLINE
5
679
100
AcDbEntity
8
0
100
AcDbSpline
70
4
71
3
72
8
73
4
74
0
42
0.000000001
43
0.0000000001
44
0.0000000001
40
0
40
0
40
0
40
0
40
1
40
1
40
1
40
1
41
1
41
1
41
1
41
1
10
15.638541666666669
20
-1.765625
30
0
10
15.770833333333334
20
-1.522916666666666
30
0
10
15.838541666666666
20
-1.3135416666666657
30
0
10
15.850000000000001
20
-1.1145833333333335
30
0
0
SPLINE
5
680
100
AcDbEntity
8
0
100
AcDbSpline
70
4
71
3
72
8
73
4
74
0
42
0.000000001
43
0.0000000001
44
0.0000000001
40
0
40
0
40
0
40
0
40
1
40
1
40
1
40
1
41
1
41
1
41
1
41
1
10
15.850000000000001
20
-1.1145833333333335
30
0
10
15.856250000000003
20
-1.0239583333333329
30
0
10
15.854166666666666
20
-0.99895833333333317
30
0
10
15.839583333333335
20
-0.9718749999999996
30
0
0
SPLINE
5
681
100
AcDbEntity
8
0
100
AcDbSpline
70
4
71
3
72
8
73
4
74
0
42
0.000000001
43
0.0000000001
44
0.0000000001
40
0
40
0
40
0
40
0
40
1
40
1
40
1
40
1
41
1
41
1
41
1
41
1
10
16.371874999999999
20
-0.8125
30
0
10
16.36354166666667
20
-0.8125
30
0
10
16.327083333333338
20
-0.83229166666666643
30
0
10
16.291666666666668
20
-0.85624999999999929
30
0
0
SPLINE
5
682
100
AcDbEntity
8
0
100
AcDbSpline
70
4
71
3
72
8
73
4
74
0
42
0.000000001
43
0.0000000001
44
0.0000000001
40
0
40
0
40
0
40
0
40
1
40
1
40
1
40
1
41
1
41
1
41
1
41
1
10
16.291666666666668
20
-0.85624999999999929
30
0
10
16.201041666666669
20
-0.91666666666666674
30
0
10
16.147916666666671
20
-0.98854166666666654
30
0
10
16.112500000000001
20
-1.099999999999999
30
0
0
SPLINE
5
683
100
AcDbEntity
8
0
100
AcDbSpline
70
4
71
3
72
8
73
4
74
0
42
0.000000001
43
0.0000000001
44
0.0000000001
40
0
40
0
40
0
40
0
40
1
40
1
40
1
40
1
41
1
41
1
41
1
41
1
10
16.112500000000001
20
-1.099999999999999
30
0
10
16.057291666666668
20
-1.2739583333333331
30
0
10
16.078125
20
-1.397916666666666
30
0
10
16.175000000000004
20
-1.4593749999999992
30
0
0
SPLINE
5
684
100
AcDbEntity
8
0
100
AcDbSpline
70
4
71
3
72
8
73
4
74
0
42
0.000000001
43
0.0000000001
44
0.0000000001
40
0
40
0
40
0
40
0
40
1
40
1
40
1
40
1
41
1
41
1
41
1
41
1
10
16.175000000000004
20
-1.4593749999999992
30
0
10
16.261458333333337
20
-1.5145833333333332
30
0
10
16.364583333333332
20
-1.4906249999999992
30
0
10
16.466666666666672
20
-1.3937499999999996
30
0
0
SPLINE
5
685
100
AcDbEntity
8
0
100
AcDbSpline
70
4
71
3
72
8
73
4
74
0
42
0.000000001
43
0.0000000001
44
0.0000000001
40
0
40
0
40
0
40
0
40
1
40
1
40
1
40
1
41
1
41
1
41
1
41
1
10
16.466666666666672
20
-1.3937499999999996
30
0
10
16.514583333333338
20
-1.3489583333333333
30
0
10
16.571875000000002
20
-1.2072916666666664
30
0
10
16.580208333333335
20
-1.1145833333333335
30
0
0
SPLINE
5
686
100
AcDbEntity
8
0
100
AcDbSpline
70
4
71
3
72
8
73
4
74
0
42
0.000000001
43
0.0000000001
44
0.0000000001
40
0
40
0
40
0
40
0
40
1
40
1
40
1
40
1
41
1
41
1
41
1
41
1
10
16.580208333333335
20
-1.1145833333333335
30
0
10
16.586458333333336
20
-1.0427083333333325
30
0
10
16.557291666666668
20
-0.96041666666666592
30
0
10
16.504166666666666
20
-0.8968749999999992
30
0
0
SPLINE
5
687
100
AcDbEntity
8
0
100
AcDbSpline
70
4
71
3
72
8
73
4
74
0
42
0.000000001
43
0.0000000001
44
0.0000000001
40
0
40
0
40
0
40
0
40
1
40
1
40
1
40
1
41
1
41
1
41
1
41
1
10
16.504166666666666
20
-0.8968749999999992
30
0
10
16.467708333333334
20
-0.85520833333333246
30
0
10
16.401041666666668
20
-0.8125
30
0
10
16.371874999999999
20
-0.8125
30
0
0
ENDSEC
0
SECTION
2
OBJECTS
0
DICTIONARY
5
C
100
AcDbDictionary
3
ACAD_GROUP
350
D
3
ACAD_MLINESTYLE
350
17
0
DICTIONARY
5
D
100
AcDbDictionary
0
DICTIONARY
5
1A
330
C
100
AcDbDictionary
0
DICTIONARY
5
17
100
AcDbDictionary
0
ENDSEC
0
EOF
