0
SECTION
2
HEADER
9
$INSUNITS
70
1
9
$ACADVER
1
AC1014
9
$HANDSEED
5
FFFF
0
ENDSEC
0
SECTION
2
TABLES
0
TABLE
2
VPORT
5
8
100
AcDbSymbolTable
0
ENDTAB
0
TABLE
2
LTYPE
5
5
100
AcDbSymbolTable
0
LTYPE
5
14
100
AcDbSymbolTableRecord
100
AcDbLinetypeTableRecord
2
BYBLOCK
70
0
0
LTYPE
5
15
100
AcDbSymbolTableRecord
100
AcDbLinetypeTableRecord
2
BYLAYER
70
0
0
ENDTAB
0
TABLE
2
LAYER
5
2
100
AcDbSymbolTable
70
2
0
LAYER
5
50
100
AcDbSymbolTableRecord
100
AcDbLayerTableRecord
2
0
70
0
6
CONTINUOUS
0
ENDTAB
0
TABLE
2
STYLE
5
3
100
AcDbSymbolTable
70
1
0
STYLE
5
11
100
AcDbSymbolTableRecord
100
AcDbTextStyleTableRecord
2
STANDARD
70
0
0
ENDTAB
0
TABLE
2
VIEW
5
6
100
AcDbSymbolTable
70
0
0
ENDTAB
0
TABLE
2
UCS
5
7
100
AcDbSymbolTable
70
0
0
ENDTAB
0
TABLE
2
APPID
5
9
100
AcDbSymbolTable
70
2
0
APPID
5
12
100
AcDbSymbolTableRecord
100
AcDbRegAppTableRecord
2
ACAD
70
0
0
ENDTAB
0
TABLE
2
DIMSTYLE
5
A
100
AcDbSymbolTable
70
1
0
ENDTAB
0
TABLE
2
BLOCK_RECORD
5
1
100
AcDbSymbolTable
70
1
0
BLOCK_RECORD
5
1F
100
AcDbSymbolTableRecord
100
AcDbBlockTableRecord
2
*MODEL_SPACE
0
BLOCK_RECORD
5
1B
100
AcDbSymbolTableRecord
100
AcDbBlockTableRecord
2
*PAPER_SPACE
0
ENDTAB
0
ENDSEC
0
SECTION
2
BLOCKS
0
BLOCK
5
20
100
AcDbEntity
100
AcDbBlockBegin
2
*MODEL_SPACE
0
ENDBLK
5
21
100
AcDbEntity
100
AcDbBlockEnd
0
BLOCK
5
1C
100
AcDbEntity
100
AcDbBlockBegin
2
*PAPER_SPACE
0
ENDBLK
5
1D
100
AcDbEntity
100
AcDbBlockEnd
0
ENDSEC
0
SECTION
2
ENTITIES
0
SPLINE
5
100
100
AcDbEntity
8
0
100
AcDbSpline
70
4
71
3
72
8
73
4
74
0
42
0.000000001
43
0.0000000001
44
0.0000000001
40
0
40
0
40
0
40
0
40
1
40
1
40
1
40
1
41
1
41
1
41
1
41
1
10
21.327376627236941
20
-156.08324934207036
30
0
10
21.560435599189013
20
-156.24179147748964
30
0
10
21.809224068538583
20
-156.37014025594229
30
0
10
22.055151384749703
20
-156.50150365261734
30
0
0
SPLINE
5
101
100
AcDbEntity
8
0
100
AcDbSpline
70
4
71
3
72
8
73
4
74
0
42
0.000000001
43
0.0000000001
44
0.0000000001
40
0
40
0
40
0
40
0
40
1
40
1
40
1
40
1
41
1
41
1
41
1
41
1
10
20.663952237163368
20
-154.5265193619137
30
0
10
20.633926228149594
20
-154.56879706179006
30
0
10
20.62390518406006
20
-154.62317051782028
30
0
10
20.615326323537694
20
-154.6745080509057
30
0
0
SPLINE
5
102
100
AcDbEntity
8
0
100
AcDbSpline
70
4
71
3
72
8
73
4
74
0
42
0.000000001
43
0.0000000001
44
0.0000000001
40
0
40
0
40
0
40
0
40
1
40
1
40
1
40
1
41
1
41
1
41
1
41
1
10
22.055151384749703
20
-156.50150365261734
30
0
10
22.168106410710671
20
-156.5603906662688
30
0
10
22.279626897286434
20
-156.62381634667864
30
0
10
22.391152067190177
20
-156.68270336033015
30
0
0
SPLINE
5
103
100
AcDbEntity
8
0
100
AcDbSpline
70
4
71
3
72
8
73
4
74
0
42
0.000000001
43
0.0000000001
44
0.0000000001
40
0
40
0
40
0
40
0
40
1
40
1
40
1
40
1
41
1
41
1
41
1
41
1
10
21.050008329030746
20
-155.86129065683659
30
0
10
21.134367134487164
20
-155.94584643703075
30
0
10
21.230149567585475
20
-156.01530287565132
30
0
10
21.327376627236941
20
-156.08324934207036
30
0
0
SPLINE
5
104
100
AcDbEntity
8
0
100
AcDbSpline
70
4
71
3
72
8
73
4
74
0
42
0.000000001
43
0.0000000001
44
0.0000000001
40
0
40
0
40
0
40
0
40
1
40
1
40
1
40
1
41
1
41
1
41
1
41
1
10
24.064031056770283
20
-154.32270012605454
30
0
10
23.981101927243095
20
-154.25928319579856
30
0
10
23.876739727353421
20
-154.23510842291554
30
0
10
23.790951245967776
20
-154.17471143706254
30
0
0
SPLINE
5
105
100
AcDbEntity
8
0
100
AcDbSpline
70
4
71
3
72
8
73
4
74
0
42
0.000000001
43
0.0000000001
44
0.0000000001
40
0
40
0
40
0
40
0
40
1
40
1
40
1
40
1
41
1
41
1
41
1
41
1
10
22.945934776370347
20
-152.36583084136103
30
0
10
22.944504920313122
20
-152.33261259425223
30
0
10
22.94593189432236
20
-152.29788152163093
30
0
10
22.958800238581407
20
-152.26768312381481
30
0
0
SPLINE
5
106
100
AcDbEntity
8
0
100
AcDbSpline
70
4
71
3
72
8
73
4
74
0
42
0.000000001
43
0.0000000001
44
0.0000000001
40
0
40
0
40
0
40
0
40
1
40
1
40
1
40
1
41
1
41
1
41
1
41
1
10
23.216155595570399
20
-152.79465238933861
30
0
10
23.16897196683389
20
-152.76143414222983
30
0
10
23.114646983443212
20
-152.73727325546054
30
0
10
23.074612454864845
20
-152.69348539316195
30
0
0
SPLINE
5
107
100
AcDbEntity
8
0
100
AcDbSpline
70
4
71
3
72
8
73
4
74
0
42
0.000000001
43
0.0000000001
44
0.0000000001
40
0
40
0
40
0
40
0
40
1
40
1
40
1
40
1
41
1
41
1
41
1
41
1
10
23.753761298751932
20
-153.71116937371448
30
0
10
23.836690428279127
20
-153.67342121000118
30
0
10
23.928209501829627
20
-153.66737123949616
30
0
10
24.01685769532973
20
-153.64774217153877
30
0
0
SPLINE
5
108
100
AcDbEntity
8
0
100
AcDbSpline
70
4
71
3
72
8
73
4
74
0
42
0.000000001
43
0.0000000001
44
0.0000000001
40
0
40
0
40
0
40
0
40
1
40
1
40
1
40
1
41
1
41
1
41
1
41
1
10
23.291941929419423
20
-152.25258711110405
30
0
10
23.597104518277966
20
-152.20358101846813
30
0
10
23.771099699437805
20
-151.9018993010562
30
0
10
23.885321025232773
20
-151.67882050101909
30
0
0
SPLINE
5
109
100
AcDbEntity
8
0
100
AcDbSpline
70
4
71
3
72
8
73
4
74
0
42
0.000000001
43
0.0000000001
44
0.0000000001
40
0
40
0
40
0
40
0
40
1
40
1
40
1
40
1
41
1
41
1
41
1
41
1
10
20.918448602549901
20
-153.63868462097852
30
0
10
21.004237219031548
20
-153.67492281249031
30
0
10
21.101475311522961
20
-153.66285140459064
30
0
10
21.182974494928928
20
-153.71267896547454
30
0
0
SPLINE
5
110
100
AcDbEntity
8
0
100
AcDbSpline
70
4
71
3
72
8
73
4
74
0
42
0.000000001
43
0.0000000001
44
0.0000000001
40
0
40
0
40
0
40
0
40
1
40
1
40
1
40
1
41
1
41
1
41
1
41
1
10
20.718273077610068
20
-154.90552428669972
30
0
10
20.692536490413975
20
-155.02782823060721
30
0
10
20.698255408032885
20
-155.15465334096535
30
0
10
20.719702573411297
20
-155.27695690443136
30
0
0
SPLINE
5
111
100
AcDbEntity
8
0
100
AcDbSpline
70
4
71
3
72
8
73
4
74
0
42
0.000000001
43
0.0000000001
44
0.0000000001
40
0
40
0
40
0
40
0
40
1
40
1
40
1
40
1
41
1
41
1
41
1
41
1
10
21.034260818833335
20
-154.23964823099831
30
0
10
20.891279828890593
20
-154.30004521685132
30
0
10
20.75974950830561
20
-154.39817590964168
30
0
10
20.663952237163368
20
-154.5265193619137
30
0
0
LINE
5
112
100
AcDbEntity
8
0
100
AcDbLine
10
20.615326323537694
20
-154.6745080509057
30
0
11
20.615326323537694
21
-154.68205600970589
31
0
0
SPLINE
5
113
100
AcDbEntity
8
0
100
AcDbSpline
70
4
71
3
72
8
73
4
74
0
42
0.000000001
43
0.0000000001
44
0.0000000001
40
0
40
0
40
0
40
0
40
1
40
1
40
1
40
1
41
1
41
1
41
1
41
1
10
24.325697957546851
20
-154.65941213330532
30
0
10
24.317119181459486
20
-154.58240583367723
30
0
10
24.278512707658351
20
-154.51294482975899
30
0
10
24.227039690878165
20
-154.45858773271206
30
0
0
SPLINE
5
114
100
AcDbEntity
8
0
100
AcDbSpline
70
4
71
3
72
8
73
4
74
0
42
0.000000001
43
0.0000000001
44
0.0000000001
40
0
40
0
40
0
40
0
40
1
40
1
40
1
40
1
41
1
41
1
41
1
41
1
10
22.391152067190177
20
-156.68270336033015
30
0
10
22.431186775896546
20
-156.70233223806679
30
0
10
22.479817552978197
20
-156.71591856390714
30
0
10
22.522711793671021
20
-156.69628968617045
30
0
0
SPLINE
5
115
100
AcDbEntity
8
0
100
AcDbSpline
70
4
71
3
72
8
73
4
74
0
42
0.000000001
43
0.0000000001
44
0.0000000001
40
0
40
0
40
0
40
0
40
1
40
1
40
1
40
1
41
1
41
1
41
1
41
1
10
20.81121336107384
20
-154.61862880753017
30
0
10
20.774038296933927
20
-154.71073406829038
30
0
10
20.738290409447252
20
-154.80586916493195
30
0
10
20.718273077610068
20
-154.90552428669972
30
0
0
SPLINE
5
116
100
AcDbEntity
8
0
100
AcDbSpline
70
4
71
3
72
8
73
4
74
0
42
0.000000001
43
0.0000000001
44
0.0000000001
40
0
40
0
40
0
40
0
40
1
40
1
40
1
40
1
41
1
41
1
41
1
41
1
10
23.778085783756715
20
-155.96396724477327
30
0
10
23.945373538612326
20
-155.82656433973364
30
0
10
24.092625656122841
20
-155.65444881348409
30
0
10
24.175554785650032
20
-155.4475894698239
30
0
0
SPLINE
5
117
100
AcDbEntity
8
0
100
AcDbSpline
70
4
71
3
72
8
73
4
74
0
42
0.000000001
43
0.0000000001
44
0.0000000001
40
0
40
0
40
0
40
0
40
1
40
1
40
1
40
1
41
1
41
1
41
1
41
1
10
23.004544104220734
20
-152.23749119350367
30
0
10
23.100341397878974
20
-152.25108056287579
30
0
10
23.196144635761186
20
-152.2676863575673
30
0
10
23.291941929419423
20
-152.25258711110405
30
0
0
SPLINE
5
118
100
AcDbEntity
8
0
100
AcDbSpline
70
4
71
3
72
8
73
4
74
0
42
0.000000001
43
0.0000000001
44
0.0000000001
40
0
40
0
40
0
40
0
40
1
40
1
40
1
40
1
41
1
41
1
41
1
41
1
10
20.615326323537694
20
-154.68205600970589
30
0
10
20.685387013112841
20
-154.68205600970589
30
0
10
20.749731532021059
20
-154.64731751847589
30
0
10
20.81121336107384
20
-154.61862880753017
30
0
0
SPLINE
5
119
100
AcDbEntity
8
0
100
AcDbSpline
70
4
71
3
72
8
73
4
74
0
42
0.000000001
43
0.0000000001
44
0.0000000001
40
0
40
0
40
0
40
0
40
1
40
1
40
1
40
1
41
1
41
1
41
1
41
1
10
21.182974494928928
20
-153.71267896547454
30
0
10
21.019976173149001
20
-153.75797660975388
30
0
10
20.844101063610061
20
-153.76702788302984
30
0
10
20.696830640591635
20
-153.86064330621232
30
0
0
SPLINE
5
120
100
AcDbEntity
8
0
100
AcDbSpline
70
4
71
3
72
8
73
4
74
0
42
0.000000001
43
0.0000000001
44
0.0000000001
40
0
40
0
40
0
40
0
40
1
40
1
40
1
40
1
41
1
41
1
41
1
41
1
10
21.181544999127699
20
-153.89991704022748
30
0
10
21.182974810152924
20
-153.97541317743332
30
0
10
21.188694684701833
20
-154.04939896199622
30
0
10
21.17868600752524
20
-154.12338531722131
30
0
0
SPLINE
5
121
100
AcDbEntity
8
0
100
AcDbSpline
70
4
71
3
72
8
73
4
74
0
42
0.000000001
43
0.0000000001
44
0.0000000001
40
0
40
0
40
0
40
0
40
1
40
1
40
1
40
1
41
1
41
1
41
1
41
1
10
21.132919085502024
20
-154.192826538183
30
0
10
21.10146324294702
20
-154.21245579636116
30
0
10
21.067146427381569
20
-154.22454888942471
30
0
10
21.034260818833335
20
-154.23964823099831
30
0
0
SPLINE
5
122
100
AcDbEntity
8
0
100
AcDbSpline
70
4
71
3
72
8
73
4
74
0
42
0.000000001
43
0.0000000001
44
0.0000000001
40
0
40
0
40
0
40
0
40
1
40
1
40
1
40
1
41
1
41
1
41
1
41
1
10
20.719702573411297
20
-155.27695690443136
30
0
10
20.762596870394123
20
-155.50344588671115
30
0
10
20.889869606785272
20
-155.70576846582031
30
0
10
21.050008329030746
20
-155.86129065683659
30
0
0
SPLINE
5
123
100
AcDbEntity
8
0
100
AcDbSpline
70
4
71
3
72
8
73
4
74
0
42
0.000000001
43
0.0000000001
44
0.0000000001
40
0
40
0
40
0
40
0
40
1
40
1
40
1
40
1
41
1
41
1
41
1
41
1
10
23.20043114175688
20
-156.33240502723902
30
0
10
23.400604505160722
20
-156.22369045270366
30
0
10
23.599359540699286
20
-156.10892001082044
30
0
10
23.778085783756715
20
-155.96396724477327
30
0
0
SPLINE
5
124
100
AcDbEntity
8
0
100
AcDbSpline
70
4
71
3
72
8
73
4
74
0
42
0.000000001
43
0.0000000001
44
0.0000000001
40
0
40
0
40
0
40
0
40
1
40
1
40
1
40
1
41
1
41
1
41
1
41
1
10
24.11408646619719
20
-154.59900411464966
30
0
10
24.179857683293651
20
-154.63826225056448
30
0
10
24.247058396191342
20
-154.68356560146594
30
0
10
24.325697957546851
20
-154.68356560146594
30
0
0
SPLINE
5
125
100
AcDbEntity
8
0
100
AcDbSpline
70
4
71
3
72
8
73
4
74
0
42
0.000000001
43
0.0000000001
44
0.0000000001
40
0
40
0
40
0
40
0
40
1
40
1
40
1
40
1
41
1
41
1
41
1
41
1
10
23.074612454864845
20
-152.69348539316195
30
0
10
22.991683505465652
20
-152.60892961296776
30
0
10
22.950224164414028
20
-152.4866247179566
30
0
10
22.945934776370347
20
-152.36583084136103
30
0
0
SPLINE
5
126
100
AcDbEntity
8
0
100
AcDbSpline
70
4
71
3
72
8
73
4
74
0
42
0.000000001
43
0.0000000001
44
0.0000000001
40
0
40
0
40
0
40
0
40
1
40
1
40
1
40
1
41
1
41
1
41
1
41
1
10
23.762338273559308
20
-153.9014266319875
30
0
10
23.928196172357691
20
-153.87726783764631
30
0
10
24.095489691309275
20
-153.87272270338292
30
0
10
24.261347590107658
20
-153.86064330621232
30
0
0
SPLINE
5
127
100
AcDbEntity
8
0
100
AcDbSpline
70
4
71
3
72
8
73
4
74
0
42
0.000000001
43
0.0000000001
44
0.0000000001
40
0
40
0
40
0
40
0
40
1
40
1
40
1
40
1
41
1
41
1
41
1
41
1
10
23.726600878528579
20
-153.62207911161812
30
0
10
23.663689373546575
20
-153.29140585184896
30
0
10
23.482100356198703
20
-152.98339282746363
30
0
10
23.216155595570399
20
-152.79465238933861
30
0
0
SPLINE
5
128
100
AcDbEntity
8
0
100
AcDbSpline
70
4
71
3
72
8
73
4
74
0
42
0.000000001
43
0.0000000001
44
0.0000000001
40
0
40
0
40
0
40
0
40
1
40
1
40
1
40
1
41
1
41
1
41
1
41
1
10
23.885321025232773
20
-151.67882050101909
30
0
10
24.014004107567246
20
-151.40099465142649
30
0
10
24.118374233088876
20
-151.10052083568749
30
0
10
24.121233945203333
20
-150.78796667167421
30
0
0
SPLINE
5
129
100
AcDbEntity
8
0
100
AcDbSpline
70
4
71
3
72
8
73
4
74
0
42
0.000000001
43
0.0000000001
44
0.0000000001
40
0
40
0
40
0
40
0
40
1
40
1
40
1
40
1
41
1
41
1
41
1
41
1
10
22.925898778769252
20
-151.1458129635655
30
0
10
22.710042931375693
20
-151.2011265855829
30
0
10
22.617577645445667
20
-151.29580358313723
30
0
10
22.48123335905149
20
-151.44780436033545
30
0
0
SPLINE
5
130
100
AcDbEntity
8
0
100
AcDbSpline
70
4
71
3
72
8
73
4
74
0
42
0.000000001
43
0.0000000001
44
0.0000000001
40
0
40
0
40
0
40
0
40
1
40
1
40
1
40
1
41
1
41
1
41
1
41
1
10
23.765197265161767
20
-154.12489490898136
30
0
10
23.748039712987033
20
-154.05090855375624
30
0
10
23.765197985673762
20
-153.97541298721259
30
0
10
23.762338273559308
20
-153.9014266319875
30
0
0
SPLINE
5
131
100
AcDbEntity
8
0
100
AcDbSpline
70
4
71
3
72
8
73
4
74
0
42
0.000000001
43
0.0000000001
44
0.0000000001
40
0
40
0
40
0
40
0
40
1
40
1
40
1
40
1
41
1
41
1
41
1
41
1
10
20.696830640591635
20
-153.86064330621232
30
0
10
20.858399173862335
20
-153.87272270338292
30
0
10
21.021406254366223
20
-153.87877800006856
30
0
10
21.181544999127699
20
-153.89991704022748
30
0
0
SPLINE
5
132
100
AcDbEntity
8
0
100
AcDbSpline
70
4
71
3
72
8
73
4
74
0
42
0.000000001
43
0.0000000001
44
0.0000000001
40
0
40
0
40
0
40
0
40
1
40
1
40
1
40
1
41
1
41
1
41
1
41
1
10
24.227039690878165
20
-154.45858773271206
30
0
10
24.176996530155204
20
-154.40725019962667
30
0
10
24.121223497779383
20
-154.36497782593091
30
0
10
24.064031056770283
20
-154.32270012605454
30
0
0
SPLINE
5
133
100
AcDbEntity
8
0
100
AcDbSpline
70
4
71
3
72
8
73
4
74
0
42
0.000000001
43
0.0000000001
44
0.0000000001
40
0
40
0
40
0
40
0
40
1
40
1
40
1
40
1
41
1
41
1
41
1
41
1
10
21.17868600752524
20
-154.12338531722131
30
0
10
21.175826385474785
20
-154.15358400036854
30
0
10
21.157225872930891
20
-154.17772719660937
30
0
10
21.132919085502024
20
-154.192826538183
30
0
0
SPLINE
5
134
100
AcDbEntity
8
0
100
AcDbSpline
70
4
71
3
72
8
73
4
74
0
42
0.000000001
43
0.0000000001
44
0.0000000001
40
0
40
0
40
0
40
0
40
1
40
1
40
1
40
1
41
1
41
1
41
1
41
1
10
24.175554785650032
20
-155.4475894698239
30
0
10
24.282790747638092
20
-155.17429363194617
30
0
10
24.259927100706388
20
-154.85116148303072
30
0
10
24.11408646619719
20
-154.59900411464966
30
0
0
SPLINE
5
135
100
AcDbEntity
8
0
100
AcDbSpline
70
4
71
3
72
8
73
4
74
0
42
0.000000001
43
0.0000000001
44
0.0000000001
40
0
40
0
40
0
40
0
40
1
40
1
40
1
40
1
41
1
41
1
41
1
41
1
10
24.261347590107658
20
-153.86064330621232
30
0
10
24.099779259480957
20
-153.78514716900645
30
0
10
23.92676847783645
20
-153.74136786664099
30
0
10
23.753761298751932
20
-153.71116937371448
30
0
0
SPLINE
5
136
100
AcDbEntity
8
0
100
AcDbSpline
70
4
71
3
72
8
73
4
74
0
42
0.000000001
43
0.0000000001
44
0.0000000001
40
0
40
0
40
0
40
0
40
1
40
1
40
1
40
1
41
1
41
1
41
1
41
1
10
24.01685769532973
20
-153.64774217153877
30
0
10
23.925349789715174
20
-153.60395430924015
30
0
10
23.822398352314821
20
-153.62811881020343
30
0
10
23.726600878528579
20
-153.62207911161812
30
0
0
SPLINE
5
137
100
AcDbEntity
8
0
100
AcDbSpline
70
4
71
3
72
8
73
4
74
0
42
0.000000001
43
0.0000000001
44
0.0000000001
40
0
40
0
40
0
40
0
40
1
40
1
40
1
40
1
41
1
41
1
41
1
41
1
10
22.522711793671021
20
-156.69628968617045
30
0
10
22.75148137757941
20
-156.58002563106902
30
0
10
22.974521089834944
20
-156.45621894334801
30
0
10
23.20043114175688
20
-156.33240502723902
30
0
0
SPLINE
5
138
100
AcDbEntity
8
0
100
AcDbSpline
70
4
71
3
72
8
73
4
74
0
42
0.000000001
43
0.0000000001
44
0.0000000001
40
0
40
0
40
0
40
0
40
1
40
1
40
1
40
1
41
1
41
1
41
1
41
1
10
23.790951245967776
20
-154.17471143706254
30
0
10
23.773793693793046
20
-154.16414201209346
30
0
10
23.769486833333445
20
-154.14301381451651
30
0
10
23.765197265161767
20
-154.12489490898136
30
0
0
LINE
5
139
100
AcDbEntity
8
0
100
AcDbLine
10
24.325697957546851
20
-154.68356560146594
30
0
11
24.325697957546851
21
-154.65941213330532
31
0
0
SPLINE
5
140
100
AcDbEntity
8
0
100
AcDbSpline
70
4
71
3
72
8
73
4
74
0
42
0.000000001
43
0.0000000001
44
0.0000000001
40
0
40
0
40
0
40
0
40
1
40
1
40
1
40
1
41
1
41
1
41
1
41
1
10
21.656229830671268
20
-151.8358424874275
30
0
10
22.054514632272721
20
-151.86652509212684
30
0
10
22.323455822166832
20
-152.09126109521503
30
0
10
22.193835533852802
20
-152.47454589144823
30
0
0
SPLINE
5
141
100
AcDbEntity
8
0
100
AcDbSpline
70
4
71
3
72
8
73
4
74
0
42
0.000000001
43
0.0000000001
44
0.0000000001
40
0
40
0
40
0
40
0
40
1
40
1
40
1
40
1
41
1
41
1
41
1
41
1
10
22.291064304720258
20
-151.8237657533472
30
0
10
22.098828461726821
20
-151.69887024213395
30
0
10
21.858832760527601
20
-151.72176768277544
30
0
10
21.656229830671268
20
-151.8358424874275
30
0
0
SPLINE
5
142
100
AcDbEntity
8
0
100
AcDbSpline
70
4
71
3
72
8
73
4
74
0
42
0.000000001
43
0.0000000001
44
0.0000000001
40
0
40
0
40
0
40
0
40
1
40
1
40
1
40
1
41
1
41
1
41
1
41
1
10
22.972472674228644
20
-153.50890842612375
30
0
10
22.789456862999533
20
-153.55571604260462
30
0
10
22.663648263275448
20
-153.72179624534581
30
0
10
22.486351876275243
20
-153.78219323119879
30
0
0
SPLINE
5
143
100
AcDbEntity
8
0
100
AcDbSpline
70
4
71
3
72
8
73
4
74
0
42
0.000000001
43
0.0000000001
44
0.0000000001
40
0
40
0
40
0
40
0
40
1
40
1
40
1
40
1
41
1
41
1
41
1
41
1
10
23.316243358040314
20
-151.00237739810783
30
0
10
23.250472140943852
20
-150.88611328356239
30
0
10
23.146090847486274
20
-150.79550023437312
30
0
10
23.024557045437938
20
-150.75020252941911
30
0
0
LINE
5
144
100
AcDbEntity
8
0
100
AcDbLine
10
22.441783886214349
20
-154.05238542754972
30
0
11
22.441783886214349
21
-154.10570810423488
31
0
0
SPLINE
5
145
100
AcDbEntity
8
0
100
AcDbSpline
70
4
71
3
72
8
73
4
74
0
42
0.000000001
43
0.0000000001
44
0.0000000001
40
0
40
0
40
0
40
0
40
1
40
1
40
1
40
1
41
1
41
1
41
1
41
1
10
21.783500979684423
20
-153.60206446622905
30
0
10
21.872149173184528
20
-153.64736211050845
30
0
10
21.970794380573277
20
-153.68059671660049
30
0
10
22.04657440994233
20
-153.75005315522105
30
0
0
SPLINE
5
146
100
AcDbEntity
8
0
100
AcDbSpline
70
4
71
3
72
8
73
4
74
0
42
0.000000001
43
0.0000000001
44
0.0000000001
40
0
40
0
40
0
40
0
40
1
40
1
40
1
40
1
41
1
41
1
41
1
41
1
10
21.997971552700545
20
-152.66782233324133
30
0
10
21.511460507436993
20
-152.80081554118149
30
0
10
21.303185076695527
20
-153.21204195642022
30
0
10
21.217282394158421
20
-153.62358870337815
30
0
0
SPLINE
5
147
100
AcDbEntity
8
0
100
AcDbSpline
70
4
71
3
72
8
73
4
74
0
42
0.000000001
43
0.0000000001
44
0.0000000001
40
0
40
0
40
0
40
0
40
1
40
1
40
1
40
1
41
1
41
1
41
1
41
1
10
22.48123335905149
20
-151.44780436033545
30
0
10
22.509382141606157
20
-151.13943067743489
30
0
10
22.784784883085663
20
-150.95100795549399
30
0
10
23.073182959063615
20
-150.90573917721127
30
0
0
SPLINE
5
148
100
AcDbEntity
8
0
100
AcDbSpline
70
4
71
3
72
8
73
4
74
0
42
0.000000001
43
0.0000000001
44
0.0000000001
40
0
40
0
40
0
40
0
40
1
40
1
40
1
40
1
41
1
41
1
41
1
41
1
10
22.04657440994233
20
-153.75005315522105
30
0
10
22.159529255775301
20
-153.84819830478736
30
0
10
22.253890208768343
20
-153.97501770852344
30
0
10
22.391152067190177
20
-154.03541469437641
30
0
0
SPLINE
5
149
100
AcDbEntity
8
0
100
AcDbSpline
70
4
71
3
72
8
73
4
74
0
42
0.000000001
43
0.0000000001
44
0.0000000001
40
0
40
0
40
0
40
0
40
1
40
1
40
1
40
1
41
1
41
1
41
1
41
1
10
22.562115153740379
20
-153.80637104761357
30
0
10
22.703666400205897
20
-153.71426578685333
30
0
10
22.826632039719449
20
-153.5949739882987
30
0
10
22.972472674228644
20
-153.50890842612375
30
0
0
SPLINE
5
150
100
AcDbEntity
8
0
100
AcDbSpline
70
4
71
3
72
8
73
4
74
0
42
0.000000001
43
0.0000000001
44
0.0000000001
40
0
40
0
40
0
40
0
40
1
40
1
40
1
40
1
41
1
41
1
41
1
41
1
10
23.765197265161767
20
-151.10050086251022
30
0
10
23.48638434040241
20
-151.14579857812237
30
0
10
23.20185217154215
20
-151.08088625132874
30
0
10
22.925898778769252
20
-151.1458129635655
30
0
0
SPLINE
5
151
100
AcDbEntity
8
0
100
AcDbSpline
70
4
71
3
72
8
73
4
74
0
42
0.000000001
43
0.0000000001
44
0.0000000001
40
0
40
0
40
0
40
0
40
1
40
1
40
1
40
1
41
1
41
1
41
1
41
1
10
22.416283525631137
20
-153.7731356806386
30
0
10
22.248995590647525
20
-153.72028817535167
30
0
10
22.131759102274838
20
-153.56024481788472
30
0
10
21.96161163530477
20
-153.51343701118313
30
0
0
SPLINE
5
152
100
AcDbEntity
8
0
100
AcDbSpline
70
4
71
3
72
8
73
4
74
0
42
0.000000001
43
0.0000000001
44
0.0000000001
40
0
40
0
40
0
40
0
40
1
40
1
40
1
40
1
41
1
41
1
41
1
41
1
10
22.391152067190177
20
-154.03541469437641
30
0
10
22.407301082697686
20
-154.04413098893642
30
0
10
22.42435344012091
20
-154.04961200922043
30
0
10
22.441783886214349
20
-154.05238542754972
30
0
0
SPLINE
5
153
100
AcDbEntity
8
0
100
AcDbSpline
70
4
71
3
72
8
73
4
74
0
42
0.000000001
43
0.0000000001
44
0.0000000001
40
0
40
0
40
0
40
0
40
1
40
1
40
1
40
1
41
1
41
1
41
1
41
1
10
21.842110397598812
20
-153.74438039243529
30
0
10
21.663384334669381
20
-153.70512244674123
30
0
10
21.488950541831617
20
-153.62660560424942
30
0
10
21.303075243648049
20
-153.63717521943923
30
0
0
SPLINE
5
154
100
AcDbEntity
8
0
100
AcDbSpline
70
4
71
3
72
8
73
4
74
0
42
0.000000001
43
0.0000000001
44
0.0000000001
40
0
40
0
40
0
40
0
40
1
40
1
40
1
40
1
41
1
41
1
41
1
41
1
10
22.958800238581407
20
-152.26768312381481
30
0
10
22.965949338739545
20
-152.24805405585738
30
0
10
22.984526659803549
20
-152.23296146711988
30
0
10
23.004544104220734
20
-152.23749119350367
30
0
0
SPLINE
5
155
100
AcDbEntity
8
0
100
AcDbSpline
70
4
71
3
72
8
73
4
74
0
42
0.000000001
43
0.0000000001
44
0.0000000001
40
0
40
0
40
0
40
0
40
1
40
1
40
1
40
1
41
1
41
1
41
1
41
1
10
22.446026260850257
20
-154.10570810423488
30
0
10
22.445356905205426
20
-154.19913387734371
30
0
10
22.430486618363862
20
-154.29241318048588
30
0
10
22.392581562991403
20
-154.37704504897442
30
0
0
SPLINE
5
156
100
AcDbEntity
8
0
100
AcDbSpline
70
4
71
3
72
8
73
4
74
0
42
0.000000001
43
0.0000000001
44
0.0000000001
40
0
40
0
40
0
40
0
40
1
40
1
40
1
40
1
41
1
41
1
41
1
41
1
10
22.330490721173508
20
-153.79276018329833
30
0
10
22.361344125635366
20
-153.82163968564214
30
0
10
22.401143407046849
20
-153.83738539727631
30
0
10
22.441783886214349
20
-153.84011753770594
30
0
0
SPLINE
5
157
100
AcDbEntity
8
0
100
AcDbSpline
70
4
71
3
72
8
73
4
74
0
42
0.000000001
43
0.0000000001
44
0.0000000001
40
0
40
0
40
0
40
0
40
1
40
1
40
1
40
1
41
1
41
1
41
1
41
1
10
21.970788076093307
20
-153.74438001199383
30
0
10
21.813508953382289
20
-153.59791784440736
30
0
10
21.614774812691628
20
-153.49374174640965
30
0
10
21.403162961085965
20
-153.48317232144055
30
0
0
SPLINE
5
158
100
AcDbEntity
8
0
100
AcDbSpline
70
4
71
3
72
8
73
4
74
0
42
0.000000001
43
0.0000000001
44
0.0000000001
40
0
40
0
40
0
40
0
40
1
40
1
40
1
40
1
41
1
41
1
41
1
41
1
10
23.073182959063615
20
-150.90573917721127
30
0
10
23.163261008620943
20
-150.90422925256496
30
0
10
23.243323040785715
20
-150.95254992044551
30
0
10
23.316243358040314
20
-151.00237739810783
30
0
0
SPLINE
5
159
100
AcDbEntity
8
0
100
AcDbSpline
70
4
71
3
72
8
73
4
74
0
42
0.000000001
43
0.0000000001
44
0.0000000001
40
0
40
0
40
0
40
0
40
1
40
1
40
1
40
1
41
1
41
1
41
1
41
1
10
22.193835533852802
20
-152.47454589144823
30
0
10
22.17381808943562
20
-152.53343290509969
30
0
10
22.145244024674966
20
-152.59532921079298
30
0
10
22.093770737702776
20
-152.63307737450629
30
0
0
SPLINE
5
160
100
AcDbEntity
8
0
100
AcDbSpline
70
4
71
3
72
8
73
4
74
0
42
0.000000001
43
0.0000000001
44
0.0000000001
40
0
40
0
40
0
40
0
40
1
40
1
40
1
40
1
41
1
41
1
41
1
41
1
10
21.303075243648049
20
-153.63717521943923
30
0
10
21.37027627176974
20
-153.30499198746855
30
0
10
21.559008354987775
20
-152.99395616536916
30
0
10
21.840680901797583
20
-152.82333463277928
30
0
0
SPLINE
5
161
100
AcDbEntity
8
0
100
AcDbSpline
70
4
71
3
72
8
73
4
74
0
42
0.000000001
43
0.0000000001
44
0.0000000001
40
0
40
0
40
0
40
0
40
1
40
1
40
1
40
1
41
1
41
1
41
1
41
1
10
22.382575092382805
20
-153.98106939101507
30
0
10
22.268190210364608
20
-153.90708322601074
30
0
10
22.175252628820825
20
-153.80439237151884
30
0
10
22.068016756896764
20
-153.72134656352617
30
0
0
LINE
5
162
100
AcDbEntity
8
0
100
AcDbLine
10
22.441783886214349
20
-153.84011753770594
30
0
11
22.441783886214349
21
-154.00234976518075
31
0
0
LINE
5
163
100
AcDbEntity
8
0
100
AcDbLine
10
22.441783886214349
20
-154.10570810423488
30
0
11
22.446026260850257
21
-154.10570810423488
31
0
0
SPLINE
5
164
100
AcDbEntity
8
0
100
AcDbSpline
70
4
71
3
72
8
73
4
74
0
42
0.000000001
43
0.0000000001
44
0.0000000001
40
0
40
0
40
0
40
0
40
1
40
1
40
1
40
1
41
1
41
1
41
1
41
1
10
21.840680901797583
20
-152.82333463277928
30
0
10
22.006538800595965
20
-152.72216972903075
30
0
10
22.200988776954919
20
-152.70859025113691
30
0
10
22.384004588184034
20
-152.66782233324133
30
0
0
SPLINE
5
165
100
AcDbEntity
8
0
100
AcDbSpline
70
4
71
3
72
8
73
4
74
0
42
0.000000001
43
0.0000000001
44
0.0000000001
40
0
40
0
40
0
40
0
40
1
40
1
40
1
40
1
41
1
41
1
41
1
41
1
10
22.093770737702776
20
-152.63307737450629
30
0
10
22.066604463319454
20
-152.6542164146652
30
0
10
22.030857161248775
20
-152.65876288047374
30
0
10
21.997971552700545
20
-152.66782233324133
30
0
0
SPLINE
5
166
100
AcDbEntity
8
0
100
AcDbSpline
70
4
71
3
72
8
73
4
74
0
42
0.000000001
43
0.0000000001
44
0.0000000001
40
0
40
0
40
0
40
0
40
1
40
1
40
1
40
1
41
1
41
1
41
1
41
1
10
22.441783886214349
20
-154.00234976518075
30
0
10
22.421043588136591
20
-153.99938688699851
30
0
10
22.400837909960298
20
-153.99249823326892
30
0
10
22.382575092382805
20
-153.98106939101507
30
0
0
SPLINE
5
167
100
AcDbEntity
8
0
100
AcDbSpline
70
4
71
3
72
8
73
4
74
0
42
0.000000001
43
0.0000000001
44
0.0000000001
40
0
40
0
40
0
40
0
40
1
40
1
40
1
40
1
41
1
41
1
41
1
41
1
10
21.403162961085965
20
-153.48317232144055
30
0
10
21.54471411748748
20
-153.57980730858458
30
0
10
21.709138197412656
20
-153.63415603591915
30
0
10
21.842110397598812
20
-153.74438039243529
30
0
0
SPLINE
5
168
100
AcDbEntity
8
0
100
AcDbSpline
70
4
71
3
72
8
73
4
74
0
42
0.000000001
43
0.0000000001
44
0.0000000001
40
0
40
0
40
0
40
0
40
1
40
1
40
1
40
1
41
1
41
1
41
1
41
1
10
22.488980304038797
20
-153.83739072345691
30
0
10
22.515075987659188
20
-153.83256501360808
30
0
10
22.540199700596187
20
-153.82228225128799
30
0
10
22.562115153740379
20
-153.80637104761357
30
0
0
SPLINE
5
169
100
AcDbEntity
8
0
100
AcDbSpline
70
4
71
3
72
8
73
4
74
0
42
0.000000001
43
0.0000000001
44
0.0000000001
40
0
40
0
40
0
40
0
40
1
40
1
40
1
40
1
41
1
41
1
41
1
41
1
10
22.392581562991403
20
-154.37704504897442
30
0
10
22.281056393087663
20
-154.14753688317452
30
0
10
22.156663419308874
20
-153.91651151678519
30
0
10
21.970788076093307
20
-153.74438001199383
30
0
0
SPLINE
5
170
100
AcDbEntity
8
0
100
AcDbSpline
70
4
71
3
72
8
73
4
74
0
42
0.000000001
43
0.0000000001
44
0.0000000001
40
0
40
0
40
0
40
0
40
1
40
1
40
1
40
1
41
1
41
1
41
1
41
1
10
21.217282394158421
20
-153.62358870337815
30
0
10
21.1171957124565
20
-153.62056894919587
30
0
10
21.017105518258596
20
-153.61452582663733
30
0
10
20.918448602549901
20
-153.63868462097852
30
0
0
SPLINE
5
171
100
AcDbEntity
8
0
100
AcDbSpline
70
4
71
3
72
8
73
4
74
0
42
0.000000001
43
0.0000000001
44
0.0000000001
40
0
40
0
40
0
40
0
40
1
40
1
40
1
40
1
41
1
41
1
41
1
41
1
10
22.486351876275243
20
-153.78219323119879
30
0
10
22.463474899871606
20
-153.78974290198559
30
0
10
22.439160502034774
20
-153.77917537922389
30
0
10
22.416283525631137
20
-153.7731356806386
30
0
0
SPLINE
5
172
100
AcDbEntity
8
0
100
AcDbSpline
70
4
71
3
72
8
73
4
74
0
42
0.000000001
43
0.0000000001
44
0.0000000001
40
0
40
0
40
0
40
0
40
1
40
1
40
1
40
1
41
1
41
1
41
1
41
1
10
24.121233945203333
20
-150.78796667167421
30
0
10
24.022157781576624
20
-150.94452525659239
30
0
10
23.933884254314748
20
-151.0730921944515
30
0
10
23.765197265161767
20
-151.10050086251022
30
0
0
SPLINE
5
173
100
AcDbEntity
8
0
100
AcDbSpline
70
4
71
3
72
8
73
4
74
0
42
0.000000001
43
0.0000000001
44
0.0000000001
40
0
40
0
40
0
40
0
40
1
40
1
40
1
40
1
41
1
41
1
41
1
41
1
10
22.068016756896764
20
-153.72134656352617
30
0
10
21.985087807497575
20
-153.6564198512894
30
0
10
21.887877139494027
20
-153.60357443843057
30
0
10
21.783500979684423
20
-153.60206446622905
30
0
0
SPLINE
5
174
100
AcDbEntity
8
0
100
AcDbSpline
70
4
71
3
72
8
73
4
74
0
42
0.000000001
43
0.0000000001
44
0.0000000001
40
0
40
0
40
0
40
0
40
1
40
1
40
1
40
1
41
1
41
1
41
1
41
1
10
21.96161163530477
20
-153.51343701118313
30
0
10
22.087434915460786
20
-153.60101273578033
30
0
10
22.208956919125178
20
-153.6961251961543
30
0
10
22.330490721173508
20
-153.79276018329833
30
0
0
SPLINE
5
175
100
AcDbEntity
8
0
100
AcDbSpline
70
4
71
3
72
8
73
4
74
0
42
0.000000001
43
0.0000000001
44
0.0000000001
40
0
40
0
40
0
40
0
40
1
40
1
40
1
40
1
41
1
41
1
41
1
41
1
10
23.21472609976917
20
-154.7318725377871
30
0
10
23.254760808475538
20
-154.69412437407382
30
0
10
23.303389063765202
20
-154.66545316343579
30
0
10
23.357721972787843
20
-154.65337376626519
30
0
0
SPLINE
5
176
100
AcDbEntity
8
0
100
AcDbSpline
70
4
71
3
72
8
73
4
74
0
42
0.000000001
43
0.0000000001
44
0.0000000001
40
0
40
0
40
0
40
0
40
1
40
1
40
1
40
1
41
1
41
1
41
1
41
1
10
23.511761493434207
20
-154.53523603691522
30
0
10
23.393105956684241
20
-154.55251911253686
30
0
10
23.283336314260186
20
-154.62836582655896
30
0
10
23.21472609976917
20
-154.7318725377871
30
0
0
SPLINE
5
177
100
AcDbEntity
8
0
100
AcDbSpline
70
4
71
3
72
8
73
4
74
0
42
0.000000001
43
0.0000000001
44
0.0000000001
40
0
40
0
40
0
40
0
40
1
40
1
40
1
40
1
41
1
41
1
41
1
41
1
10
21.200128444543676
20
-154.24870578155856
30
0
10
21.224435231972542
20
-154.22454698721737
30
0
10
21.238723255056865
20
-154.18981496349235
30
0
10
21.245872310183
20
-154.15508674418209
30
0
0
SPLINE
5
178
100
AcDbEntity
8
0
100
AcDbSpline
70
4
71
3
72
8
73
4
74
0
42
0.000000001
43
0.0000000001
44
0.0000000001
40
0
40
0
40
0
40
0
40
1
40
1
40
1
40
1
41
1
41
1
41
1
41
1
10
21.138637068706942
20
-155.02631597575686
30
0
10
21.1314880135808
20
-154.9568595371363
30
0
10
21.147228633882243
20
-154.88437820837359
30
0
10
21.185833486531386
20
-154.82700116692362
30
0
0
SPLINE
5
179
100
AcDbEntity
8
0
100
AcDbSpline
70
4
71
3
72
8
73
4
74
0
42
0.000000001
43
0.0000000001
44
0.0000000001
40
0
40
0
40
0
40
0
40
1
40
1
40
1
40
1
41
1
41
1
41
1
41
1
10
22.830122560086913
20
-154.55371636184856
30
0
10
22.797236951538682
20
-154.49331937599558
30
0
10
22.740029379777656
20
-154.45404373977308
30
0
10
22.688556362997467
20
-154.41176603989675
30
0
0
SPLINE
5
180
100
AcDbEntity
8
0
100
AcDbSpline
70
4
71
3
72
8
73
4
74
0
42
0.000000001
43
0.0000000001
44
0.0000000001
40
0
40
0
40
0
40
0
40
1
40
1
40
1
40
1
41
1
41
1
41
1
41
1
10
22.774349167455092
20
-154.34987277773521
30
0
10
22.822962652248826
20
-154.43744850233242
30
0
10
22.914464973895413
20
-154.48877766570541
30
0
10
23.008832591624419
20
-154.49783711847303
30
0
0
SPLINE
5
181
100
AcDbEntity
8
0
100
AcDbSpline
70
4
71
3
72
8
73
4
74
0
42
0.000000001
43
0.0000000001
44
0.0000000001
40
0
40
0
40
0
40
0
40
1
40
1
40
1
40
1
41
1
41
1
41
1
41
1
10
22.469797392641659
20
-154.3528919612553
30
0
10
22.481235880843478
20
-154.37705075559649
30
0
10
22.496976185920921
20
-154.3996858818432
30
0
10
22.518423306267334
20
-154.41629481517683
30
0
0
SPLINE
5
182
100
AcDbEntity
8
0
100
AcDbSpline
70
4
71
3
72
8
73
4
74
0
42
0.000000001
43
0.0000000001
44
0.0000000001
40
0
40
0
40
0
40
0
40
1
40
1
40
1
40
1
41
1
41
1
41
1
41
1
10
23.171841225732301
20
-154.4147852234168
30
0
10
23.253340319074265
20
-154.33928889599019
30
0
10
23.359132375021165
20
-154.3045758943388
30
0
10
23.444921036534808
20
-154.23511945571823
30
0
0
SPLINE
5
183
100
AcDbEntity
8
0
100
AcDbSpline
70
4
71
3
72
8
73
4
74
0
42
0.000000001
43
0.0000000001
44
0.0000000001
40
0
40
0
40
0
40
0
40
1
40
1
40
1
40
1
41
1
41
1
41
1
41
1
10
22.23531396847233
20
-154.42988114101718
30
0
10
22.186700483678596
20
-154.46762930473048
30
0
10
22.135231789970391
20
-154.5069060822774
30
0
10
22.109495281580294
20
-154.56579309592885
30
0
0
SPLINE
5
184
100
AcDbEntity
8
0
100
AcDbSpline
70
4
71
3
72
8
73
4
74
0
42
0.000000001
43
0.0000000001
44
0.0000000001
40
0
40
0
40
0
40
0
40
1
40
1
40
1
40
1
41
1
41
1
41
1
41
1
10
21.185833486531386
20
-154.82700116692362
30
0
10
21.263043236861666
20
-154.70469722301615
30
0
10
21.404585071639229
20
-154.63523165380025
30
0
10
21.54327660599029
20
-154.64731105097087
30
0
0
SPLINE
5
185
100
AcDbEntity
8
0
100
AcDbSpline
70
4
71
3
72
8
73
4
74
0
42
0.000000001
43
0.0000000001
44
0.0000000001
40
0
40
0
40
0
40
0
40
1
40
1
40
1
40
1
41
1
41
1
41
1
41
1
10
23.203289953231341
20
-154.1641442947423
30
0
10
23.209009377460248
20
-154.20340243065709
30
0
10
23.226164768098986
20
-154.24114907260451
30
0
10
23.213296423839942
20
-154.28040720851934
30
0
0
SPLINE
5
186
100
AcDbEntity
8
0
100
AcDbSpline
70
4
71
3
72
8
73
4
74
0
42
0.000000001
43
0.0000000001
44
0.0000000001
40
0
40
0
40
0
40
0
40
1
40
1
40
1
40
1
41
1
41
1
41
1
41
1
10
20.748315545819768
20
-154.55371636184856
30
0
10
20.842683005936777
20
-154.43292239014261
30
0
10
20.978504313201437
20
-154.36042926769429
30
0
10
21.111476648483592
20
-154.29852230963976
30
0
0
SPLINE
5
187
100
AcDbEntity
8
0
100
AcDbSpline
70
4
71
3
72
8
73
4
74
0
42
0.000000001
43
0.0000000001
44
0.0000000001
40
0
40
0
40
0
40
0
40
1
40
1
40
1
40
1
41
1
41
1
41
1
41
1
10
22.215301207383124
20
-154.74093008834734
30
0
10
22.243897247759676
20
-154.72734071897523
30
0
10
22.269616463861851
20
-154.70470407096263
30
0
10
22.29535279212395
20
-154.68507519322597
30
0
0
SPLINE
5
188
100
AcDbEntity
8
0
100
AcDbSpline
70
4
71
3
72
8
73
4
74
0
42
0.000000001
43
0.0000000001
44
0.0000000001
40
0
40
0
40
0
40
0
40
1
40
1
40
1
40
1
41
1
41
1
41
1
41
1
10
22.848705645246891
20
-154.37704542941586
30
0
10
22.84012686915953
20
-154.36647600444678
30
0
10
22.832960116457471
20
-154.35440421610562
30
0
10
22.824381160242108
20
-154.34232481893503
30
0
0
SPLINE
5
189
100
AcDbEntity
8
0
100
AcDbSpline
70
4
71
3
72
8
73
4
74
0
42
0.000000001
43
0.0000000001
44
0.0000000001
40
0
40
0
40
0
40
0
40
1
40
1
40
1
40
1
41
1
41
1
41
1
41
1
10
22.231025481068645
20
-151.42815531920078
30
0
10
22.221016668796054
20
-151.56404844225963
30
0
10
22.246740207970209
20
-151.69844205525746
30
0
10
22.291064304720258
20
-151.8237657533472
30
0
0
SPLINE
5
190
100
AcDbEntity
8
0
100
AcDbSpline
70
4
71
3
72
8
73
4
74
0
42
0.000000001
43
0.0000000001
44
0.0000000001
40
0
40
0
40
0
40
0
40
1
40
1
40
1
40
1
41
1
41
1
41
1
41
1
10
22.353985176358226
20
-151.98833560344542
30
0
10
22.385440928849228
20
-152.02457379495721
30
0
10
22.409754245918062
20
-152.06687337021819
30
0
10
22.429771510207249
20
-152.11066123251678
30
0
0
SPLINE
5
191
100
AcDbEntity
8
0
100
AcDbSpline
70
4
71
3
72
8
73
4
74
0
42
0.000000001
43
0.0000000001
44
0.0000000001
40
0
40
0
40
0
40
0
40
1
40
1
40
1
40
1
41
1
41
1
41
1
41
1
10
22.020843575584209
20
-151.83735207918753
30
0
10
22.145236999682997
20
-151.83584210698601
30
0
10
22.269626551029805
20
-151.89170052119101
30
0
10
22.353985176358226
20
-151.98833560344542
30
0
0
SPLINE
5
192
100
AcDbEntity
8
0
100
AcDbSpline
70
4
71
3
72
8
73
4
74
0
42
0.000000001
43
0.0000000001
44
0.0000000001
40
0
40
0
40
0
40
0
40
1
40
1
40
1
40
1
41
1
41
1
41
1
41
1
10
23.798098724973919
20
-154.28342639203939
30
0
10
23.930903496184868
20
-154.3373672861162
30
0
10
24.060203697044411
20
-154.40950013049078
30
0
10
24.161720955315559
20
-154.51570873705151
30
0
0
SPLINE
5
193
100
AcDbEntity
8
0
100
AcDbSpline
70
4
71
3
72
8
73
4
74
0
42
0.000000001
43
0.0000000001
44
0.0000000001
40
0
40
0
40
0
40
0
40
1
40
1
40
1
40
1
41
1
41
1
41
1
41
1
10
21.111476648483592
20
-154.29852230963976
30
0
10
21.141502634981364
20
-154.28342296806616
30
0
10
21.17582165711481
20
-154.27437454810126
30
0
10
21.200128444543676
20
-154.24870578155856
30
0
0
SPLINE
5
194
100
AcDbEntity
8
0
100
AcDbSpline
70
4
71
3
72
8
73
4
74
0
42
0.000000001
43
0.0000000001
44
0.0000000001
40
0
40
0
40
0
40
0
40
1
40
1
40
1
40
1
41
1
41
1
41
1
41
1
10
22.747188747231743
20
-154.68205600970589
30
0
10
22.714303138683512
20
-154.66091715976771
30
0
10
22.681415728855292
20
-154.63976879879274
30
0
10
22.649959976364286
20
-154.61410003225004
30
0
0
SPLINE
5
195
100
AcDbEntity
8
0
100
AcDbSpline
70
4
71
3
72
8
73
4
74
0
42
0.000000001
43
0.0000000001
44
0.0000000001
40
0
40
0
40
0
40
0
40
1
40
1
40
1
40
1
41
1
41
1
41
1
41
1
10
22.728605301815769
20
-154.73942049658729
30
0
10
22.836049131514841
20
-154.76779610420175
30
0
10
22.863507123192782
20
-154.61975909914281
30
0
10
22.830122560086913
20
-154.55371636184856
30
0
0
SPLINE
5
196
100
AcDbEntity
8
0
100
AcDbSpline
70
4
71
3
72
8
73
4
74
0
42
0.000000001
43
0.0000000001
44
0.0000000001
40
0
40
0
40
0
40
0
40
1
40
1
40
1
40
1
41
1
41
1
41
1
41
1
10
23.730889365932271
20
-155.2422362939505
30
0
10
23.673696924923171
20
-155.33434155471076
30
0
10
23.595059705231652
20
-155.40983559948853
30
0
10
23.510700899775234
20
-155.47476212150457
30
0
0
SPLINE
5
197
100
AcDbEntity
8
0
100
AcDbSpline
70
4
71
3
72
8
73
4
74
0
42
0.000000001
43
0.0000000001
44
0.0000000001
40
0
40
0
40
0
40
0
40
1
40
1
40
1
40
1
41
1
41
1
41
1
41
1
10
22.734323285020686
20
-154.5265193619137
30
0
10
22.776093707126833
20
-154.5747064591713
30
0
10
22.81941539156163
20
-154.65177857517401
30
0
10
22.747188747231743
20
-154.68205600970589
30
0
0
SPLINE
5
198
100
AcDbEntity
8
0
100
AcDbSpline
70
4
71
3
72
8
73
4
74
0
42
0.000000001
43
0.0000000001
44
0.0000000001
40
0
40
0
40
0
40
0
40
1
40
1
40
1
40
1
41
1
41
1
41
1
41
1
10
23.444921036534808
20
-154.23511945571823
30
0
10
23.377719963381121
20
-154.25323836125338
30
0
10
23.310516728691443
20
-154.27436313485711
30
0
10
23.244745511594974
20
-154.30003190139982
30
0
0
SPLINE
5
199
100
AcDbEntity
8
0
100
AcDbSpline
70
4
71
3
72
8
73
4
74
0
42
0.000000001
43
0.0000000001
44
0.0000000001
40
0
40
0
40
0
40
0
40
1
40
1
40
1
40
1
41
1
41
1
41
1
41
1
10
22.29535279212395
20
-154.68507519322597
30
0
10
22.365413577392093
20
-154.82247809826558
30
0
10
22.57989937122414
20
-154.8194589147455
30
0
10
22.649959976364286
20
-154.68356560146594
30
0
0
SPLINE
5
200
100
AcDbEntity
8
0
100
AcDbSpline
70
4
71
3
72
8
73
4
74
0
42
0.000000001
43
0.0000000001
44
0.0000000001
40
0
40
0
40
0
40
0
40
1
40
1
40
1
40
1
41
1
41
1
41
1
41
1
10
22.353985176358226
20
-154.45858773271206
30
0
10
22.408318085380866
20
-154.4495282799445
30
0
10
22.442631028194338
20
-154.39818998597613
30
0
10
22.469797392641659
20
-154.3528919612553
30
0
0
SPLINE
5
201
100
AcDbEntity
8
0
100
AcDbSpline
70
4
71
3
72
8
73
4
74
0
42
0.000000001
43
0.0000000001
44
0.0000000001
40
0
40
0
40
0
40
0
40
1
40
1
40
1
40
1
41
1
41
1
41
1
41
1
10
21.694849273688341
20
-154.3574207365354
30
0
10
21.774918601037076
20
-154.40875826962082
30
0
10
21.844979566433221
20
-154.47822003442198
30
0
10
21.903601773435547
20
-154.55522595360861
30
0
0
SPLINE
5
202
100
AcDbEntity
8
0
100
AcDbSpline
70
4
71
3
72
8
73
4
74
0
42
0.000000001
43
0.0000000001
44
0.0000000001
40
0
40
0
40
0
40
0
40
1
40
1
40
1
40
1
41
1
41
1
41
1
41
1
10
22.688556362997467
20
-154.41176603989675
30
0
10
22.717152583502017
20
-154.39062718995854
30
0
10
22.745752946950546
20
-154.3710116276734
30
0
10
22.774349167455092
20
-154.34987277773521
30
0
0
SPLINE
5
203
100
AcDbEntity
8
0
100
AcDbSpline
70
4
71
3
72
8
73
4
74
0
42
0.000000001
43
0.0000000001
44
0.0000000001
40
0
40
0
40
0
40
0
40
1
40
1
40
1
40
1
41
1
41
1
41
1
41
1
10
22.384004588184034
20
-152.66782233324133
30
0
10
22.329671859289387
20
-152.62705441534573
30
0
10
22.25960621056527
20
-152.63760748133154
30
0
10
22.196694525455261
20
-152.63156778274623
30
0
0
SPLINE
5
204
100
AcDbEntity
8
0
100
AcDbSpline
70
4
71
3
72
8
73
4
74
0
42
0.000000001
43
0.0000000001
44
0.0000000001
40
0
40
0
40
0
40
0
40
1
40
1
40
1
40
1
41
1
41
1
41
1
41
1
10
22.518423306267334
20
-154.41629481517683
30
0
10
22.582764847434568
20
-154.46763234826224
30
0
10
22.671411780038675
20
-154.47065229266525
30
0
10
22.734323285020686
20
-154.5265193619137
30
0
0
SPLINE
5
205
100
AcDbEntity
8
0
100
AcDbSpline
70
4
71
3
72
8
73
4
74
0
42
0.000000001
43
0.0000000001
44
0.0000000001
40
0
40
0
40
0
40
0
40
1
40
1
40
1
40
1
41
1
41
1
41
1
41
1
10
23.510700899775234
20
-155.47476212150457
30
0
10
23.344843000976848
20
-155.6015956015751
30
0
10
23.157538342088049
20
-155.68917246749672
30
0
10
22.983101667202302
20
-155.80241657819514
30
0
0
SPLINE
5
206
100
AcDbEntity
8
0
100
AcDbSpline
70
4
71
3
72
8
73
4
74
0
42
0.000000001
43
0.0000000001
44
0.0000000001
40
0
40
0
40
0
40
0
40
1
40
1
40
1
40
1
41
1
41
1
41
1
41
1
10
23.357721972787843
20
-154.65337376626519
30
0
10
23.470676818620813
20
-154.62770499972251
30
0
10
23.592208639261155
20
-154.6654341413622
30
0
10
23.682286508690485
20
-154.73942049658729
30
0
0
SPLINE
5
207
100
AcDbEntity
8
0
100
AcDbSpline
70
4
71
3
72
8
73
4
74
0
42
0.000000001
43
0.0000000001
44
0.0000000001
40
0
40
0
40
0
40
0
40
1
40
1
40
1
40
1
41
1
41
1
41
1
41
1
10
23.798098724973919
20
-154.91760102078001
30
0
10
23.822405557434784
20
-155.0293355397184
30
0
10
23.789511662998596
20
-155.14711108878726
30
0
10
23.730889365932271
20
-155.2422362939505
30
0
0
SPLINE
5
208
100
AcDbEntity
8
0
100
AcDbSpline
70
4
71
3
72
8
73
4
74
0
42
0.000000001
43
0.0000000001
44
0.0000000001
40
0
40
0
40
0
40
0
40
1
40
1
40
1
40
1
41
1
41
1
41
1
41
1
10
21.497532740350966
20
-154.23511945571823
30
0
10
21.560444425460972
20
-154.28041709999761
30
0
10
21.630507822585106
20
-154.31514303665904
30
0
10
21.694849273688341
20
-154.3574207365354
30
0
0
SPLINE
5
209
100
AcDbEntity
8
0
100
AcDbSpline
70
4
71
3
72
8
73
4
74
0
42
0.000000001
43
0.0000000001
44
0.0000000001
40
0
40
0
40
0
40
0
40
1
40
1
40
1
40
1
41
1
41
1
41
1
41
1
10
21.251590293387913
20
-155.29658159731184
30
0
10
21.191538275360362
20
-155.21957567812518
30
0
10
21.147215934858306
20
-155.12597109752465
30
0
10
21.138637068706942
20
-155.02631597575686
30
0
0
SPLINE
5
210
100
AcDbEntity
8
0
100
AcDbSpline
70
4
71
3
72
8
73
4
74
0
42
0.000000001
43
0.0000000001
44
0.0000000001
40
0
40
0
40
0
40
0
40
1
40
1
40
1
40
1
41
1
41
1
41
1
41
1
10
23.244745511594974
20
-154.30003190139982
30
0
10
23.249034899638662
20
-154.21849606560863
30
0
10
23.227601288892185
20
-154.13696175158339
30
0
10
23.183277192142132
20
-154.07052525736583
30
0
0
SPLINE
5
211
100
AcDbEntity
8
0
100
AcDbSpline
70
4
71
3
72
8
73
4
74
0
42
0.000000001
43
0.0000000001
44
0.0000000001
40
0
40
0
40
0
40
0
40
1
40
1
40
1
40
1
41
1
41
1
41
1
41
1
10
23.70515844151015
20
-154.1807498041027
30
0
10
23.719456641826422
20
-154.22755742058359
30
0
10
23.753774628223869
20
-154.26681745870576
30
0
10
23.798098724973919
20
-154.28342639203939
30
0
0
SPLINE
5
212
100
AcDbEntity
8
0
100
AcDbSpline
70
4
71
3
72
8
73
4
74
0
42
0.000000001
43
0.0000000001
44
0.0000000001
40
0
40
0
40
0
40
0
40
1
40
1
40
1
40
1
41
1
41
1
41
1
41
1
10
22.098059225106464
20
-155.89754520733163
30
0
10
21.923622460156714
20
-155.76316186625357
30
0
10
21.726292597347403
20
-155.66804008506355
30
0
10
21.54184711018906
20
-155.55026605776058
30
0
0
SPLINE
5
213
100
AcDbEntity
8
0
100
AcDbSpline
70
4
71
3
72
8
73
4
74
0
42
0.000000001
43
0.0000000001
44
0.0000000001
40
0
40
0
40
0
40
0
40
1
40
1
40
1
40
1
41
1
41
1
41
1
41
1
10
24.161720955315559
20
-154.51570873705151
30
0
10
23.999459492148137
20
-154.37473576924069
30
0
10
23.565037951741854
20
-154.40511706429436
30
0
10
23.511761493434207
20
-154.53523603691522
30
0
0
SPLINE
5
214
100
AcDbEntity
8
0
100
AcDbSpline
70
4
71
3
72
8
73
4
74
0
42
0.000000001
43
0.0000000001
44
0.0000000001
40
0
40
0
40
0
40
0
40
1
40
1
40
1
40
1
41
1
41
1
41
1
41
1
10
21.6977082652908
20
-154.30154149315985
30
0
10
21.631937048194334
20
-154.27587272661714
30
0
10
21.566163579497882
20
-154.25172876949335
30
0
10
21.497532740350966
20
-154.23511945571823
30
0
0
SPLINE
5
215
100
AcDbEntity
8
0
100
AcDbSpline
70
4
71
3
72
8
73
4
74
0
42
0.000000001
43
0.0000000001
44
0.0000000001
40
0
40
0
40
0
40
0
40
1
40
1
40
1
40
1
41
1
41
1
41
1
41
1
10
23.67942751708803
20
-153.91199377430777
30
0
10
23.68943614923262
20
-154.001079090665
30
0
10
23.677991896934831
20
-154.09317407950553
30
0
10
23.70515844151015
20
-154.1807498041027
30
0
0
SPLINE
5
216
100
AcDbEntity
8
0
100
AcDbSpline
70
4
71
3
72
8
73
4
74
0
42
0.000000001
43
0.0000000001
44
0.0000000001
40
0
40
0
40
0
40
0
40
1
40
1
40
1
40
1
41
1
41
1
41
1
41
1
10
22.983101667202302
20
-155.80241657819514
30
0
10
22.790077223828597
20
-155.92925005826567
30
0
10
22.612778495164402
20
-156.08627575397841
30
0
10
22.469797392641659
20
-156.27501619210344
30
0
0
SPLINE
5
217
100
AcDbEntity
8
0
100
AcDbSpline
70
4
71
3
72
8
73
4
74
0
42
0.000000001
43
0.0000000001
44
0.0000000001
40
0
40
0
40
0
40
0
40
1
40
1
40
1
40
1
41
1
41
1
41
1
41
1
10
21.54327660599029
20
-154.64731105097087
30
0
10
21.611907445137209
20
-154.65184096757537
30
0
10
21.679112841362876
20
-154.68204649866911
30
0
10
21.733445660321522
20
-154.72583417074694
30
0
0
SPLINE
5
218
100
AcDbEntity
8
0
100
AcDbSpline
70
4
71
3
72
8
73
4
74
0
42
0.000000001
43
0.0000000001
44
0.0000000001
40
0
40
0
40
0
40
0
40
1
40
1
40
1
40
1
41
1
41
1
41
1
41
1
10
22.182399567442971
20
-154.56428350416883
30
0
10
22.221004420092111
20
-154.50388651831585
30
0
10
22.286783923076534
20
-154.46915715768114
30
0
10
22.353985176358226
20
-154.45858773271206
30
0
0
SPLINE
5
219
100
AcDbEntity
8
0
100
AcDbSpline
70
4
71
3
72
8
73
4
74
0
42
0.000000001
43
0.0000000001
44
0.0000000001
40
0
40
0
40
0
40
0
40
1
40
1
40
1
40
1
41
1
41
1
41
1
41
1
10
22.196694525455261
20
-152.63156778274623
30
0
10
22.410950836216394
20
-152.37969308237874
30
0
10
22.349933016889416
20
-151.98596697484209
30
0
10
22.020843575584209
20
-151.83735207918753
30
0
0
SPLINE
5
220
100
AcDbEntity
8
0
100
AcDbSpline
70
4
71
3
72
8
73
4
74
0
42
0.000000001
43
0.0000000001
44
0.0000000001
40
0
40
0
40
0
40
0
40
1
40
1
40
1
40
1
41
1
41
1
41
1
41
1
10
23.183277192142132
20
-154.07052525736583
30
0
10
23.341986170910378
20
-153.99955884654375
30
0
10
23.507850374188735
20
-153.93917232283124
30
0
10
23.67942751708803
20
-153.91199377430777
30
0
0
SPLINE
5
221
100
AcDbEntity
8
0
100
AcDbSpline
70
4
71
3
72
8
73
4
74
0
42
0.000000001
43
0.0000000001
44
0.0000000001
40
0
40
0
40
0
40
0
40
1
40
1
40
1
40
1
41
1
41
1
41
1
41
1
10
22.469797392641659
20
-156.27501619210344
30
0
10
22.365421142768053
20
-156.13006342605624
30
0
10
22.238180705578753
20
-156.00474942922403
30
0
10
22.098059225106464
20
-155.89754520733163
30
0
0
SPLINE
5
222
100
AcDbEntity
8
0
100
AcDbSpline
70
4
71
3
72
8
73
4
74
0
42
0.000000001
43
0.0000000001
44
0.0000000001
40
0
40
0
40
0
40
0
40
1
40
1
40
1
40
1
41
1
41
1
41
1
41
1
10
21.767753559551018
20
-154.06901566560578
30
0
10
21.716280362642827
20
-154.1339425680633
30
0
10
21.691989021189887
20
-154.21849568516717
30
0
10
21.6977082652908
20
-154.30154149315985
30
0
0
SPLINE
5
223
100
AcDbEntity
8
0
100
AcDbSpline
70
4
71
3
72
8
73
4
74
0
42
0.000000001
43
0.0000000001
44
0.0000000001
40
0
40
0
40
0
40
0
40
1
40
1
40
1
40
1
41
1
41
1
41
1
41
1
10
22.010836924847609
20
-154.69564233554621
30
0
10
21.999398436645787
20
-154.62618589692568
30
0
10
21.9722253173985
20
-154.55974331564457
30
0
10
21.936480086799811
20
-154.50085630199308
30
0
0
SPLINE
5
224
100
AcDbEntity
8
0
100
AcDbSpline
70
4
71
3
72
8
73
4
74
0
42
0.000000001
43
0.0000000001
44
0.0000000001
40
0
40
0
40
0
40
0
40
1
40
1
40
1
40
1
41
1
41
1
41
1
41
1
10
23.008832591624419
20
-154.49783711847303
30
0
10
22.970227738975279
20
-154.555214159923
30
0
10
22.947367154219563
20
-154.621657502087
30
0
10
22.934498809960516
20
-154.68960396850608
30
0
0
SPLINE
5
225
100
AcDbEntity
8
0
100
AcDbSpline
70
4
71
3
72
8
73
4
74
0
42
0.000000001
43
0.0000000001
44
0.0000000001
40
0
40
0
40
0
40
0
40
1
40
1
40
1
40
1
41
1
41
1
41
1
41
1
10
21.54184711018906
20
-155.55026605776058
30
0
10
21.434611328329005
20
-155.48080961914005
30
0
10
21.331659665768655
20
-155.40076625524267
30
0
10
21.251590293387913
20
-155.29658159731184
30
0
0
SPLINE
5
226
100
AcDbEntity
8
0
100
AcDbSpline
70
4
71
3
72
8
73
4
74
0
42
0.000000001
43
0.0000000001
44
0.0000000001
40
0
40
0
40
0
40
0
40
1
40
1
40
1
40
1
41
1
41
1
41
1
41
1
10
21.245872310183
20
-154.15508674418209
30
0
10
21.261600231460502
20
-154.07808044455399
30
0
10
21.251609251859826
20
-153.99654765229459
30
0
10
21.270196795187783
20
-153.92105132486799
30
0
0
SPLINE
5
227
100
AcDbEntity
8
0
100
AcDbSpline
70
4
71
3
72
8
73
4
74
0
42
0.000000001
43
0.0000000001
44
0.0000000001
40
0
40
0
40
0
40
0
40
1
40
1
40
1
40
1
41
1
41
1
41
1
41
1
10
21.413538333836822
20
-154.53487081310232
30
0
10
21.189609554809497
20
-154.25696668767685
30
0
10
20.8279637789385
20
-154.52377866155101
30
0
10
20.748315545819768
20
-154.55371636184856
30
0
0
SPLINE
5
228
100
AcDbEntity
8
0
100
AcDbSpline
70
4
71
3
72
8
73
4
74
0
42
0.000000001
43
0.0000000001
44
0.0000000001
40
0
40
0
40
0
40
0
40
1
40
1
40
1
40
1
41
1
41
1
41
1
41
1
10
22.934498809960516
20
-154.68960396850608
30
0
10
23.014568227373253
20
-154.59900867994733
30
0
10
23.078903644188514
20
-154.49179152304492
30
0
10
23.171841225732301
20
-154.4147852234168
30
0
0
SPLINE
5
229
100
AcDbEntity
8
0
100
AcDbSpline
70
4
71
3
72
8
73
4
74
0
42
0.000000001
43
0.0000000001
44
0.0000000001
40
0
40
0
40
0
40
0
40
1
40
1
40
1
40
1
41
1
41
1
41
1
41
1
10
22.109495281580294
20
-154.56579309592885
30
0
10
22.075935814187254
20
-154.65698872113009
30
0
10
22.128955409968118
20
-154.76719272402747
30
0
10
22.215301207383124
20
-154.74093008834734
30
0
0
SPLINE
5
230
100
AcDbEntity
8
0
100
AcDbSpline
70
4
71
3
72
8
73
4
74
0
42
0.000000001
43
0.0000000001
44
0.0000000001
40
0
40
0
40
0
40
0
40
1
40
1
40
1
40
1
41
1
41
1
41
1
41
1
10
23.024557045437938
20
-150.75020252941911
30
0
10
22.519107252280094
20
-150.61433497916045
30
0
10
22.256807741970523
20
-151.03492642489016
30
0
10
22.231025481068645
20
-151.42815531920078
30
0
0
SPLINE
5
231
100
AcDbEntity
8
0
100
AcDbSpline
70
4
71
3
72
8
73
4
74
0
42
0.000000001
43
0.0000000001
44
0.0000000001
40
0
40
0
40
0
40
0
40
1
40
1
40
1
40
1
41
1
41
1
41
1
41
1
10
23.682286508690485
20
-154.73942049658729
30
0
10
23.736619237585128
20
-154.78622811306815
30
0
10
23.783800524657646
20
-154.84512463775644
30
0
10
23.798098724973919
20
-154.91760102078001
30
0
0
SPLINE
5
232
100
AcDbEntity
8
0
100
AcDbSpline
70
4
71
3
72
8
73
4
74
0
42
0.000000001
43
0.0000000001
44
0.0000000001
40
0
40
0
40
0
40
0
40
1
40
1
40
1
40
1
41
1
41
1
41
1
41
1
10
21.733445660321522
20
-154.72583417074694
30
0
10
21.656986368267685
20
-154.6203468812167
30
0
10
21.539020271434453
20
-154.54645601680105
30
0
10
21.413538333836822
20
-154.53487081310232
30
0
0
SPLINE
5
233
100
AcDbEntity
8
0
100
AcDbSpline
70
4
71
3
72
8
73
4
74
0
42
0.000000001
43
0.0000000001
44
0.0000000001
40
0
40
0
40
0
40
0
40
1
40
1
40
1
40
1
41
1
41
1
41
1
41
1
10
21.936480086799811
20
-154.50085630199308
30
0
10
22.029417848471596
20
-154.49179684922549
30
0
10
22.118060908323724
20
-154.437447361008
30
0
10
22.169534105231911
20
-154.35440155301532
30
0
0
SPLINE
5
234
100
AcDbEntity
8
0
100
AcDbSpline
70
4
71
3
72
8
73
4
74
0
42
0.000000001
43
0.0000000001
44
0.0000000001
40
0
40
0
40
0
40
0
40
1
40
1
40
1
40
1
41
1
41
1
41
1
41
1
10
22.169534105231911
20
-154.35440155301532
30
0
10
22.190981225578319
20
-154.38007031955803
30
0
10
22.212436992068692
20
-154.40421237447447
30
0
10
22.23531396847233
20
-154.42988114101718
30
0
0
SPLINE
5
235
100
AcDbEntity
8
0
100
AcDbSpline
70
4
71
3
72
8
73
4
74
0
42
0.000000001
43
0.0000000001
44
0.0000000001
40
0
40
0
40
0
40
0
40
1
40
1
40
1
40
1
41
1
41
1
41
1
41
1
10
21.270196795187783
20
-153.92105132486799
30
0
10
21.446063416194757
20
-153.92558105125178
30
0
10
21.603325426745858
20
-154.01616854076036
30
0
10
21.767753559551018
20
-154.06901566560578
30
0
0
SPLINE
5
236
100
AcDbEntity
8
0
100
AcDbSpline
70
4
71
3
72
8
73
4
74
0
42
0.000000001
43
0.0000000001
44
0.0000000001
40
0
40
0
40
0
40
0
40
1
40
1
40
1
40
1
41
1
41
1
41
1
41
1
10
21.903601773435547
20
-154.55522595360861
30
0
10
21.939347004034232
20
-154.6020335700895
30
0
10
21.973661928255691
20
-154.65034469126687
30
0
10
22.010836924847609
20
-154.69564233554621
30
0
0
SPLINE
5
237
100
AcDbEntity
8
0
100
AcDbSpline
70
4
71
3
72
8
73
4
74
0
42
0.000000001
43
0.0000000001
44
0.0000000001
40
0
40
0
40
0
40
0
40
1
40
1
40
1
40
1
41
1
41
1
41
1
41
1
10
22.649959976364286
20
-154.68356560146594
30
0
10
22.675696484754383
20
-154.70168450700109
30
0
10
22.69857922525399
20
-154.72734109941669
30
0
10
22.728605301815769
20
-154.73942049658729
30
0
0
SPLINE
5
238
100
AcDbEntity
8
0
100
AcDbSpline
70
4
71
3
72
8
73
4
74
0
42
0.000000001
43
0.0000000001
44
0.0000000001
40
0
40
0
40
0
40
0
40
1
40
1
40
1
40
1
41
1
41
1
41
1
41
1
10
22.429771510207249
20
-152.11066123251678
30
0
10
22.424052266106337
20
-152.0140263404831
30
0
10
22.385440748721226
20
-151.92643796620698
30
0
10
22.355414852287453
20
-151.8358424874275
30
0
0
SPLINE
5
239
100
AcDbEntity
8
0
100
AcDbSpline
70
4
71
3
72
8
73
4
74
0
42
0.000000001
43
0.0000000001
44
0.0000000001
40
0
40
0
40
0
40
0
40
1
40
1
40
1
40
1
41
1
41
1
41
1
41
1
10
24.108368482992272
20
-154.76812708828217
30
0
10
24.161271355829687
20
-154.90251042936026
30
0
10
24.171270621318328
20
-155.05046221552948
30
0
10
24.151253357029141
20
-155.19390500937513
30
0
0
SPLINE
5
240
100
AcDbEntity
8
0
100
AcDbSpline
70
4
71
3
72
8
73
4
74
0
42
0.000000001
43
0.0000000001
44
0.0000000001
40
0
40
0
40
0
40
0
40
1
40
1
40
1
40
1
41
1
41
1
41
1
41
1
10
22.928757590243709
20
-154.44198222335166
30
0
10
22.898731513681934
20
-154.42688288177803
30
0
10
22.868723089664073
20
-154.40573375992014
30
0
10
22.848705645246891
20
-154.37704542941586
30
0
0
SPLINE
5
241
100
AcDbEntity
8
0
100
AcDbSpline
70
4
71
3
72
8
73
4
74
0
42
0.000000001
43
0.0000000001
44
0.0000000001
40
0
40
0
40
0
40
0
40
1
40
1
40
1
40
1
41
1
41
1
41
1
41
1
10
24.151253357029141
20
-155.19390500937513
30
0
10
24.116937892423682
20
-155.43247300838408
30
0
10
23.98540050181473
20
-155.64538479541886
30
0
10
23.813823178787437
20
-155.80090698643508
30
0
0
SPLINE
5
242
100
AcDbEntity
8
0
100
AcDbSpline
70
4
71
3
72
8
73
4
74
0
42
0.000000001
43
0.0000000001
44
0.0000000001
40
0
40
0
40
0
40
0
40
1
40
1
40
1
40
1
41
1
41
1
41
1
41
1
10
22.649959976364286
20
-154.61410003225004
30
0
10
22.607065735671462
20
-154.66241762093244
30
0
10
22.559870578743013
20
-154.72281422634396
30
0
10
22.491239829660092
20
-154.72583417074694
30
0
0
SPLINE
5
243
100
AcDbEntity
8
0
100
AcDbSpline
70
4
71
3
72
8
73
4
74
0
42
0.000000001
43
0.0000000001
44
0.0000000001
40
0
40
0
40
0
40
0
40
1
40
1
40
1
40
1
41
1
41
1
41
1
41
1
10
23.24045702419129
20
-156.20253143936748
30
0
10
22.984521075835577
20
-156.34597423321313
30
0
10
22.720012115488473
20
-156.47280847416658
30
0
10
22.479803863250261
20
-156.643429626315
30
0
0
SPLINE
5
244
100
AcDbEntity
8
0
100
AcDbSpline
70
4
71
3
72
8
73
4
74
0
42
0.000000001
43
0.0000000001
44
0.0000000001
40
0
40
0
40
0
40
0
40
1
40
1
40
1
40
1
41
1
41
1
41
1
41
1
10
21.852116868207414
20
-156.28105455914357
30
0
10
21.624777050292252
20
-156.1587506152361
30
0
10
21.397442546153062
20
-156.03342178118646
30
0
10
21.198698948742447
20
-155.86280024859661
30
0
0
SPLINE
5
245
100
AcDbEntity
8
0
100
AcDbSpline
70
4
71
3
72
8
73
4
74
0
42
0.000000001
43
0.0000000001
44
0.0000000001
40
0
40
0
40
0
40
0
40
1
40
1
40
1
40
1
41
1
41
1
41
1
41
1
10
21.945057151671186
20
-155.87339173917104
30
0
10
22.139511270974118
20
-156.00173519144309
30
0
10
22.313949026627864
20
-156.15876202848023
30
0
10
22.465508905237972
20
-156.33995298603921
30
0
0
SPLINE
5
246
100
AcDbEntity
8
0
100
AcDbSpline
70
4
71
3
72
8
73
4
74
0
42
0.000000001
43
0.0000000001
44
0.0000000001
40
0
40
0
40
0
40
0
40
1
40
1
40
1
40
1
41
1
41
1
41
1
41
1
10
21.304435525265603
20
-154.54159093125989
30
0
10
21.230432368544136
20
-154.55939977699555
30
0
10
21.162981142631629
20
-154.60502155740886
30
0
10
21.110047152682363
20
-154.66092172506538
30
0
0
SPLINE
5
247
100
AcDbEntity
8
0
100
AcDbSpline
70
4
71
3
72
8
73
4
74
0
42
0.000000001
43
0.0000000001
44
0.0000000001
40
0
40
0
40
0
40
0
40
1
40
1
40
1
40
1
41
1
41
1
41
1
41
1
10
21.783500979684423
20
-154.09316913376639
30
0
10
21.796369233879474
20
-154.09165916156488
30
0
10
21.809229112122562
20
-154.09091083318987
30
0
10
21.822097366317607
20
-154.09109953215986
30
0
0
SPLINE
5
248
100
AcDbEntity
8
0
100
AcDbSpline
70
4
71
3
72
8
73
4
74
0
42
0.000000001
43
0.0000000001
44
0.0000000001
40
0
40
0
40
0
40
0
40
1
40
1
40
1
40
1
41
1
41
1
41
1
41
1
10
20.948491070759601
20
-155.59102503528158
30
0
10
20.794071592615037
20
-155.36604640564477
30
0
10
20.738289914095255
20
-155.06104571683304
30
0
10
20.825508319086129
20
-154.79680933172287
30
0
0
SPLINE
5
249
100
AcDbEntity
8
0
100
AcDbSpline
70
4
71
3
72
8
73
4
74
0
42
0.000000001
43
0.0000000001
44
0.0000000001
40
0
40
0
40
0
40
0
40
1
40
1
40
1
40
1
41
1
41
1
41
1
41
1
10
23.769347414262107
20
-154.51178866812626
30
0
10
23.907666263782932
20
-154.51333820624083
30
0
10
24.058639105243824
20
-154.56089567286259
30
0
10
24.108368482992272
20
-154.76812708828217
30
0
0
SPLINE
5
250
100
AcDbEntity
8
0
100
AcDbSpline
70
4
71
3
72
8
73
4
74
0
42
0.000000001
43
0.0000000001
44
0.0000000001
40
0
40
0
40
0
40
0
40
1
40
1
40
1
40
1
41
1
41
1
41
1
41
1
10
21.45176581832775
20
-154.58994656408944
30
0
10
21.373126256972238
20
-154.63222426396581
30
0
10
21.281625106157652
20
-154.6518512394951
30
0
10
21.211564410953507
20
-154.71073825314659
30
0
0
SPLINE
5
251
100
AcDbEntity
8
0
100
AcDbSpline
70
4
71
3
72
8
73
4
74
0
42
0.000000001
43
0.0000000001
44
0.0000000001
40
0
40
0
40
0
40
0
40
1
40
1
40
1
40
1
41
1
41
1
41
1
41
1
10
23.050310846115952
20
-154.44802059039179
30
0
10
23.010276137409583
20
-154.4616099597639
30
0
10
22.968791938694082
20
-154.45708156492526
30
0
10
22.928757590243709
20
-154.44198222335166
30
0
0
SPLINE
5
252
100
AcDbEntity
8
0
100
AcDbSpline
70
4
71
3
72
8
73
4
74
0
42
0.000000001
43
0.0000000001
44
0.0000000001
40
0
40
0
40
0
40
0
40
1
40
1
40
1
40
1
41
1
41
1
41
1
41
1
10
22.355414852287453
20
-151.8358424874275
30
0
10
22.315380143581084
20
-151.71051878933773
30
0
10
22.296802462261081
20
-151.57614885882154
30
0
10
22.311100482449355
20
-151.44327558505535
30
0
0
SPLINE
5
253
100
AcDbEntity
8
0
100
AcDbSpline
70
4
71
3
72
8
73
4
74
0
42
0.000000001
43
0.0000000001
44
0.0000000001
40
0
40
0
40
0
40
0
40
1
40
1
40
1
40
1
41
1
41
1
41
1
41
1
10
21.211564410953507
20
-154.71073825314659
30
0
10
21.147222959850271
20
-154.76509573063501
30
0
10
21.100043203865745
20
-154.84512197466611
30
0
10
21.088604715663926
20
-154.93118734662033
30
0
0
SPLINE
5
254
100
AcDbEntity
8
0
100
AcDbSpline
70
4
71
3
72
8
73
4
74
0
42
0.000000001
43
0.0000000001
44
0.0000000001
40
0
40
0
40
0
40
0
40
1
40
1
40
1
40
1
41
1
41
1
41
1
41
1
10
23.489258462756798
20
-154.58994656408944
30
0
10
23.580766368371354
20
-154.58088711132189
30
0
10
23.672263466305964
20
-154.60958343109704
30
0
10
23.748043315547019
20
-154.66394090858546
30
0
0
SPLINE
5
255
100
AcDbEntity
8
0
100
AcDbSpline
70
4
71
3
72
8
73
4
74
0
42
0.000000001
43
0.0000000001
44
0.0000000001
40
0
40
0
40
0
40
0
40
1
40
1
40
1
40
1
41
1
41
1
41
1
41
1
10
22.311100482449355
20
-151.44327558505535
30
0
10
22.382682628798293
20
-151.09073844901314
30
0
10
22.505511551160492
20
-150.83475478458527
30
0
10
22.894127081767746
20
-150.8154315024052
30
0
0
SPLINE
5
256
100
AcDbEntity
8
0
100
AcDbSpline
70
4
71
3
72
8
73
4
74
0
42
0.000000001
43
0.0000000001
44
0.0000000001
40
0
40
0
40
0
40
0
40
1
40
1
40
1
40
1
41
1
41
1
41
1
41
1
10
21.168679536916638
20
-155.28601445499157
30
0
10
21.281634517845607
20
-155.45814557934148
30
0
10
21.453204050336936
20
-155.57442142812855
30
0
10
21.623351427243005
20
-155.67709611385789
30
0
0
SPLINE
5
257
100
AcDbEntity
8
0
100
AcDbSpline
70
4
71
3
72
8
73
4
74
0
42
0.000000001
43
0.0000000001
44
0.0000000001
40
0
40
0
40
0
40
0
40
1
40
1
40
1
40
1
41
1
41
1
41
1
41
1
10
23.021698053835483
20
-155.85827147331651
30
0
10
23.213292641151959
20
-155.72841804884294
30
0
10
23.427774292040031
20
-155.6333031155994
30
0
10
23.605070679040232
20
-155.47929089678468
30
0
0
SPLINE
5
258
100
AcDbEntity
8
0
100
AcDbSpline
70
4
71
3
72
8
73
4
74
0
42
0.000000001
43
0.0000000001
44
0.0000000001
40
0
40
0
40
0
40
0
40
1
40
1
40
1
40
1
41
1
41
1
41
1
41
1
10
21.623351427243005
20
-155.67709611385789
30
0
10
21.73058720910306
20
-155.74202301631539
30
0
10
21.839251225868356
20
-155.80544489231053
30
0
10
21.945057151671186
20
-155.87339173917104
30
0
0
SPLINE
5
259
100
AcDbEntity
8
0
100
AcDbSpline
70
4
71
3
72
8
73
4
74
0
42
0.000000001
43
0.0000000001
44
0.0000000001
40
0
40
0
40
0
40
0
40
1
40
1
40
1
40
1
41
1
41
1
41
1
41
1
10
23.213296423839942
20
-154.28040720851934
30
0
10
23.209007035796258
20
-154.32117531663565
30
0
10
23.178994829090417
20
-154.35288663507467
30
0
10
23.150398608585867
20
-154.37704542941586
30
0
0
SPLINE
5
260
100
AcDbEntity
8
0
100
AcDbSpline
70
4
71
3
72
8
73
4
74
0
42
0.000000001
43
0.0000000001
44
0.0000000001
40
0
40
0
40
0
40
0
40
1
40
1
40
1
40
1
41
1
41
1
41
1
41
1
10
22.491239829660092
20
-154.72583417074694
30
0
10
22.45835404098386
20
-154.72130425414244
30
0
10
22.421177963623951
20
-154.72885753912323
30
0
10
22.391152067190177
20
-154.70922866138656
30
0
0
SPLINE
5
261
100
AcDbEntity
8
0
100
AcDbSpline
70
4
71
3
72
8
73
4
74
0
42
0.000000001
43
0.0000000001
44
0.0000000001
40
0
40
0
40
0
40
0
40
1
40
1
40
1
40
1
41
1
41
1
41
1
41
1
10
21.088604715663926
20
-154.93118734662033
30
0
10
21.070017172335969
20
-155.05500126272935
30
0
10
21.105767896838628
20
-155.18182979706071
30
0
10
21.168679536916638
20
-155.28601445499157
30
0
0
SPLINE
5
262
100
AcDbEntity
8
0
100
AcDbSpline
70
4
71
3
72
8
73
4
74
0
42
0.000000001
43
0.0000000001
44
0.0000000001
40
0
40
0
40
0
40
0
40
1
40
1
40
1
40
1
41
1
41
1
41
1
41
1
10
21.88358883221834
20
-154.36647828709562
30
0
10
21.916474350702572
20
-154.38610716483231
30
0
10
21.956508248832947
20
-154.39063441834651
30
0
10
21.992253479431632
20
-154.37855502117591
30
0
0
SPLINE
5
263
100
AcDbEntity
8
0
100
AcDbSpline
70
4
71
3
72
8
73
4
74
0
42
0.000000001
43
0.0000000001
44
0.0000000001
40
0
40
0
40
0
40
0
40
1
40
1
40
1
40
1
41
1
41
1
41
1
41
1
10
21.863552744553246
20
-154.12036613370122
30
0
10
21.850423755079433
20
-154.14389567784812
30
0
10
21.830583196357409
20
-154.16959754279887
30
0
10
21.823526952182835
20
-154.18678817114287
30
0
0
SPLINE
5
264
100
AcDbEntity
8
0
100
AcDbSpline
70
4
71
3
72
8
73
4
74
0
42
0.000000001
43
0.0000000001
44
0.0000000001
40
0
40
0
40
0
40
0
40
1
40
1
40
1
40
1
41
1
41
1
41
1
41
1
10
23.999703745714982
20
-154.95986959006106
30
0
10
23.956809505022157
20
-154.82850619338598
30
0
10
23.89103936869369
20
-154.69714622068417
30
0
10
23.783803766961629
20
-154.61259044049001
30
0
0
SPLINE
5
265
100
AcDbEntity
8
0
100
AcDbSpline
70
4
71
3
72
8
73
4
74
0
42
0.000000001
43
0.0000000001
44
0.0000000001
40
0
40
0
40
0
40
0
40
1
40
1
40
1
40
1
41
1
41
1
41
1
41
1
10
22.894127081767746
20
-150.8154315024052
30
0
10
22.942430206018948
20
-150.81532541422027
30
0
10
22.995412335175988
20
-150.82111444497255
30
0
10
23.03744556403289
20
-150.83023529445484
30
0
0
SPLINE
5
266
100
AcDbEntity
8
0
100
AcDbSpline
70
4
71
3
72
8
73
4
74
0
42
0.000000001
43
0.0000000001
44
0.0000000001
40
0
40
0
40
0
40
0
40
1
40
1
40
1
40
1
41
1
41
1
41
1
41
1
10
22.120931067862127
20
-154.34081522717497
30
0
10
22.109492579660309
20
-154.36195407711318
30
0
10
22.098039861346557
20
-154.38308037248279
30
0
10
22.080882219107824
20
-154.3981797140564
30
0
0
SPLINE
5
267
100
AcDbEntity
8
0
100
AcDbSpline
70
4
71
3
72
8
73
4
74
0
42
0.000000001
43
0.0000000001
44
0.0000000001
40
0
40
0
40
0
40
0
40
1
40
1
40
1
40
1
41
1
41
1
41
1
41
1
10
23.783803766961629
20
-154.61259044049001
30
0
10
23.723379469391841
20
-154.56473280554701
30
0
10
23.648783781617176
20
-154.53486815001199
30
0
10
23.57230755753142
20
-154.53182728132805
30
0
0
SPLINE
5
268
100
AcDbEntity
8
0
100
AcDbSpline
70
4
71
3
72
8
73
4
74
0
42
0.000000001
43
0.0000000001
44
0.0000000001
40
0
40
0
40
0
40
0
40
1
40
1
40
1
40
1
41
1
41
1
41
1
41
1
10
23.6779980212868
20
-154.67299845914567
30
0
10
23.617946228419246
20
-154.6397802120369
30
0
10
23.550740291809579
20
-154.6216548389967
30
0
10
23.489258462756798
20
-154.58994656408944
30
0
0
SPLINE
5
269
100
AcDbEntity
8
0
100
AcDbSpline
70
4
71
3
72
8
73
4
74
0
42
0.000000001
43
0.0000000001
44
0.0000000001
40
0
40
0
40
0
40
0
40
1
40
1
40
1
40
1
41
1
41
1
41
1
41
1
10
23.120355960248169
20
-154.3030510849199
30
0
10
23.144792845124421
20
-154.2312674858164
30
0
10
23.123067607147327
20
-154.181143561026
30
0
10
23.094625035826049
20
-154.12489490898136
30
0
0
SPLINE
5
270
100
AcDbEntity
8
0
100
AcDbSpline
70
4
71
3
72
8
73
4
74
0
42
0.000000001
43
0.0000000001
44
0.0000000001
40
0
40
0
40
0
40
0
40
1
40
1
40
1
40
1
41
1
41
1
41
1
41
1
10
23.150398608585867
20
-154.37704542941586
30
0
10
23.114247819797104
20
-154.40072676970996
30
0
10
23.081009340498543
20
-154.43335571297897
30
0
10
23.050310846115952
20
-154.44802059039179
30
0
0
SPLINE
5
271
100
AcDbEntity
8
0
100
AcDbSpline
70
4
71
3
72
8
73
4
74
0
42
0.000000001
43
0.0000000001
44
0.0000000001
40
0
40
0
40
0
40
0
40
1
40
1
40
1
40
1
41
1
41
1
41
1
41
1
10
20.825508319086129
20
-154.79680933172287
30
0
10
20.857121863704389
20
-154.68864259290686
30
0
10
20.960584009014319
20
-154.46052836465964
30
0
10
21.304435525265603
20
-154.54159093125989
30
0
0
SPLINE
5
272
100
AcDbEntity
8
0
100
AcDbSpline
70
4
71
3
72
8
73
4
74
0
42
0.000000001
43
0.0000000001
44
0.0000000001
40
0
40
0
40
0
40
0
40
1
40
1
40
1
40
1
41
1
41
1
41
1
41
1
10
21.820667960580376
20
-154.29550312611971
30
0
10
21.83067659272497
20
-154.32721140102697
30
0
10
21.854992611713794
20
-154.3528889177235
30
0
10
21.88358883221834
20
-154.36647828709562
30
0
0
SPLINE
5
273
100
AcDbEntity
8
0
100
AcDbSpline
70
4
71
3
72
8
73
4
74
0
42
0.000000001
43
0.0000000001
44
0.0000000001
40
0
40
0
40
0
40
0
40
1
40
1
40
1
40
1
41
1
41
1
41
1
41
1
10
21.198698948742447
20
-155.86280024859661
30
0
10
21.105761277134661
20
-155.78277438500697
30
0
10
21.019981576988972
20
-155.69218974880943
30
0
10
20.948491070759601
20
-155.59102503528158
30
0
0
SPLINE
5
274
100
AcDbEntity
8
0
100
AcDbSpline
70
4
71
3
72
8
73
4
74
0
42
0.000000001
43
0.0000000001
44
0.0000000001
40
0
40
0
40
0
40
0
40
1
40
1
40
1
40
1
41
1
41
1
41
1
41
1
10
23.03744556403289
20
-150.83023529445484
30
0
10
22.775471004633779
20
-150.89326876348485
30
0
10
22.546785000116994
20
-151.01004959482614
30
0
10
22.448354955623223
20
-151.26358551665777
30
0
0
SPLINE
5
275
100
AcDbEntity
8
0
100
AcDbSpline
70
4
71
3
72
8
73
4
74
0
42
0.000000001
43
0.0000000001
44
0.0000000001
40
0
40
0
40
0
40
0
40
1
40
1
40
1
40
1
41
1
41
1
41
1
41
1
10
22.479803863250261
20
-156.643429626315
30
0
10
22.272481579816283
20
-156.51961571020598
30
0
10
22.065158575870303
20
-156.3927886976405
30
0
10
21.852116868207414
20
-156.28105455914357
30
0
0
SPLINE
5
276
100
AcDbEntity
8
0
100
AcDbSpline
70
4
71
3
72
8
73
4
74
0
42
0.000000001
43
0.0000000001
44
0.0000000001
40
0
40
0
40
0
40
0
40
1
40
1
40
1
40
1
41
1
41
1
41
1
41
1
10
22.080882219107824
20
-154.3981797140564
30
0
10
22.053715764596504
20
-154.42082853619607
30
0
10
22.025138817787862
20
-154.43745116542271
30
0
10
21.993682975232861
20
-154.44802059039179
30
0
0
SPLINE
5
277
100
AcDbEntity
8
0
100
AcDbSpline
70
4
71
3
72
8
73
4
74
0
42
0.000000001
43
0.0000000001
44
0.0000000001
40
0
40
0
40
0
40
0
40
1
40
1
40
1
40
1
41
1
41
1
41
1
41
1
10
21.993682975232861
20
-154.44802059039179
30
0
10
21.812224100364372
20
-154.47853922481681
30
0
10
21.68954396372947
20
-154.29966553626247
30
0
10
21.783500979684423
20
-154.09316913376639
30
0
0
SPLINE
5
278
100
AcDbEntity
8
0
100
AcDbSpline
70
4
71
3
72
8
73
4
74
0
42
0.000000001
43
0.0000000001
44
0.0000000001
40
0
40
0
40
0
40
0
40
1
40
1
40
1
40
1
41
1
41
1
41
1
41
1
10
21.1915514697363
20
-154.66846968386557
30
0
10
21.265901598016129
20
-154.61260261461709
30
0
10
21.358828146719965
20
-154.57937713912037
30
0
10
21.45176581832775
20
-154.58994656408944
30
0
0
SPLINE
5
279
100
AcDbEntity
8
0
100
AcDbSpline
70
4
71
3
72
8
73
4
74
0
42
0.000000001
43
0.0000000001
44
0.0000000001
40
0
40
0
40
0
40
0
40
1
40
1
40
1
40
1
41
1
41
1
41
1
41
1
10
21.110047152682363
20
-154.66092172506538
30
0
10
21.029977780301625
20
-154.74547750525954
30
0
10
20.977088822352144
20
-154.85266422684424
30
0
10
20.941343591753455
20
-154.96288877358114
30
0
0
SPLINE
5
280
100
AcDbEntity
8
0
100
AcDbSpline
70
4
71
3
72
8
73
4
74
0
42
0.000000001
43
0.0000000001
44
0.0000000001
40
0
40
0
40
0
40
0
40
1
40
1
40
1
40
1
41
1
41
1
41
1
41
1
10
23.605070679040232
20
-155.47929089678468
30
0
10
23.682280384338515
20
-155.40983445816411
30
0
10
23.752344051654646
20
-155.32981315987212
30
0
10
23.800957716576377
20
-155.23619792691036
30
0
0
SPLINE
5
281
100
AcDbEntity
8
0
100
AcDbSpline
70
4
71
3
72
8
73
4
74
0
42
0.000000001
43
0.0000000001
44
0.0000000001
40
0
40
0
40
0
40
0
40
1
40
1
40
1
40
1
41
1
41
1
41
1
41
1
10
21.823526952182835
20
-154.18678817114287
30
0
10
21.813518049846245
20
-154.22151639045313
30
0
10
21.804939994270875
20
-154.26077490680942
30
0
10
21.820667960580376
20
-154.29550312611971
30
0
0
SPLINE
5
282
100
AcDbEntity
8
0
100
AcDbSpline
70
4
71
3
72
8
73
4
74
0
42
0.000000001
43
0.0000000001
44
0.0000000001
40
0
40
0
40
0
40
0
40
1
40
1
40
1
40
1
41
1
41
1
41
1
41
1
10
21.992253479431632
20
-154.37855502117591
30
0
10
22.040267228052205
20
-154.36053769351372
30
0
10
22.075448748077562
20
-154.29642075094964
30
0
10
22.113783768983982
20
-154.2758784332392
30
0
0
SPLINE
5
283
100
AcDbEntity
8
0
100
AcDbSpline
70
4
71
3
72
8
73
4
74
0
42
0.000000001
43
0.0000000001
44
0.0000000001
40
0
40
0
40
0
40
0
40
1
40
1
40
1
40
1
41
1
41
1
41
1
41
1
10
21.822097366317607
20
-154.09109953215986
30
0
10
21.834965620512651
20
-154.09128899201284
30
0
10
21.847825498755739
20
-154.09241395744488
30
0
10
21.860693752950787
20
-154.09467872552642
30
0
0
SPLINE
5
284
100
AcDbEntity
8
0
100
AcDbSpline
70
4
71
3
72
8
73
4
74
0
42
0.000000001
43
0.0000000001
44
0.0000000001
40
0
40
0
40
0
40
0
40
1
40
1
40
1
40
1
41
1
41
1
41
1
41
1
10
22.824381160242108
20
-154.34232481893503
30
0
10
22.817232060083974
20
-154.32873544956294
30
0
10
22.810087643253812
20
-154.31362127077193
30
0
10
22.802938723223672
20
-154.30003190139982
30
0
0
SPLINE
5
285
100
AcDbEntity
8
0
100
AcDbSpline
70
4
71
3
72
8
73
4
74
0
42
0.000000001
43
0.0000000001
44
0.0000000001
40
0
40
0
40
0
40
0
40
1
40
1
40
1
40
1
41
1
41
1
41
1
41
1
10
23.800957716576377
20
-155.23619792691036
30
0
10
23.846711669383655
20
-155.14560263835162
30
0
10
23.871005892884583
20
-155.0414096107084
30
0
10
23.858137548625535
20
-154.94024489718058
30
0
0
SPLINE
5
286
100
AcDbEntity
8
0
100
AcDbSpline
70
4
71
3
72
8
73
4
74
0
42
0.000000001
43
0.0000000001
44
0.0000000001
40
0
40
0
40
0
40
0
40
1
40
1
40
1
40
1
41
1
41
1
41
1
41
1
10
22.158098138822076
20
-154.68356560146594
30
0
10
22.152378894721171
20
-154.6427974933496
30
0
10
22.160952447096559
20
-154.59901172347909
30
0
10
22.182399567442971
20
-154.56428350416883
30
0
0
SPLINE
5
287
100
AcDbEntity
8
0
100
AcDbSpline
70
4
71
3
72
8
73
4
74
0
42
0.000000001
43
0.0000000001
44
0.0000000001
40
0
40
0
40
0
40
0
40
1
40
1
40
1
40
1
41
1
41
1
41
1
41
1
10
22.802938723223672
20
-154.30003190139982
30
0
10
22.870139796377366
20
-154.29550198479529
30
0
10
22.913042863342145
20
-154.36194532695933
30
0
10
22.973094836337701
20
-154.38157420469599
30
0
0
SPLINE
5
288
100
AcDbEntity
8
0
100
AcDbSpline
70
4
71
3
72
11
73
7
74
0
42
0.000000001
43
0.0000000001
44
0.0000000001
40
0
40
0
40
0
40
0
40
1
40
1
40
1
40
1.0000211364452931
40
1.0000211364452931
40
1.0000211364452931
40
1.0000211364452931
41
1
41
1
41
1
41
1
41
1
41
1
41
1
10
23.094625035826049
20
-154.12489490898136
30
0
10
23.118931688158916
20
-154.11432548401226
30
0
10
23.138957418464063
20
-154.09619098037675
30
0
10
23.161834394867704
20
-154.08411158320615
30
0
10
23.161834491437432
20
-154.08411153221584
30
0
10
23.161834588007167
20
-154.08411148122553
30
0
10
23.161834684576899
20
-154.08411143023523
30
0
0
SPLINE
5
289
100
AcDbEntity
8
0
100
AcDbSpline
70
4
71
3
72
11
73
7
74
0
42
0.000000001
43
0.0000000001
44
0.0000000001
40
25.444324352419638
40
25.444324352419638
40
25.444324352419638
40
25.444324352419638
40
25.444335220458285
40
25.444335220458285
40
25.444335220458285
40
26.444335220458285
40
26.444335220458285
40
26.444335220458285
40
26.444335220458285
41
1
41
1
41
1
41
1
41
1
41
1
41
1
10
23.161834684576903
20
-154.08411143023523
30
0
10
23.161834708092503
20
-154.08411148122556
30
0
10
23.161834731608099
20
-154.08411153221584
30
0
10
23.161834755123699
20
-154.08411158320615
30
0
10
23.17512676043674
20
-154.11293344866701
30
0
10
23.193765505148452
20
-154.14170015011445
30
0
10
23.203289953231341
20
-154.1641442947423
30
0
0
SPLINE
5
290
100
AcDbEntity
8
0
100
AcDbSpline
70
4
71
3
72
8
73
4
74
0
42
0.000000001
43
0.0000000001
44
0.0000000001
40
0
40
0
40
0
40
0
40
1
40
1
40
1
40
1
41
1
41
1
41
1
41
1
10
20.941343591753455
20
-154.96288877358114
30
0
10
21.0114042869576
20
-154.85417419904573
30
0
10
21.087175354958696
20
-154.7454756030522
30
0
10
21.1915514697363
20
-154.66846968386557
30
0
0
SPLINE
5
291
100
AcDbEntity
8
0
100
AcDbSpline
70
4
71
3
72
8
73
4
74
0
42
0.000000001
43
0.0000000001
44
0.0000000001
40
0
40
0
40
0
40
0
40
1
40
1
40
1
40
1
41
1
41
1
41
1
41
1
10
23.813823178787437
20
-155.80090698643508
30
0
10
23.642245855760144
20
-155.9639786580174
30
0
10
23.443490099709589
20
-156.08928732866903
30
0
10
23.24045702419129
20
-156.20253143936748
30
0
0
SPLINE
5
292
100
AcDbEntity
8
0
100
AcDbSpline
70
4
71
3
72
8
73
4
74
0
42
0.000000001
43
0.0000000001
44
0.0000000001
40
0
40
0
40
0
40
0
40
1
40
1
40
1
40
1
41
1
41
1
41
1
41
1
10
22.113783768983982
20
-154.2758784332392
30
0
10
22.120961149237985
20
-154.29788849414777
30
0
10
22.120931067862127
20
-154.31669714007128
30
0
10
22.120931067862127
20
-154.34081522717497
30
0
0
SPLINE
5
293
100
AcDbEntity
8
0
100
AcDbSpline
70
4
71
3
72
8
73
4
74
0
42
0.000000001
43
0.0000000001
44
0.0000000001
40
0
40
0
40
0
40
0
40
1
40
1
40
1
40
1
41
1
41
1
41
1
41
1
10
22.702851321009756
20
-152.71009090252235
30
0
10
22.917322704601872
20
-152.71613060110764
30
0
10
23.127515327702259
20
-152.80521040106353
30
0
10
23.284794450413276
20
-152.95771264767677
30
0
0
SPLINE
5
294
100
AcDbEntity
8
0
100
AcDbSpline
70
4
71
3
72
8
73
4
74
0
42
0.000000001
43
0.0000000001
44
0.0000000001
40
0
40
0
40
0
40
0
40
1
40
1
40
1
40
1
41
1
41
1
41
1
41
1
10
21.860693752950787
20
-154.09467872552642
30
0
10
21.872132331216608
20
-154.09920864213095
30
0
10
21.864982600610475
20
-154.11130668093364
30
0
10
21.863552744553246
20
-154.12036613370122
30
0
0
SPLINE
5
295
100
AcDbEntity
8
0
100
AcDbSpline
70
4
71
3
72
8
73
4
74
0
42
0.000000001
43
0.0000000001
44
0.0000000001
40
0
40
0
40
0
40
0
40
1
40
1
40
1
40
1
41
1
41
1
41
1
41
1
10
22.391152067190177
20
-154.70922866138656
30
0
10
22.354720999234736
20
-154.68523155467088
30
0
10
22.333152832872901
20
-154.63971173257198
30
0
10
22.301070775328864
20
-154.62617676633033
30
0
0
SPLINE
5
296
100
AcDbEntity
8
0
100
AcDbSpline
70
4
71
3
72
8
73
4
74
0
42
0.000000001
43
0.0000000001
44
0.0000000001
40
0
40
0
40
0
40
0
40
1
40
1
40
1
40
1
41
1
41
1
41
1
41
1
10
22.465508905237972
20
-156.33995298603921
30
0
10
22.644235148295401
20
-156.17084142565082
30
0
10
22.812945734216274
20
-155.98510495338704
30
0
10
23.021698053835483
20
-155.85827147331651
30
0
0
SPLINE
5
297
100
AcDbEntity
8
0
100
AcDbSpline
70
4
71
3
72
8
73
4
74
0
42
0.000000001
43
0.0000000001
44
0.0000000001
40
0
40
0
40
0
40
0
40
1
40
1
40
1
40
1
41
1
41
1
41
1
41
1
10
23.748043315547019
20
-154.66394090858546
30
0
10
23.852419565420622
20
-154.74094720821356
30
0
10
23.931072816504063
20
-154.84964504332416
30
0
10
23.999703745714982
20
-154.95986959006106
30
0
0
SPLINE
5
298
100
AcDbEntity
8
0
100
AcDbSpline
70
4
71
3
72
8
73
4
74
0
42
0.000000001
43
0.0000000001
44
0.0000000001
40
0
40
0
40
0
40
0
40
1
40
1
40
1
40
1
41
1
41
1
41
1
41
1
10
22.957370742780181
20
-152.15443939355785
30
0
10
22.913046646030129
20
-152.17104861222259
30
0
10
22.88158566982715
20
-152.2163464467227
30
0
10
22.875866425726237
20
-152.26466394029472
30
0
0
SPLINE
5
299
100
AcDbEntity
8
0
100
AcDbSpline
70
4
71
3
72
8
73
4
74
0
42
0.000000001
43
0.0000000001
44
0.0000000001
40
0
40
0
40
0
40
0
40
1
40
1
40
1
40
1
41
1
41
1
41
1
41
1
10
23.858137548625535
20
-154.94024489718058
30
0
10
23.843839348309263
20
-154.82700040604067
30
0
10
23.773795495073035
20
-154.72433599223106
30
0
10
23.6779980212868
20
-154.67299845914567
30
0
0
SPLINE
5
300
100
AcDbEntity
8
0
100
AcDbSpline
70
4
71
3
72
8
73
4
74
0
42
0.000000001
43
0.0000000001
44
0.0000000001
40
0
40
0
40
0
40
0
40
1
40
1
40
1
40
1
41
1
41
1
41
1
41
1
10
23.57230755753142
20
-154.53182728132805
30
0
10
23.621831589360841
20
-154.52379083567808
30
0
10
23.692170852515666
20
-154.51092430510235
30
0
10
23.769347414262107
20
-154.51178866812626
30
0
0
SPLINE
5
301
100
AcDbEntity
8
0
100
AcDbSpline
70
4
71
3
72
8
73
4
74
0
42
0.000000001
43
0.0000000001
44
0.0000000001
40
0
40
0
40
0
40
0
40
1
40
1
40
1
40
1
41
1
41
1
41
1
41
1
10
22.301070775328864
20
-154.62617676633033
30
0
10
22.248167902491446
20
-154.63070668293489
30
0
10
22.209571155602269
20
-154.6775257126599
30
0
10
22.158098138822076
20
-154.68356560146594
30
0
0
SPLINE
5
302
100
AcDbEntity
8
0
100
AcDbSpline
70
4
71
3
72
8
73
4
74
0
42
0.000000001
43
0.0000000001
44
0.0000000001
40
0
40
0
40
0
40
0
40
1
40
1
40
1
40
1
41
1
41
1
41
1
41
1
10
22.973094836337701
20
-154.38157420469599
30
0
10
23.027244555185209
20
-154.39703838964104
30
0
10
23.107658557460315
20
-154.35267282696753
30
0
10
23.120355960248169
20
-154.3030510849199
30
0
0
SPLINE
5
303
100
AcDbEntity
8
0
100
AcDbSpline
70
4
71
3
72
8
73
4
74
0
42
0.000000001
43
0.0000000001
44
0.0000000001
40
0
40
0
40
0
40
0
40
1
40
1
40
1
40
1
41
1
41
1
41
1
41
1
10
22.905886017680047
20
-153.81233656011187
30
0
10
22.784352035503716
20
-153.951249437353
30
0
10
22.677113371595667
20
-154.10676611196791
30
0
10
22.604193054341071
20
-154.28040720851934
30
0
0
SPLINE
5
304
100
AcDbEntity
8
0
100
AcDbSpline
70
4
71
3
72
8
73
4
74
0
42
0.000000001
43
0.0000000001
44
0.0000000001
40
0
40
0
40
0
40
0
40
1
40
1
40
1
40
1
41
1
41
1
41
1
41
1
10
23.642237569872186
20
-153.63566543745844
30
0
10
23.456362226656616
20
-153.62962573887316
30
0
10
23.279069622344394
20
-153.70059272035743
30
0
10
23.100343379286965
20
-153.74438039243529
30
0
0
SPLINE
5
305
100
AcDbEntity
8
0
100
AcDbSpline
70
4
71
3
72
8
73
4
74
0
42
0.000000001
43
0.0000000001
44
0.0000000001
40
0
40
0
40
0
40
0
40
1
40
1
40
1
40
1
41
1
41
1
41
1
41
1
10
22.497764786301186
20
-154.05265363878732
30
0
10
22.531771691644106
20
-154.04808796068446
30
0
10
22.565152832317988
20
-154.03559996937315
30
0
10
22.594186583732466
20
-154.01880956545747
30
0
0
SPLINE
5
306
100
AcDbEntity
8
0
100
AcDbSpline
70
4
71
3
72
8
73
4
74
0
42
0.000000001
43
0.0000000001
44
0.0000000001
40
0
40
0
40
0
40
0
40
1
40
1
40
1
40
1
41
1
41
1
41
1
41
1
10
22.594186583732466
20
-154.01880956545747
30
0
10
22.681404921175343
20
-153.96747203237206
30
0
10
22.748601671257052
20
-153.88593163128326
30
0
10
22.824381520498108
20
-153.81798516486418
30
0
0
SPLINE
5
307
100
AcDbEntity
8
0
100
AcDbSpline
70
4
71
3
72
8
73
4
74
0
42
0.000000001
43
0.0000000001
44
0.0000000001
40
0
40
0
40
0
40
0
40
1
40
1
40
1
40
1
41
1
41
1
41
1
41
1
10
23.852419565420622
20
-151.56708645763257
30
0
10
23.715542460404961
20
-151.7961231613385
30
0
10
23.534709080013513
20
-152.12883054654694
30
0
10
23.28336495461205
20
-152.15745857707793
30
0
0
SPLINE
5
308
100
AcDbEntity
8
0
100
AcDbSpline
70
4
71
3
72
8
73
4
74
0
42
0.000000001
43
0.0000000001
44
0.0000000001
40
0
40
0
40
0
40
0
40
1
40
1
40
1
40
1
41
1
41
1
41
1
41
1
10
23.535002328396121
20
-153.48166291990125
30
0
10
23.386302161900471
20
-153.48619264628505
30
0
10
23.244749834666958
20
-153.5465810722049
30
0
10
23.120356320504168
20
-153.6311368523991
30
0
0
SPLINE
5
309
100
AcDbEntity
8
0
100
AcDbSpline
70
4
71
3
72
8
73
4
74
0
42
0.000000001
43
0.0000000001
44
0.0000000001
40
0
40
0
40
0
40
0
40
1
40
1
40
1
40
1
41
1
41
1
41
1
41
1
10
22.448354955623223
20
-151.26358551665777
30
0
10
22.388302982627671
20
-151.41910766011884
30
0
10
22.389729956636913
20
-151.60330752927814
30
0
10
22.461220417834287
20
-151.75580977589135
30
0
0
LINE
5
310
100
AcDbEntity
8
0
100
AcDbLine
10
22.488980304038797
20
-154.00220405609707
30
0
11
22.488980304038797
21
-153.83739072345691
31
0
0
SPLINE
5
311
100
AcDbEntity
8
0
100
AcDbSpline
70
4
71
3
72
8
73
4
74
0
42
0.000000001
43
0.0000000001
44
0.0000000001
40
0
40
0
40
0
40
0
40
1
40
1
40
1
40
1
41
1
41
1
41
1
41
1
10
22.461220417834287
20
-151.75580977589135
30
0
10
22.482667538180696
20
-151.62444637921629
30
0
10
22.528432658923922
20
-151.49006979097436
30
0
10
22.619940564538478
20
-151.39343470871995
30
0
0
SPLINE
5
312
100
AcDbEntity
8
0
100
AcDbSpline
70
4
71
3
72
8
73
4
74
0
42
0.000000001
43
0.0000000001
44
0.0000000001
40
0
40
0
40
0
40
0
40
1
40
1
40
1
40
1
41
1
41
1
41
1
41
1
10
23.66225051108939
20
-151.20166785868687
30
0
10
23.804569282959271
20
-151.20050813041533
30
0
10
23.949538818464596
20
-151.13099959509071
30
0
10
24.039729628149392
20
-151.03558841682863
30
0
0
SPLINE
5
313
100
AcDbEntity
8
0
100
AcDbSpline
70
4
71
3
72
8
73
4
74
0
42
0.000000001
43
0.0000000001
44
0.0000000001
40
0
40
0
40
0
40
0
40
1
40
1
40
1
40
1
41
1
41
1
41
1
41
1
10
22.824381520498108
20
-153.81798516486418
30
0
10
22.918748958099119
20
-153.71984020551864
30
0
10
23.040300772947369
20
-153.65491216173672
30
0
10
23.161834755123699
20
-153.60206484667054
30
0
0
SPLINE
5
314
100
AcDbEntity
8
0
100
AcDbSpline
70
4
71
3
72
8
73
4
74
0
42
0.000000001
43
0.0000000001
44
0.0000000001
40
0
40
0
40
0
40
0
40
1
40
1
40
1
40
1
41
1
41
1
41
1
41
1
10
22.619940564538478
20
-151.39343470871995
30
0
10
22.989876281250211
20
-151.0826096749735
30
0
10
23.317354027283052
20
-151.21857795900064
30
0
10
23.66225051108939
20
-151.20166785868687
30
0
0
SPLINE
5
315
100
AcDbEntity
8
0
100
AcDbSpline
70
4
71
3
72
8
73
4
74
0
42
0.000000001
43
0.0000000001
44
0.0000000001
40
0
40
0
40
0
40
0
40
1
40
1
40
1
40
1
41
1
41
1
41
1
41
1
10
22.554160701298056
20
-154.36798787885567
30
0
10
22.501052482541613
20
-154.27223494526393
30
0
10
22.496110130501023
20
-154.16041825096767
30
0
10
22.497764786301186
20
-154.05265363878732
30
0
0
SPLINE
5
316
100
AcDbEntity
8
0
100
AcDbSpline
70
4
71
3
72
8
73
4
74
0
42
0.000000001
43
0.0000000001
44
0.0000000001
40
0
40
0
40
0
40
0
40
1
40
1
40
1
40
1
41
1
41
1
41
1
41
1
10
23.284794450413276
20
-152.95771264767677
30
0
10
23.46144291700055
20
-153.14641199812283
30
0
10
23.596625017544238
20
-153.39726958821552
30
0
10
23.642237569872186
20
-153.63566543745844
30
0
0
SPLINE
5
317
100
AcDbEntity
8
0
100
AcDbSpline
70
4
71
3
72
8
73
4
74
0
42
0.000000001
43
0.0000000001
44
0.0000000001
40
0
40
0
40
0
40
0
40
1
40
1
40
1
40
1
41
1
41
1
41
1
41
1
10
22.875866425726237
20
-152.26466394029472
30
0
10
22.8529894493226
20
-152.40508678973737
30
0
10
22.90303729337354
20
-152.540989423833
30
0
10
22.960229734382636
20
-152.66480314972125
30
0
0
SPLINE
5
318
100
AcDbEntity
8
0
100
AcDbSpline
70
4
71
3
72
8
73
4
74
0
42
0.000000001
43
0.0000000001
44
0.0000000001
40
0
40
0
40
0
40
0
40
1
40
1
40
1
40
1
41
1
41
1
41
1
41
1
10
23.100343379286965
20
-153.74438039243529
30
0
10
23.231885813479888
20
-153.63415622613991
30
0
10
23.399170326031516
20
-153.58735735981287
30
0
10
23.535002328396121
20
-153.48166291990125
30
0
0
SPLINE
5
319
100
AcDbEntity
8
0
100
AcDbSpline
70
4
71
3
72
8
73
4
74
0
42
0.000000001
43
0.0000000001
44
0.0000000001
40
0
40
0
40
0
40
0
40
1
40
1
40
1
40
1
41
1
41
1
41
1
41
1
10
22.511252770877295
20
-153.99767528081696
30
0
10
22.503936511935951
20
-153.99973575182815
30
0
10
22.49648209481926
20
-154.0011251240831
30
0
10
22.488980304038797
20
-154.00220405609707
30
0
0
SPLINE
5
320
100
AcDbEntity
8
0
100
AcDbSpline
70
4
71
3
72
8
73
4
74
0
42
0.000000001
43
0.0000000001
44
0.0000000001
40
0
40
0
40
0
40
0
40
1
40
1
40
1
40
1
41
1
41
1
41
1
41
1
10
22.960229734382636
20
-152.66480314972125
30
0
10
22.874441072868994
20
-152.64215432758158
30
0
10
22.771482250220675
20
-152.64063427368106
30
0
10
22.702851321009756
20
-152.71009090252235
30
0
0
SPLINE
5
321
100
AcDbEntity
8
0
100
AcDbSpline
70
4
71
3
72
8
73
4
74
0
42
0.000000001
43
0.0000000001
44
0.0000000001
40
0
40
0
40
0
40
0
40
1
40
1
40
1
40
1
41
1
41
1
41
1
41
1
10
22.604193054341071
20
-154.28040720851934
30
0
10
22.589895034152796
20
-154.31060589166654
30
0
10
22.584186777859834
20
-154.35137894552199
30
0
10
22.554160701298056
20
-154.36798787885567
30
0
0
SPLINE
5
322
100
AcDbEntity
8
0
100
AcDbSpline
70
4
71
3
72
8
73
4
74
0
42
0.000000001
43
0.0000000001
44
0.0000000001
40
0
40
0
40
0
40
0
40
1
40
1
40
1
40
1
41
1
41
1
41
1
41
1
10
22.658536951171659
20
-153.91160420224065
30
0
10
22.615642710478834
20
-153.95086214793474
30
0
10
22.56701535582917
20
-153.98408591144485
30
0
10
22.511252770877295
20
-153.99767528081696
30
0
0
SPLINE
5
323
100
AcDbEntity
8
0
100
AcDbSpline
70
4
71
3
72
8
73
4
74
0
42
0.000000001
43
0.0000000001
44
0.0000000001
40
0
40
0
40
0
40
0
40
1
40
1
40
1
40
1
41
1
41
1
41
1
41
1
10
24.039729628149392
20
-151.03558841682863
30
0
10
23.99111596322766
20
-151.2167792792772
30
0
10
23.933918838890584
20
-151.39797499235456
30
0
10
23.852419565420622
20
-151.56708645763257
30
0
0
SPLINE
5
324
100
AcDbEntity
8
0
100
AcDbSpline
70
4
71
3
72
8
73
4
74
0
42
0.000000001
43
0.0000000001
44
0.0000000001
40
0
40
0
40
0
40
0
40
1
40
1
40
1
40
1
41
1
41
1
41
1
41
1
10
23.120356320504168
20
-153.6311368523991
30
0
10
23.043146615205888
20
-153.68247419526375
30
0
10
22.971656694392514
20
-153.7443899034721
30
0
10
22.905886017680047
20
-153.81233656011187
30
0
0
SPLINE
5
325
100
AcDbEntity
8
0
100
AcDbSpline
70
4
71
3
72
8
73
4
74
0
42
0.000000001
43
0.0000000001
44
0.0000000001
40
0
40
0
40
0
40
0
40
1
40
1
40
1
40
1
41
1
41
1
41
1
41
1
10
23.28336495461205
20
-152.15745857707793
30
0
10
23.207585105370995
20
-152.16802800204701
30
0
10
23.130379723144692
20
-152.15896950038308
30
0
10
23.053170017846409
20
-152.15142030514812
30
0
0
SPLINE
5
326
100
AcDbEntity
8
0
100
AcDbSpline
70
4
71
3
72
8
73
4
74
0
42
0.000000001
43
0.0000000001
44
0.0000000001
40
0
40
0
40
0
40
0
40
1
40
1
40
1
40
1
41
1
41
1
41
1
41
1
10
23.053170017846409
20
-152.15142030514812
30
0
10
23.021714265355406
20
-152.1499101427259
30
0
10
22.988826495271184
20
-152.14235999638726
30
0
10
22.957370742780181
20
-152.15443939355785
30
0
0
SPLINE
5
327
100
AcDbEntity
8
0
100
AcDbSpline
70
4
71
3
72
8
73
4
74
0
42
0.000000001
43
0.0000000001
44
0.0000000001
40
0
40
0
40
0
40
0
40
1
40
1
40
1
40
1
41
1
41
1
41
1
41
1
10
23.161834755123699
20
-153.60206484667054
30
0
10
23.097493213956465
20
-153.60206484667054
30
0
10
23.033146629205252
20
-153.62472641359952
30
0
10
22.975954188196155
20
-153.65492490652602
30
0
0
SPLINE
5
328
100
AcDbEntity
8
0
100
AcDbSpline
70
4
71
3
72
8
73
4
74
0
42
0.000000001
43
0.0000000001
44
0.0000000001
40
0
40
0
40
0
40
0
40
1
40
1
40
1
40
1
41
1
41
1
41
1
41
1
10
22.975954188196155
20
-153.65492490652602
30
0
10
22.855850242205051
20
-153.71985161876279
30
0
10
22.761483344988036
20
-153.82100891368194
30
0
10
22.658536951171659
20
-153.91160420224065
30
0
0
ENDSEC
0
SECTION
2
OBJECTS
0
DICTIONARY
5
C
100
AcDbDictionary
3
ACAD_GROUP
350
D
3
ACAD_MLINESTYLE
350
17
0
DICTIONARY
5
D
100
AcDbDictionary
0
DICTIONARY
5
1A
330
C
100
AcDbDictionary
0
DICTIONARY
5
17
100
AcDbDictionary
0
ENDSEC
0
EOF
