0
SECTION
2
HEADER
9
$INSUNITS
70
1
9
$ACADVER
1
AC1014
9
$HANDSEED
5
FFFF
0
ENDSEC
0
SECTION
2
TABLES
0
TABLE
2
VPORT
5
8
100
AcDbSymbolTable
0
ENDTAB
0
TABLE
2
LTYPE
5
5
100
AcDbSymbolTable
0
LTYPE
5
14
100
AcDbSymbolTableRecord
100
AcDbLinetypeTableRecord
2
BYBLOCK
70
0
0
LTYPE
5
15
100
AcDbSymbolTableRecord
100
AcDbLinetypeTableRecord
2
BYLAYER
70
0
0
ENDTAB
0
TABLE
2
LAYER
5
2
100
AcDbSymbolTable
70
2
0
LAYER
5
50
100
AcDbSymbolTableRecord
100
AcDbLayerTableRecord
2
0
70
0
6
CONTINUOUS
0
ENDTAB
0
TABLE
2
STYLE
5
3
100
AcDbSymbolTable
70
1
0
STYLE
5
11
100
AcDbSymbolTableRecord
100
AcDbTextStyleTableRecord
2
STANDARD
70
0
0
ENDTAB
0
TABLE
2
VIEW
5
6
100
AcDbSymbolTable
70
0
0
ENDTAB
0
TABLE
2
UCS
5
7
100
AcDbSymbolTable
70
0
0
ENDTAB
0
TABLE
2
APPID
5
9
100
AcDbSymbolTable
70
2
0
APPID
5
12
100
AcDbSymbolTableRecord
100
AcDbRegAppTableRecord
2
ACAD
70
0
0
ENDTAB
0
TABLE
2
DIMSTYLE
5
A
100
AcDbSymbolTable
70
1
0
ENDTAB
0
TABLE
2
BLOCK_RECORD
5
1
100
AcDbSymbolTable
70
1
0
BLOCK_RECORD
5
1F
100
AcDbSymbolTableRecord
100
AcDbBlockTableRecord
2
*MODEL_SPACE
0
BLOCK_RECORD
5
1B
100
AcDbSymbolTableRecord
100
AcDbBlockTableRecord
2
*PAPER_SPACE
0
ENDTAB
0
ENDSEC
0
SECTION
2
BLOCKS
0
BLOCK
5
20
100
AcDbEntity
100
AcDbBlockBegin
2
*MODEL_SPACE
0
ENDBLK
5
21
100
AcDbEntity
100
AcDbBlockEnd
0
BLOCK
5
1C
100
AcDbEntity
100
AcDbBlockBegin
2
*PAPER_SPACE
0
ENDBLK
5
1D
100
AcDbEntity
100
AcDbBlockEnd
0
ENDSEC
0
SECTION
2
ENTITIES
0
CIRCLE
5
100
100
AcDbEntity
8
0
100
AcDbCircle
10
-9.3033407484788242
20
-3.8574207525108108
30
0
40
0.10500000000000005
210
0
220
-0
230
1
0
CIRCLE
5
101
100
AcDbEntity
8
0
100
AcDbCircle
10
-9.3033407484788242
20
0.14257924748918879
30
0
40
0.10500000000000005
210
0
220
-0
230
1
0
CIRCLE
5
102
100
AcDbEntity
8
0
100
AcDbCircle
10
-0.30334074847882464
20
-3.8574207525108108
30
0
40
0.10499999999999997
210
0
220
-0
230
1
0
CIRCLE
5
103
100
AcDbEntity
8
0
100
AcDbCircle
10
-0.30334074847882447
20
0.14257924748918879
30
0
40
0.10499999999999997
210
0
220
-0
230
1
0
LWPOLYLINE
5
104
100
AcDbEntity
8
0
100
AcDbPolyline
90
12
70
1
43
0.0
10
-2.607788071797366
20
-0.85742080507553697
10
-2.6077880717973647
20
-1.0934371761942776
10
-1.3799571699380526
20
-1.0934371761942774
10
-1.3799571699380526
20
-1.7742010666183898
10
-2.4863691864386905
20
-1.7742010666183898
10
-2.4863691864386892
20
-2.0088533830948063
10
-1.3799571699380526
20
-2.0088533830948063
10
-1.3799571699380526
20
-2.6214044039198092
10
-2.5614032679052454
20
-2.6214044039198092
10
-2.5614032679052454
20
-2.8574207750385501
10
-1.1152913335137131
20
-2.8574207750385501
10
-1.1152913335137131
20
-0.85742080507553697
0
LINE
5
105
100
AcDbEntity
8
0
100
AcDbLine
10
-4.0710347927797139
20
-1.554555979443847
30
0
11
-3.5689883428631446
21
-0.85742080507553697
31
0
0
LINE
5
106
100
AcDbEntity
8
0
100
AcDbLine
10
-3.5689883428631446
20
-0.85742080507553697
30
0
11
-3.2511166784104044
21
-0.85742080507553697
31
0
0
LINE
5
107
100
AcDbEntity
8
0
100
AcDbLine
10
-3.2511166784104044
20
-0.85742080507553697
30
0
11
-4.0246501766187581
21
-1.8997128668286973
31
0
0
LINE
5
108
100
AcDbEntity
8
0
100
AcDbLine
10
-4.0246501766187581
20
-1.8997128668286973
30
0
11
-3.3425218560899919
21
-2.8574207750385496
31
0
0
LINE
5
109
100
AcDbEntity
8
0
100
AcDbLine
10
-3.3425218560899919
20
-2.8574207750385496
30
0
11
-3.6576650357957541
21
-2.8574207750385501
31
0
0
LINE
5
110
100
AcDbEntity
8
0
100
AcDbLine
10
-3.6576650357957541
20
-2.8574207750385501
30
0
11
-4.0205572617671264
21
-2.3444603861340685
31
0
0
SPLINE
5
111
100
AcDbEntity
8
0
100
AcDbSpline
70
0
71
2
72
6
73
3
74
0
42
0.000000001
43
0.0000000001
44
0.0000000001
40
0
40
0
40
0
40
1
40
1
40
1
10
-4.0205572617671264
20
-2.3444603861340685
30
0
10
-4.1337906928848671
20
-2.1848423388553715
30
0
10
-4.1815397391504767
20
-2.09889413066974
30
0
0
SPLINE
5
112
100
AcDbEntity
8
0
100
AcDbSpline
70
0
71
2
72
6
73
3
74
0
42
0.000000001
43
0.0000000001
44
0.0000000001
40
0
40
0
40
0
40
1
40
1
40
1
10
-4.1815397391504767
20
-2.09889413066974
30
0
10
-4.2483881786449329
20
-2.2080346469358494
30
0
10
-4.3397933563245203
20
-2.3267250475475469
30
0
0
LINE
5
113
100
AcDbEntity
8
0
100
AcDbLine
10
-4.3397933563245203
20
-2.3267250475475469
30
0
11
-4.7422487988582391
21
-2.8574207750385501
31
0
0
LINE
5
114
100
AcDbEntity
8
0
100
AcDbLine
10
-4.7422487988582391
20
-2.8574207750385501
30
0
11
-5.0301071310942209
21
-2.8574207750385501
31
0
0
LINE
5
115
100
AcDbEntity
8
0
100
AcDbLine
10
-5.0301071310942209
20
-2.8574207750385501
30
0
11
-4.3275149872319547
21
-1.9147197206682411
31
0
0
LINE
5
116
100
AcDbEntity
8
0
100
AcDbLine
10
-4.3275149872319547
20
-1.9147197206682411
30
0
11
-5.0846772014961106
21
-0.85742080507553697
31
0
0
LINE
5
117
100
AcDbEntity
8
0
100
AcDbLine
10
-5.0846772014961106
20
-0.85742080507553697
30
0
11
-4.7572560281601115
21
-0.85742080507553697
31
0
0
LINE
5
118
100
AcDbEntity
8
0
100
AcDbLine
10
-4.7572560281601115
20
-0.85742080507553697
30
0
11
-4.2538451481388888
21
-1.5709268879257152
31
0
0
SPLINE
5
119
100
AcDbEntity
8
0
100
AcDbSpline
70
0
71
2
72
6
73
3
74
0
42
0.000000001
43
0.0000000001
44
0.0000000001
40
0
40
0
40
0
40
1
40
1
40
1
10
-4.2538451481388888
20
-1.5709268879257152
30
0
10
-4.2115530713672351
20
-1.632318357926215
30
0
10
-4.1665328853109331
20
-1.7046241423769564
30
0
0
SPLINE
5
120
100
AcDbEntity
8
0
100
AcDbSpline
70
0
71
2
72
6
73
3
74
0
42
0.000000001
43
0.0000000001
44
0.0000000001
40
0
40
0
40
0
40
1
40
1
40
1
10
-4.1665328853109331
20
-1.7046241423769564
30
0
10
-4.0996840703541482
20
-1.5954836261108469
30
0
10
-4.0710347927797139
20
-1.554555979443847
30
0
0
LWPOLYLINE
5
121
100
AcDbEntity
8
0
100
AcDbPolyline
90
8
70
1
43
0.0
10
-7.8297247182062861
20
-0.85742080507553697
10
-7.8297247182062861
20
-2.6214044039198092
10
-8.4913899663262118
20
-2.6214044039198092
10
-8.4913899663262118
20
-2.8574207750385501
10
-6.9061234325271528
20
-2.8574207750385501
10
-6.9061234325271528
20
-2.6214044039198092
10
-7.5650598204377699
20
-2.6214044039198092
10
-7.5650598204377699
20
-0.85742080507553697
0
LWPOLYLINE
5
122
100
AcDbEntity
8
0
100
AcDbPolyline
90
4
70
1
43
0.0
10
-6.1086339358605368
20
-0.85742080507553697
10
-6.1086339358605377
20
-2.8574207750385501
10
-5.8439682871673631
20
-2.8574207750385501
10
-5.8439682871673631
20
-0.85742080507553697
0
LWPOLYLINE
5
123
100
AcDbEntity
8
0
100
AcDbPolyline
90
8
70
1
43
0.0
10
-9.8033407484788224
20
0.39257924748918877
42
-0.41421356237309381
10
-9.5533407484788224
20
0.64257924748918871
10
-0.053340748478825362
20
0.64257924748918882
42
-0.41421356237309587
10
0.19665925152117533
20
0.39257924748918888
10
0.19665925152117539
20
-4.1074207525108104
42
-0.41421356237309759
10
-0.053340748478825258
20
-4.3574207525108104
10
-9.5533407484788224
20
-4.3574207525108104
42
-0.41421356237309426
10
-9.8033407484788224
20
-4.1074207525108104
0
ENDSEC
0
SECTION
2
OBJECTS
0
DICTIONARY
5
C
100
AcDbDictionary
3
ACAD_GROUP
350
D
3
ACAD_MLINESTYLE
350
17
0
DICTIONARY
5
D
100
AcDbDictionary
0
DICTIONARY
5
1A
330
C
100
AcDbDictionary
0
DICTIONARY
5
17
100
AcDbDictionary
0
ENDSEC
0
EOF
