0
SECTION
2
HEADER
9
$INSUNITS
70
1
9
$ACADVER
1
AC1014
9
$HANDSEED
5
FFFF
0
ENDSEC
0
SECTION
2
TABLES
0
TABLE
2
VPORT
5
8
100
AcDbSymbolTable
0
ENDTAB
0
TABLE
2
LTYPE
5
5
100
AcDbSymbolTable
0
LTYPE
5
14
100
AcDbSymbolTableRecord
100
AcDbLinetypeTableRecord
2
BYBLOCK
70
0
0
LTYPE
5
15
100
AcDbSymbolTableRecord
100
AcDbLinetypeTableRecord
2
BYLAYER
70
0
0
ENDTAB
0
TABLE
2
LAYER
5
2
100
AcDbSymbolTable
70
2
0
LAYER
5
50
100
AcDbSymbolTableRecord
100
AcDbLayerTableRecord
2
0
70
0
6
CONTINUOUS
0
ENDTAB
0
TABLE
2
STYLE
5
3
100
AcDbSymbolTable
70
1
0
STYLE
5
11
100
AcDbSymbolTableRecord
100
AcDbTextStyleTableRecord
2
STANDARD
70
0
0
ENDTAB
0
TABLE
2
VIEW
5
6
100
AcDbSymbolTable
70
0
0
ENDTAB
0
TABLE
2
UCS
5
7
100
AcDbSymbolTable
70
0
0
ENDTAB
0
TABLE
2
APPID
5
9
100
AcDbSymbolTable
70
2
0
APPID
5
12
100
AcDbSymbolTableRecord
100
AcDbRegAppTableRecord
2
ACAD
70
0
0
ENDTAB
0
TABLE
2
DIMSTYLE
5
A
100
AcDbSymbolTable
70
1
0
ENDTAB
0
TABLE
2
BLOCK_RECORD
5
1
100
AcDbSymbolTable
70
1
0
BLOCK_RECORD
5
1F
100
AcDbSymbolTableRecord
100
AcDbBlockTableRecord
2
*MODEL_SPACE
0
BLOCK_RECORD
5
1B
100
AcDbSymbolTableRecord
100
AcDbBlockTableRecord
2
*PAPER_SPACE
0
ENDTAB
0
ENDSEC
0
SECTION
2
BLOCKS
0
BLOCK
5
20
100
AcDbEntity
100
AcDbBlockBegin
2
*MODEL_SPACE
0
ENDBLK
5
21
100
AcDbEntity
100
AcDbBlockEnd
0
BLOCK
5
1C
100
AcDbEntity
100
AcDbBlockBegin
2
*PAPER_SPACE
0
ENDBLK
5
1D
100
AcDbEntity
100
AcDbBlockEnd
0
ENDSEC
0
SECTION
2
ENTITIES
0
CIRCLE
5
100
100
AcDbEntity
8
0
100
AcDbCircle
10
1.5309495918575511
20
15.938026882286009
30
0
40
0.12499999999999994
210
0
220
-0
230
1
0
SPLINE
5
101
100
AcDbEntity
8
0
100
AcDbSpline
70
0
71
3
72
8
73
4
74
0
42
0.000000001
43
0.0000000001
44
0.0000000001
40
-0.861945909057097
40
-0.861945909057097
40
-0.861945909057097
40
-0.861945909057097
40
-0.0027263026732416312
40
-0.0027263026732416312
40
-0.0027263026732416312
40
-0.0027263026732416312
10
1.2691791688287652
20
10.445832948503677
30
0
10
1.127891591264691
20
10.274680759543429
30
0
10
0.97135058277541009
20
10.120172370024619
30
0
10
0.79915080984319165
20
9.9818293882142015
30
0
0
SPLINE
5
102
100
AcDbEntity
8
0
100
AcDbSpline
70
0
71
3
72
11
73
7
74
0
42
0.000000001
43
0.0000000001
44
0.0000000001
40
-0.9955944561770953
40
-0.9955944561770953
40
-0.9955944561770953
40
-0.9955944561770953
40
-0.86289062821054952
40
-0.86289062821054952
40
-0.86289062821054952
40
-0.16653155354602966
40
-0.16653155354602966
40
-0.16653155354602966
40
-0.16653155354602966
10
0.79915080984319797
20
9.9818293882141926
30
0
10
0.78336043820760759
20
9.9699123278965214
30
0
10
0.76754231551869589
20
9.9589044738102235
30
0
10
0.75169342391371574
20
9.9487692896485242
30
0
10
0.66852687430005664
20
9.8955852363130443
30
0
10
0.58529346962979045
20
9.8659851736540922
30
0
10
0.49578174048507351
20
9.856097644514664
30
0
0
SPLINE
5
103
100
AcDbEntity
8
0
100
AcDbSpline
70
0
71
3
72
11
73
7
74
0
42
0.000000001
43
0.0000000001
44
0.0000000001
40
-0.89362656535372509
40
-0.89362656535372509
40
-0.89362656535372509
40
-0.89362656535372509
40
-0.60826868279626756
40
-0.60826868279626756
40
-0.60826868279626756
40
-0.39394371472165263
40
-0.39394371472165263
40
-0.39394371472165263
40
-0.39394371472165263
10
0.49578174048507351
20
9.856097644514664
30
0
10
0.54681323646123414
20
9.9765437661858059
30
0
10
0.61597172463727146
20
10.125673878330536
30
0
10
0.70277478498971946
20
10.301952767524837
30
0
10
0.76797033162078643
20
10.434351308473463
30
0
10
0.84314210444010917
20
10.58214290516805
30
0
10
0.92825649134633981
20
10.745244814703156
30
0
0
SPLINE
5
104
100
AcDbEntity
8
0
100
AcDbSpline
70
0
71
3
72
8
73
4
74
0
42
0.000000001
43
0.0000000001
44
0.0000000001
40
-0.39394371472156203
40
-0.39394371472156203
40
-0.39394371472156203
40
-0.39394371472156203
40
-0.37241274337362146
40
-0.37241274337362146
40
-0.37241274337362146
40
-0.37241274337362146
10
0.9282564913464475
20
10.745244814703359
30
0
10
0.93680703700726742
20
10.761629945061912
30
0
10
0.94545792456193989
20
10.778169588687545
30
0
10
0.95420911993292568
20
10.794863661691586
30
0
0
SPLINE
5
105
100
AcDbEntity
8
0
100
AcDbSpline
70
0
71
3
72
8
73
4
74
0
42
0.000000001
43
0.0000000001
44
0.0000000001
40
-0.37241274337362124
40
-0.37241274337362124
40
-0.37241274337362124
40
-0.37241274337362124
40
-0.0005314878326255066
40
-0.0005314878326255066
40
-0.0005314878326255066
40
-0.0005314878326255066
10
0.95420911993292568
20
10.794863661691583
30
0
10
1.1053590829074487
20
11.083202386801126
30
0
10
1.2864328020348437
20
11.417610373829897
30
0
10
1.4972546911770226
20
11.797655382404992
30
0
0
SPLINE
5
106
100
AcDbEntity
8
0
100
AcDbSpline
70
0
71
3
72
8
73
4
74
0
42
0.000000001
43
0.0000000001
44
0.0000000001
40
-0.99373376973821248
40
-0.99373376973821248
40
-0.99373376973821248
40
-0.99373376973821248
40
0
40
0
40
0
40
0
10
1.4972546911770266
20
11.79765538240499
30
0
10
1.5487610842299417
20
11.885362787247379
30
0
10
1.607089864894099
20
11.996092677387455
30
0
10
1.6735923959914878
20
12.131560775224992
30
0
0
SPLINE
5
107
100
AcDbEntity
8
0
100
AcDbSpline
70
0
71
3
72
14
73
10
74
0
42
0.000000001
43
0.0000000001
44
0.0000000001
40
-1
40
-1
40
-1
40
-1
40
-0.75987544180342181
40
-0.75987544180342181
40
-0.75987544180342181
40
-0.26395136702243094
40
-0.26395136702243094
40
-0.26395136702243094
40
0
40
0
40
0
40
0
10
1.6735924203867827
20
12.131560824919127
30
0
10
1.690014350384013
20
12.165012930551191
30
0
10
1.7046300856256897
20
12.19594665574577
30
0
10
1.7174955768038682
20
12.224563374664015
30
0
10
1.7440663984518476
20
12.283664867486674
30
0
10
1.7632211911447302
20
12.331600417932394
30
0
10
1.775617159751967
20
12.377335653836155
30
0
10
1.7822148085168352
20
12.40167784380389
30
0
10
1.7877227365525965
20
12.424846403054799
30
0
10
1.7877227365525965
20
12.457417865378593
30
0
0
SPLINE
5
108
100
AcDbEntity
8
0
100
AcDbSpline
70
0
71
3
72
17
73
13
74
0
42
0.000000001
43
0.0000000001
44
0.0000000001
40
-1
40
-1
40
-1
40
-1
40
-0.95500694830083255
40
-0.95500694830083255
40
-0.95500694830083255
40
-0.60719482421258064
40
-0.60719482421258064
40
-0.60719482421258064
40
-0.31502568850309642
40
-0.31502568850309642
40
-0.31502568850309642
40
0
40
0
40
0
40
0
10
1.7877227365525965
20
12.457417865378593
30
0
10
1.7877227365525965
20
12.460405201661894
30
0
10
1.7876632057222166
20
12.46346034532022
30
0
10
1.7875321279615817
20
12.466590348530438
30
0
10
1.7865188507415366
20
12.490786374890853
30
0
10
1.7816135956677506
20
12.521028372827894
30
0
10
1.7632407348007295
20
12.552979216814734
30
0
10
1.7478071644670339
20
12.579818564342638
30
0
10
1.7213659727434423
20
12.60558341066967
30
0
10
1.6929204853845321
20
12.620301104120097
30
0
10
1.662249691844734
20
12.636170170854818
30
0
10
1.6323216216640677
20
12.640344785270674
30
0
10
1.6084545093283216
20
12.640344785270674
30
0
0
SPLINE
5
109
100
AcDbEntity
8
0
100
AcDbSpline
70
0
71
3
72
11
73
7
74
0
42
0.000000001
43
0.0000000001
44
0.0000000001
40
-1
40
-1
40
-1
40
-1
40
-0.67682267245710992
40
-0.67682267245710992
40
-0.67682267245710992
40
-0.013985746345229427
40
-0.013985746345229427
40
-0.013985746345229427
40
-0.013985746345229427
10
1.6084545093283216
20
12.640344785270674
30
0
10
1.5836250433025401
20
12.640344785270674
30
0
10
1.5596789585604753
20
12.636258743765751
30
0
10
1.5378868633182681
20
12.629606898701859
30
0
10
1.4931912606480437
20
12.615963959796941
30
0
10
1.4575166648493392
20
12.59284496710529
30
0
10
1.4257616862872993
20
12.566293995903944
30
0
0
SPLINE
5
110
100
AcDbEntity
8
0
100
AcDbSpline
70
0
71
3
72
17
73
13
74
0
42
0.000000001
43
0.0000000001
44
0.0000000001
40
-0.99385256475072936
40
-0.99385256475072936
40
-0.99385256475072936
40
-0.99385256475072936
40
-0.78916071980678737
40
-0.78916071980678737
40
-0.78916071980678737
40
-0.5
40
-0.5
40
-0.5
40
0
40
0
40
0
40
0.00043559286790660688
40
0.00043559286790660688
40
0.00043559286790660688
40
0.00043559286790660688
10
1.4257616862873042
20
12.566293995903939
30
0
10
1.4012683199728908
20
12.546728284537696
30
0
10
1.3801906569627318
20
12.525417441304935
30
0
10
1.3564592558111226
20
12.49943869090559
30
0
10
1.3229347690837578
20
12.462739455685877
30
0
10
1.2854408950887564
20
12.417072812084834
30
0
10
1.2418958420815047
20
12.360720388337008
30
0
10
1.1666002538073648
20
12.263279034986038
30
0
10
1.0736974578718965
20
12.134156336478277
30
0
10
0.96178671760823098
20
11.97182430419023
30
0
10
0.96169003723133462
20
11.971684064549002
30
0
10
0.96159335685443825
20
11.971543824907776
30
0
10
0.96149667647753245
20
11.971403585266536
30
0
0
SPLINE
5
111
100
AcDbEntity
8
0
100
AcDbSpline
70
0
71
3
72
11
73
7
74
0
42
0.000000001
43
0.0000000001
44
0.0000000001
40
-1.0004409699526022
40
-1.0004409699526022
40
-1.0004409699526022
40
-1.0004409699526022
40
-1
40
-1
40
-1
40
0
40
0
40
0
40
0
10
0.96149667647581871
20
11.971403585267733
30
0
10
0.96140095373023982
20
11.971262689994873
30
0
10
0.96130523098465748
20
11.971121794722009
30
0
10
0.96120950823907536
20
11.970980899449145
30
0
10
0.74080750184941968
20
11.64656896745441
30
0
10
0.52599519190251154
20
11.289064166731205
30
0
10
0.31650741546550265
20
10.898431091118441
30
0
0
SPLINE
5
112
100
AcDbEntity
8
0
100
AcDbSpline
70
0
71
3
72
11
73
7
74
0
42
0.000000001
43
0.0000000001
44
0.0000000001
40
-1
40
-1
40
-1
40
-1
40
-0.70437817838227668
40
-0.70437817838227668
40
-0.70437817838227668
40
0
40
0
40
0
40
0
10
0.31650741036280622
20
10.898431081603412
30
0
10
0.25504401086048428
20
10.783819903123479
30
0
10
0.19978475558284933
20
10.679753692757174
30
0
10
0.15070341778046911
20
10.586177280648945
30
0
10
0.033757303570701697
20
10.363212743255703
30
0
10
-0.047722675506652171
20
10.200885468513258
30
0
10
-0.096060005216281025
20
10.093266509793667
30
0
0
SPLINE
5
113
100
AcDbEntity
8
0
100
AcDbSpline
70
0
71
3
72
11
73
7
74
0
42
0.000000001
43
0.0000000001
44
0.0000000001
40
-1
40
-1
40
-1
40
-1
40
0
40
0
40
0
40
0.054028510077852504
40
0.054028510077852504
40
0.054028510077852504
40
0.054028510077852504
10
-0.096060007996169483
20
10.093266503604479
30
0
10
-0.16106143937277806
20
9.948546320494458
30
0
10
-0.21089845099555352
20
9.834168364711271
30
0
10
-0.24610087026644098
20
9.7486767451011982
30
0
10
-0.24794574632042782
20
9.7441963302575072
30
0
10
-0.24979062237441466
20
9.7397159154138144
30
0
10
-0.25163549842840172
20
9.7352355005701199
30
0
0
LINE
5
114
100
AcDbEntity
8
0
100
AcDbLine
10
-0.25163549842840172
20
9.7352355005701217
30
0
11
-0.26471621698973719
21
9.6698317609354323
31
0
0
SPLINE
5
115
100
AcDbEntity
8
0
100
AcDbSpline
70
0
71
3
72
20
73
16
74
0
42
0.000000001
43
0.0000000001
44
0.0000000001
40
-1.1561459304129933
40
-1.1561459304129933
40
-1.1561459304129933
40
-1.1561459304129933
40
-1
40
-1
40
-1
40
-0.66391722493214567
40
-0.66391722493214567
40
-0.66391722493214567
40
-0.35444930928811902
40
-0.35444930928811902
40
-0.35444930928811902
40
0
40
0
40
0
40
0.033740183354027273
40
0.033740183354027273
40
0.033740183354027273
40
0.033740183354027273
10
-0.2647162169897373
20
9.6698317609354323
30
0
10
-0.2647162169897373
20
9.6648807961546375
30
0
10
-0.2647162169897373
20
9.6599298313738444
30
0
10
-0.2647162169897373
20
9.6549788665930496
30
0
10
-0.2647162169897373
20
9.6249331858430427
30
0
10
-0.25857816412601897
20
9.5888021606378047
30
0
10
-0.23927076630288299
20
9.5544595532329684
30
0
10
-0.22149234799617398
20
9.5228365843699851
30
0
10
-0.19253805323873821
20
9.4958429827209265
30
0
10
-0.1633762310716915
20
9.4800220501649353
30
0
10
-0.12997571618089304
20
9.4619015331960092
30
0
10
-0.098041220695264025
20
9.4559733121370115
30
0
10
-0.069815933307292008
20
9.4540916426048511
30
0
10
-0.068581536344887339
20
9.4540093501866078
30
0
10
-0.067347139382482671
20
9.4539270577683645
30
0
10
-0.066112742420069925
20
9.453844765350123
30
0
0
LINE
5
116
100
AcDbEntity
8
0
100
AcDbLine
10
-0.066112742420069925
20
9.453844765350123
30
0
11
0.36692866510977201
21
9.4464424121444992
31
0
0
SPLINE
5
117
100
AcDbEntity
8
0
100
AcDbSpline
70
0
71
3
72
17
73
13
74
0
42
0.000000001
43
0.0000000001
44
0.0000000001
40
-1.0014015951582378
40
-1.0014015951582378
40
-1.0014015951582378
40
-1.0014015951582378
40
-1
40
-1
40
-1
40
-0.90168684028458135
40
-0.90168684028458135
40
-0.90168684028458135
40
0
40
0
40
0
40
0.00035761278005052102
40
0.00035761278005052102
40
0.00035761278005052102
40
0.00035761278005052102
10
0.36692866510977196
20
9.4464424121444992
30
0
10
0.36735598062817959
20
9.4464424121444992
30
0
10
0.36778329614658728
20
9.4464424121444992
30
0
10
0.36821061166499497
20
9.4464424121444992
30
0
10
0.39849873393731561
20
9.4464424121444992
30
0
10
0.42804827053647815
20
9.4465376910391701
30
0
10
0.45686184778254169
20
9.4467285976087254
30
0
10
0.72112782702177947
20
9.448479512155572
30
0
10
0.92223989611758661
20
9.4578415561141451
30
0
10
1.0682035551510349
20
9.4769844075581009
30
0
10
1.0682567609645777
20
9.4769913853975964
30
0
10
1.0683099667781204
20
9.4769983632370884
30
0
10
1.0683631725914138
20
9.4770053410765502
30
0
0
SPLINE
5
118
100
AcDbEntity
8
0
100
AcDbSpline
70
0
71
3
72
14
73
10
74
0
42
0.000000001
43
0.0000000001
44
0.0000000001
40
-1.0014540592151375
40
-1.0014540592151375
40
-1.0014540592151375
40
-1.0014540592151375
40
-1
40
-1
40
-1
40
-0.85835251966538983
40
-0.85835251966538983
40
-0.85835251966538983
40
-0.011954596915220996
40
-0.011954596915220996
40
-0.011954596915220996
40
-0.011954596915220996
10
1.0683631725944764
20
9.477005341055424
30
0
10
1.0684163698775662
20
9.4770124339658413
30
0
10
1.0684695671606959
20
9.4770195268762638
30
0
10
1.0685227644438302
20
9.4770266197866899
30
0
10
1.0776902971457327
20
9.4782489470266036
30
0
10
1.0868607890099338
20
9.4798471291165889
30
0
10
1.0959995181920934
20
9.4818506029541432
30
0
10
1.1506069236897696
20
9.4938221261353952
30
0
10
1.204091700102514
20
9.5220488878565597
30
0
10
1.2445217056710334
20
9.5618544055647909
30
0
0
SPLINE
5
119
100
AcDbEntity
8
0
100
AcDbSpline
70
0
71
3
72
8
73
4
74
0
42
0.000000001
43
0.0000000001
44
0.0000000001
40
-0.99594749873864807
40
-0.99594749873864807
40
-0.99594749873864807
40
-0.99594749873864807
40
-0.92414979937694597
40
-0.92414979937694597
40
-0.92414979937694597
40
-0.92414979937694597
10
1.2445217056710314
20
9.5618544055647909
30
0
10
1.2536845418951712
20
9.5705651129197999
30
0
10
1.2624676118452751
20
9.5796463170598276
30
0
10
1.2710501125928011
20
9.5891552067313359
30
0
0
SPLINE
5
120
100
AcDbEntity
8
0
100
AcDbSpline
70
0
71
3
72
14
73
10
74
0
42
0.000000001
43
0.0000000001
44
0.0000000001
40
-0.65331130585061958
40
-0.65331130585061958
40
-0.65331130585061958
40
-0.65331130585061958
40
-0.59320454941477607
40
-0.59320454941477607
40
-0.59320454941477607
40
-0.30655969645723935
40
-0.30655969645723935
40
-0.30655969645723935
40
0
40
0
40
0
40
0
10
1.2710501125928917
20
9.5891552067313484
30
0
10
1.2735649557261473
20
9.5831657655758775
30
0
10
1.2764326983531267
20
9.5771034218906763
30
0
10
1.2797013730100311
20
9.5709750791291537
30
0
10
1.2952894503236771
20
9.541749447704083
30
0
10
1.3221156930390214
20
9.5123462985659266
30
0
10
1.3540834973029869
20
9.4941760130697386
30
0
10
1.3882722862187864
20
9.4747433347963312
30
0
10
1.4246206557289267
20
9.4683938172266622
30
0
10
1.4547958940057579
20
9.4683938172266622
30
0
0
SPLINE
5
121
100
AcDbEntity
8
0
100
AcDbSpline
70
0
71
3
72
14
73
10
74
0
42
0.000000001
43
0.0000000001
44
0.0000000001
40
-1
40
-1
40
-1
40
-1
40
-0.794777445781369
40
-0.794777445781369
40
-0.794777445781369
40
-0.5
40
-0.5
40
-0.5
40
-0.016140506937054461
40
-0.016140506937054461
40
-0.016140506937054461
40
-0.016140506937054461
10
1.4547958940057579
20
9.4683938172266622
30
0
10
1.4951229528189758
20
9.4683938172266622
30
0
10
1.5290050838557974
20
9.4775672741127082
30
0
10
1.5606562108953472
20
9.4896290201356805
30
0
10
1.6061192372198345
20
9.5069542634446016
30
0
10
1.648115582822441
20
9.5314188947186054
30
0
10
1.6932391084108951
20
9.5623368661536503
30
0
10
1.7673066686293109
20
9.6130868614439642
30
0
10
1.8490694111058301
20
9.6821470794494751
30
0
10
1.9436484280622164
20
9.7713132843626234
30
0
0
SPLINE
5
122
100
AcDbEntity
8
0
100
AcDbSpline
70
0
71
3
72
8
73
4
74
0
42
0.000000001
43
0.0000000001
44
0.0000000001
40
-0.27647874086204172
40
-0.27647874086204172
40
-0.27647874086204172
40
-0.27647874086204172
40
0
40
0
40
0
40
0
10
1.9436484280622164
20
9.7713132843626234
30
0
10
1.9385414756027894
20
9.7510548717879786
30
0
10
1.9340640934458204
20
9.731368147170123
30
0
10
1.9340640934458204
20
9.7025401816940118
30
0
0
SPLINE
5
123
100
AcDbEntity
8
0
100
AcDbSpline
70
0
71
3
72
17
73
13
74
0
42
0.000000001
43
0.0000000001
44
0.0000000001
40
-1
40
-1
40
-1
40
-1
40
-0.94028007260213908
40
-0.94028007260213908
40
-0.94028007260213908
40
-0.56632394069257219
40
-0.56632394069257219
40
-0.56632394069257219
40
-0.28364475969840808
40
-0.28364475969840808
40
-0.28364475969840808
40
0
40
0
40
0
40
0
10
1.9340640934458204
20
9.7025401816940118
30
0
10
1.9340640934458204
20
9.6973484971161827
30
0
10
1.9341743498964803
20
9.6921208524550799
30
0
10
1.9344139350004379
20
9.6868397377897661
30
0
10
1.935914176588849
20
9.6537702867963944
30
0
10
1.9414708079892362
20
9.6173370006338548
30
0
10
1.9627855291308487
20
9.5783691051299069
30
0
10
1.9788976540602163
20
9.5489126746928026
30
0
10
2.0062953809129316
20
9.5191080048353793
30
0
10
2.0395013399266482
20
9.5007007013285119
30
0
10
2.0728207242261067
20
9.4822305219486971
30
0
10
2.1087098431791302
20
9.4757108270999399
30
0
10
2.1389422306888961
20
9.4757108270999399
30
0
0
SPLINE
5
124
100
AcDbEntity
8
0
100
AcDbSpline
70
0
71
3
72
11
73
7
74
0
42
0.000000001
43
0.0000000001
44
0.0000000001
40
-1
40
-1
40
-1
40
-1
40
-0.88004136693994195
40
-0.88004136693994195
40
-0.88004136693994195
40
-0.60614159371776832
40
-0.60614159371776832
40
-0.60614159371776832
40
-0.60614159371776832
10
2.1389422306888961
20
9.4757108270999399
30
0
10
2.1554664600934021
20
9.4757108270999399
30
0
10
2.1709653938117235
20
9.47734109141925
30
0
10
2.1856878817845504
20
9.4799363298952581
30
0
10
2.2193035208941145
20
9.4858619995357252
30
0
10
2.2493276057978853
20
9.4962904675756832
30
0
10
2.2789432665747977
20
9.5097707733999268
30
0
0
SPLINE
5
125
100
AcDbEntity
8
0
100
AcDbSpline
70
4
71
3
72
8
73
4
74
0
42
0.000000001
43
0.0000000001
44
0.0000000001
40
-0.47848524615277277
40
-0.47848524615277277
40
-0.47848524615277277
40
-0.47848524615277277
40
0
40
0
40
0
40
0
41
1
41
1
41
1
41
1
10
2.2789432665760341
20
9.5097707733984045
30
0
10
2.3288560136061363
20
9.4483541130659745
30
0
10
2.3681989829630572
20
9.390448219377781
30
0
10
2.4110376815885597
20
9.3187183054001945
30
0
0
SPLINE
5
126
100
AcDbEntity
8
0
100
AcDbSpline
70
4
71
3
72
8
73
4
74
0
42
0.000000001
43
0.0000000001
44
0.0000000001
40
-1
40
-1
40
-1
40
-1
40
0
40
0
40
0
40
0
41
1
41
1
41
1
41
1
10
2.4110376815885597
20
9.3187183054001945
30
0
10
2.553313754339098
20
9.08205420389808
30
0
10
2.6164704500478737
20
8.8946662056412755
30
0
10
2.6261868647722997
20
8.6809050817038802
30
0
0
SPLINE
5
127
100
AcDbEntity
8
0
100
AcDbSpline
70
4
71
3
72
8
73
4
74
0
42
0.000000001
43
0.0000000001
44
0.0000000001
40
-1
40
-1
40
-1
40
-1
40
0
40
0
40
0
40
0
41
1
41
1
41
1
41
1
10
2.6261868647722997
20
8.6809050817038802
30
0
10
2.6338211906272062
20
8.507397675910541
30
0
10
2.5866271762514175
20
8.2533828338290931
30
0
10
2.524164510165817
20
8.1284575016578895
30
0
0
SPLINE
5
128
100
AcDbEntity
8
0
100
AcDbSpline
70
4
71
3
72
8
73
4
74
0
42
0.000000001
43
0.0000000001
44
0.0000000001
40
-1
40
-1
40
-1
40
-1
40
0
40
0
40
0
40
0
41
1
41
1
41
1
41
1
10
2.524164510165817
20
8.1284575016578895
30
0
10
2.443657073877707
20
7.9681366587048466
30
0
10
2.0466721294225487
20
7.5919726029448871
30
0
10
1.8460975683254492
20
7.4850920409761894
30
0
0
SPLINE
5
129
100
AcDbEntity
8
0
100
AcDbSpline
70
4
71
3
72
8
73
4
74
0
42
0.000000001
43
0.0000000001
44
0.0000000001
40
-1
40
-1
40
-1
40
-1
40
0
40
0
40
0
40
0
41
1
41
1
41
1
41
1
10
1.8460975683254492
20
7.4850920409761894
30
0
10
1.8155602649058218
20
7.4684353300200303
30
0
10
1.7412990952262721
20
7.4392860858467493
30
0
10
1.6802244883870174
20
7.4198532563978965
30
0
0
SPLINE
5
130
100
AcDbEntity
8
0
100
AcDbSpline
70
4
71
3
72
8
73
4
74
0
42
0.000000001
43
0.0000000001
44
0.0000000001
40
-1
40
-1
40
-1
40
-1
40
0
40
0
40
0
40
0
41
1
41
1
41
1
41
1
10
1.6802244883870174
20
7.4198532563978965
30
0
10
1.6198439111709355
20
7.400420426949041
30
0
10
1.5580752747085069
20
7.3782114790074944
30
0
10
1.5435006526218664
20
7.3705771531525865
30
0
0
SPLINE
5
131
100
AcDbEntity
8
0
100
AcDbSpline
70
4
71
3
72
8
73
4
74
0
42
0.000000001
43
0.0000000001
44
0.0000000001
40
-1
40
-1
40
-1
40
-1
40
0
40
0
40
0
40
0
41
1
41
1
41
1
41
1
10
1.5435006526218664
20
7.3705771531525865
30
0
10
1.5171275269412792
20
7.3573905903122938
30
0
10
1.5164334973181055
20
7.3573905903122938
30
0
10
1.4428663572617297
20
7.3733532716452812
30
0
0
SPLINE
5
132
100
AcDbEntity
8
0
100
AcDbSpline
70
4
71
3
72
8
73
4
74
0
42
0.000000001
43
0.0000000001
44
0.0000000001
40
-1
40
-1
40
-1
40
-1
40
0
40
0
40
0
40
0
41
1
41
1
41
1
41
1
10
1.4428663572617297
20
7.3733532716452812
30
0
10
1.2804634254391651
20
7.408054752803948
30
0
10
1.0687843903712917
20
7.3879278937319208
30
0
10
0.79256060034829634
20
7.3115846351828511
30
0
0
SPLINE
5
133
100
AcDbEntity
8
0
100
AcDbSpline
70
4
71
3
72
8
73
4
74
0
42
0.000000001
43
0.0000000001
44
0.0000000001
40
-1
40
-1
40
-1
40
-1
40
0
40
0
40
0
40
0
41
1
41
1
41
1
41
1
10
0.79256060034829634
20
7.3115846351828511
30
0
10
0.6926203346113331
20
7.2838234502559178
30
0
10
0.61558304643909056
20
7.2567562949521571
30
0
10
0.45248608499335247
20
7.1915175103738607
30
0
0
SPLINE
5
134
100
AcDbEntity
8
0
100
AcDbSpline
70
4
71
3
72
8
73
4
74
0
42
0.000000001
43
0.0000000001
44
0.0000000001
40
-1
40
-1
40
-1
40
-1
40
0
40
0
40
0
40
0
41
1
41
1
41
1
41
1
10
0.45248608499335247
20
7.1915175103738607
30
0
10
0.16862796911545036
20
7.0783906817966047
30
0
10
0.10130709566763531
20
7.0617339708404447
30
0
10
-0.10967790977706511
20
7.0554877042318846
30
0
0
SPLINE
5
135
100
AcDbEntity
8
0
100
AcDbSpline
70
4
71
3
72
8
73
4
74
0
42
0.000000001
43
0.0000000001
44
0.0000000001
40
-1
40
-1
40
-1
40
-1
40
0
40
0
40
0
40
0
41
1
41
1
41
1
41
1
10
-0.10967790977706511
20
7.0554877042318846
30
0
10
-0.33523753730840533
20
7.0492414376233237
30
0
10
-0.35536439638043238
20
7.0499354672464962
30
0
10
-0.43309571417584847
20
7.0652041189563111
30
0
0
SPLINE
5
136
100
AcDbEntity
8
0
100
AcDbSpline
70
4
71
3
72
8
73
4
74
0
42
0.000000001
43
0.0000000001
44
0.0000000001
40
-1
40
-1
40
-1
40
-1
40
0
40
0
40
0
40
0
41
1
41
1
41
1
41
1
10
-0.43309571417584847
20
7.0652041189563111
30
0
10
-0.66143146019988164
20
7.1117041037089264
30
0
10
-0.79399111822599311
20
7.1790249771567423
30
0
10
-0.93973733909239709
20
7.3233831387767996
30
0
0
SPLINE
5
137
100
AcDbEntity
8
0
100
AcDbSpline
70
4
71
3
72
8
73
4
74
0
42
0.000000001
43
0.0000000001
44
0.0000000001
40
-1
40
-1
40
-1
40
-1
40
0
40
0
40
0
40
0
41
1
41
1
41
1
41
1
10
-0.93973733909239709
20
7.3233831387767996
30
0
10
-1.0840955007124546
20
7.4656592115273366
30
0
10
-1.1958342700433655
20
7.6433307950597147
30
0
10
-1.2437223140423264
20
7.8071217861286275
30
0
0
SPLINE
5
138
100
AcDbEntity
8
0
100
AcDbSpline
70
4
71
3
72
8
73
4
74
0
42
0.000000001
43
0.0000000001
44
0.0000000001
40
-1
40
-1
40
-1
40
-1
40
0
40
0
40
0
40
0
41
1
41
1
41
1
41
1
10
-1.2437223140423264
20
7.8071217861286275
30
0
10
-1.264543202737527
20
7.8779128076923097
30
0
10
-1.2971625950266747
20
8.036151561775835
30
0
10
-1.3152073652291822
20
8.149278390353091
30
0
0
SPLINE
5
139
100
AcDbEntity
8
0
100
AcDbSpline
70
4
71
3
72
8
73
4
74
0
42
0.000000001
43
0.0000000001
44
0.0000000001
40
-1
40
-1
40
-1
40
-1
40
0
40
0
40
0
40
0
41
1
41
1
41
1
41
1
10
-1.3152073652291822
20
8.149278390353091
30
0
10
-1.3290879576926491
20
8.2395022413656278
30
0
10
-1.330476016938996
20
8.2742037225242946
30
0
10
-1.330476016938996
20
8.4824126094763006
30
0
0
SPLINE
5
140
100
AcDbEntity
8
0
100
AcDbSpline
70
4
71
3
72
8
73
4
74
0
42
0.000000001
43
0.0000000001
44
0.0000000001
40
-1
40
-1
40
-1
40
-1
40
0
40
0
40
0
40
0
41
1
41
1
41
1
41
1
10
-1.330476016938996
20
8.4824126094763006
30
0
10
-1.330476016938996
20
8.7197707406015912
30
0
10
-1.3172894540987021
20
8.9043826203657002
30
0
10
-1.290222298794941
20
9.0466586931162407
30
0
0
SPLINE
5
141
100
AcDbEntity
8
0
100
AcDbSpline
70
4
71
3
72
8
73
4
74
0
42
0.000000001
43
0.0000000001
44
0.0000000001
40
-1
40
-1
40
-1
40
-1
40
0
40
0
40
0
40
0
41
1
41
1
41
1
41
1
10
-1.290222298794941
20
9.0466586931162407
30
0
10
-1.2735655878387808
20
9.1334123960129094
30
0
10
-1.2235954549702992
20
9.2437631060974734
30
0
10
-1.0882596784514948
20
9.4922257111935338
30
0
0
SPLINE
5
142
100
AcDbEntity
8
0
100
AcDbSpline
70
4
71
3
72
8
73
4
74
0
42
0.000000001
43
0.0000000001
44
0.0000000001
40
-1
40
-1
40
-1
40
-1
40
0
40
0
40
0
40
0
41
1
41
1
41
1
41
1
10
-1.0882596784514948
20
9.4922257111935338
30
0
10
-1.0126104495255994
20
9.6310316358282044
30
0
10
-0.92793883549845024
20
9.7996808342593287
30
0
10
-0.88907317660074192
20
9.8878225964023443
30
0
0
SPLINE
5
143
100
AcDbEntity
8
0
100
AcDbSpline
70
4
71
3
72
8
73
4
74
0
42
0.000000001
43
0.0000000001
44
0.0000000001
40
-1
40
-1
40
-1
40
-1
40
0
40
0
40
0
40
0
41
1
41
1
41
1
41
1
10
-0.88907317660074192
20
9.8878225964023443
30
0
10
-0.8328567771237001
20
10.014135987819897
30
0
10
-0.77247619990761884
20
10.164046386425341
30
0
10
-0.77525231840031172
20
10.167516534541207
30
0
0
SPLINE
5
144
100
AcDbEntity
8
0
100
AcDbSpline
70
4
71
3
72
8
73
4
74
0
42
0.000000001
43
0.0000000001
44
0.0000000001
40
-1
40
-1
40
-1
40
-1
40
0
40
0
40
0
40
0
41
1
41
1
41
1
41
1
10
-0.77525231840031172
20
10.167516534541207
30
0
10
-0.78288664425521914
20
10.174456830772941
30
0
10
-0.91197615416546263
20
10.068964328050592
30
0
10
-0.97374479062789177
20
10.005113602718644
30
0
0
SPLINE
5
145
100
AcDbEntity
8
0
100
AcDbSpline
70
4
71
3
72
8
73
4
74
0
42
0.000000001
43
0.0000000001
44
0.0000000001
40
-1
40
-1
40
-1
40
-1
40
0
40
0
40
0
40
0
41
1
41
1
41
1
41
1
10
-0.97374479062789177
20
10.005113602718644
30
0
10
-1.1271253373492025
20
9.8461808190119431
30
0
10
-1.405431216241718
20
9.4908376519471869
30
0
10
-1.5601998222093763
20
9.2562556393145918
30
0
0
SPLINE
5
146
100
AcDbEntity
8
0
100
AcDbSpline
70
4
71
3
72
8
73
4
74
0
42
0.000000001
43
0.0000000001
44
0.0000000001
40
-1
40
-1
40
-1
40
-1
40
0
40
0
40
0
40
0
41
1
41
1
41
1
41
1
10
-1.5601998222093763
20
9.2562556393145918
30
0
10
-1.7128863393075144
20
9.0244497451746906
30
0
10
-1.8003340718273568
20
8.8523303986277
30
0
10
-1.8732071822605592
20
8.6385692746903064
30
0
0
SPLINE
5
147
100
AcDbEntity
8
0
100
AcDbSpline
70
4
71
3
72
8
73
4
74
0
42
0.000000001
43
0.0000000001
44
0.0000000001
40
-1
40
-1
40
-1
40
-1
40
0
40
0
40
0
40
0
41
1
41
1
41
1
41
1
10
-1.8732071822605592
20
8.6385692746903064
30
0
10
-1.9127668707814403
20
8.5247484164898744
30
0
10
-1.9557967074181883
20
8.365121603160004
30
0
10
-1.9696772998816556
20
8.2853081964950679
30
0
0
SPLINE
5
148
100
AcDbEntity
8
0
100
AcDbSpline
70
4
71
3
72
8
73
4
74
0
42
0.000000001
43
0.0000000001
44
0.0000000001
40
-1
40
-1
40
-1
40
-1
40
0
40
0
40
0
40
0
41
1
41
1
41
1
41
1
10
-1.9696772998816556
20
8.2853081964950679
30
0
10
-1.9835578923451229
20
8.2034127009606124
30
0
10
-1.9835578923451229
20
7.9896515770232197
30
0
10
-1.968983270258482
20
7.8466814746495093
30
0
0
SPLINE
5
149
100
AcDbEntity
8
0
100
AcDbSpline
70
4
71
3
72
8
73
4
74
0
42
0.000000001
43
0.0000000001
44
0.0000000001
40
-1
40
-1
40
-1
40
-1
40
0
40
0
40
0
40
0
41
1
41
1
41
1
41
1
10
-1.968983270258482
20
7.8466814746495093
30
0
10
-1.9564907370413616
20
7.7224501721014773
30
0
10
-1.9592668555340553
20
7.6197337878718212
30
0
10
-1.9759235664902157
20
7.5732338031192059
30
0
0
SPLINE
5
150
100
AcDbEntity
8
0
100
AcDbSpline
70
4
71
3
72
8
73
4
74
0
42
0.000000001
43
0.0000000001
44
0.0000000001
40
-1
40
-1
40
-1
40
-1
40
0
40
0
40
0
40
0
41
1
41
1
41
1
41
1
10
-1.9759235664902157
20
7.5732338031192059
30
0
10
-1.9821698330987756
20
7.5558830625398734
30
0
10
-1.998132514431763
20
7.5260397887434189
30
0
10
-2.0113190772720571
20
7.5073009889177378
30
0
0
SPLINE
5
151
100
AcDbEntity
8
0
100
AcDbSpline
70
4
71
3
72
8
73
4
74
0
42
0.000000001
43
0.0000000001
44
0.0000000001
40
-1
40
-1
40
-1
40
-1
40
0
40
0
40
0
40
0
41
1
41
1
41
1
41
1
10
-2.0113190772720571
20
7.5073009889177378
30
0
10
-2.043244439938031
20
7.4608010041651225
30
0
10
-2.1820503645727016
20
7.3511443237037328
30
0
10
-2.2091175198764632
20
7.3511443237037328
30
0
0
SPLINE
5
152
100
AcDbEntity
8
0
100
AcDbSpline
70
4
71
3
72
8
73
4
74
0
42
0.000000001
43
0.0000000001
44
0.0000000001
40
-1
40
-1
40
-1
40
-1
40
0
40
0
40
0
40
0
41
1
41
1
41
1
41
1
10
-2.2091175198764632
20
7.3511443237037328
30
0
10
-2.2188339346008896
20
7.3511443237037328
30
0
10
-2.3125279337292928
20
7.4670472707736835
30
0
10
-2.3736025405685481
20
7.5558830625398734
30
0
0
SPLINE
5
153
100
AcDbEntity
8
0
100
AcDbSpline
70
4
71
3
72
8
73
4
74
0
42
0.000000001
43
0.0000000001
44
0.0000000001
40
-1
40
-1
40
-1
40
-1
40
0
40
0
40
0
40
0
41
1
41
1
41
1
41
1
10
-2.3736025405685481
20
7.5558830625398734
30
0
10
-2.4166323772052958
20
7.6176516990023018
30
0
10
-2.4638263915810841
20
7.7328606164490781
30
0
10
-2.4901995172616718
20
7.836965059925082
30
0
0
SPLINE
5
154
100
AcDbEntity
8
0
100
AcDbSpline
70
4
71
3
72
8
73
4
74
0
42
0.000000001
43
0.0000000001
44
0.0000000001
40
-1
40
-1
40
-1
40
-1
40
0
40
0
40
0
40
0
41
1
41
1
41
1
41
1
10
-2.4901995172616718
20
7.836965059925082
30
0
10
-2.5262890576666863
20
7.977853073429273
30
0
10
-2.5394756205069795
20
8.2721216336547752
30
0
10
-2.5179607021886059
20
8.4268902396224323
30
0
0
SPLINE
5
155
100
AcDbEntity
8
0
100
AcDbSpline
70
4
71
3
72
8
73
4
74
0
42
0.000000001
43
0.0000000001
44
0.0000000001
40
-1
40
-1
40
-1
40
-1
40
0
40
0
40
0
40
0
41
1
41
1
41
1
41
1
10
-2.5179607021886059
20
8.4268902396224323
30
0
10
-2.4832592210299382
20
8.6691065781099343
30
0
10
-2.390953281147882
20
8.94741245700245
30
0
10
-2.2576995934985979
20
9.2111437138083243
30
0
0
SPLINE
5
156
100
AcDbEntity
8
0
100
AcDbSpline
70
4
71
3
72
8
73
4
74
0
42
0.000000001
43
0.0000000001
44
0.0000000001
40
-1
40
-1
40
-1
40
-1
40
0
40
0
40
0
40
0
41
1
41
1
41
1
41
1
10
-2.2576995934985979
20
9.2111437138083243
30
0
10
-2.1029309875309394
20
9.5165167480045998
30
0
10
-1.9835578923451229
20
9.6587928207551386
30
0
10
-1.1902820330579782
20
10.48468807233143
30
0
0
LINE
5
157
100
AcDbEntity
8
0
100
AcDbLine
10
-1.1902820330579786
20
10.484688072331428
30
0
11
-1.0237149234963729
21
10.657501448501597
31
0
0
LINE
5
158
100
AcDbEntity
8
0
100
AcDbLine
10
-1.0237149234963729
20
10.657501448501597
30
0
11
-1.0591104342782136
21
10.679016366819971
31
0
0
SPLINE
5
159
100
AcDbEntity
8
0
100
AcDbSpline
70
4
71
3
72
8
73
4
74
0
42
0.000000001
43
0.0000000001
44
0.0000000001
40
-1
40
-1
40
-1
40
-1
40
0
40
0
40
0
40
0
41
1
41
1
41
1
41
1
10
-1.0591104342782138
20
10.679016366819971
30
0
10
-1.0910357969441884
20
10.697061137022477
30
0
10
-1.1014462412917887
20
10.69983725551517
30
0
10
-1.1472521964212303
20
10.69983725551517
30
0
0
SPLINE
5
160
100
AcDbEntity
8
0
100
AcDbSpline
70
4
71
3
72
8
73
4
74
0
42
0.000000001
43
0.0000000001
44
0.0000000001
40
-1
40
-1
40
-1
40
-1
40
0
40
0
40
0
40
0
41
1
41
1
41
1
41
1
10
-1.1472521964212303
20
10.69983725551517
30
0
10
-1.1930581515506717
20
10.69983725551517
30
0
10
-1.2048566551446185
20
10.697061137022477
30
0
10
-1.2409461955496333
20
10.676934277950449
30
0
0
SPLINE
5
161
100
AcDbEntity
8
0
100
AcDbSpline
70
4
71
3
72
8
73
4
74
0
42
0.000000001
43
0.0000000001
44
0.0000000001
40
-1
40
-1
40
-1
40
-1
40
0
40
0
40
0
40
0
41
1
41
1
41
1
41
1
10
-1.2409461955496333
20
10.676934277950449
30
0
10
-1.3124312467364885
20
10.638762648675916
30
0
10
-1.485938652529827
20
10.503426872157112
30
0
10
-1.9210952262595209
20
10.148083705092352
30
0
0
SPLINE
5
162
100
AcDbEntity
8
0
100
AcDbSpline
70
4
71
3
72
8
73
4
74
0
42
0.000000001
43
0.0000000001
44
0.0000000001
40
-1
40
-1
40
-1
40
-1
40
0
40
0
40
0
40
0
41
1
41
1
41
1
41
1
10
-1.9210952262595209
20
10.148083705092352
30
0
10
-2.2070354310069429
20
9.9141957220829333
30
0
10
-2.4346771474078031
20
9.7517927902603692
30
0
10
-2.5720950127961277
20
9.6830838575662046
30
0
0
SPLINE
5
163
100
AcDbEntity
8
0
100
AcDbSpline
70
4
71
3
72
8
73
4
74
0
42
0.000000001
43
0.0000000001
44
0.0000000001
40
-1
40
-1
40
-1
40
-1
40
0
40
0
40
0
40
0
41
1
41
1
41
1
41
1
10
-2.5720950127961277
20
9.6830838575662046
30
0
10
-2.6449681232293298
20
9.6463002875380184
30
0
10
-2.7934904625884278
20
9.5956361250463633
30
0
10
-2.8892665505863504
20
9.5748152363511636
30
0
0
SPLINE
5
164
100
AcDbEntity
8
0
100
AcDbSpline
70
4
71
3
72
8
73
4
74
0
42
0.000000001
43
0.0000000001
44
0.0000000001
40
-1
40
-1
40
-1
40
-1
40
0
40
0
40
0
40
0
41
1
41
1
41
1
41
1
10
-2.8892665505863504
20
9.5748152363511636
30
0
10
-2.9614456313963791
20
9.5588525550181753
30
0
10
-3.1814530219423327
20
9.5567704661486541
30
0
10
-3.2848634357951627
20
9.5713450882352955
30
0
0
SPLINE
5
165
100
AcDbEntity
8
0
100
AcDbSpline
70
4
71
3
72
8
73
4
74
0
42
0.000000001
43
0.0000000001
44
0.0000000001
40
-1
40
-1
40
-1
40
-1
40
0
40
0
40
0
40
0
41
1
41
1
41
1
41
1
10
-3.2848634357951627
20
9.5713450882352955
30
0
10
-3.4819678487763954
20
9.5984122435390571
30
0
10
-3.6450648102221335
20
9.6574047615087917
30
0
10
-3.7602737276689111
20
9.7434644347822896
30
0
0
SPLINE
5
166
100
AcDbEntity
8
0
100
AcDbSpline
70
4
71
3
72
8
73
4
74
0
42
0.000000001
43
0.0000000001
44
0.0000000001
40
-1
40
-1
40
-1
40
-1
40
0
40
0
40
0
40
0
41
1
41
1
41
1
41
1
10
-3.7602737276689111
20
9.7434644347822896
30
0
10
-3.95460202215745
20
9.8878225964023443
30
0
10
-4.2211093974560185
20
10.193889660221796
30
0
10
-4.3120272780917279
20
10.375725421493215
30
0
0
SPLINE
5
167
100
AcDbEntity
8
0
100
AcDbSpline
70
4
71
3
72
8
73
4
74
0
42
0.000000001
43
0.0000000001
44
0.0000000001
40
-1
40
-1
40
-1
40
-1
40
0
40
0
40
0
40
0
41
1
41
1
41
1
41
1
10
-4.3120272780917279
20
10.375725421493215
30
0
10
-4.3821242700322367
20
10.517307464620579
30
0
10
-4.4078033660896505
20
10.682486514935837
30
0
10
-4.4001690402347435
20
10.953158067973444
30
0
0
SPLINE
5
168
100
AcDbEntity
8
0
100
AcDbSpline
70
4
71
3
72
8
73
4
74
0
42
0.000000001
43
0.0000000001
44
0.0000000001
40
-1
40
-1
40
-1
40
-1
40
0
40
0
40
0
40
0
41
1
41
1
41
1
41
1
10
-4.4001690402347435
20
10.953158067973444
30
0
10
-4.391840684756664
20
11.223829621011053
30
0
10
-4.3682436775687696
20
11.393172849065351
30
0
10
-4.3023108633673006
20
11.633307098683332
30
0
0
LINE
5
169
100
AcDbEntity
8
0
100
AcDbLine
10
-4.3023108633673006
20
11.633307098683332
30
0
11
-4.2599750563537269
21
11.789463763897338
31
0
0
LINE
5
170
100
AcDbEntity
8
0
100
AcDbLine
10
-4.2599750563537269
20
11.789463763897338
30
0
11
-4.278713856179408
21
11.910918947952675
31
0
0
SPLINE
5
171
100
AcDbEntity
8
0
100
AcDbSpline
70
4
71
3
72
8
73
4
74
0
42
0.000000001
43
0.0000000001
44
0.0000000001
40
-1
40
-1
40
-1
40
-1
40
0
40
0
40
0
40
0
41
1
41
1
41
1
41
1
10
-4.2787138561794071
20
11.910918947952675
30
0
10
-4.3092511595990342
20
12.109411420180255
30
0
10
-4.3161914558307686
20
12.237806900467326
30
0
10
-4.3057810114831678
20
12.439075491187598
30
0
0
SPLINE
5
172
100
AcDbEntity
8
0
100
AcDbSpline
70
4
71
3
72
8
73
4
74
0
42
0.000000001
43
0.0000000001
44
0.0000000001
40
-1
40
-1
40
-1
40
-1
40
0
40
0
40
0
40
0
41
1
41
1
41
1
41
1
10
-4.3057810114831678
20
12.439075491187598
30
0
10
-4.2932884782660476
20
12.690314214776354
30
0
10
-4.2773257969330603
20
12.818015665440251
30
0
10
-4.2502586416292987
20
12.879090272279505
30
0
0
SPLINE
5
173
100
AcDbEntity
8
0
100
AcDbSpline
70
4
71
3
72
8
73
4
74
0
42
0.000000001
43
0.0000000001
44
0.0000000001
40
-1
40
-1
40
-1
40
-1
40
0
40
0
40
0
40
0
41
1
41
1
41
1
41
1
10
-4.2502586416292987
20
12.879090272279505
30
0
10
-4.2100049234852452
20
12.970702182538387
30
0
10
-3.9143483040133962
20
13.253866268793118
30
0
10
-3.7290423946261098
20
13.379485630587494
30
0
0
SPLINE
5
174
100
AcDbEntity
8
0
100
AcDbSpline
70
4
71
3
72
8
73
4
74
0
42
0.000000001
43
0.0000000001
44
0.0000000001
40
-1
40
-1
40
-1
40
-1
40
0
40
0
40
0
40
0
41
1
41
1
41
1
41
1
10
-3.7290423946261098
20
13.379485630587494
30
0
10
-3.538878277876611
20
13.507187081251391
30
0
10
-3.348714161127111
20
13.571037806583339
30
0
10
-3.0981694671615303
20
13.591164665655366
30
0
0
SPLINE
5
175
100
AcDbEntity
8
0
100
AcDbSpline
70
4
71
3
72
8
73
4
74
0
42
0.000000001
43
0.0000000001
44
0.0000000001
40
-1
40
-1
40
-1
40
-1
40
0
40
0
40
0
40
0
41
1
41
1
41
1
41
1
10
-3.0981694671615303
20
13.591164665655366
30
0
10
-2.8837143136009638
20
13.607821376611527
30
0
10
-2.5922218718681549
20
13.56270945110526
30
0
10
-2.4152443179589493
20
13.485672162933017
30
0
0
SPLINE
5
176
100
AcDbEntity
8
0
100
AcDbSpline
70
4
71
3
72
8
73
4
74
0
42
0.000000001
43
0.0000000001
44
0.0000000001
40
-1
40
-1
40
-1
40
-1
40
0
40
0
40
0
40
0
41
1
41
1
41
1
41
1
10
-2.4152443179589493
20
13.485672162933017
30
0
10
-2.3118339041061198
20
13.44056023742675
30
0
10
-2.1619235055006749
20
13.342702060559306
30
0
10
-1.972453418374349
20
13.196955839692903
30
0
0
SPLINE
5
177
100
AcDbEntity
8
0
100
AcDbSpline
70
4
71
3
72
8
73
4
74
0
42
0.000000001
43
0.0000000001
44
0.0000000001
40
-1
40
-1
40
-1
40
-1
40
0
40
0
40
0
40
0
41
1
41
1
41
1
41
1
10
-1.972453418374349
20
13.196955839692903
30
0
10
-1.853774352811705
20
13.104649899810846
30
0
10
-1.8072743680590904
20
13.067172300159484
30
0
10
-1.4873267117761741
20
12.80344104335361
30
0
0
SPLINE
5
178
100
AcDbEntity
8
0
100
AcDbSpline
70
4
71
3
72
8
73
4
74
0
42
0.000000001
43
0.0000000001
44
0.0000000001
40
-1
40
-1
40
-1
40
-1
40
0
40
0
40
0
40
0
41
1
41
1
41
1
41
1
10
-1.4873267117761741
20
12.80344104335361
30
0
10
-1.268013350853394
20
12.622299311705364
30
0
10
-1.152110403783444
20
12.532075460692827
30
0
10
-1.0521701380464801
20
12.464754587245013
30
0
0
SPLINE
5
179
100
AcDbEntity
8
0
100
AcDbSpline
70
4
71
3
72
8
73
4
74
0
42
0.000000001
43
0.0000000001
44
0.0000000001
40
-1
40
-1
40
-1
40
-1
40
0
40
0
40
0
40
0
41
1
41
1
41
1
41
1
10
-1.0521701380464801
20
12.464754587245013
30
0
10
-0.96611046477298435
20
12.406456098898451
30
0
10
-0.94320748720826364
20
12.396739684174022
30
0
10
-0.89393138396295557
20
12.396739684174022
30
0
0
SPLINE
5
180
100
AcDbEntity
8
0
100
AcDbSpline
70
4
71
3
72
8
73
4
74
0
42
0.000000001
43
0.0000000001
44
0.0000000001
40
-1
40
-1
40
-1
40
-1
40
0
40
0
40
0
40
0
41
1
41
1
41
1
41
1
10
-0.89393138396295557
20
12.396739684174022
30
0
10
-0.85853587318111446
20
12.396739684174022
30
0
10
-0.85575975468842147
20
12.398127743420369
30
0
10
-0.85575975468842147
20
12.413396395130183
30
0
0
SPLINE
5
181
100
AcDbEntity
8
0
100
AcDbSpline
70
4
71
3
72
8
73
4
74
0
42
0.000000001
43
0.0000000001
44
0.0000000001
40
-1
40
-1
40
-1
40
-1
40
0
40
0
40
0
40
0
41
1
41
1
41
1
41
1
10
-0.85575975468842147
20
12.413396395130183
30
0
10
-0.85575975468842147
20
12.447403846665678
30
0
10
-0.9862373238450115
20
12.593844097155257
30
0
10
-1.3832222683001709
20
13.007485752566575
30
0
0
SPLINE
5
182
100
AcDbEntity
8
0
100
AcDbSpline
70
4
71
3
72
8
73
4
74
0
42
0.000000001
43
0.0000000001
44
0.0000000001
40
-1
40
-1
40
-1
40
-1
40
0
40
0
40
0
40
0
41
1
41
1
41
1
41
1
10
-1.3832222683001709
20
13.007485752566575
30
0
10
-1.9287295521144274
20
13.574507954699209
30
0
10
-2.1286100835883537
20
13.845873537359989
30
0
10
-2.2792145118169715
20
14.222037593119948
30
0
0
SPLINE
5
183
100
AcDbEntity
8
0
100
AcDbSpline
70
4
71
3
72
8
73
4
74
0
42
0.000000001
43
0.0000000001
44
0.0000000001
40
-1
40
-1
40
-1
40
-1
40
0
40
0
40
0
40
0
41
1
41
1
41
1
41
1
10
-2.2792145118169715
20
14.222037593119948
30
0
10
-2.3555577703660409
20
14.414283798738966
30
0
10
-2.3798488071771078
20
14.510753916360063
30
0
10
-2.390953281147882
20
14.666910581574069
30
0
0
SPLINE
5
184
100
AcDbEntity
8
0
100
AcDbSpline
70
4
71
3
72
8
73
4
74
0
42
0.000000001
43
0.0000000001
44
0.0000000001
40
-1
40
-1
40
-1
40
-1
40
0
40
0
40
0
40
0
41
1
41
1
41
1
41
1
10
-2.390953281147882
20
14.666910581574069
30
0
10
-2.404833873611349
20
14.864014994555301
30
0
10
-2.3867891034088418
20
14.963261230669088
30
0
10
-2.3187742003378529
20
15.075000000000003
30
0
0
SPLINE
5
185
100
AcDbEntity
8
0
100
AcDbSpline
70
4
71
3
72
8
73
4
74
0
42
0.000000001
43
0.0000000001
44
0.0000000001
40
-1
40
-1
40
-1
40
-1
40
0
40
0
40
0
40
0
41
1
41
1
41
1
41
1
10
-2.3187742003378529
20
15.075000000000003
30
0
10
-2.205647371760596
20
15.26099993901046
30
0
10
-2.0848862173284322
20
15.390783478543877
30
0
10
-1.9280355224912542
20
15.496275981266226
30
0
0
SPLINE
5
186
100
AcDbEntity
8
0
100
AcDbSpline
70
4
71
3
72
8
73
4
74
0
42
0.000000001
43
0.0000000001
44
0.0000000001
40
-1
40
-1
40
-1
40
-1
40
0
40
0
40
0
40
0
41
1
41
1
41
1
41
1
10
-1.9280355224912542
20
15.496275981266226
30
0
10
-1.7024758949599141
20
15.646880409494846
30
0
10
-1.4887147710225206
20
15.694074423870633
30
0
10
-1.0709089378721615
20
15.683663979523034
30
0
0
SPLINE
5
187
100
AcDbEntity
8
0
100
AcDbSpline
70
4
71
3
72
8
73
4
74
0
42
0.000000001
43
0.0000000001
44
0.0000000001
40
-1
40
-1
40
-1
40
-1
40
0
40
0
40
0
40
0
41
1
41
1
41
1
41
1
10
-1.0709089378721615
20
15.683663979523034
30
0
10
-0.83355080674687365
20
15.678111742537649
30
0
10
-0.65726728246084154
20
15.66839532781322
30
0
10
-0.61701356431678733
20
15.657984883465618
30
0
0
SPLINE
5
188
100
AcDbEntity
8
0
100
AcDbSpline
70
4
71
3
72
8
73
4
74
0
42
0.000000001
43
0.0000000001
44
0.0000000001
40
-1
40
-1
40
-1
40
-1
40
0
40
0
40
0
40
0
41
1
41
1
41
1
41
1
10
-0.61701356431678733
20
15.657984883465618
30
0
10
-0.58994640901302575
20
15.651044587233885
30
0
10
-0.57953596466542545
20
15.652432646480232
30
0
10
-0.5316479206664646
20
15.667701298190046
30
0
0
SPLINE
5
189
100
AcDbEntity
8
0
100
AcDbSpline
70
4
71
3
72
8
73
4
74
0
42
0.000000001
43
0.0000000001
44
0.0000000001
40
-1
40
-1
40
-1
40
-1
40
0
40
0
40
0
40
0
41
1
41
1
41
1
41
1
10
-0.5316479206664646
20
15.667701298190046
30
0
10
-0.45530466211739495
20
15.693380394247459
30
0
10
-0.41366288472699431
20
15.703096808971885
30
0
10
-0.25195398252760259
20
15.734328142014688
30
0
0
SPLINE
5
190
100
AcDbEntity
8
0
100
AcDbSpline
70
4
71
3
72
8
73
4
74
0
42
0.000000001
43
0.0000000001
44
0.0000000001
40
-1
40
-1
40
-1
40
-1
40
0
40
0
40
0
40
0
41
1
41
1
41
1
41
1
10
-0.25195398252760259
20
15.734328142014688
30
0
10
-0.028476443865781773
20
15.777357978651436
30
0
10
0.30882195299646847
20
15.832880348505304
30
0
10
0.40737415948708455
20
15.84190273360656
30
0
0
SPLINE
5
191
100
AcDbEntity
8
0
100
AcDbSpline
70
4
71
3
72
8
73
4
74
0
42
0.000000001
43
0.0000000001
44
0.0000000001
40
-1
40
-1
40
-1
40
-1
40
0
40
0
40
0
40
0
41
1
41
1
41
1
41
1
10
0.40737415948708455
20
15.84190273360656
30
0
10
0.47469503293490029
20
15.84814900021512
30
0
10
0.78770239298608336
20
15.839126615113864
30
0
10
0.85849341454976491
20
15.828716170766262
30
0
0
SPLINE
5
192
100
AcDbEntity
8
0
100
AcDbSpline
70
4
71
3
72
8
73
4
74
0
42
0.000000001
43
0.0000000001
44
0.0000000001
40
-1
40
-1
40
-1
40
-1
40
0
40
0
40
0
40
0
41
1
41
1
41
1
41
1
10
0.85849341454976491
20
15.828716170766262
30
0
10
1.0146500797637701
20
15.805813193201544
30
0
10
1.1479037674130543
20
15.764171415811143
30
0
10
1.2818514846855116
20
15.696156512740153
30
0
0
SPLINE
5
193
100
AcDbEntity
8
0
100
AcDbSpline
70
4
71
3
72
8
73
4
74
0
42
0.000000001
43
0.0000000001
44
0.0000000001
40
-1
40
-1
40
-1
40
-1
40
0
40
0
40
0
40
0
41
1
41
1
41
1
41
1
10
1.2818514846855116
20
15.696156512740153
30
0
10
1.4387021795226895
20
15.616343106075217
30
0
10
1.5476648303609066
20
15.528895373555375
30
0
10
1.6302543555185358
20
15.415768544978118
30
0
0
SPLINE
5
194
100
AcDbEntity
8
0
100
AcDbSpline
70
4
71
3
72
8
73
4
74
0
42
0.000000001
43
0.0000000001
44
0.0000000001
40
-1
40
-1
40
-1
40
-1
40
0
40
0
40
0
40
0
41
1
41
1
41
1
41
1
10
1.6302543555185358
20
15.415768544978118
30
0
10
1.8842691975999839
20
15.06667164452192
30
0
10
1.9842094633369465
20
14.607918063604334
30
0
10
1.8794109902377696
20
14.268537577872562
30
0
0
SPLINE
5
195
100
AcDbEntity
8
0
100
AcDbSpline
70
4
71
3
72
8
73
4
74
0
42
0.000000001
43
0.0000000001
44
0.0000000001
40
-1
40
-1
40
-1
40
-1
40
0
40
0
40
0
40
0
41
1
41
1
41
1
41
1
10
1.8794109902377696
20
14.268537577872562
30
0
10
1.8079259390509144
20
14.038813772602182
30
0
10
1.7406050656030987
20
13.924298884778578
30
0
10
1.2783813365696444
20
13.25039612067725
30
0
0
SPLINE
5
196
100
AcDbEntity
8
0
100
AcDbSpline
70
4
71
3
72
8
73
4
74
0
42
0.000000001
43
0.0000000001
44
0.0000000001
40
-1
40
-1
40
-1
40
-1
40
0
40
0
40
0
40
0
41
1
41
1
41
1
41
1
10
1.2783813365696444
20
13.25039612067725
30
0
10
0.94594114706960775
20
12.765269414079075
30
0
10
0.81129940017397695
20
12.559836645619761
30
0
10
0.82032178527523014
20
12.550120230895335
30
0
0
SPLINE
5
197
100
AcDbEntity
8
0
100
AcDbSpline
70
4
71
3
72
8
73
4
74
0
42
0.000000001
43
0.0000000001
44
0.0000000001
40
-1
40
-1
40
-1
40
-1
40
0
40
0
40
0
40
0
41
1
41
1
41
1
41
1
10
0.82032178527523014
20
12.550120230895335
30
0
10
0.82865014075331112
20
12.541791875417253
30
0
10
0.90846354741824653
20
12.60703065999555
30
0
10
1.0250605241113704
20
12.717381370080114
30
0
0
SPLINE
5
198
100
AcDbEntity
8
0
100
AcDbSpline
70
4
71
3
72
8
73
4
74
0
42
0.000000001
43
0.0000000001
44
0.0000000001
40
-1
40
-1
40
-1
40
-1
40
0
40
0
40
0
40
0
41
1
41
1
41
1
41
1
10
1.0250605241113704
20
12.717381370080114
30
0
10
1.0958515456750526
20
12.784008213904755
30
0
10
1.2894858105404183
20
12.972784271407907
30
0
10
1.4553588904788501
20
13.136575262476821
30
0
0
SPLINE
5
199
100
AcDbEntity
8
0
100
AcDbSpline
70
4
71
3
72
8
73
4
74
0
42
0.000000001
43
0.0000000001
44
0.0000000001
40
-1
40
-1
40
-1
40
-1
40
0
40
0
40
0
40
0
41
1
41
1
41
1
41
1
10
1.4553588904788501
20
13.136575262476821
30
0
10
1.8669184570206498
20
13.54188856241006
30
0
10
2.0536124256542818
20
13.71608999782657
30
0
10
2.1285676249570042
20
13.761895952956014
30
0
0
SPLINE
5
200
100
AcDbEntity
8
0
100
AcDbSpline
70
4
71
3
72
8
73
4
74
0
42
0.000000001
43
0.0000000001
44
0.0000000001
40
-1
40
-1
40
-1
40
-1
40
0
40
0
40
0
40
0
41
1
41
1
41
1
41
1
10
2.1285676249570042
20
13.761895952956014
30
0
10
2.1847840244340464
20
13.795903404491508
30
0
10
2.4554555774716542
20
13.873634722286925
30
0
10
2.6247988055259523
20
13.903477996083378
30
0
0
SPLINE
5
201
100
AcDbEntity
8
0
100
AcDbSpline
70
4
71
3
72
8
73
4
74
0
42
0.000000001
43
0.0000000001
44
0.0000000001
40
-1
40
-1
40
-1
40
-1
40
0
40
0
40
0
40
0
41
1
41
1
41
1
41
1
10
2.6247988055259523
20
13.903477996083378
30
0
10
2.7302913082483031
20
13.922216795909058
30
0
10
2.9787539133443639
20
13.929157092140791
30
0
10
3.0953508900374862
20
13.917358588546845
30
0
0
SPLINE
5
202
100
AcDbEntity
8
0
100
AcDbSpline
70
4
71
3
72
8
73
4
74
0
42
0.000000001
43
0.0000000001
44
0.0000000001
40
-1
40
-1
40
-1
40
-1
40
0
40
0
40
0
40
0
41
1
41
1
41
1
41
1
10
3.0953508900374862
20
13.917358588546845
30
0
10
3.3188284286993079
20
13.893067551735776
30
0
10
3.5131567231878469
20
13.846567566983163
30
0
10
3.645022351590784
20
13.785492960143907
30
0
0
SPLINE
5
203
100
AcDbEntity
8
0
100
AcDbSpline
70
4
71
3
72
8
73
4
74
0
42
0.000000001
43
0.0000000001
44
0.0000000001
40
-1
40
-1
40
-1
40
-1
40
0
40
0
40
0
40
0
41
1
41
1
41
1
41
1
10
3.645022351590784
20
13.785492960143907
30
0
10
3.8684998902526044
20
13.680694487044731
30
0
10
4.0864251919290382
20
13.470403511223203
30
0
10
4.179425161434267
20
13.26913492050293
30
0
0
SPLINE
5
204
100
AcDbEntity
8
0
100
AcDbSpline
70
4
71
3
72
8
73
4
74
0
42
0.000000001
43
0.0000000001
44
0.0000000001
40
-1
40
-1
40
-1
40
-1
40
0
40
0
40
0
40
0
41
1
41
1
41
1
41
1
10
4.179425161434267
20
13.26913492050293
30
0
10
4.2349475312881362
20
13.14906779569394
30
0
10
4.2772833383017108
20
12.99360516010311
30
0
10
4.2946340788810451
20
12.844388791120837
30
0
0
SPLINE
5
205
100
AcDbEntity
8
0
100
AcDbSpline
70
4
71
3
72
8
73
4
74
0
42
0.000000001
43
0.0000000001
44
0.0000000001
40
-1
40
-1
40
-1
40
-1
40
0
40
0
40
0
40
0
41
1
41
1
41
1
41
1
10
4.2946340788810451
20
12.844388791120837
30
0
10
4.3057385528518184
20
12.747224643876567
30
0
10
4.2987982566200857
20
12.507784423881759
30
0
10
4.2793654271712303
20
12.344687462436022
30
0
0
SPLINE
5
206
100
AcDbEntity
8
0
100
AcDbSpline
70
4
71
3
72
8
73
4
74
0
42
0.000000001
43
0.0000000001
44
0.0000000001
40
-1
40
-1
40
-1
40
-1
40
0
40
0
40
0
40
0
41
1
41
1
41
1
41
1
10
4.2793654271712303
20
12.344687462436022
30
0
10
4.2606266273455509
20
12.189224826845189
30
0
10
4.2571564792296837
20
11.946314458734516
30
0
10
4.2717311013163251
20
11.865807022446406
30
0
0
SPLINE
5
207
100
AcDbEntity
8
0
100
AcDbSpline
70
4
71
3
72
8
73
4
74
0
42
0.000000001
43
0.0000000001
44
0.0000000001
40
-1
40
-1
40
-1
40
-1
40
0
40
0
40
0
40
0
41
1
41
1
41
1
41
1
10
4.2717311013163251
20
11.865807022446406
30
0
10
4.2842236345334443
20
11.79848614899859
30
0
10
4.3272534711701924
20
11.640941424538239
30
0
10
4.3917982261253155
20
11.429262389470367
30
0
0
SPLINE
5
208
100
AcDbEntity
8
0
100
AcDbSpline
70
4
71
3
72
8
73
4
74
0
42
0.000000001
43
0.0000000001
44
0.0000000001
40
-1
40
-1
40
-1
40
-1
40
-0.70153268757727683
40
-0.70153268757727683
40
-0.70153268757727683
40
-0.70153268757727683
41
1
41
1
41
1
41
1
10
4.3917982261253155
20
11.429262389470367
30
0
10
4.4108555805113836
20
11.366704552246533
30
0
10
4.4258324150626382
20
11.315708187888005
30
0
10
4.4376144765342689
20
11.272121358479835
30
0
0
LINE
5
209
100
AcDbEntity
8
0
100
AcDbLine
10
4.4376144765342689
20
11.272121358479835
30
0
11
4.418135115090088
21
11.237298650042337
31
0
0
SPLINE
5
210
100
AcDbEntity
8
0
100
AcDbSpline
70
0
71
3
72
14
73
10
74
0
42
0.000000001
43
0.0000000001
44
0.0000000001
40
-0.85046770723946874
40
-0.85046770723946874
40
-0.85046770723946874
40
-0.85046770723946874
40
-0.63872630218351967
40
-0.63872630218351967
40
-0.63872630218351967
40
-0.35598723175162461
40
-0.35598723175162461
40
-0.35598723175162461
40
0
40
0
40
0
40
0
10
4.4181351150900898
20
11.237298650042337
30
0
10
4.4106097205150698
20
11.268340507037543
30
0
10
4.396952120164408
20
11.299734653144244
30
0
10
4.3762913832355146
20
11.326896423221983
30
0
10
4.3487030258607762
20
11.363165633870867
30
0
10
4.310749679320466
20
11.389299076488919
30
0
10
4.2733747939811257
20
11.404661283644886
30
0
10
4.2263173358496315
20
11.424003320777196
30
0
10
4.1799423022363289
20
11.429369138298016
30
0
10
4.132844692424178
20
11.429369138298016
30
0
0
SPLINE
5
211
100
AcDbEntity
8
0
100
AcDbSpline
70
0
71
3
72
11
73
7
74
0
42
0.000000001
43
0.0000000001
44
0.0000000001
40
-1
40
-1
40
-1
40
-1
40
-0.72716011197979602
40
-0.72716011197979602
40
-0.72716011197979602
40
-1.8085840382081516e-07
40
-1.8085840382081516e-07
40
-1.8085840382081516e-07
40
-1.8085840382081516e-07
10
4.132844692424178
20
11.429369138298016
30
0
10
4.0721188580131322
20
11.429369138298016
30
0
10
4.0110598985671615
20
11.421953289848009
30
0
10
3.9504144483000858
20
11.407673760691088
30
0
10
3.7887850701361168
20
11.369616636736312
30
0
10
3.6310284637290016
20
11.284014848271116
30
0
10
3.4740721752684993
20
11.158834865054056
30
0
0
SPLINE
5
212
100
AcDbEntity
8
0
100
AcDbSpline
70
0
71
3
72
8
73
4
74
0
42
0.000000001
43
0.0000000001
44
0.0000000001
40
-1
40
-1
40
-1
40
-1
40
-0.20842485956988571
40
-0.20842485956988571
40
-0.20842485956988571
40
-0.20842485956988571
10
3.4740721752685464
20
11.158834865054006
30
0
10
3.3052981665628747
20
11.024229951299343
30
0
10
3.1592973339754575
20
10.867156699879935
30
0
10
3.037191909028472
20
10.689136209892654
30
0
0
LINE
5
213
100
AcDbEntity
8
0
100
AcDbLine
10
3.037191909028472
20
10.689136209892652
30
0
11
3.0464754084655135
21
10.705309680771645
31
0
0
SPLINE
5
214
100
AcDbEntity
8
0
100
AcDbSpline
70
0
71
3
72
11
73
7
74
0
42
0.000000001
43
0.0000000001
44
0.0000000001
40
-1
40
-1
40
-1
40
-1
40
0
40
0
40
0
40
0.04009609663387706
40
0.04009609663387706
40
0.04009609663387706
40
0.04009609663387706
10
3.046475408465513
20
10.705309680771645
30
0
10
3.1648454223532467
20
10.91154198075559
30
0
10
3.2408915080497551
20
11.044755125440735
30
0
10
3.2759156537749075
20
11.107298297823489
30
0
10
3.2772847869743895
20
11.109743180687506
30
0
10
3.278653920173872
20
11.112188063551521
30
0
10
3.2800230533733568
20
11.11463294641554
30
0
0
LINE
5
215
100
AcDbEntity
8
0
100
AcDbLine
10
3.2800230533733576
20
11.114632946415538
30
0
11
3.3243077633912446
21
11.219809984861461
31
0
0
SPLINE
5
216
100
AcDbEntity
8
0
100
AcDbSpline
70
0
71
3
72
20
73
16
74
0
42
0.000000001
43
0.0000000001
44
0.0000000001
40
-1.5174711467860575
40
-1.5174711467860575
40
-1.5174711467860575
40
-1.5174711467860575
40
-1
40
-1
40
-1
40
-0.94045516069787527
40
-0.94045516069787527
40
-0.94045516069787527
40
-0.62716558811101875
40
-0.62716558811101875
40
-0.62716558811101875
40
-0.33532479102188745
40
-0.33532479102188745
40
-0.33532479102188745
40
0
40
0
40
0
40
0
10
3.3243077633912446
20
11.219809984861461
30
0
10
3.3243077633912446
20
11.229906960265554
30
0
10
3.3243077633912446
20
11.240003935669648
30
0
10
3.3243077633912446
20
11.250100911073741
30
0
10
3.3243077633912446
20
11.254612134725393
30
0
10
3.324157473634151
20
11.259289042960507
30
0
10
3.3238119453668404
20
11.264140004283297
30
0
10
3.3219939808807291
20
11.289662881114669
30
0
10
3.3141897992286182
20
11.321678158167432
30
0
10
3.2944165665831968
20
11.351244266942315
30
0
10
3.2759970707518478
20
11.378786188240362
30
0
10
3.2477002007507871
20
11.40103460010034
30
0
10
3.2211383806202023
20
11.412946040347185
30
0
10
3.1906188752142155
20
11.426632273565369
30
0
10
3.1636453630198527
20
11.429369138298016
30
0
10
3.1413812189614951
20
11.429369138298016
30
0
0
SPLINE
5
217
100
AcDbEntity
8
0
100
AcDbSpline
70
0
71
3
72
14
73
10
74
0
42
0.000000001
43
0.0000000001
44
0.0000000001
40
-1
40
-1
40
-1
40
-1
40
-0.54200692063745071
40
-0.54200692063745071
40
-0.54200692063745071
40
0
40
0
40
0
40
0.0022191552060061744
40
0.0022191552060061744
40
0.0022191552060061744
40
0.0022191552060061744
10
3.1413812189614951
20
11.429369138298016
30
0
10
3.0610058828926023
20
11.429369138298016
30
0
10
2.9815667560125183
20
11.411518016018597
30
0
10
2.9109650794935611
20
11.374995685195637
30
0
10
2.8274122945144904
20
11.331773730638144
30
0
10
2.7583539391281779
20
11.26410071550344
30
0
10
2.7048151212312574
20
11.182119456938848
30
0
10
2.7046419189833468
20
11.181854241179
30
0
10
2.7044687167354362
20
11.18158902541915
30
0
10
2.7042955144875549
20
11.181323809659347
30
0
0
SPLINE
5
218
100
AcDbEntity
8
0
100
AcDbSpline
70
0
71
3
72
14
73
10
74
0
42
0.000000001
43
0.0000000001
44
0.0000000001
40
-1.0014814792761406
40
-1.0014814792761406
40
-1.0014814792761406
40
-1.0014814792761406
40
-1
40
-1
40
-1
40
0
40
0
40
0
40
0.010463517772696003
40
0.010463517772696003
40
0.010463517772696003
40
0.010463517772696003
10
2.7042955144856879
20
11.181323809660501
30
0
10
2.704125686359363
20
11.181056420620695
30
0
10
2.7039558582330385
20
11.18078903158089
30
0
10
2.7037860301067136
20
11.180521642541084
30
0
10
2.5927098607149834
20
11.005635709794049
30
0
10
2.4876527302620794
20
10.866307957138762
30
0
10
2.3915582710336083
20
10.763509411988379
30
0
10
2.3904608767229778
20
10.762335457324449
30
0
10
2.3893634824123473
20
10.761161502660519
30
0
10
2.388266088101719
20
10.759987547996589
30
0
0
SPLINE
5
219
100
AcDbEntity
8
0
100
AcDbSpline
70
0
71
3
72
11
73
7
74
0
42
0.000000001
43
0.0000000001
44
0.0000000001
40
-1.005360205403065
40
-1.005360205403065
40
-1.005360205403065
40
-1.005360205403065
40
-1
40
-1
40
-1
40
-0.84036169534427174
40
-0.84036169534427174
40
-0.84036169534427174
40
-0.84036169534427174
10
2.3882660881017106
20
10.759987547996595
30
0
10
2.3872463424792061
20
10.758745548523308
30
0
10
2.3862265968567029
20
10.757503549050023
30
0
10
2.3852068512341997
20
10.756261549576738
30
0
10
2.3554424321076399
20
10.720009966768199
30
0
10
2.3261235881815647
20
10.685006604037158
30
0
10
2.2972440241981218
20
10.651239464802169
30
0
0
SPLINE
5
220
100
AcDbEntity
8
0
100
AcDbSpline
70
0
71
3
72
8
73
4
74
0
42
0.000000001
43
0.0000000001
44
0.0000000001
40
-0.58036535625943497
40
-0.58036535625943497
40
-0.58036535625943497
40
-0.58036535625943497
40
0
40
0
40
0
40
0
10
2.2972440241981213
20
10.651239464802169
30
0
10
2.3391105542681956
20
10.723577442569173
30
0
10
2.3873251344594681
20
10.803501047588334
30
0
10
2.4418088699139178
20
10.890814710577484
30
0
0
SPLINE
5
221
100
AcDbEntity
8
0
100
AcDbSpline
70
0
71
3
72
14
73
10
74
0
42
0.000000001
43
0.0000000001
44
0.0000000001
40
-1
40
-1
40
-1
40
-1
40
-0.34506890973764576
40
-0.34506890973764576
40
-0.34506890973764576
40
-0.084377774608885847
40
-0.084377774608885847
40
-0.084377774608885847
40
-0.026806762774948225
40
-0.026806762774948225
40
-0.026806762774948225
40
-0.026806762774948225
10
2.4418088875573476
20
10.890814738852214
30
0
10
2.5042061825138213
20
10.99081043542256
30
0
10
2.5471585741753509
20
11.060050382238913
30
0
10
2.571406842266815
20
11.099764592181018
30
0
10
2.5810587104215825
20
11.115572579654023
30
0
10
2.5873407710379346
20
11.125943401172488
30
0
10
2.5924915278119478
20
11.134929708663101
30
0
10
2.5936290205734256
20
11.136914244173409
30
0
10
2.5946479776154789
20
11.138698390099119
30
0
10
2.5961963224502953
20
11.141580046533935
30
0
0
SPLINE
5
222
100
AcDbEntity
8
0
100
AcDbSpline
70
0
71
3
72
11
73
7
74
0
42
0.000000001
43
0.0000000001
44
0.0000000001
40
-0.9702529212531158
40
-0.9702529212531158
40
-0.9702529212531158
40
-0.9702529212531158
40
-0.5972801051771951
40
-0.5972801051771951
40
-0.5972801051771951
40
0
40
0
40
0
40
0
10
2.5961963224503615
20
11.141580046533898
30
0
10
2.6020496277411604
20
11.152002670615241
30
0
10
2.6075590200697119
20
11.162866762635378
30
0
10
2.6126310697117443
20
11.175162525775203
30
0
10
2.6207534695572083
20
11.194853008257695
30
0
10
2.6291861934949368
20
11.218067571967355
30
0
10
2.6291861934949368
20
11.25375941601038
30
0
0
SPLINE
5
223
100
AcDbEntity
8
0
100
AcDbSpline
70
0
71
3
72
17
73
13
74
0
42
0.000000001
43
0.0000000001
44
0.0000000001
40
-1
40
-1
40
-1
40
-1
40
-0.92495716473645151
40
-0.92495716473645151
40
-0.92495716473645151
40
-0.64239210478365683
40
-0.64239210478365683
40
-0.64239210478365683
40
-0.36329818045660428
40
-0.36329818045660428
40
-0.36329818045660428
40
0
40
0
40
0
40
0
10
2.6291861934949368
20
11.25375941601038
30
0
10
2.6291861934949368
20
11.2604008516935
30
0
10
2.628831826635154
20
11.267402362631943
30
0
10
2.6279827083637013
20
11.274728538491946
30
0
10
2.6247854523640108
20
11.302314400804269
30
0
10
2.6130218311671181
20
11.335616864259634
30
0
10
2.5919087047705336
20
11.362165512323434
30
0
10
2.5710549399709501
20
11.388388026794765
30
0
10
2.5436256734443798
20
11.405849456958904
30
0
10
2.5199931490876724
20
11.415288631407821
30
0
10
2.4892305550287372
20
11.427575659549232
30
0
10
2.464177113212624
20
11.429369138298016
30
0
10
2.4426007686662197
20
11.429369138298016
30
0
0
SPLINE
5
224
100
AcDbEntity
8
0
100
AcDbSpline
70
0
71
3
72
11
73
7
74
0
42
0.000000001
43
0.0000000001
44
0.0000000001
40
-1
40
-1
40
-1
40
-1
40
-0.62495269552258859
40
-0.62495269552258859
40
-0.62495269552258859
40
-6.8400583125994447e-07
40
-6.8400583125994447e-07
40
-6.8400583125994447e-07
40
-6.8400583125994447e-07
10
2.4426007686662197
20
11.429369138298016
30
0
10
2.4074543795419259
20
11.429369138298016
30
0
10
2.3765696362652937
20
11.422750173045472
30
0
10
2.3470137336599213
20
11.41345775235682
30
0
10
2.2977638908670017
20
11.397973526948713
30
0
10
2.2512004816190783
20
11.374388029457959
30
0
10
2.2004669689401015
20
11.343772990130251
30
0
0
SPLINE
5
225
100
AcDbEntity
8
0
100
AcDbSpline
70
0
71
3
72
11
73
7
74
0
42
0.000000001
43
0.0000000001
44
0.0000000001
40
-1
40
-1
40
-1
40
-1
40
0
40
0
40
0
40
0.0028694096140889028
40
0.0028694096140889028
40
0.0028694096140889028
40
0.0028694096140889028
10
2.2004669689401792
20
11.343772990130169
30
0
10
2.1146600128309236
20
11.29199308485533
30
0
10
2.0400314207279644
20
11.225950010783311
30
0
10
1.9798046938349312
20
11.147655250370228
30
0
10
1.9796647227677286
20
11.147473287946953
30
0
10
1.9795247517005261
20
11.147291325523678
30
0
10
1.9793847806333305
20
11.147109363100412
30
0
0
SPLINE
5
226
100
AcDbEntity
8
0
100
AcDbSpline
70
0
71
3
72
14
73
10
74
0
42
0.000000001
43
0.0000000001
44
0.0000000001
40
-1.0014175156232439
40
-1.0014175156232439
40
-1.0014175156232439
40
-1.0014175156232439
40
-1
40
-1
40
-1
40
-0.65504427135999599
40
-0.65504427135999599
40
-0.65504427135999599
40
-0.1996836263365476
40
-0.1996836263365476
40
-0.1996836263365476
40
-0.1996836263365476
10
1.9793847806338183
20
11.147109363100046
30
0
10
1.9792464863811465
20
11.146926123086635
30
0
10
1.9791081921284819
20
11.146742883073234
30
0
10
1.978969897875817
20
11.146559643059833
30
0
10
1.9410078467896517
20
11.096259890064013
30
0
10
1.8990873997223319
20
11.0334895358185
30
0
10
1.8511433917057807
20
10.956266013022315
30
0
10
1.7878546488241975
20
10.854326690866133
30
0
10
1.7143286776439779
20
10.727347868076915
30
0
10
1.6299995633507425
20
10.5745812811584
30
0
0
SPLINE
5
227
100
AcDbEntity
8
0
100
AcDbSpline
70
0
71
3
72
11
73
7
74
0
42
0.000000001
43
0.0000000001
44
0.0000000001
40
-0.4081304725694741
40
-0.4081304725694741
40
-0.4081304725694741
40
-0.4081304725694741
40
-0.308266381746781
40
-0.308266381746781
40
-0.308266381746781
40
0
40
0
40
0
40
0
10
1.629999563350742
20
10.5745812811584
30
0
10
1.6211998782632251
20
10.582267932318187
30
0
10
1.6116369299568045
20
10.589142326529409
30
0
10
1.6015924175268283
20
10.594737655152574
30
0
10
1.5705864225020809
20
10.612009646467355
30
0
10
1.5386141006664762
20
10.617174096311116
30
0
10
1.5133325361854724
20
10.617174096311116
30
0
0
SPLINE
5
228
100
AcDbEntity
8
0
100
AcDbSpline
70
0
71
3
72
14
73
10
74
0
42
0.000000001
43
0.0000000001
44
0.0000000001
40
-1
40
-1
40
-1
40
-1
40
-0.64815829988380513
40
-0.64815829988380513
40
-0.64815829988380513
40
0
40
0
40
0
40
0.11567824375912658
40
0.11567824375912658
40
0.11567824375912658
40
0.11567824375912658
10
1.5133325361854724
20
10.617174096311116
30
0
10
1.4888753314323451
20
10.617174096311116
30
0
10
1.4645844587623591
20
10.612659311447544
30
0
10
1.4429523923097545
20
10.605048280051879
30
0
10
1.4031020749361649
20
10.59102733492756
30
0
10
1.3728348414812428
20
10.56807685091829
30
0
10
1.3487298768277758
20
10.543971886264822
30
0
10
1.3464727454122776
20
10.541714754849325
30
0
10
1.3442156139967796
20
10.539457623433826
30
0
10
1.3419584825812814
20
10.537200492018329
30
0
0
LINE
5
229
100
AcDbEntity
8
0
100
AcDbLine
10
1.3419584825812811
20
10.537200492018327
30
0
11
1.3373273967231449
21
10.531207321673167
31
0
0
SPLINE
5
230
100
AcDbEntity
8
0
100
AcDbSpline
70
0
71
3
72
11
73
7
74
0
42
0.000000001
43
0.0000000001
44
0.0000000001
40
-1.0024605143830869
40
-1.0024605143830869
40
-1.0024605143830869
40
-1.0024605143830869
40
-1
40
-1
40
-1
40
-0.86194590905709756
40
-0.86194590905709756
40
-0.86194590905709756
40
-0.86194590905709756
10
1.3373273967231449
20
10.531207321673168
30
0
10
1.336919311399682
20
10.53067921121834
30
0
10
1.3365112260762189
20
10.530151100763511
30
0
10
1.3361031407527562
20
10.529622990308683
30
0
10
1.3141878129456597
20
10.501261975906861
30
0
10
1.2918803827410321
20
10.47333262342292
30
0
10
1.2691791688287659
20
10.44583294850368
30
0
0
SPLINE
5
231
100
AcDbEntity
8
0
100
AcDbSpline
70
0
71
3
72
8
73
4
74
0
42
0.000000001
43
0.0000000001
44
0.0000000001
40
-0.84920846417185791
40
-0.84920846417185791
40
-0.84920846417185791
40
-0.84920846417185791
40
0
40
0
40
0
40
0
10
5.413646996153382
20
10.687318343122236
30
0
10
5.2803287504452694
20
10.536587585298328
30
0
10
5.171171999895253
20
10.418853007577656
30
0
10
5.0877541827600128
20
10.335435292357392
30
0
0
SPLINE
5
232
100
AcDbEntity
8
0
100
AcDbSpline
70
0
71
3
72
11
73
7
74
0
42
0.000000001
43
0.0000000001
44
0.0000000001
40
-1
40
-1
40
-1
40
-1
40
-0.77548405028661616
40
-0.77548405028661616
40
-0.77548405028661616
40
-0.30643376355994051
40
-0.30643376355994051
40
-0.30643376355994051
40
-0.30643376355994051
10
5.0877541179673456
20
10.335435227564766
30
0
10
5.0850676225609339
20
10.332748732158354
30
0
10
5.0817722325201391
20
10.329418804482415
30
0
10
5.0775374839789942
20
10.325120502259031
30
0
10
5.0686904064329434
20
10.316140650747853
30
0
10
5.0558864373376222
20
10.303071440685502
30
0
10
5.0389514325896725
20
10.28573829309533
30
0
0
SPLINE
5
233
100
AcDbEntity
8
0
100
AcDbSpline
70
0
71
3
72
8
73
4
74
0
42
0.000000001
43
0.0000000001
44
0.0000000001
40
-0.11550696652523795
40
-0.11550696652523795
40
-0.11550696652523795
40
-0.11550696652523795
40
0
40
0
40
0
40
0
10
5.0389514325896725
20
10.28573829309533
30
0
10
5.0418601076743723
20
10.301067737669834
30
0
10
5.0449646154208647
20
10.317053598428526
30
0
10
5.0482708479020131
20
10.333722676037873
30
0
0
SPLINE
5
234
100
AcDbEntity
8
0
100
AcDbSpline
70
0
71
3
72
8
73
4
74
0
42
0.000000001
43
0.0000000001
44
0.0000000001
40
-0.9999987546067467
40
-0.9999987546067467
40
-0.9999987546067467
40
-0.9999987546067467
40
0
40
0
40
0
40
0
10
5.0482708479029599
20
10.333722676037693
30
0
10
5.0750321699211005
20
10.468642950557259
30
0
10
5.1212335904173267
20
10.610335876313872
30
0
10
5.1879453986452377
20
10.758712269694053
30
0
0
SPLINE
5
235
100
AcDbEntity
8
0
100
AcDbSpline
70
0
71
3
72
8
73
4
74
0
42
0.000000001
43
0.0000000001
44
0.0000000001
40
-1
40
-1
40
-1
40
-1
40
-0.57682694402061185
40
-0.57682694402061185
40
-0.57682694402061185
40
-0.57682694402061185
10
5.1879454352491283
20
10.75871235110629
30
0
10
5.2140725667785137
20
10.816822838842169
30
0
10
5.2398234700620048
20
10.858197250728121
30
0
10
5.2592718651280812
20
10.881451793970358
30
0
0
SPLINE
5
236
100
AcDbEntity
8
0
100
AcDbSpline
70
0
71
3
72
14
73
10
74
0
42
0.000000001
43
0.0000000001
44
0.0000000001
40
-0.69533643735349993
40
-0.69533643735349993
40
-0.69533643735349993
40
-0.69533643735349993
40
-0.53793585341919758
40
-0.53793585341919758
40
-0.53793585341919758
40
-0.23317821262144967
40
-0.23317821262144967
40
-0.23317821262144967
40
0
40
0
40
0
40
0
10
5.2592718651280812
20
10.881451793970358
30
0
10
5.2628383459234964
20
10.873947461218366
30
0
10
5.2670190639256687
20
10.866092665101299
30
0
10
5.2725111780158782
20
10.857558925472702
30
0
10
5.2831449615209198
20
10.841035973070705
30
0
10
5.2985480484265599
20
10.82067850632302
30
0
10
5.3277542491201073
20
10.802598756466709
30
0
10
5.3501006935188693
20
10.788765456848358
30
0
10
5.3819098432351336
20
10.778149848413223
30
0
10
5.4133323086553009
20
10.778149848413223
30
0
0
SPLINE
5
237
100
AcDbEntity
8
0
100
AcDbSpline
70
0
71
3
72
11
73
7
74
0
42
0.000000001
43
0.0000000001
44
0.0000000001
40
-1
40
-1
40
-1
40
-1
40
-0.94298506946211169
40
-0.94298506946211169
40
-0.94298506946211169
40
-0.87991049561282408
40
-0.87991049561282408
40
-0.87991049561282408
40
-0.87991049561282408
10
5.4133323086553009
20
10.778149848413223
30
0
10
5.4229900575563166
20
10.778149848413223
30
0
10
5.4326433762511526
20
10.778961360414204
30
0
10
5.4419733382868918
20
10.780504002199377
30
0
10
5.4522949044781068
20
10.782210598564292
30
0
10
5.462059621583478
20
10.784785362052324
30
0
10
5.4712175710055471
20
10.787976133640345
30
0
0
SPLINE
5
238
100
AcDbEntity
8
0
100
AcDbSpline
70
0
71
3
72
8
73
4
74
0
42
0.000000001
43
0.0000000001
44
0.0000000001
40
-0.4315401059279898
40
-0.4315401059279898
40
-0.4315401059279898
40
-0.4315401059279898
40
-0.31676695035866526
40
-0.31676695035866526
40
-0.31676695035866526
40
-0.31676695035866526
10
5.4712175710055462
20
10.787976133640347
30
0
10
5.452698400523901
20
10.75604158957491
30
0
10
5.4335112294759123
20
10.722492986581928
30
0
10
5.413646996153382
20
10.687318343122231
30
0
0
SPLINE
5
239
100
AcDbEntity
8
0
100
AcDbSpline
70
0
71
3
72
8
73
4
74
0
42
0.000000001
43
0.0000000001
44
0.0000000001
40
0.25163523443185909
40
0.25163523443185909
40
0.25163523443185909
40
0.25163523443185909
40
1
40
1
40
1
40
1
10
1.256147604156278
20
15.927592920665203
30
0
10
1.139472022278494
20
15.975084802272708
30
0
10
1.0180549925807463
20
16.007453471676357
30
0
10
0.88751625203541951
20
16.026599153623007
30
0
0
SPLINE
5
240
100
AcDbEntity
8
0
100
AcDbSpline
70
0
71
3
72
20
73
16
74
0
42
0.000000001
43
0.0000000001
44
0.0000000001
40
0.00018315001408439221
40
0.00018315001408439221
40
0.00018315001408439221
40
0.00018315001408439221
40
0.14155707322291131
40
0.14155707322291131
40
0.14155707322291131
40
0.52899400424035181
40
0.52899400424035181
40
0.52899400424035181
40
0.76449700212017591
40
0.76449700212017591
40
0.76449700212017591
40
0.91733690226017772
40
0.91733690226017772
40
0.91733690226017772
40
0.99942606420599878
40
0.99942606420599878
40
0.99942606420599878
40
0.99942606420599878
10
0.88751625313223892
20
16.026599161091045
30
0
10
0.86797163184217785
20
16.029470579675657
30
0
10
0.85092348697151843
20
16.030897622921849
30
0
10
0.83024240036887953
20
16.032451918198532
30
0
10
0.77356563465730832
20
16.036711483033582
30
0
10
0.6964052479479258
20
16.039927632883607
30
0
10
0.62033982075551619
20
16.041946888114872
30
0
10
0.57410355698019844
20
16.043174289589476
30
0
10
0.52878783852347833
20
16.043912455723163
30
0
10
0.48966786889195502
20
16.043956475918769
30
0
10
0.46427926532516295
20
16.043985044736832
30
0
10
0.4417274361685779
20
16.043750273157517
30
0
10
0.42153720380009385
20
16.04301357831865
30
0
10
0.41069318170179314
20
16.042617905056126
30
0
10
0.40075298240314405
20
16.042141207908276
30
0
10
0.38914054478288246
20
16.041069909149634
30
0
0
SPLINE
5
241
100
AcDbEntity
8
0
100
AcDbSpline
70
0
71
3
72
14
73
10
74
0
42
0.000000001
43
0.0000000001
44
0.0000000001
40
0
40
0
40
0
40
0
40
0.21805520392966307
40
0.21805520392966307
40
0.21805520392966307
40
1
40
1
40
1
40
1.000082817797092
40
1.000082817797092
40
1.000082817797092
40
1.000082817797092
10
0.38914055132439307
20
16.04106983815289
30
0
10
0.36047123005247256
20
16.038445181980109
30
0
10
0.3264261319465786
20
16.033984606592647
30
0
10
0.28428457211549618
20
16.027978382782496
30
0
10
0.13316516375305731
20
16.006440096294757
30
0
10
-0.11085896854235838
20
15.965169183859498
30
0
10
-0.28976870358286744
20
15.93072072555977
30
0
10
-0.28978721150027281
20
15.9307171619235
30
0
10
-0.28980571941769051
20
15.930713598287227
30
0
10
-0.28982422733735264
20
15.930710034650522
30
0
0
SPLINE
5
242
100
AcDbEntity
8
0
100
AcDbSpline
70
0
71
3
72
14
73
10
74
0
42
0.000000001
43
0.0000000001
44
0.0000000001
40
-0.00011443959394185661
40
-0.00011443959394185661
40
-0.00011443959394185661
40
-0.00011443959394185661
40
0
40
0
40
0
40
0.59217347299455514
40
0.59217347299455514
40
0.59217347299455514
40
0.99366338433024826
40
0.99366338433024826
40
0.99366338433024826
40
0.99366338433024826
10
-0.28982422733627849
20
15.93071003465073
30
0
10
-0.28984273323607135
20
15.93070646054991
30
0
10
-0.28986123913694922
20
15.930702886448884
30
0
10
-0.28987974503775077
20
15.930699312347871
30
0
10
-0.38641313655596699
20
15.912055524286412
30
0
10
-0.44324208074037152
20
15.900614762593014
30
0
10
-0.49467234772958457
20
15.887445355905154
30
0
10
-0.52954174711191737
20
15.878516580530068
30
0
10
-0.5606924064319575
20
15.8689181728361
30
0
10
-0.59383976373158265
20
15.857792605725576
30
0
0
LINE
5
243
100
AcDbEntity
8
0
100
AcDbLine
10
-0.59383976373158265
20
15.857792605725576
30
0
11
-0.59481039631801358
21
15.857484400164628
31
0
0
SPLINE
5
244
100
AcDbEntity
8
0
100
AcDbSpline
70
0
71
3
72
14
73
10
74
0
42
0.000000001
43
0.0000000001
44
0.0000000001
40
0.07543616009335094
40
0.07543616009335094
40
0.07543616009335094
40
0.07543616009335094
40
0.12987948189408632
40
0.12987948189408632
40
0.12987948189408632
40
0.42222297145517584
40
0.42222297145517584
40
0.42222297145517584
40
0.99957754645700736
40
0.99957754645700736
40
0.99957754645700736
40
0.99957754645700736
10
-0.59481039631801369
20
15.857484400164628
30
0
10
-0.60068996053743517
20
15.858486501444611
30
0
10
-0.60650255177439294
20
15.859358111725895
30
0
10
-0.61229950544077405
20
15.860151452039768
30
0
10
-0.64342732070995368
20
15.864411439639634
30
0
10
-0.67826541067792212
20
15.867268897955418
30
0
10
-0.72215039955115545
20
15.870118719981969
30
0
10
-0.80881967731720317
20
15.875746886312742
30
0
10
-0.92710494458151593
20
15.880352164281467
30
0
10
-1.0659270900596791
20
15.883602152245288
30
0
0
SPLINE
5
245
100
AcDbEntity
8
0
100
AcDbSpline
70
0
71
3
72
17
73
13
74
0
42
0.000000001
43
0.0000000001
44
0.0000000001
40
0
40
0
40
0
40
0
40
0.49012108482464189
40
0.49012108482464189
40
0.49012108482464189
40
0.96171493570874134
40
0.96171493570874134
40
0.96171493570874134
40
1
40
1
40
1
40
1.0004134134997227
40
1.0004134134997227
40
1.0004134134997227
40
1.0004134134997227
10
-1.0659270954264697
20
15.883601923010122
30
0
10
-1.278909656364029
20
15.888908797452087
30
0
10
-1.4499633105771004
20
15.880541171759498
30
0
10
-1.6050071524567044
20
15.847732148654595
30
0
10
-1.7541901293001274
20
15.816163350598659
30
0
10
-1.8865018401416831
20
15.759928633978612
30
0
10
-2.0093240422321537
20
15.681993407968498
30
0
10
-2.0192950286956379
20
15.675666448588606
30
0
10
-2.0292144464131838
20
15.66920352231624
30
0
10
-2.0390936388467416
20
15.662607261522139
30
0
10
-2.0391868882417414
20
15.662544999618405
30
0
10
-2.0392801376367453
20
15.662482737714662
30
0
10
-2.0393733870317781
20
15.662420475810901
30
0
0
SPLINE
5
246
100
AcDbEntity
8
0
100
AcDbSpline
70
0
71
3
72
14
73
10
74
0
42
0.000000001
43
0.0000000001
44
0.0000000001
40
-0.00059311213148651744
40
-0.00059311213148651744
40
-0.00059311213148651744
40
-0.00059311213148651744
40
0
40
0
40
0
40
0.83038232895721509
40
0.83038232895721509
40
0.83038232895721509
40
0.99990116264824891
40
0.99990116264824891
40
0.99990116264824891
40
0.99990116264824891
10
-2.0393733870000341
20
15.662420475763405
30
0
10
-2.0394664170499746
20
15.66235790688026
30
0
10
-2.0395594470999145
20
15.662295337997115
30
0
10
-2.0396524771498545
20
15.662232769113967
30
0
10
-2.1894841172270603
20
15.561461046584165
30
0
10
-2.3158123686919381
20
15.435841360567579
30
0
10
-2.4246972604166963
20
15.279012561829992
30
0
10
-2.4469256234346508
20
15.246996664906288
30
0
10
-2.4685082797328914
20
15.21368815983821
30
0
10
-2.4896139212570954
20
15.178989395333474
30
0
0
SPLINE
5
247
100
AcDbEntity
8
0
100
AcDbSpline
70
0
71
3
72
17
73
13
74
0
42
0.000000001
43
0.0000000001
44
0.0000000001
40
0
40
0
40
0
40
0
40
0.43755252777736631
40
0.43755252777736631
40
0.43755252777736631
40
0.88292947870509808
40
0.88292947870509808
40
0.88292947870509808
40
1
40
1
40
1
40
1.0001155820585017
40
1.0001155820585017
40
1.0001155820585017
40
1.0001155820585017
10
-2.489613911460741
20
15.178989389379147
30
0
10
-2.5277658796334799
20
15.116311155952506
30
0
10
-2.5586764713779213
20
15.046251367435556
30
0
10
-2.5758821800772438
20
14.970623663982598
30
0
10
-2.5933955655397409
20
14.893643567122817
30
0
10
-2.5974739612531974
20
14.814016992671252
30
0
10
-2.5943639632772748
20
14.725283920243056
30
0
10
-2.5935464780358206
20
14.70195979665824
30
0
10
-2.5922227754381524
20
14.677903856612033
30
0
10
-2.5904591848349678
20
14.65286087004681
30
0
10
-2.590457580487517
20
14.652838088313002
30
0
10
-2.5904559761400656
20
14.6528153065792
30
0
10
-2.5904543717927275
20
14.652792524846998
30
0
0
SPLINE
5
248
100
AcDbEntity
8
0
100
AcDbSpline
70
0
71
3
72
17
73
13
74
0
42
0.000000001
43
0.0000000001
44
0.0000000001
40
-0.00014588320480559791
40
-0.00014588320480559791
40
-0.00014588320480559791
40
-0.00014588320480559791
40
0
40
0
40
0
40
0.59955434286602727
40
0.59955434286602727
40
0.59955434286602727
40
1
40
1
40
1
40
1.0004528110740489
40
1.0004528110740489
40
1.0004528110740489
40
1.0004528110740489
10
-2.5904543717926916
20
14.652792524846397
30
0
10
-2.590452751836374
20
14.652769744210689
30
0
10
-2.5904511318801311
20
14.652746963576023
30
0
10
-2.5904495119238917
20
14.652724182941403
30
0
10
-2.5831620104566819
20
14.550243693558768
30
0
10
-2.5688476096867787
20
14.458686894822929
30
0
10
-2.5404138426051848
20
14.361002276003283
30
0
10
-2.5214227725224392
20
14.295758179549702
30
0
10
-2.4969069192752236
20
14.228332213070324
30
0
10
-2.4650943895818478
20
14.148222479206098
30
0
10
-2.465059820508952
20
14.14813542799526
30
0
10
-2.4650252514360553
20
14.148048376784422
30
0
10
-2.4649906823630716
20
14.147961325573361
30
0
0
SPLINE
5
249
100
AcDbEntity
8
0
100
AcDbSpline
70
0
71
3
72
11
73
7
74
0
42
0.000000001
43
0.0000000001
44
0.0000000001
40
-0.00023121767018322481
40
-0.00023121767018322481
40
-0.00023121767018322481
40
-0.00023121767018322481
40
0
40
0
40
0
40
0.50954553544080594
40
0.50954553544080594
40
0.50954553544080594
40
0.50954553544080594
10
-2.4649906824562073
20
14.147961325536516
30
0
10
-2.4649558600511305
20
14.14787434975978
30
0
10
-2.4649210376461217
20
14.147787373983217
30
0
10
-2.4648862152411151
20
14.147700398206654
30
0
10
-2.3828679129191244
20
13.942843624665091
30
0
10
-2.2822575501537221
20
13.75842138105528
30
0
10
-2.1318678391112291
20
13.556285776046121
30
0
0
SPLINE
5
250
100
AcDbEntity
8
0
100
AcDbSpline
70
0
71
3
72
14
73
10
74
0
42
0.000000001
43
0.0000000001
44
0.0000000001
40
0.53148190189780642
40
0.53148190189780642
40
0.53148190189780642
40
0.53148190189780642
40
0.65762537827972523
40
0.65762537827972523
40
0.65762537827972523
40
1
40
1
40
1
40
1.0002352625941504
40
1.0002352625941504
40
1.0002352625941504
40
1.0002352625941504
10
-2.1318678391112287
20
13.556285776046121
30
0
10
-2.1517992937072155
20
13.56909353941094
30
0
10
-2.1711585430105442
20
13.581143122081178
30
0
10
-2.1900582434681901
20
13.592482630382159
30
0
10
-2.2413552108612711
20
13.623259964069149
30
0
10
-2.2888346874025949
20
13.648729381646351
30
0
10
-2.3352742183472324
20
13.668988237427568
30
0
10
-2.3352985469495056
20
13.668998850576214
30
0
10
-2.3353228755517517
20
13.669009463724842
30
0
10
-2.3353472041543206
20
13.669020076873615
30
0
0
SPLINE
5
251
100
AcDbEntity
8
0
100
AcDbSpline
70
0
71
3
72
17
73
13
74
0
42
0.000000001
43
0.0000000001
44
0.0000000001
40
-0.00013751491282924219
40
-0.00013751491282924219
40
-0.00013751491282924219
40
-0.00013751491282924219
40
0
40
0
40
0
40
0.45915247337629994
40
0.45915247337629994
40
0.45915247337629994
40
1
40
1
40
1
40
1.0004100462241778
40
1.0004100462241778
40
1.0004100462241778
40
1.0004100462241778
10
-2.3353472041529657
20
13.669020076873036
30
0
10
-2.3353715412068996
20
13.669030670649454
30
0
10
-2.3353958782598556
20
13.669041264425447
30
0
10
-2.3354202153128383
20
13.669051858201453
30
0
10
-2.4384846546370129
20
13.713915202377857
30
0
10
-2.5559575757701514
20
13.744726759631634
30
0
10
-2.6791268919620621
20
13.765833832670534
30
0
10
-2.8242112024711168
20
13.79069639774268
30
0
10
-2.9750914513806905
20
13.801326477496819
30
0
10
-3.1136568034256897
20
13.79056412005643
30
0
10
-3.1137447399516724
20
13.790557290034995
30
0
10
-3.1138326764776525
20
13.790550460013559
30
0
10
-3.1139206130036259
20
13.790543629992124
30
0
0
SPLINE
5
252
100
AcDbEntity
8
0
100
AcDbSpline
70
0
71
3
72
17
73
13
74
0
42
0.000000001
43
0.0000000001
44
0.0000000001
40
-0.00035089526096411647
40
-0.00035089526096411647
40
-0.00035089526096411647
40
-0.00035089526096411647
40
0
40
0
40
0
40
0.68403909298709953
40
0.68403909298709953
40
0.68403909298709953
40
1
40
1
40
1
40
1.0006369685379937
40
1.0006369685379937
40
1.0006369685379937
40
1.0006369685379937
10
-3.1139206130027106
20
13.790543629979412
30
0
10
-3.114008527948382
20
13.790536567559956
30
0
10
-3.1140964428941564
20
13.790529505140489
30
0
10
-3.1141843578399322
20
13.790522442721022
30
0
10
-3.3030793504376259
20
13.77534805273395
30
0
10
-3.4723956492600738
20
13.735741379880784
30
0
10
-3.62978649763645
20
13.664052556469452
30
0
10
-3.702486078286686
20
13.630939148332471
30
0
10
-3.7723633979691904
20
13.591305454099603
30
0
10
-3.840541165523272
20
13.545521843771313
30
0
10
-3.8406622940826929
20
13.545440501964988
30
0
10
-3.8407834226421147
20
13.545359160158659
30
0
10
-3.8409045512016831
20
13.545277818352234
30
0
0
SPLINE
5
253
100
AcDbEntity
8
0
100
AcDbSpline
70
0
71
3
72
23
73
19
74
0
42
0.000000001
43
0.0000000001
44
0.0000000001
40
-0.00065172314443778107
40
-0.00065172314443778107
40
-0.00065172314443778107
40
-0.00065172314443778107
40
0
40
0
40
0
40
0.3539430887404223
40
0.3539430887404223
40
0.3539430887404223
40
0.67697154437021112
40
0.67697154437021112
40
0.67697154437021112
40
0.83848577218510556
40
0.83848577218510556
40
0.83848577218510556
40
0.95305295117774125
40
0.95305295117774125
40
0.95305295117774125
40
0.999314338265885
40
0.999314338265885
40
0.999314338265885
40
0.999314338265885
10
-3.8409045511872493
20
13.545277818331281
30
0
10
-3.8410253193372288
20
13.545195949285789
30
0
10
-3.8411460874871945
20
13.545114080240305
30
0
10
-3.8412668556371625
20
13.545032211194821
30
0
10
-3.9188043000245556
20
13.492469374362919
30
0
10
-4.0022942393528966
20
13.424413731604796
30
0
10
-4.0839281614344882
20
13.351855467209047
30
0
10
-4.1584318899035555
20
13.285634696592094
30
0
10
-4.2302381642952005
20
13.216354327135345
30
0
10
-4.2898027640845973
20
13.152567248339091
30
0
10
-4.3195850639792956
20
13.120673708940961
30
0
10
-4.3462570257412283
20
13.090296530223972
30
0
10
-4.3696914980385042
20
13.06041073664445
30
0
10
-4.3863143146076853
20
13.03921179269577
30
0
10
-4.4012824609106405
20
13.018724696961732
30
0
10
-4.4157318987742586
20
12.993932889152372
30
0
10
-4.4215664758677375
20
12.983922138885429
30
0
10
-4.4273537714545599
20
12.973142747858615
30
0
10
-4.4331068313129682
20
12.960125265434769
30
0
0
SPLINE
5
254
100
AcDbEntity
8
0
100
AcDbSpline
70
0
71
3
72
11
73
7
74
0
42
0.000000001
43
0.0000000001
44
0.0000000001
40
0
40
0
40
0
40
0
40
0.40338593894549307
40
0.40338593894549307
40
0.40338593894549307
40
0.99948157432118001
40
0.99948157432118001
40
0.99948157432118001
40
0.99948157432118001
10
-4.4331065328454136
20
12.960125133159375
30
0
10
-4.4561430669785214
20
12.908145261269288
30
0
10
-4.4664663298444554
20
12.858987660147973
30
0
10
-4.4757061598243624
20
12.799736396918318
30
0
10
-4.4893601367999461
20
12.712179008343934
30
0
10
-4.4979146308502962
20
12.602124369633373
30
0
10
-4.5055143981914254
20
12.44940652766701
30
0
0
LINE
5
255
100
AcDbEntity
8
0
100
AcDbLine
10
-4.5055143981914254
20
12.449406527667012
30
0
11
-4.5055342238169045
21
12.449007971358888
31
0
0
SPLINE
5
256
100
AcDbEntity
8
0
100
AcDbSpline
70
0
71
3
72
14
73
10
74
0
42
0.000000001
43
0.0000000001
44
0.0000000001
40
0.00063199402494520409
40
0.00063199402494520409
40
0.00063199402494520409
40
0.00063199402494520409
40
0.89921195909191765
40
0.89921195909191765
40
0.89921195909191765
40
1
40
1
40
1
40
1.0000712665072073
40
1.0000712665072073
40
1.0000712665072073
40
1.0000712665072073
10
-4.5055346044678091
20
12.449007990286281
30
0
10
-4.5152862088834791
20
12.26016532943898
30
0
10
-4.5098771664803605
20
12.117900770540903
30
0
10
-4.4853276685959251
20
11.941394257659615
30
0
10
-4.4825741064275713
20
11.921596636599261
30
0
10
-4.4795948444694895
20
11.901350728041621
30
0
10
-4.4763881957095304
20
11.880507511101888
30
0
10
-4.4763860194226091
20
11.880493365236891
30
0
10
-4.4763838431356779
20
11.880479219371843
30
0
10
-4.4763816668487966
20
11.880465073507118
30
0
0
LINE
5
257
100
AcDbEntity
8
0
100
AcDbLine
10
-4.4763816668487975
20
11.88046507350712
30
0
11
-4.4641017281056845
21
11.800872877949899
31
0
0
LINE
5
258
100
AcDbEntity
8
0
100
AcDbLine
10
-4.4641017281056845
20
11.800872877949899
30
0
11
-4.4952594272152737
21
11.685946938611185
31
0
0
SPLINE
5
259
100
AcDbEntity
8
0
100
AcDbSpline
70
0
71
3
72
14
73
10
74
0
42
0.000000001
43
0.0000000001
44
0.0000000001
40
0.00041577979814956106
40
0.00041577979814956106
40
0.00041577979814956106
40
0.00041577979814956106
40
0.9032103604297459
40
0.9032103604297459
40
0.9032103604297459
40
1
40
1
40
1
40
1.0003153262081617
40
1.0003153262081617
40
1.0003153262081617
40
1.0003153262081617
10
-4.4952594272152737
20
11.685946938611185
30
0
10
-4.5575798725562633
20
11.458903716879908
30
0
10
-4.586201016178884
20
11.27662389652987
30
0
10
-4.5970888952184312
20
11.038184033839276
30
0
10
-4.5982561971833871
20
11.012620623442132
30
0
10
-4.599241398953386
20
10.986382604773224
30
0
10
-4.6000744328500751
20
10.959309003130839
30
0
10
-4.6000770589988269
20
10.959223653296403
30
0
10
-4.6000796851475796
20
10.959138303461957
30
0
10
-4.6000823112963509
20
10.959052953626873
30
0
0
SPLINE
5
260
100
AcDbEntity
8
0
100
AcDbSpline
70
0
71
3
72
17
73
13
74
0
42
0.000000001
43
0.0000000001
44
0.0000000001
40
-0.0003153914452180143
40
-0.0003153914452180143
40
-0.0003153914452180143
40
-0.0003153914452180143
40
0
40
0
40
0
40
0.60410533830581004
40
0.60410533830581004
40
0.60410533830581004
40
1
40
1
40
1
40
1.0008290420353381
40
1.0008290420353381
40
1.0008290420353381
40
1.0008290420353381
10
-4.6000823113394054
20
10.959052953628847
30
0
10
-4.6000847191404732
20
10.958967586136456
30
0
10
-4.6000871269415358
20
10.95888221864422
30
0
10
-4.6000895347425992
20
10.958796851152005
30
0
10
-4.604955806480489
20
10.786265398626799
30
0
10
-4.5976824501458875
20
10.645788609276391
30
0
10
-4.5707426386096239
20
10.518610999423718
30
0
10
-4.5530878905086301
20
10.435266367891574
30
0
10
-4.5264671609962885
20
10.358092160573632
30
0
10
-4.4912627775406202
20
10.286986277158224
30
0
10
-4.4912046641877685
20
10.286868899693058
30
0
10
-4.4911465508349107
20
10.286751522227881
30
0
10
-4.4910884374821176
20
10.286634144762832
30
0
0
SPLINE
5
261
100
AcDbEntity
8
0
100
AcDbSpline
70
0
71
3
72
17
73
13
74
0
42
0.000000001
43
0.0000000001
44
0.0000000001
40
-0.00064424872425992855
40
-0.00064424872425992855
40
-0.00064424872425992855
40
-0.00064424872425992855
40
0
40
0
40
0
40
0.29065650307716895
40
0.29065650307716895
40
0.29065650307716895
40
0.75733282196948493
40
0.75733282196948493
40
0.75733282196948493
40
0.99970223687568771
40
0.99970223687568771
40
0.99970223687568771
40
0.99970223687568771
10
-4.4910884374777345
20
10.286634144765266
30
0
10
-4.4910298637489525
20
10.286516997307706
30
0
10
-4.4909712900203402
20
10.286399849850483
30
0
10
-4.4909127162917288
20
10.286282702393258
30
0
10
-4.4558343704662287
20
10.216126010742258
30
0
10
-4.409176209571342
20
10.145986429858734
30
0
10
-4.3544531241326183
20
10.072868042892534
30
0
10
-4.2665900699755506
20
9.9554696041461916
30
0
10
-4.1584227615153084
20
9.8332749632403758
30
0
10
-4.0494007520837316
20
9.7287028245340554
30
0
10
-3.9927799218248743
20
9.6743930448265747
30
0
10
-3.9361440507542542
20
9.6249841913257903
30
0
10
-3.8797463878333414
20
9.5830701098185731
30
0
0
SPLINE
5
262
100
AcDbEntity
8
0
100
AcDbSpline
70
0
71
3
72
11
73
7
74
0
42
0.000000001
43
0.0000000001
44
0.0000000001
40
0.00047662305536397574
40
0.00047662305536397574
40
0.00047662305536397574
40
0.00047662305536397574
40
0.88113399612342103
40
0.88113399612342103
40
0.88113399612342103
40
0.99949961155281919
40
0.99949961155281919
40
0.99949961155281919
40
0.99949961155281919
10
-3.8797463878331619
20
9.5830701098188129
30
0
10
-3.7453166344523536
20
9.4827225690771009
30
0
10
-3.5784283208586309
20
9.4201822878909951
30
0
10
-3.3897215446482196
20
9.3856154996821068
30
0
10
-3.3643582258537301
20
9.3809695167097402
30
0
10
-3.338581084927406
20
9.3768497241059787
30
0
10
-3.3124048667165882
20
9.3732502380647489
30
0
0
SPLINE
5
263
100
AcDbEntity
8
0
100
AcDbSpline
70
0
71
3
72
17
73
13
74
0
42
0.000000001
43
0.0000000001
44
0.0000000001
40
0.0008529747481027817
40
0.0008529747481027817
40
0.0008529747481027817
40
0.0008529747481027817
40
0.30890625110732106
40
0.30890625110732106
40
0.30890625110732106
40
0.65445312555366053
40
0.65445312555366053
40
0.65445312555366053
40
0.86889986645685968
40
0.86889986645685968
40
0.86889986645685968
40
0.999131958458508
40
0.999131958458508
40
0.999131958458508
40
0.999131958458508
10
-3.3124048667165882
20
9.3732502380647524
30
0
10
-3.2677723249475936
20
9.3669840502998056
30
0
10
-3.2203775393255292
20
9.364157282246909
30
0
10
-3.1695010354994086
20
9.3626166239979121
30
0
10
-3.1124322807448803
20
9.3608884500637668
30
0
10
-3.052560294859723
20
9.3612119314790014
30
0
10
-2.9976821811605188
20
9.3635329976280133
30
0
10
-2.9636247681147037
20
9.3649734536352458
30
0
10
-2.9317667073111884
20
9.3671147839710951
30
0
10
-2.9017578600236846
20
9.3705770981168079
30
0
10
-2.8835336849005304
20
9.3726797386720531
30
0
10
-2.8662720259344798
20
9.3750903521196136
30
0
10
-2.8464753766486637
20
9.3794463709506246
30
0
0
SPLINE
5
264
100
AcDbEntity
8
0
100
AcDbSpline
70
0
71
3
72
14
73
10
74
0
42
0.000000001
43
0.0000000001
44
0.0000000001
40
0.00085032423438356568
40
0.00085032423438356568
40
0.00085032423438356568
40
0.00085032423438356568
40
0.52147273202547695
40
0.52147273202547695
40
0.52147273202547695
40
0.91000384210803154
40
0.91000384210803154
40
0.91000384210803154
40
0.99887928951750982
40
0.99887928951750982
40
0.99887928951750982
40
0.99887928951750982
10
-2.8464753766487116
20
9.3794463709508484
30
0
10
-2.7841645626891802
20
9.3930125060218792
30
0
10
-2.7156376691371671
20
9.4135653451854164
30
0
10
-2.6492659078987733
20
9.4365093081206552
30
0
10
-2.5997338599381421
20
9.453631973713831
30
0
10
-2.5525963326103964
20
9.4717119534965555
30
0
10
-2.5106000156825266
20
9.4908440284795628
30
0
10
-2.5009934710335755
20
9.4952204392221322
30
0
10
-2.491614859962421
20
9.4996798947400443
30
0
10
-2.4823241845666648
20
9.5043625480093574
30
0
0
SPLINE
5
265
100
AcDbEntity
8
0
100
AcDbSpline
70
0
71
3
72
11
73
7
74
0
42
0.000000001
43
0.0000000001
44
0.0000000001
40
0.00063896878389938254
40
0.00063896878389938254
40
0.00063896878389938254
40
0.00063896878389938254
40
0.43826683200331851
40
0.43826683200331851
40
0.43826683200331851
40
0.48679680102356426
40
0.48679680102356426
40
0.48679680102356426
40
0.48679680102356426
10
-2.4823241845666972
20
9.5043625480094196
30
0
10
-2.407403386777637
20
9.5418567660657825
30
0
10
-2.3245744527335348
20
9.5940080515412234
30
0
10
-2.2277844616507907
20
9.661443609264003
30
0
10
-2.2170511065253646
20
9.6689217563432912
30
0
10
-2.2061658213438151
20
9.6765820637597102
30
0
10
-2.1951169286669803
20
9.6844320207176811
30
0
0
SPLINE
5
266
100
AcDbEntity
8
0
100
AcDbSpline
70
0
71
3
72
14
73
10
74
0
42
0.000000001
43
0.0000000001
44
0.0000000001
40
0.59144370499472032
40
0.59144370499472032
40
0.59144370499472032
40
0.59144370499472032
40
0.84333641921144942
40
0.84333641921144942
40
0.84333641921144942
40
1
40
1
40
1
40
1.0001204848000316
40
1.0001204848000316
40
1.0001204848000316
40
1.0001204848000316
10
-2.1951169286669807
20
9.6844320207176811
30
0
10
-2.2613931247527796
20
9.5993792490374084
30
0
10
-2.3125439428584538
20
9.5236103693495799
30
0
10
-2.3574193957426397
20
9.4469866919519809
30
0
10
-2.3853294889750134
20
9.399330928220893
30
0
10
-2.410686365263413
20
9.3516934860383838
30
0
10
-2.436095849862951
20
9.3015581801020755
30
0
10
-2.4361144971275128
20
9.3015213872930751
30
0
10
-2.4361331443920688
20
9.3014845944840836
30
0
10
-2.4361517916565654
20
9.3014478016752129
30
0
0
SPLINE
5
267
100
AcDbEntity
8
0
100
AcDbSpline
70
0
71
3
72
14
73
10
74
0
42
0.000000001
43
0.0000000001
44
0.0000000001
40
-0.00013971981780278606
40
-0.00013971981780278606
40
-0.00013971981780278606
40
-0.00013971981780278606
40
0
40
0
40
0
40
1
40
1
40
1
40
1.0005680648879229
40
1.0005680648879229
40
1.0005680648879229
40
1.0005680648879229
10
-2.4361517917170059
20
9.3014478017060753
30
0
10
-2.4361704098981449
20
9.3014109532225682
30
0
10
-2.4361890280791023
20
9.3013741047394234
30
0
10
-2.4362076462600624
20
9.3013372562562733
30
0
10
-2.5782360109359956
20
9.0202394511684911
30
0
10
-2.6772267134333929
20
8.7254673589870233
30
0
10
-2.7159392395176569
20
8.4552539269188589
30
0
10
-2.7159589522106615
20
8.4551163323216887
30
0
10
-2.7159786649036666
20
8.4549787377245131
30
0
10
-2.7159983775966685
20
8.4548411431273589
30
0
0
SPLINE
5
268
100
AcDbEntity
8
0
100
AcDbSpline
70
0
71
3
72
17
73
13
74
0
42
0.000000001
43
0.0000000001
44
0.0000000001
40
-0.00088954499671370087
40
-0.00088954499671370087
40
-0.00088954499671370087
40
-0.00088954499671370087
40
0
40
0
40
0
40
0.34006977841580621
40
0.34006977841580621
40
0.34006977841580621
40
0.71587240767025384
40
0.71587240767025384
40
0.71587240767025384
40
0.99954427467137075
40
0.99954427467137075
40
0.99954427467137075
40
0.99954427467137075
10
-2.715998377584421
20
8.4548411431254529
30
0
10
-2.716017516072347
20
8.4547034694865015
30
0
10
-2.7160366545602903
20
8.4545657958474223
30
0
10
-2.716055793048235
20
8.4544281222083413
30
0
10
-2.7255130861840207
20
8.3863966264251086
30
0
10
-2.7286010880931943
20
8.3112442684010297
30
0
10
-2.728333901769711
20
8.2314442474480938
30
0
10
-2.7280386408284603
20
8.1432592348651607
30
0
10
-2.7231792006894664
20
8.0509335759154883
30
0
10
-2.713983072503555
20
7.9659641858921182
30
0
10
-2.7070414423801727
20
7.9018256630890864
30
0
10
-2.6981188612857161
20
7.8427588946416504
30
0
10
-2.6840120906017728
20
7.7876017032308917
30
0
0
SPLINE
5
269
100
AcDbEntity
8
0
100
AcDbSpline
70
0
71
3
72
14
73
10
74
0
42
0.000000001
43
0.0000000001
44
0.0000000001
40
0.00066135791746243697
40
0.00066135791746243697
40
0.00066135791746243697
40
0.00066135791746243697
40
0.54017561194730412
40
0.54017561194730412
40
0.54017561194730412
40
0.95870385702118677
40
0.95870385702118677
40
0.95870385702118677
40
0.99817766742115055
40
0.99817766742115055
40
0.99817766742115055
40
0.99817766742115055
10
-2.6840120906017031
20
7.7876017032309113
30
0
10
-2.6668965767511308
20
7.7201014096413649
30
0
10
-2.6438047747741393
20
7.6526336969824662
30
0
10
-2.6170771922506049
20
7.5901050356494197
30
0
10
-2.5963432670112105
20
7.5415984193754921
30
0
10
-2.5741015033509296
20
7.4966749546126401
30
0
10
-2.5461960003183028
20
7.4541240183899919
30
0
10
-2.543564071532634
20
7.450110794411529
30
0
10
-2.5408686074657241
20
7.4461105149786784
30
0
10
-2.5380932686997335
20
7.4421154137736263
30
0
0
SPLINE
5
270
100
AcDbEntity
8
0
100
AcDbSpline
70
0
71
3
72
26
73
22
74
0
42
0.000000001
43
0.0000000001
44
0.0000000001
40
0.0015301683705151155
40
0.0015301683705151155
40
0.0015301683705151155
40
0.0015301683705151155
40
0.5
40
0.5
40
0.5
40
0.75
40
0.75
40
0.75
40
0.875
40
0.875
40
0.875
40
0.9375
40
0.9375
40
0.9375
40
0.96875
40
0.96875
40
0.96875
40
0.99270208145288763
40
0.99270208145288763
40
0.99270208145288763
40
1
40
1
40
1
40
1
10
-2.538093268699793
20
7.4421154137735845
30
0
10
-2.5035800597643605
20
7.3919495337866437
30
0
10
-2.4632343053461625
20
7.3386775299027871
30
0
10
-2.4278789405133887
20
7.2947684477717605
30
0
10
-2.410146992364592
20
7.2727465121676094
30
0
10
-2.3941011557395755
20
7.2535255508211804
30
0
10
-2.3785302691672592
20
7.2363428341935272
30
0
10
-2.370744825881101
20
7.2277514758797023
30
0
10
-2.3636464291082318
20
7.2200013374113388
30
0
10
-2.3523317260124936
20
7.2095275919781212
30
0
10
-2.3466743744646243
20
7.204290719261512
30
0
10
-2.340551022308174
20
7.1984641369679299
30
0
10
-2.327134749251317
20
7.1890057380977144
30
0
10
-2.3204266127228887
20
7.1842765386626066
30
0
10
-2.3120783102497509
20
7.1784751799671067
30
0
10
-2.2965777356288881
20
7.1710602008152309
30
0
10
-2.2846970628005532
20
7.1653768669074811
30
0
10
-2.2688203079641771
20
7.1579643691088446
30
0
10
-2.2397839371544657
20
7.153492892539707
30
0
10
-2.2309368952182638
20
7.1521304860260573
30
0
10
-2.2207955951689091
20
7.1511443237037335
30
0
10
-2.2091175198764632
20
7.1511443237037335
30
0
0
SPLINE
5
271
100
AcDbEntity
8
0
100
AcDbSpline
70
0
71
3
72
23
73
19
74
0
42
0.000000001
43
0.0000000001
44
0.0000000001
40
0
40
0
40
0
40
0
40
0.058067189318627283
40
0.058067189318627283
40
0.058067189318627283
40
0.15934481468371003
40
0.15934481468371003
40
0.15934481468371003
40
0.35341108087455153
40
0.35341108087455153
40
0.35341108087455153
40
0.67670554043727571
40
0.67670554043727571
40
0.67670554043727571
40
0.85944281741719841
40
0.85944281741719841
40
0.85944281741719841
40
0.99761222680311346
40
0.99761222680311346
40
0.99761222680311346
40
0.99761222680311346
10
-2.2091175198764632
20
7.1511443237037335
30
0
10
-2.1761795979977969
20
7.1511443237037335
30
0
10
-2.1583753325519477
20
7.1567732658940617
30
0
10
-2.1442409277312273
20
7.1611431126753935
30
0
10
-2.1195884695532299
20
7.1687647611556375
30
0
10
-2.1066418845376833
20
7.1757967783112386
30
0
10
-2.0942146842642533
20
7.1824444710868471
30
0
10
-2.0704019186353517
20
7.1951826539885095
30
0
10
-2.0519659913061887
20
7.2076439474789176
30
0
10
-2.032393609717619
20
7.2215446271734427
30
0
10
-1.9997880330131668
20
7.2447017312781625
30
0
10
-1.966780820872198
20
7.2710711426560604
30
0
10
-1.9357739090209998
20
7.2985447526505354
30
0
10
-1.9182477236143332
20
7.314073792913053
30
0
10
-1.9015770125041218
20
7.3297230319852353
30
0
10
-1.8853347803740719
20
7.3468634656732181
30
0
10
-1.873053872736576
20
7.3598235121313191
30
0
10
-1.8612048307377749
20
7.3727886562272831
30
0
10
-1.8471672439513196
20
7.3930438472029092
30
0
0
SPLINE
5
272
100
AcDbEntity
8
0
100
AcDbSpline
70
0
71
3
72
17
73
13
74
0
42
0.000000001
43
0.0000000001
44
0.0000000001
40
0.0073327703810853982
40
0.0073327703810853982
40
0.0073327703810853982
40
0.0073327703810853982
40
0.56552456376681204
40
0.56552456376681204
40
0.56552456376681204
40
0.95898174378153156
40
0.95898174378153156
40
0.95898174378153156
40
1
40
1
40
1
40
1.0015645234726369
40
1.0015645234726369
40
1.0015645234726369
40
1.0015645234726369
10
-1.8471672439510654
20
7.393043847202736
30
0
10
-1.8322285956874538
20
7.4143906859047464
30
0
10
-1.8214771382443184
20
7.4332197636668438
30
0
10
-1.8110392320037783
20
7.4533248289387597
30
0
10
-1.8036817803118594
20
7.4674964494814384
30
0
10
-1.7970071060222041
20
7.481130884387909
30
0
10
-1.7899693564993229
20
7.4995069795493166
30
0
10
-1.7892356649369521
20
7.5014227035922669
30
0
10
-1.7884955929472828
20
7.5034079404901783
30
0
10
-1.7877460841164707
20
7.5054899094646581
30
0
10
-1.7877363116857303
20
7.505517055105603
30
0
10
-1.7877265392549959
20
7.5055442007465309
30
0
10
-1.7877167668249097
20
7.5055713463856604
30
0
0
SPLINE
5
273
100
AcDbEntity
8
0
100
AcDbSpline
70
0
71
3
72
20
73
16
74
0
42
0.000000001
43
0.0000000001
44
0.0000000001
40
-0.001557154513785244
40
-0.001557154513785244
40
-0.001557154513785244
40
-0.001557154513785244
40
0
40
0
40
0
40
0.28403286299495722
40
0.28403286299495722
40
0.28403286299495722
40
0.81267861072164904
40
0.81267861072164904
40
0.81267861072164904
40
1
40
1
40
1
40
1.000365467615105
40
1.000365467615105
40
1.000365467615105
40
1.000365467615105
10
-1.7877166591515605
20
7.5055713078176831
30
0
10
-1.787690722079103
20
7.5056437154782945
30
0
10
-1.7876647850065488
20
7.505716123139174
30
0
10
-1.7876388479338985
20
7.5057885308003227
30
0
10
-1.7746273712392022
20
7.5421122365730167
30
0
10
-1.7699802801700786
20
7.5718187010912361
30
0
10
-1.7664197524057799
20
7.6029170744123276
30
0
10
-1.7597928507071097
20
7.6607977810462806
30
0
10
-1.7598233479689951
20
7.7222972729259425
30
0
10
-1.7639122472809332
20
7.7912073653510747
30
0
10
-1.7653611160234235
20
7.8156251050262435
30
0
10
-1.7673857742293468
20
7.840825836444056
30
0
10
-1.7699868697032046
20
7.866692285878532
30
0
10
-1.7699914353195287
20
7.8667376883964204
30
0
10
-1.769996000935852
20
7.8667830909143026
30
0
10
-1.7700005665520975
20
7.8668284934314077
30
0
0
SPLINE
5
274
100
AcDbEntity
8
0
100
AcDbSpline
70
0
71
3
72
17
73
13
74
0
42
0.000000001
43
0.0000000001
44
0.0000000001
40
-0.00031757282198245705
40
-0.00031757282198245705
40
-0.00031757282198245705
40
-0.00031757282198245705
40
0
40
0
40
0
40
0.5
40
0.5
40
0.5
40
0.79194340535359165
40
0.79194340535359165
40
0.79194340535359165
40
0.99573618476483716
40
0.99573618476483716
40
0.99573618476483716
40
0.99573618476483716
10
-1.7700005665373861
20
7.8668284934335393
30
0
10
-1.7700051950412656
20
7.8668738968525487
30
0
10
-1.7700098235451309
20
7.8669193002714186
30
0
10
-1.7700144520489964
20
7.8669647036902894
30
0
10
-1.7762818540079144
20
7.9284449324301471
30
0
10
-1.7799205226711918
20
8.0133644122279435
30
0
10
-1.780001103699645
20
8.0891105789740596
30
0
10
-1.780048153899352
20
8.1333377666987428
30
0
10
-1.7789110590438946
20
8.1748838046093351
30
0
10
-1.7769291277455761
20
8.2063000613948613
30
0
10
-1.7755456291616734
20
8.2282303608008895
30
0
10
-1.7734869463014526
20
8.2458740420316428
30
0
10
-1.7725469253748547
20
8.2515444295482414
30
0
0
SPLINE
5
275
100
AcDbEntity
8
0
100
AcDbSpline
70
0
71
3
72
14
73
10
74
0
42
0.000000001
43
0.0000000001
44
0.0000000001
40
0.0030114125613189403
40
0.0030114125613189403
40
0.0030114125613189403
40
0.0030114125613189403
40
0.39886819251447686
40
0.39886819251447686
40
0.39886819251447686
40
1
40
1
40
1
40
1.0016451430549875
40
1.0016451430549875
40
1.0016451430549875
40
1.0016451430549875
10
-1.7725469253749964
20
8.2515444295482663
30
0
10
-1.7686548411428193
20
8.2737776516954469
30
0
10
-1.7593950826070985
20
8.3152424667774962
30
0
10
-1.747597740735475
20
8.3608513280776613
30
0
10
-1.7296827830994006
20
8.4301110670013433
30
0
10
-1.7055048276231759
20
8.5118772594793128
30
0
10
-1.6842922879656708
20
8.5729098297219615
30
0
10
-1.6842272066188435
20
8.573097081316341
30
0
10
-1.6841621252720163
20
8.5732843329107205
30
0
10
-1.6840970439252021
20
8.5734715845050644
30
0
0
SPLINE
5
276
100
AcDbEntity
8
0
100
AcDbSpline
70
0
71
3
72
11
73
7
74
0
42
0.000000001
43
0.0000000001
44
0.0000000001
40
-0.00087777829742491636
40
-0.00087777829742491636
40
-0.00087777829742491636
40
-0.00087777829742491636
40
0
40
0
40
0
40
0.70860198840488742
40
0.70860198840488742
40
0.70860198840488742
40
0.70860198840488742
10
-1.6840970439292702
20
8.5734715845063825
30
0
10
-1.6840330774944643
20
8.5736592193818151
30
0
10
-1.6839691110596613
20
8.573846854257237
30
0
10
-1.6839051446248583
20
8.5740344891326572
30
0
10
-1.6359431263948234
20
8.7147230759407606
30
0
10
-1.5836811926707288
20
8.8305012480432392
30
0
10
-1.5051983986193269
20
8.9661517004018325
30
0
0
SPLINE
5
277
100
AcDbEntity
8
0
100
AcDbSpline
70
0
71
3
72
8
73
4
74
0
42
0.000000001
43
0.0000000001
44
0.0000000001
40
0.23153031647659747
40
0.23153031647659747
40
0.23153031647659747
40
0.23153031647659747
40
1
40
1
40
1
40
1
10
-1.505198398619328
20
8.9661517004018325
30
0
10
-1.52261904290661
20
8.8292940964272582
30
0
10
-1.5304760169389959
20
8.6705075054099563
30
0
10
-1.5304760169389959
20
8.4824126094763006
30
0
0
SPLINE
5
278
100
AcDbEntity
8
0
100
AcDbSpline
70
0
71
3
72
14
73
10
74
0
42
0.000000001
43
0.0000000001
44
0.0000000001
40
0
40
0
40
0
40
0
40
0.56734577477748283
40
0.56734577477748283
40
0.56734577477748283
40
1
40
1
40
1
40
1.0020183493468815
40
1.0020183493468815
40
1.0020183493468815
40
1.0020183493468815
10
-1.5304760169389959
20
8.4824126094763006
30
0
10
-1.5304760169389959
20
8.3637818698376005
30
0
10
-1.5302166671240356
20
8.2990556685735051
30
0
10
-1.5267422227782035
20
8.2416681208399787
30
0
10
-1.5240926339500953
20
8.1979047474160591
30
0
10
-1.51926240987286
20
8.1603415367404075
30
0
10
-1.5128817047593057
20
8.1188669535023035
30
0
10
-1.5128536888745736
20
8.1186848502515438
30
0
10
-1.5128256729898415
20
8.1185027470007824
30
0
10
-1.5127976571050961
20
8.1183206437499376
30
0
0
SPLINE
5
279
100
AcDbEntity
8
0
100
AcDbSpline
70
0
71
3
72
17
73
13
74
0
42
0.000000001
43
0.0000000001
44
0.0000000001
40
-0.0016083289887986558
40
-0.0016083289887986558
40
-0.0016083289887986558
40
-0.0016083289887986558
40
0
40
0
40
0
40
0.53109241480323466
40
0.53109241480323466
40
0.53109241480323466
40
0.9195556186884295
40
0.9195556186884295
40
0.9195556186884295
40
1
40
1
40
1
40
1
10
-1.5127976571013162
20
8.1183206437506765
30
0
10
-1.5127686351742977
20
8.1181386985928317
30
0
10
-1.5127396132472859
20
8.1179567534350277
30
0
10
-1.5127105913202745
20
8.1177748082772236
30
0
10
-1.5024176537972689
20
8.0532460076522288
30
0
10
-1.4882902504101445
20
7.9782748218016843
30
0
10
-1.473767580869854
20
7.9094360806470032
30
0
10
-1.4631450929913985
20
7.8590845463471233
30
0
10
-1.4525140971544346
20
7.8126904778211506
30
0
10
-1.4421245312736188
20
7.7739849646610946
30
0
10
-1.4399730219645799
20
7.765969685405901
30
0
10
-1.437818126621714
20
7.7582457430317717
30
0
10
-1.4355954143565803
20
7.7506885213303169
30
0
0
SPLINE
5
280
100
AcDbEntity
8
0
100
AcDbSpline
70
0
71
3
72
11
73
7
74
0
42
0.000000001
43
0.0000000001
44
0.0000000001
40
0.00049703351524767799
40
0.00049703351524767799
40
0.00049703351524767799
40
0.00049703351524767799
40
0.76522851732921626
40
0.76522851732921626
40
0.76522851732921626
40
0.99964642044207763
40
0.99964642044207763
40
0.99964642044207763
40
0.99964642044207763
10
-1.4355956105406831
20
7.7506884639002225
30
0
10
-1.3892988135027926
20
7.5925263646028416
30
0
10
-1.3027100662306446
20
7.4399187256605828
30
0
10
-1.1906294307239358
20
7.302433217706378
30
0
10
-1.1562726556844094
20
7.260288928939433
30
0
10
-1.1194215993148717
20
7.2196783831532096
30
0
10
-1.0803047367076093
20
7.1811127617886585
30
0
0
SPLINE
5
281
100
AcDbEntity
8
0
100
AcDbSpline
70
0
71
3
72
14
73
10
74
0
42
0.000000001
43
0.0000000001
44
0.0000000001
40
0.00035122389233092265
40
0.00035122389233092265
40
0.00035122389233092265
40
0.00035122389233092265
40
0.48795118263372539
40
0.48795118263372539
40
0.48795118263372539
40
1
40
1
40
1
40
1.0009929086703218
40
1.0009929086703218
40
1.0009929086703218
40
1.0009929086703218
10
-1.080304736707719
20
7.1811127617885466
30
0
10
-0.99899790307861913
20
7.100605354605503
30
0
10
-0.91296310716481544
20
7.0338252890196911
30
0
10
-0.81539481769257316
20
6.9831049692860399
30
0
10
-0.71293433478837176
20
6.9298414706526668
30
0
10
-0.60126952602472361
20
6.8953471837893963
30
0
10
-0.47300601900396849
20
6.8692266519644996
30
0
10
-0.47277930246199396
20
6.8691804817264686
30
0
10
-0.47255258592002025
20
6.8691343114884384
30
0
10
-0.4723258693782692
20
6.8690881412504536
30
0
0
SPLINE
5
282
100
AcDbEntity
8
0
100
AcDbSpline
70
0
71
3
72
20
73
16
74
0
42
0.000000001
43
0.0000000001
44
0.0000000001
40
-0.0029207206530107721
40
-0.0029207206530107721
40
-0.0029207206530107721
40
-0.0029207206530107721
40
0
40
0
40
0
40
0.32217373002515182
40
0.32217373002515182
40
0.32217373002515182
40
0.68907421102524657
40
0.68907421102524657
40
0.68907421102524657
40
1
40
1
40
1
40
1.0002824770983934
40
1.0002824770983934
40
1.0002824770983934
40
1.0002824770983934
10
-0.47232586937749904
20
6.8690881412512033
30
0
10
-0.47209883791259272
20
6.8690435457848809
30
0
10
-0.47187180644732185
20
6.8689989503184892
30
0
10
-0.47164477498205104
20
6.8689543548520966
30
0
10
-0.444899957059466
20
6.8637009084744456
30
0
10
-0.41775130215544048
20
6.858741128565411
30
0
10
-0.38665565970709304
20
6.8556872755051623
30
0
10
-0.3512430698276669
20
6.8522094619769724
30
0
10
-0.3149045453778922
20
6.8514443636301667
30
0
10
-0.26646586809972345
20
6.8519130227589038
30
0
10
-0.22541704224766845
20
6.8523101827979582
30
0
10
-0.17450361070498704
20
6.8536158592812582
30
0
10
-0.10414157064110796
20
6.8555643465445657
30
0
10
-0.10407785521196759
20
6.8555661109718349
30
0
10
-0.10401413978283741
20
6.8555678753991032
30
0
10
-0.10395042435343345
20
6.8555696398263777
30
0
0
SPLINE
5
283
100
AcDbEntity
8
0
100
AcDbSpline
70
0
71
3
72
20
73
16
74
0
42
0.000000001
43
0.0000000001
44
0.0000000001
40
-0.00030171828192075353
40
-0.00030171828192075353
40
-0.00030171828192075353
40
-0.00030171828192075353
40
0
40
0
40
0
40
0.36785680620771061
40
0.36785680620771061
40
0.36785680620771061
40
0.73990073853534932
40
0.73990073853534932
40
0.73990073853534932
40
1
40
1
40
1
40
1.0001378529660399
40
1.0001378529660399
40
1.0001378529660399
40
1.0001378529660399
10
-0.10395042435849865
20
6.8555696399809207
30
0
10
-0.10388676632494248
20
6.8555715245937545
30
0
10
-0.10382310829158865
20
6.8555734092065848
30
0
10
-0.10375945025823483
20
6.8555752938194141
30
0
10
-0.022742803629005819
20
6.857973812963043
30
0
10
0.045407998051470555
20
6.8619607205156967
30
0
10
0.11549660148803445
20
6.8735870801786625
30
0
10
0.18638298769551931
20
6.8853457767548045
30
0
10
0.2555940236442456
20
6.9047349751783047
30
0
10
0.33493857508679675
20
6.9326316953513212
30
0
10
0.39040906509677031
20
6.9521345434931847
30
0
10
0.45170161297173961
20
6.9759070732332065
30
0
10
0.52652920274271409
20
7.005728337616258
30
0
10
0.52656833342589315
20
7.005743932485105
30
0
10
0.52660746410909509
20
7.0057595273539608
30
0
10
0.52664659479124465
20
7.0057751222223965
30
0
0
SPLINE
5
284
100
AcDbEntity
8
0
100
AcDbSpline
70
0
71
3
72
14
73
10
74
0
42
0.000000001
43
0.0000000001
44
0.0000000001
40
-0.00024039973257895049
40
-0.00024039973257895049
40
-0.00024039973257895049
40
-0.00024039973257895049
40
0
40
0
40
0
40
0.73371662183131214
40
0.73371662183131214
40
0.73371662183131214
40
1
40
1
40
1
40
1
10
0.52664659486609822
20
7.0057751220375799
30
0
10
0.52668580333222803
20
7.0057908054240308
30
0
10
0.5267250117980562
20
7.0058064888103617
30
0
10
0.52676422026385639
20
7.005822172196682
30
0
10
0.64463186178699883
20
7.0529692288059405
30
0
10
0.71257980130455845
20
7.0781524033784127
30
0
10
0.77576283296430582
20
7.0981044582169517
30
0
10
0.79869347214119069
20
7.1053455379550012
30
0
10
0.82127806923647673
20
7.1119890244043527
30
0
10
0.84608937310551435
20
7.1188810532568629
30
0
0
SPLINE
5
285
100
AcDbEntity
8
0
100
AcDbSpline
70
0
71
3
72
11
73
7
74
0
42
0.000000001
43
0.0000000001
44
0.0000000001
40
0.0003208674568187893
40
0.0003208674568187893
40
0.0003208674568187893
40
0.0003208674568187893
40
0.75194583048149588
40
0.75194583048149588
40
0.75194583048149588
40
0.99916796811178332
40
0.99916796811178332
40
0.99916796811178332
40
0.99916796811178332
10
0.84608942086628436
20
7.1188808809645705
30
0
10
1.0412019633106895
20
7.1727881181448927
30
0
10
1.1941358372731761
20
7.1935599730587407
30
0
10
1.304791816939229
20
7.1891904632492825
30
0
10
1.3411884365040279
20
7.1877532577164267
30
0
10
1.3730238482101131
20
7.1837434498955401
30
0
10
1.4007944611043126
20
7.1778281469971112
30
0
0
SPLINE
5
286
100
AcDbEntity
8
0
100
AcDbSpline
70
0
71
3
72
17
73
13
74
0
42
0.000000001
43
0.0000000001
44
0.0000000001
40
0.0015256226624198632
40
0.0015256226624198632
40
0.0015256226624198632
40
0.0015256226624198632
40
0.38655728709518344
40
0.38655728709518344
40
0.38655728709518344
40
0.60837954745175526
40
0.60837954745175526
40
0.60837954745175526
40
0.81871064777597824
40
0.81871064777597824
40
0.81871064777597824
40
0.98018555119780992
40
0.98018555119780992
40
0.98018555119780992
40
0.98018555119780992
10
1.4007944611043364
20
7.1778281469972285
30
0
10
1.4291389015867786
20
7.1716781325226524
30
0
10
1.4473686822485148
20
7.1670485163524909
30
0
10
1.4761398787088031
20
7.1634140739032093
30
0
10
1.4927153773535349
20
7.1613202195174317
30
0
10
1.5149171002292614
20
7.159629976708672
30
0
10
1.5410264954060395
20
7.1626013344565838
30
0
10
1.5657833336399667
20
7.1654187655997452
30
0
10
1.5911448120482006
20
7.1731897052390181
30
0
10
1.6068988969204649
20
7.1796415617286717
30
0
10
1.618993586337897
20
7.1845947659954321
30
0
10
1.6262199632244467
20
7.1883376754054531
30
0
10
1.6312123217519878
20
7.1908271334626495
30
0
0
SPLINE
5
287
100
AcDbEntity
8
0
100
AcDbSpline
70
0
71
3
72
11
73
7
74
0
42
0.000000001
43
0.0000000001
44
0.0000000001
40
0.16903816056086052
40
0.16903816056086052
40
0.16903816056086052
40
0.16903816056086052
40
0.41266862725622916
40
0.41266862725622916
40
0.41266862725622916
40
0.99822840884416719
40
0.99822840884416719
40
0.99822840884416719
40
0.99822840884416719
10
1.6312123217520185
20
7.1908271334625633
30
0
10
1.6340967954359515
20
7.1920214293764424
30
0
10
1.6420366324510451
20
7.1951359189238833
30
0
10
1.6515156210912594
20
7.198635855874544
30
0
10
1.6742981350893076
20
7.2070478674927925
30
0
10
1.7084329364091602
20
7.2188244719740524
30
0
10
1.7411997961326802
20
7.2293746036159927
30
0
0
SPLINE
5
288
100
AcDbEntity
8
0
100
AcDbSpline
70
0
71
3
72
14
73
10
74
0
42
0.000000001
43
0.0000000001
44
0.0000000001
40
0.0015595788384713675
40
0.0015595788384713675
40
0.0015595788384713675
40
0.0015595788384713675
40
0.5
40
0.5
40
0.5
40
0.84736069500372269
40
0.84736069500372269
40
0.84736069500372269
40
0.99506472383349354
40
0.99506472383349354
40
0.99506472383349354
40
0.99506472383349354
10
1.7411997961325871
20
7.2293746036162867
30
0
10
1.7768478093947853
20
7.2407271916401337
30
0
10
1.8137359693175057
20
7.2539964689353091
30
0
10
1.847776279133359
20
7.2673764751057028
30
0
10
1.8714988047829089
20
7.2767009360546595
30
0
10
1.8934590782221401
20
7.2858795744573825
30
0
10
1.9141585008987818
20
7.2955840294373431
30
0
10
1.9229602685361868
20
7.2997105386214685
30
0
10
1.9315134078640417
20
7.3039006796518882
30
0
10
1.9409226650490934
20
7.3089990068188682
30
0
0
SPLINE
5
289
100
AcDbEntity
8
0
100
AcDbSpline
70
0
71
3
72
23
73
19
74
0
42
0.000000001
43
0.0000000001
44
0.0000000001
40
0.00093191836903059547
40
0.00093191836903059547
40
0.00093191836903059547
40
0.00093191836903059547
40
0.21034683798762505
40
0.21034683798762505
40
0.21034683798762505
40
0.6051734189938125
40
0.6051734189938125
40
0.6051734189938125
40
0.80258670949690625
40
0.80258670949690625
40
0.80258670949690625
40
0.96016411234927856
40
0.96016411234927856
40
0.96016411234927856
40
1
40
1
40
1
40
1.0003214613492826
40
1.0003214613492826
40
1.0003214613492826
40
1.0003214613492826
10
1.9409226650487668
20
7.3089990068194721
30
0
10
1.9986645909660858
20
7.339856177723032
30
0
10
2.0553314235212183
20
7.3790358379882885
30
0
10
2.1152585481210378
20
7.4247446954206646
30
0
10
2.228243915918001
20
7.5109232348226938
30
0
10
2.3495678398778992
20
7.6198776536841057
30
0
10
2.455090382513895
20
7.7273697677035891
30
0
10
2.5078516538318931
20
7.7811158247133312
30
0
10
2.5564388874820372
20
7.8343036203012186
30
0
10
2.5982061322506
20
7.8853403194028555
30
0
10
2.6315451943682349
20
7.9260783592485984
30
0
10
2.6604749729531845
20
7.9648064390283722
30
0
10
2.6850553629051559
20
8.0062192094018503
30
0
10
2.6912693354342947
20
8.016688441906263
30
0
10
2.6972171320760068
20
8.0273987658727375
30
0
10
2.702894935684002
20
8.038705426505901
30
0
10
2.7029208157131137
20
8.0387569634604237
30
0
10
2.7029466957422188
20
8.0388085004149339
30
0
10
2.7029725757716498
20
8.0388600373700942
30
0
0
SPLINE
5
290
100
AcDbEntity
8
0
100
AcDbSpline
70
0
71
3
72
20
73
16
74
0
42
0.000000001
43
0.0000000001
44
0.0000000001
40
-0.00041290047921943216
40
-0.00041290047921943216
40
-0.00041290047921943216
40
-0.00041290047921943216
40
0
40
0
40
0
40
0.31617069108904022
40
0.31617069108904022
40
0.31617069108904022
40
0.83494219828534644
40
0.83494219828534644
40
0.83494219828534644
40
1
40
1
40
1
40
1.0002786012540754
40
1.0002786012540754
40
1.0002786012540754
40
1.0002786012540754
10
2.7029725757715202
20
8.0388600373693375
30
0
10
2.70299836663628
20
8.0389116190988581
30
0
10
2.7030241575010399
20
8.0389632008283787
30
0
10
2.7030499483658001
20
8.0390147825578975
30
0
10
2.732434676745596
20
8.0977842393174928
30
0
10
2.7531522328180933
20
8.1603458775332935
30
0
10
2.7709940562425843
20
8.2281301862174363
30
0
10
2.8002688432165832
20
8.3393503877459523
30
0
10
2.8197717395044855
20
8.4625263866468483
30
0
10
2.8254309822157642
20
8.5797032280532548
30
0
10
2.8272315864284772
20
8.6169854449562937
30
0
10
2.8275784715010635
20
8.6536755285091225
30
0
10
2.8259935454267469
20
8.6896965756526754
30
0
10
2.8259914184939885
20
8.6897449150335557
30
0
10
2.8259892915612306
20
8.6897932544144254
30
0
10
2.8259871646284394
20
8.6898415937960483
30
0
0
SPLINE
5
291
100
AcDbEntity
8
0
100
AcDbSpline
70
0
71
3
72
14
73
10
74
0
42
0.000000001
43
0.0000000001
44
0.0000000001
40
-0.0002261404214600111
40
-0.0002261404214600111
40
-0.0002261404214600111
40
-0.0002261404214600111
40
0
40
0
40
0
40
0.68106795902978756
40
0.68106795902978756
40
0.68106795902978756
40
0.9996735876536339
40
0.9996735876536339
40
0.9996735876536339
40
0.9996735876536339
10
2.8259871646367172
20
8.6898415937957409
30
0
10
2.8259849673626003
20
8.6898899338263114
30
0
10
2.8259827700884794
20
8.6899382738569706
30
0
10
2.8259805728143585
20
8.6899866138876298
30
0
10
2.8183112261650729
20
8.8587122401719309
30
0
10
2.7796299236058721
20
9.021442389908044
30
0
10
2.7066867891321462
20
9.1859360110175334
30
0
10
2.6725637726186378
20
9.2628866190491586
30
0
10
2.6312742862606378
20
9.3405276405792357
30
0
10
2.5825971297021297
20
9.4215163320961448
30
0
0
SPLINE
5
292
100
AcDbEntity
8
0
100
AcDbSpline
70
0
71
3
72
8
73
4
74
0
42
0.000000001
43
0.0000000001
44
0.0000000001
40
0.00051529948498993177
40
0.00051529948498993177
40
0.00051529948498993177
40
0.00051529948498993177
40
0.4293425115165585
40
0.4293425115165585
40
0.4293425115165585
40
0.4293425115165585
10
2.5825971297019432
20
9.4215163320960329
30
0
10
2.5412079077609082
20
9.4908026184270931
30
0
10
2.4997024546935758
20
9.5524167161248599
30
0
10
2.4510992353167174
20
9.6143941967560789
30
0
0
SPLINE
5
293
100
AcDbEntity
8
0
100
AcDbSpline
70
0
71
3
72
8
73
4
74
0
42
0.000000001
43
0.0000000001
44
0.0000000001
40
-0.098472891848080502
40
-0.098472891848080502
40
-0.098472891848080502
40
-0.098472891848080502
40
0
40
0
40
0
40
0
10
2.4510992353167174
20
9.6143941967560824
30
0
10
2.4631063124119619
20
9.623138992812919
30
0
10
2.4753447149801748
20
9.6322785151772585
30
0
10
2.4878496235616576
20
9.6418183409785705
30
0
0
SPLINE
5
294
100
AcDbEntity
8
0
100
AcDbSpline
70
0
71
3
72
8
73
4
74
0
42
0.000000001
43
0.0000000001
44
0.0000000001
40
-1
40
-1
40
-1
40
-1
40
-0.85299099439461423
40
-0.85299099439461423
40
-0.85299099439461423
40
-0.85299099439461423
10
2.4878496235616576
20
9.6418183409785705
30
0
10
2.5057917223140134
20
9.6555061256986345
30
0
10
2.5234907215480016
20
9.6692052351547062
30
0
10
2.5409465676692884
20
9.682916536427161
30
0
0
SPLINE
5
295
100
AcDbEntity
8
0
100
AcDbSpline
70
0
71
3
72
8
73
4
74
0
42
0.000000001
43
0.0000000001
44
0.0000000001
40
0.38795911622100426
40
0.38795911622100426
40
0.38795911622100426
40
0.38795911622100426
40
0.58425597723177547
40
0.58425597723177547
40
0.58425597723177547
40
0.58425597723177547
10
2.5409465676692888
20
9.6829165364271574
30
0
10
2.6178730234011658
20
9.664011860949671
30
0
10
2.6943895635279498
20
9.6482462620262393
30
0
10
2.7700104968122599
20
9.6358010175714348
30
0
0
SPLINE
5
296
100
AcDbEntity
8
0
100
AcDbSpline
70
0
71
3
72
14
73
10
74
0
42
0.000000001
43
0.0000000001
44
0.0000000001
40
-0.60347462815034336
40
-0.60347462815034336
40
-0.60347462815034336
40
-0.60347462815034336
40
-0.53123860502296427
40
-0.53123860502296427
40
-0.53123860502296427
40
-0.26979961629892779
40
-0.26979961629892779
40
-0.26979961629892779
40
0
40
0
40
0
40
0
10
2.7700104968122594
20
9.6358010175714348
30
0
10
2.7753887804550681
20
9.623313164243557
30
0
10
2.7814829141675612
20
9.6110317976848041
30
0
10
2.7883835816969986
20
9.598961185373275
30
0
10
2.8133587043893926
20
9.5552748286307239
30
0
10
2.8508259930251407
20
9.515069225371219
30
0
10
2.8970480714805635
20
9.4887089981727062
30
0
10
2.9447482981861359
20
9.4615057901951136
30
0
10
2.9988261485992589
20
9.450100917081139
30
0
10
3.0499178446208672
20
9.450100917081139
30
0
0
SPLINE
5
297
100
AcDbEntity
8
0
100
AcDbSpline
70
0
71
3
72
11
73
7
74
0
42
0.000000001
43
0.0000000001
44
0.0000000001
40
-1
40
-1
40
-1
40
-1
40
-0.71749798889741145
40
-0.71749798889741145
40
-0.71749798889741145
40
0
40
0
40
0
40
0
10
3.0499178446208672
20
9.450100917081139
30
0
10
3.0903717985621917
20
9.450100917081139
30
0
10
3.1306910983733669
20
9.4555588105043515
30
0
10
3.1707982314405494
20
9.4652277071336695
30
0
10
3.2726622401385059
20
9.4897847496103509
30
0
10
3.3738766090894377
20
9.5403842555943594
30
0
10
3.4822576453988741
20
9.6123185090115939
30
0
0
SPLINE
5
298
100
AcDbEntity
8
0
100
AcDbSpline
70
0
71
3
72
8
73
4
74
0
42
0.000000001
43
0.0000000001
44
0.0000000001
40
-1
40
-1
40
-1
40
-1
40
-0.9044652738333897
40
-0.9044652738333897
40
-0.9044652738333897
40
-0.9044652738333897
10
3.4822578029866227
20
9.6123186136052841
30
0
10
3.4960651391453927
20
9.6214827918622348
30
0
10
3.5097473157016674
20
9.6307172184013066
30
0
10
3.523303965942056
20
9.6400220459783768
30
0
0
SPLINE
5
299
100
AcDbEntity
8
0
100
AcDbSpline
70
0
71
3
72
11
73
7
74
0
42
0.000000001
43
0.0000000001
44
0.0000000001
40
0.51863051494685364
40
0.51863051494685364
40
0.51863051494685364
40
0.51863051494685364
40
0.65567346290477124
40
0.65567346290477124
40
0.65567346290477124
40
0.73594249804706269
40
0.73594249804706269
40
0.73594249804706269
40
0.73594249804706269
10
3.5233039659420551
20
9.6400220459783785
30
0
10
3.5472694688813098
20
9.6458407327136957
30
0
10
3.5709388241645947
20
9.6524173914541738
30
0
10
3.5944066664889527
20
9.6598121625388913
30
0
10
3.6081522921363676
20
9.6641434407908058
30
0
10
3.6217985230320289
20
9.6687381850568261
30
0
10
3.6353658054963809
20
9.6735900191579844
30
0
0
SPLINE
5
300
100
AcDbEntity
8
0
100
AcDbSpline
70
0
71
3
72
8
73
4
74
0
42
0.000000001
43
0.0000000001
44
0.0000000001
40
-0.027339821191961572
40
-0.027339821191961572
40
-0.027339821191961572
40
-0.027339821191961572
40
0
40
0
40
0
40
0
10
3.63536580549638
20
9.6735900191579827
30
0
10
3.6353113507899009
20
9.6710613313978637
30
0
10
3.63528371974486
20
9.6685167720061251
30
0
10
3.63528371974486
20
9.665954756865295
30
0
0
SPLINE
5
301
100
AcDbEntity
8
0
100
AcDbSpline
70
0
71
3
72
17
73
13
74
0
42
0.000000001
43
0.0000000001
44
0.0000000001
40
-1
40
-1
40
-1
40
-1
40
-0.96038532832705481
40
-0.96038532832705481
40
-0.96038532832705481
40
-0.59199690810395555
40
-0.59199690810395555
40
-0.59199690810395555
40
-0.30589207591094114
40
-0.30589207591094114
40
-0.30589207591094114
40
0
40
0
40
0
40
0
10
3.63528371974486
20
9.665954756865295
30
0
10
3.63528371974486
20
9.6631750380331667
30
0
10
3.6353259731201231
20
9.660359845189971
30
0
10
3.6354165859202054
20
9.6575040876591878
30
0
10
3.6362592208548068
20
9.630947562996047
30
0
10
3.6403982479470067
20
9.5995999617092522
30
0
10
3.6588464554642313
20
9.5648021059796182
30
0
10
3.6731740537985682
20
9.5377767324128442
30
0
10
3.6982845839466769
20
9.5099119369955609
30
0
10
3.7283442816632233
20
9.4926905487760287
30
0
10
3.7604829326090652
20
9.4742781152908577
30
0
10
3.7945254123622196
20
9.4683938172266622
30
0
10
3.8218691445735771
20
9.4683938172266622
30
0
0
SPLINE
5
302
100
AcDbEntity
8
0
100
AcDbSpline
70
0
71
3
72
14
73
10
74
0
42
0.000000001
43
0.0000000001
44
0.0000000001
40
-1
40
-1
40
-1
40
-1
40
-0.89934114014639088
40
-0.89934114014639088
40
-0.89934114014639088
40
-0.5
40
-0.5
40
-0.5
40
0
40
0
40
0
40
0
10
3.8218691445735771
20
9.4683938172266622
30
0
10
3.8335746913572439
20
9.4683938172266622
30
0
10
3.8446727265027221
20
9.4693546992075337
30
0
10
3.855146082503123
20
9.4709438388026914
30
0
10
3.896696741157927
20
9.4772483888314234
30
0
10
3.9285626969363334
20
9.4919406593323412
30
0
10
3.9585953282621347
20
9.5089962502884173
30
0
10
3.9961980547365363
20
9.5303509133088884
30
0
10
4.0311060020625664
20
9.5569231114705282
30
0
10
4.0683607159736992
20
9.5892574295795647
30
0
0
SPLINE
5
303
100
AcDbEntity
8
0
100
AcDbSpline
70
0
71
3
72
8
73
4
74
0
42
0.000000001
43
0.0000000001
44
0.0000000001
40
-1
40
-1
40
-1
40
-1
40
-0.017680089327001422
40
-0.017680089327001422
40
-0.017680089327001422
40
-0.017680089327001422
10
4.0683607159736992
20
9.5892574295795647
30
0
10
4.1427427210832386
20
9.6538154723694536
30
0
10
4.2078868545279882
20
9.7292901850258353
30
0
10
4.2632274426730969
20
9.814188593967728
30
0
0
LINE
5
304
100
AcDbEntity
8
0
100
AcDbLine
10
4.2632274426730969
20
9.8141885939677262
30
0
11
4.3369911096706835
21
9.9125399096446181
31
0
0
SPLINE
5
305
100
AcDbEntity
8
0
100
AcDbSpline
70
0
71
3
72
8
73
4
74
0
42
0.000000001
43
0.0000000001
44
0.0000000001
40
-1
40
-1
40
-1
40
-1
40
-0.59475853127520595
40
-0.59475853127520595
40
-0.59475853127520595
40
-0.59475853127520595
10
4.3369911096706835
20
9.9125399096446181
30
0
10
4.3563927416654362
20
9.9384087839093187
30
0
10
4.3800778412756651
20
9.9687589821834806
30
0
10
4.4078190072502048
20
10.003218989362797
30
0
0
SPLINE
5
306
100
AcDbEntity
8
0
100
AcDbSpline
70
0
71
3
72
8
73
4
74
0
42
0.000000001
43
0.0000000001
44
0.0000000001
40
-0.68421770128356307
40
-0.68421770128356307
40
-0.68421770128356307
40
-0.68421770128356307
40
0
40
0
40
0
40
0
10
4.4078190072502039
20
10.003218989362797
30
0
10
4.3885923562216789
20
9.9131452849510442
30
0
10
4.37796660474213
20
9.8322254352907699
30
0
10
4.37796660474213
20
9.7574181312059238
30
0
0
SPLINE
5
307
100
AcDbEntity
8
0
100
AcDbSpline
70
0
71
3
72
17
73
13
74
0
42
0.000000001
43
0.0000000001
44
0.0000000001
40
-1
40
-1
40
-1
40
-1
40
-0.85681170961241282
40
-0.85681170961241282
40
-0.85681170961241282
40
-0.4962348303320962
40
-0.4962348303320962
40
-0.4962348303320962
40
-0.24636474523414936
40
-0.24636474523414936
40
-0.24636474523414936
40
0
40
0
40
0
40
0
10
4.37796660474213
20
9.7574181312059238
30
0
10
4.37796660474213
20
9.7419880689140221
30
0
10
4.3785570944220895
20
9.7268304061366972
30
0
10
4.3799361371691869
20
9.7117018962920643
30
0
10
4.3834088438325365
20
9.6736052694437831
30
0
10
4.3906735138740967
20
9.6348925719483134
30
0
10
4.4134539494846692
20
9.593752820306948
30
0
10
4.4292401790286799
20
9.5652440782487922
30
0
10
4.4545422498747476
20
9.5355589871176587
30
0
10
4.4882594459819769
20
9.5153516382046739
30
0
10
4.5215036353602738
20
9.4954277711084849
30
0
10
4.5604210133936167
20
9.4866863419098557
30
0
10
4.5938204445262869
20
9.4866863419098557
30
0
0
SPLINE
5
308
100
AcDbEntity
8
0
100
AcDbSpline
70
0
71
3
72
8
73
4
74
0
42
0.000000001
43
0.0000000001
44
0.0000000001
40
-1
40
-1
40
-1
40
-1
40
-2.4861888592932775e-06
40
-2.4861888592932775e-06
40
-2.4861888592932775e-06
40
-2.4861888592932775e-06
10
4.5938204445262869
20
9.4866863419098557
30
0
10
4.6376210220427296
20
9.4866863419098557
30
0
10
4.6717592089747715
20
9.4975215221759708
30
0
10
4.7039807824384274
20
9.5107890526880325
30
0
0
SPLINE
5
309
100
AcDbEntity
8
0
100
AcDbSpline
70
0
71
3
72
11
73
7
74
0
42
0.000000001
43
0.0000000001
44
0.0000000001
40
-1.0000268849657845
40
-1.0000268849657845
40
-1.0000268849657845
40
-1.0000268849657845
40
-1
40
-1
40
-1
40
0
40
0
40
0
40
0
10
4.7039807824783528
20
9.5107890526928411
30
0
10
4.7039813398680366
20
9.5107892822101991
30
0
10
4.7039818972577194
20
9.5107895117275572
30
0
10
4.7039824546273357
20
9.5107897412366516
30
0
10
4.7394865606218781
20
9.5254093311544779
30
0
10
4.7713595416093542
20
9.5446698052175414
30
0
10
4.8035668398862086
20
9.5676750182724373
30
0
0
SPLINE
5
310
100
AcDbEntity
8
0
100
AcDbSpline
70
0
71
3
72
11
73
7
74
0
42
0.000000001
43
0.0000000001
44
0.0000000001
40
-1
40
-1
40
-1
40
-1
40
0
40
0
40
0
40
6.386966012302223e-06
40
6.386966012302223e-06
40
6.386966012302223e-06
40
6.386966012302223e-06
10
4.8035670655895952
20
9.5676751794894574
30
0
10
4.8306427641764911
20
9.5870150398046565
30
0
10
4.8560405978260235
20
9.6058908458380436
30
0
10
4.8798131457645129
20
9.6243803945089041
30
0
10
4.8798132859619301
20
9.624380503550098
30
0
10
4.8798134261593473
20
9.6243806125912883
30
0
10
4.8798135664205038
20
9.6243807216820532
30
0
0
SPLINE
5
311
100
AcDbEntity
8
0
100
AcDbSpline
70
0
71
3
72
11
73
7
74
0
42
0.000000001
43
0.0000000001
44
0.0000000001
40
-1.0000063875591885
40
-1.0000063875591885
40
-1.0000063875591885
40
-1.0000063875591885
40
-1
40
-1
40
-1
40
0
40
0
40
0
40
0
10
4.879813566408167
20
9.6243807216724608
30
0
10
4.8798137065682523
20
9.6243808306862171
30
0
10
4.8798138467784087
20
9.6243809397389146
30
0
10
4.879813986986191
20
9.6243810487897683
30
0
10
4.908292476386233
20
9.6465310571536502
30
0
10
4.9380871592723086
20
9.6732217902986957
30
0
10
4.9721768920443212
20
9.7060003898531679
30
0
0
SPLINE
5
312
100
AcDbEntity
8
0
100
AcDbSpline
70
0
71
3
72
8
73
4
74
0
42
0.000000001
43
0.0000000001
44
0.0000000001
40
-1
40
-1
40
-1
40
-1
40
-0.89190087450447397
40
-0.89190087450447397
40
-0.89190087450447397
40
-0.89190087450447397
10
4.9721768920443212
20
9.7060003898531679
30
0
10
4.9755744764434038
20
9.709267298960814
30
0
10
4.9789000759547912
20
9.7124622326477699
30
0
10
4.9821532410572669
20
9.7155847857561106
30
0
0
SPLINE
5
313
100
AcDbEntity
8
0
100
AcDbSpline
70
0
71
3
72
8
73
4
74
0
42
0.000000001
43
0.0000000001
44
0.0000000001
40
-0.077184235426330253
40
-0.077184235426330253
40
-0.077184235426330253
40
-0.077184235426330253
40
0
40
0
40
0
40
0
10
4.9821532410572651
20
9.7155847857561106
30
0
10
4.9818049611697157
20
9.708854822074473
30
0
10
4.9816251757601382
20
9.7020752644207864
30
0
10
4.9816251757601391
20
9.6952227963584061
30
0
0
SPLINE
5
314
100
AcDbEntity
8
0
100
AcDbSpline
70
0
71
3
72
17
73
13
74
0
42
0.000000001
43
0.0000000001
44
0.0000000001
40
-1
40
-1
40
-1
40
-1
40
-0.96011410526720664
40
-0.96011410526720664
40
-0.96011410526720664
40
-0.59320434955716317
40
-0.59320434955716317
40
-0.59320434955716317
40
-0.30655958574878162
40
-0.30655958574878162
40
-0.30655958574878162
40
0
40
0
40
0
40
0
10
4.9816251757601391
20
9.6952227963584061
30
0
10
4.9816251757601391
20
9.6919205928059924
30
0
10
4.9816762926789888
20
9.6885914462967566
30
0
10
4.9817848996219629
20
9.6852301649700738
30
0
10
4.9827839732840165
20
9.6543097877613402
30
0
10
4.9877972104285497
20
9.6193598677366907
30
0
10
5.0077501565587568
20
9.5819506335239648
30
0
10
5.0233382063223999
20
9.5527250243972492
30
0
10
5.0501644098588896
20
9.5233218703150051
30
0
10
5.0821322067336627
20
9.5051515651824214
30
0
10
5.1163209860332675
20
9.4857188668823831
30
0
10
5.1526693760234359
20
9.4793693320365779
30
0
10
5.1828446203354108
20
9.4793693320365779
30
0
0
SPLINE
5
315
100
AcDbEntity
8
0
100
AcDbSpline
70
0
71
3
72
14
73
10
74
0
42
0.000000001
43
0.0000000001
44
0.0000000001
40
-1
40
-1
40
-1
40
-1
40
-0.81212059612805987
40
-0.81212059612805987
40
-0.81212059612805987
40
-0.5
40
-0.5
40
-0.5
40
-0.077916100181900497
40
-0.077916100181900497
40
-0.077916100181900497
40
-0.077916100181900497
10
5.1828446203354108
20
9.4793693320365779
30
0
10
5.2185653494043356
20
9.4793693320365779
30
0
10
5.2500153180613225
20
9.4865302845318951
30
0
10
5.2793923821870994
20
9.4965100721607936
30
0
10
5.3281959581963116
20
9.5130893096917273
30
0
10
5.3726188695273684
20
9.5379593781614957
30
0
10
5.4199793862329519
20
9.5696819871099557
30
0
10
5.4840255012169541
20
9.6125807982216624
30
0
10
5.5528611483838324
20
9.6688830849405019
30
0
10
5.6301094702543795
20
9.7395435896557938
30
0
0
SPLINE
5
316
100
AcDbEntity
8
0
100
AcDbSpline
70
0
71
3
72
8
73
4
74
0
42
0.000000001
43
0.0000000001
44
0.0000000001
40
-0.17640935815056591
40
-0.17640935815056591
40
-0.17640935815056591
40
-0.17640935815056591
40
-0.0045514683585110953
40
-0.0045514683585110953
40
-0.0045514683585110953
40
-0.0045514683585110953
10
5.6301094702543795
20
9.7395435896557938
30
0
10
5.614811136531233
20
9.7112161372963257
30
0
10
5.6003148788172004
20
9.6845972932313806
30
0
10
5.5866432416876517
20
9.6597265121087297
30
0
0
ARC
5
317
100
AcDbEntity
8
0
100
AcDbCircle
10
8.6887430223580147
20
7.8311163666044683
30
0
40
3.6009496127377609
210
0
220
0
230
1
100
AcDbArc
50
149.48171505479226
51
152.81855065432768
0
SPLINE
5
318
100
AcDbEntity
8
0
100
AcDbSpline
70
0
71
3
72
8
73
4
74
0
42
0.000000001
43
0.0000000001
44
0.0000000001
40
-0.99913320975466657
40
-0.99913320975466657
40
-0.99913320975466657
40
-0.99913320975466657
40
-0.28865787270316512
40
-0.28865787270316512
40
-0.28865787270316512
40
-0.28865787270316512
10
5.4854667241917268
20
9.4760659315098046
30
0
10
5.2854144234716696
20
9.10532170270967
30
0
10
5.0960096760737352
20
8.7717830003383703
30
0
10
4.9174544228101187
20
8.4756675247643063
30
0
0
ARC
5
319
100
AcDbEntity
8
0
100
AcDbCircle
10
4.7467557837000065
20
8.3911579734033044
30
0
40
0.19047280557938553
210
0
220
-0
230
1
100
AcDbArc
50
26.339110100104591
51
148.92190096182216
0
SPLINE
5
320
100
AcDbEntity
8
0
100
AcDbSpline
70
0
71
3
72
14
73
10
74
0
42
0.000000001
43
0.0000000001
44
0.0000000001
40
-0.7804992586684677
40
-0.7804992586684677
40
-0.7804992586684677
40
-0.7804992586684677
40
-0.77144647609832684
40
-0.77144647609832684
40
-0.77144647609832684
40
0
40
0
40
0
40
0.0032051616899020554
40
0.0032051616899020554
40
0.0032051616899020554
40
0.0032051616899020554
10
4.5836225944102518
20
8.4894811762469509
30
0
10
4.5823610863844255
20
8.4869312746199341
30
0
10
4.5810995783585975
20
8.4843813729929138
30
0
10
4.5798380703327695
20
8.4818314713658935
30
0
10
4.4646651243109003
20
8.2490309846173897
30
0
10
4.402552911543693
20
8.0220842336421523
30
0
10
4.4010005967198369
20
7.802563313503371
30
0
10
4.4009949582789814
20
7.8017659522298262
30
0
10
4.4009893198381249
20
7.800968590956284
30
0
10
4.4009836813972676
20
7.800171229682733
30
0
0
SPLINE
5
321
100
AcDbEntity
8
0
100
AcDbSpline
70
0
71
3
72
20
73
16
74
0
42
0.000000001
43
0.0000000001
44
0.0000000001
40
-1.0047380609652869
40
-1.0047380609652869
40
-1.0047380609652869
40
-1.0047380609652869
40
-1
40
-1
40
-1
40
-0.69618139126641121
40
-0.69618139126641121
40
-0.69618139126641121
40
-0.38083314919552097
40
-0.38083314919552097
40
-0.38083314919552097
40
-0.17657877139542133
40
-0.17657877139542133
40
-0.17657877139542133
40
-0.0030749750611550539
40
-0.0030749750611550539
40
-0.0030749750611550539
40
-0.0030749750611550539
10
4.4009836813972347
20
7.800171229682741
30
0
10
4.4010034713931399
20
7.79937409409224
30
0
10
4.4010232613890459
20
7.7985769585017302
30
0
10
4.4010430513849519
20
7.7977798229112194
30
0
10
4.4024431822309076
20
7.7413829376372059
30
0
10
4.4064858051841087
20
7.6914128702439113
30
0
10
4.4146310900387009
20
7.6454691366999894
30
0
10
4.4230854808700233
20
7.5977818812430549
30
0
10
4.4346631402854539
20
7.5540264007251405
30
0
10
4.46130888016258
20
7.5095230290532182
30
0
10
4.4785676065277089
20
7.4806977264887875
30
0
10
4.503951913330253
20
7.450512482542643
30
0
10
4.5410545540673937
20
7.4288896674856675
30
0
10
4.5725713768217178
20
7.410522176221952
30
0
10
4.611667231700908
20
7.4007665579089998
30
0
10
4.646893783329002
20
7.4013285992495348
30
0
0
SPLINE
5
322
100
AcDbEntity
8
0
100
AcDbSpline
70
0
71
3
72
14
73
10
74
0
42
0.000000001
43
0.0000000001
44
0.0000000001
40
-0.99504378828559015
40
-0.99504378828559015
40
-0.99504378828559015
40
-0.99504378828559015
40
-0.87971713632554116
40
-0.87971713632554116
40
-0.87971713632554116
40
-0.5
40
-0.5
40
-0.5
40
0
40
0
40
0
40
0
10
4.646893783329002
20
7.4013285992495756
30
0
10
4.6612428489763174
20
7.4014538256421609
30
0
10
4.6749196824888903
20
7.4030250496091528
30
0
10
4.6877247307079122
20
7.4055441199497771
30
0
10
4.7298858110618438
20
7.4138382493612127
30
0
10
4.7624544381413871
20
7.4309976963862274
30
0
10
4.7919081655946583
20
7.4505107917686235
30
0
10
4.8306919399303254
20
7.4762050435098271
30
0
10
4.8648645227170464
20
7.5075753086943706
30
0
10
4.9004902369533534
20
7.5453385482353861
30
0
0
SPLINE
5
323
100
AcDbEntity
8
0
100
AcDbSpline
70
0
71
3
72
8
73
4
74
0
42
0.000000001
43
0.0000000001
44
0.0000000001
40
-1
40
-1
40
-1
40
-1
40
0
40
0
40
0
40
0
10
4.9004902369533534
20
7.5453385482353861
30
0
10
4.9639475835182685
20
7.6126033043346766
30
0
10
5.0108954732915958
20
7.6664775337617765
30
0
10
5.045414749073676
20
7.7151185217588907
30
0
0
SPLINE
5
324
100
AcDbEntity
8
0
100
AcDbSpline
70
0
71
3
72
8
73
4
74
0
42
0.000000001
43
0.0000000001
44
0.0000000001
40
-0.99999675076394567
40
-0.99999675076394567
40
-0.99999675076394567
40
-0.99999675076394567
40
-0.022791845321248751
40
-0.022791845321248751
40
-0.022791845321248751
40
-0.022791845321248751
10
5.0454147490744621
20
7.7151185217587788
30
0
10
5.0726108809016131
20
7.7534402489558829
30
0
10
5.0953834961934845
20
7.7868635777176847
30
0
10
5.1141826462286746
20
7.8162970476574616
30
0
0
SPLINE
5
325
100
AcDbEntity
8
0
100
AcDbSpline
70
0
71
3
72
14
73
10
74
0
42
0.000000001
43
0.0000000001
44
0.0000000001
40
-0.9976303918107855
40
-0.9976303918107855
40
-0.9976303918107855
40
-0.9976303918107855
40
-0.64119535076912793
40
-0.64119535076912793
40
-0.64119535076912793
40
0
40
0
40
0
40
3.9063430516216686e-05
40
3.9063430516216686e-05
40
3.9063430516216686e-05
40
3.9063430516216686e-05
10
5.1141826462286666
20
7.8162970476574651
30
0
10
5.1810148993724017
20
7.914412498512835
30
0
10
5.2643686139789745
20
8.0482425006016527
30
0
10
5.3661842104495356
20
8.2201775148626144
30
0
10
5.5493415310707706
20
8.5294735129675487
30
0
10
5.7915718196921624
20
8.9613902816991633
30
0
10
6.0938964527691732
20
9.5174797243200278
30
0
10
6.0939148411618929
20
9.5175135475350086
30
0
10
6.0939332295546125
20
9.5175473707499894
30
0
10
6.0939516179472903
20
9.5175811939648938
30
0
0
LINE
5
326
100
AcDbEntity
8
0
100
AcDbLine
10
6.0939516179472912
20
9.5175811939648938
30
0
11
6.1894969245327021
21
9.6939719489964133
31
0
0
ARC
5
327
100
AcDbEntity
8
0
100
AcDbCircle
10
8.5499121346330913
20
8.4471220821490842
30
-2.9759058953403969e-44
40
2.6694933141947428
210
-1.1514253348717358e-32
220
-2.179766743370028e-32
230
1
100
AcDbArc
50
148.0492236570052
51
152.15549501404419
0
SPLINE
5
328
100
AcDbEntity
8
0
100
AcDbSpline
70
0
71
3
72
11
73
7
74
0
42
0.000000001
43
0.0000000001
44
0.0000000001
40
-1.0160956832100585
40
-1.0160956832100585
40
-1.0160956832100585
40
-1.0160956832100585
40
-1
40
-1
40
-1
40
0
40
0
40
0
40
0
10
6.2848389298259804
20
9.8597925785477596
30
0
10
6.2853100189178397
20
9.8606169884873953
30
0
10
6.2857811080096999
20
9.8614413984270328
30
0
10
6.286252197101561
20
9.8622658083666721
30
0
10
6.3153293442284024
20
9.9131510645143006
30
0
10
6.3647015365856792
20
9.999096490142998
30
0
10
6.4341792073689534
20
10.119768490903061
30
0
0
SPLINE
5
329
100
AcDbEntity
8
0
100
AcDbSpline
70
0
71
3
72
11
73
7
74
0
42
0.000000001
43
0.0000000001
44
0.0000000001
40
-0.99999888617091393
40
-0.99999888617091393
40
-0.99999888617091393
40
-0.99999888617091393
40
-0.73734190937389221
40
-0.73734190937389221
40
-0.73734190937389221
40
-0.0055070953450947939
40
-0.0055070953450947939
40
-0.0055070953450947939
40
-0.0055070953450947939
10
6.4341792073696764
20
10.119768490902862
30
0
10
6.4525004392684089
20
10.151589417215646
30
0
10
6.4691078984652908
20
10.180527073764207
30
0
10
6.484011018465857
20
10.206598503012179
30
0
10
6.5255352231036499
20
10.279240698958489
30
0
10
6.5533780114389426
20
10.328736313329857
30
0
10
6.5697093478978088
20
10.359314120762637
30
0
0
SPLINE
5
330
100
AcDbEntity
8
0
100
AcDbSpline
70
0
71
3
72
14
73
10
74
0
42
0.000000001
43
0.0000000001
44
0.0000000001
40
-0.9910748999093445
40
-0.9910748999093445
40
-0.9910748999093445
40
-0.9910748999093445
40
-0.88667250614758397
40
-0.88667250614758397
40
-0.88667250614758397
40
-0.51335823379600631
40
-0.51335823379600631
40
-0.51335823379600631
40
0
40
0
40
0
40
0
10
6.5697093478976862
20
10.359314120762706
30
0
10
6.5709507011549135
20
10.361582284211632
30
0
10
6.5729779333185938
20
10.365239440793625
30
0
10
6.575594506040523
20
10.369915430477029
30
0
10
6.5849506511110221
20
10.386635484714169
30
0
10
6.6019870943787007
20
10.416671951842154
30
0
10
6.6261973195867565
20
10.459107208324584
30
0
10
6.659489693795547
20
10.517461495668798
30
0
10
6.7065160085882294
20
10.599569787310534
30
0
10
6.7672068433251411
20
10.705309493040481
30
0
0
SPLINE
5
331
100
AcDbEntity
8
0
100
AcDbSpline
70
0
71
3
72
11
73
7
74
0
42
0.000000001
43
0.0000000001
44
0.0000000001
40
-1
40
-1
40
-1
40
-1
40
0
40
0
40
0
40
0.040097494496804664
40
0.040097494496804664
40
0.040097494496804664
40
0.040097494496804664
10
6.7672068433251411
20
10.705309493040481
30
0
10
6.8855768344746497
20
10.91154175340834
30
0
10
6.9616230952488429
20
11.044754997744098
30
0
10
6.9966472350606939
20
11.1072977011003
30
0
10
6.9980164260287516
20
11.109742669199823
30
0
10
6.9993856169968094
20
11.112187637299348
30
0
10
7.0007548079648627
20
11.114632605398866
30
0
0
LINE
5
332
100
AcDbEntity
8
0
100
AcDbLine
10
7.0007548079648609
20
11.114632605398864
30
0
11
7.0450395737132023
21
11.219810060257196
31
0
0
SPLINE
5
333
100
AcDbEntity
8
0
100
AcDbSpline
70
0
71
3
72
20
73
16
74
0
42
0.000000001
43
0.0000000001
44
0.0000000001
40
-1.5174665396582481
40
-1.5174665396582481
40
-1.5174665396582481
40
-1.5174665396582481
40
-1
40
-1
40
-1
40
-0.94045560943631579
40
-0.94045560943631579
40
-0.94045560943631579
40
-0.62716514140430657
40
-0.62716514140430657
40
-0.62716514140430657
40
-0.33532411701879422
40
-0.33532411701879422
40
-0.33532411701879422
40
0
40
0
40
0
40
0
10
7.0450395737132023
20
11.219810060257196
30
0
10
7.0450395737132023
20
11.229907010529377
30
0
10
7.0450395737132023
20
11.240003960801559
30
0
10
7.0450395737132023
20
11.250100911073741
30
0
10
7.0450395737132023
20
11.25461208669725
30
0
10
7.0448892876456446
20
11.259288942866274
30
0
10
7.044543768344961
20
11.264139848290014
30
0
10
7.0427258321397082
20
11.289662696306353
30
0
10
7.0349217401982944
20
11.321677943546117
30
0
10
7.0151485394807143
20
11.351244137738824
30
0
10
6.99672911169203
20
11.378786081336992
30
0
10
6.9684322396606158
20
11.401034623832754
30
0
10
6.9418703346781001
20
11.412946142512023
30
0
10
6.9113508168914812
20
11.426632427680083
30
0
10
6.884377224183627
20
11.42936932602918
30
0
10
6.8621130292834529
20
11.42936932602918
30
0
0
SPLINE
5
334
100
AcDbEntity
8
0
100
AcDbSpline
70
0
71
3
72
11
73
7
74
0
42
0.000000001
43
0.0000000001
44
0.0000000001
40
-1
40
-1
40
-1
40
-1
40
-0.90396746413282481
40
-0.90396746413282481
40
-0.90396746413282481
40
-1.7039492119484501e-06
40
-1.7039492119484501e-06
40
-1.7039492119484501e-06
40
-1.7039492119484501e-06
10
6.8621130292834529
20
11.42936932602918
30
0
10
6.8538788606137597
20
11.42936932602918
30
0
10
6.8456627358809063
20
11.429096156928567
30
0
10
6.8374797491629868
20
11.428564496218957
30
0
10
6.7604523152600935
20
11.423559910292068
30
0
10
6.6879715193246669
20
11.396589418963783
30
0
10
6.6178457686361565
20
11.356713802312894
30
0
0
SPLINE
5
335
100
AcDbEntity
8
0
100
AcDbSpline
70
0
71
3
72
11
73
7
74
0
42
0.000000001
43
0.0000000001
44
0.0000000001
40
-1
40
-1
40
-1
40
-1
40
0
40
0
40
0
40
0.0045188038143563949
40
0.0045188038143563949
40
0.0045188038143563949
40
0.0045188038143563949
10
6.6178457686364416
20
11.356713802312418
30
0
10
6.5394113214184406
20
11.312113865848305
30
0
10
6.4724746632505843
20
11.254316393582648
30
0
10
6.4253709310981852
20
11.181848369636365
30
0
10
6.4252276531923211
20
11.181627939826694
30
0
10
6.4250843752864562
20
11.181407510017024
30
0
10
6.4249410973805157
20
11.181187080207234
30
0
0
SPLINE
5
336
100
AcDbEntity
8
0
100
AcDbSpline
70
0
71
3
72
14
73
10
74
0
42
0.000000001
43
0.0000000001
44
0.0000000001
40
-1.0012295818991019
40
-1.0012295818991019
40
-1.0012295818991019
40
-1.0012295818991019
40
-1
40
-1
40
-1
40
0
40
0
40
0
40
0.010463656969026465
40
0.010463656969026465
40
0.010463656969026465
40
0.010463656969026465
10
6.424941097378019
20
11.18118708020881
30
0
10
6.4248001452949834
20
11.180965155744218
30
0
10
6.424659193211852
20
11.180743231279479
30
0
10
6.4245182411287232
20
11.18052130681474
30
0
10
6.313442095805069
20
11.005635533231716
30
0
10
6.208384874817825
20
10.866307881614354
30
0
10
6.1122902033139264
20
10.763509354723915
30
0
10
6.1111927917855047
20
10.762335384442849
30
0
10
6.1100953802570821
20
10.761161414161784
30
0
10
6.1089979687286577
20
10.759987443880714
30
0
0
SPLINE
5
337
100
AcDbEntity
8
0
100
AcDbSpline
70
0
71
3
72
11
73
7
74
0
42
0.000000001
43
0.0000000001
44
0.0000000001
40
-1.0053602844072278
40
-1.0053602844072278
40
-1.0053602844072278
40
-1.0053602844072278
40
-1
40
-1
40
-1
40
-0.8403628173590032
40
-0.8403628173590032
40
-0.8403628173590032
40
-0.8403628173590032
10
6.1089979687286089
20
10.759987443880759
30
0
10
6.1079782080760543
20
10.75874542677248
30
0
10
6.1069584474235024
20
10.757503409664203
30
0
10
6.1059386867709495
20
10.756261392555928
30
0
10
6.0761744749695081
20
10.720010081839813
30
0
10
6.0468558318950203
20
10.685006970285228
30
0
10
6.0179764623137304
20
10.651240061481969
30
0
0
SPLINE
5
338
100
AcDbEntity
8
0
100
AcDbSpline
70
0
71
3
72
8
73
4
74
0
42
0.000000001
43
0.0000000001
44
0.0000000001
40
-0.58036321529076318
40
-0.58036321529076318
40
-0.58036321529076318
40
-0.58036321529076318
40
0
40
0
40
0
40
0
10
6.0179764623137277
20
10.651240061481971
30
0
10
6.0598428579315105
20
10.723577803692715
30
0
10
6.1080572341285029
20
10.80350109262827
30
0
10
6.1625406978793054
20
10.890814363389884
30
0
0
SPLINE
5
339
100
AcDbEntity
8
0
100
AcDbSpline
70
0
71
3
72
14
73
10
74
0
42
0.000000001
43
0.0000000001
44
0.0000000001
40
-1
40
-1
40
-1
40
-1
40
-0.3450700419809819
40
-0.3450700419809819
40
-0.3450700419809819
40
-0.084377901615550907
40
-0.084377901615550907
40
-0.084377901615550907
40
-0.026800584230194883
40
-0.026800584230194883
40
-0.026800584230194883
40
-0.026800584230194883
10
6.1625407564403698
20
10.89081445723785
30
0
10
6.2249379425178661
20
10.990810143517514
30
0
10
6.267890294705051
20
11.060050136222404
30
0
10
6.292138577730622
20
11.099764424869626
30
0
10
6.3017905057341039
20
11.115572531956147
30
0
10
6.3080726019604745
20
11.125943426505247
30
0
10
6.3132233617911755
20
11.134929747263808
30
0
10
6.314360975426677
20
11.136914495410482
30
0
10
6.3153799794513787
20
11.138698711701515
30
0
10
6.3169286230040278
20
11.141580958650101
30
0
0
SPLINE
5
340
100
AcDbEntity
8
0
100
AcDbSpline
70
0
71
3
72
11
73
7
74
0
42
0.000000001
43
0.0000000001
44
0.0000000001
40
-0.97025912676353721
40
-0.97025912676353721
40
-0.97025912676353721
40
-0.97025912676353721
40
-0.59729043387194414
40
-0.59729043387194414
40
-0.59729043387194414
40
0
40
0
40
0
40
0
10
6.3169286230042401
20
11.141580958649978
30
0
10
6.322781709885402
20
11.152003422641494
30
0
10
6.3282908868776948
20
11.162867316443695
30
0
10
6.3333627344798202
20
11.175162758410687
30
0
10
6.3414850410233523
20
11.194853284739256
30
0
10
6.3499176283545653
20
11.218067720980976
30
0
10
6.3499176283545653
20
11.25375941601038
30
0
0
SPLINE
5
341
100
AcDbEntity
8
0
100
AcDbSpline
70
0
71
3
72
17
73
13
74
0
42
0.000000001
43
0.0000000001
44
0.0000000001
40
-1
40
-1
40
-1
40
-1
40
-0.92495821155998326
40
-0.92495821155998326
40
-0.92495821155998326
40
-0.64239105705972177
40
-0.64239105705972177
40
-0.64239105705972177
40
-0.3632960826777617
40
-0.3632960826777617
40
-0.3632960826777617
40
0
40
0
40
0
40
0
10
6.3499176283545653
20
11.25375941601038
30
0
10
6.3499176283545653
20
11.260400674138616
30
0
10
6.349563282255211
20
11.267401989492985
30
0
10
6.3487142156179726
20
11.274727959223519
30
0
10
6.3455170857433636
20
11.302313634668421
30
0
10
6.3337537899898599
20
11.335616030045127
30
0
10
6.3126407529849997
20
11.362164911695038
30
0
10
6.2917871525995688
20
11.388387561164173
30
0
10
6.2643577749662773
20
11.405849333970394
30
0
10
6.2407250474405238
20
11.415288670029291
30
0
10
6.2099624822882502
20
11.427575791360908
30
0
10
6.1849089317152242
20
11.42936932602918
30
0
10
6.1633325789881779
20
11.42936932602918
30
0
0
SPLINE
5
342
100
AcDbEntity
8
0
100
AcDbSpline
70
0
71
3
72
11
73
7
74
0
42
0.000000001
43
0.0000000001
44
0.0000000001
40
-1
40
-1
40
-1
40
-1
40
-0.62495423666491079
40
-0.62495423666491079
40
-0.62495423666491079
40
-1.368011071940313e-06
40
-1.368011071940313e-06
40
-1.368011071940313e-06
40
-1.368011071940313e-06
10
6.1633325789881779
20
11.42936932602918
30
0
10
6.1281862929867588
20
11.42936932602918
30
0
10
6.0973015737804479
20
11.42275039430103
30
0
10
6.0677457254325153
20
11.413457998398446
30
0
10
6.0184957031251463
20
11.397973729427251
30
0
10
5.9719322122647203
20
11.374388115438713
30
0
10
5.9211986787379347
20
11.343772929469653
30
0
0
SPLINE
5
343
100
AcDbEntity
8
0
100
AcDbSpline
70
0
71
3
72
11
73
7
74
0
42
0.000000001
43
0.0000000001
44
0.0000000001
40
-1
40
-1
40
-1
40
-1
40
0
40
0
40
0
40
0.002868710525884114
40
0.002868710525884114
40
0.002868710525884114
40
0.002868710525884114
10
5.9211986787382447
20
11.343772929469328
30
0
10
5.8353917880319512
20
11.291992972041189
30
0
10
5.7607632276859819
20
11.225949739112574
30
0
10
5.7005364430966647
20
11.147654795529537
30
0
10
5.700396505772269
20
11.147472876720597
30
0
10
5.7002565684478732
20
11.147290957911657
30
0
10
5.7001166311234401
20
11.14710903910267
30
0
0
SPLINE
5
344
100
AcDbEntity
8
0
100
AcDbSpline
70
0
71
3
72
11
73
7
74
0
42
0.000000001
43
0.0000000001
44
0.0000000001
40
-1.0014171731789809
40
-1.0014171731789809
40
-1.0014171731789809
40
-1.0014171731789809
40
-1
40
-1
40
-1
40
-0.88340617925574449
40
-0.88340617925574449
40
-0.88340617925574449
40
-0.88340617925574449
10
5.7001166311294682
20
11.147109039098382
30
0
10
5.6999783701085569
20
11.146925843706823
30
0
10
5.6998401090877326
20
11.146742648315382
30
0
10
5.6997018480669102
20
11.146559452923938
30
0
10
5.6868707711373068
20
11.129558318788368
30
0
10
5.6735874875551868
20
11.111132524393435
30
0
10
5.6597722535597565
20
11.091205515877967
30
0
0
SPLINE
5
345
100
AcDbEntity
8
0
100
AcDbSpline
70
0
71
3
72
8
73
4
74
0
42
0.000000001
43
0.0000000001
44
0.0000000001
40
-0.50689058851469337
40
-0.50689058851469337
40
-0.50689058851469337
40
-0.50689058851469337
40
0
40
0
40
0
40
0
10
5.6597722535597681
20
11.091205515878015
30
0
10
5.6678343259838764
20
11.12472926629629
30
0
10
5.6730885831414515
20
11.156152731969607
30
0
10
5.6730885831414515
20
11.191564456625191
30
0
0
SPLINE
5
346
100
AcDbEntity
8
0
100
AcDbSpline
70
0
71
3
72
17
73
13
74
0
42
0.000000001
43
0.0000000001
44
0.0000000001
40
-1
40
-1
40
-1
40
-1
40
-0.8950527960288881
40
-0.8950527960288881
40
-0.8950527960288881
40
-0.53763098960431521
40
-0.53763098960431521
40
-0.53763098960431521
40
-0.2737829785507791
40
-0.2737829785507791
40
-0.2737829785507791
40
0
40
0
40
0
40
0
10
5.6730885831414515
20
11.191564456625191
30
0
10
5.6730885831414515
20
11.201205933982321
30
0
10
5.6727557277410074
20
11.210891196778682
30
0
10
5.6719876852131561
20
11.220716688826272
30
0
10
5.6693719399876663
20
11.254179658622267
30
0
10
5.6625822483305388
20
11.290437727802621
30
0
10
5.6407034827902596
20
11.328597840518679
30
0
10
5.6245526249848679
20
11.356767553895791
30
0
10
5.5982780245843564
20
11.385133270782848
30
0
10
5.5660533554829188
20
11.403356265346785
30
0
10
5.5326152944788713
20
11.422265430930061
30
0
10
5.4957700419860274
20
11.429369138298016
30
0
10
5.464552128692902
20
11.429369138298016
30
0
0
SPLINE
5
347
100
AcDbEntity
8
0
100
AcDbSpline
70
0
71
3
72
14
73
10
74
0
42
0.000000001
43
0.0000000001
44
0.0000000001
40
-1
40
-1
40
-1
40
-1
40
-0.89355482383136131
40
-0.89355482383136131
40
-0.89355482383136131
40
-0.5
40
-0.5
40
-0.5
40
0
40
0
40
0
40
0
10
5.464552128692902
20
11.429369138298016
30
0
10
5.4499032344855989
20
11.429369138298016
30
0
10
5.435933800339563
20
11.428114666674086
30
0
10
5.4225460505266341
20
11.426032151369963
30
0
10
5.3730481426949224
20
11.418332563909637
30
0
10
5.3308726142730949
20
11.400622369837274
30
0
10
5.287485644545816
20
11.37770675876841
30
0
10
5.2323637566918002
20
11.348593138910097
30
0
10
5.1755657843950305
20
11.30968749660556
30
0
10
5.1124495172080415
20
11.260377997206792
30
0
0
SPLINE
5
348
100
AcDbEntity
8
0
100
AcDbSpline
70
0
71
3
72
8
73
4
74
0
42
0.000000001
43
0.0000000001
44
0.0000000001
40
-1
40
-1
40
-1
40
-1
40
-0.67367104877468076
40
-0.67367104877468076
40
-0.67367104877468076
40
-0.67367104877468076
10
5.1124493602700278
20
11.26037787459901
30
0
10
5.0728259018243502
20
11.229422015919482
30
0
10
5.03434450925511
20
11.198209442597422
30
0
10
4.9970068919926387
20
11.166732700832119
30
0
0
SPLINE
5
349
100
AcDbEntity
8
0
100
AcDbSpline
70
0
71
3
72
8
73
4
74
0
42
0.000000001
43
0.0000000001
44
0.0000000001
40
-0.02798065864408775
40
-0.02798065864408775
40
-0.02798065864408775
40
-0.02798065864408775
40
-6.0658406419552439e-05
40
-6.0658406419552439e-05
40
-6.0658406419552439e-05
40
-6.0658406419552439e-05
10
4.9970068919926387
20
11.166732700832119
30
0
10
5.004933560101672
20
11.180915128879066
30
0
10
5.0129507264700024
20
11.195262354527648
30
0
10
5.0210579706247609
20
11.209773625267916
30
0
0
SPLINE
5
350
100
AcDbEntity
8
0
100
AcDbSpline
70
0
71
3
72
11
73
7
74
0
42
0.000000001
43
0.0000000001
44
0.0000000001
40
-1
40
-1
40
-1
40
-1
40
0
40
0
40
0
40
0.0013064234813167054
40
0.0013064234813167054
40
0.0013064234813167054
40
0.0013064234813167054
10
5.0210579364816601
20
11.209773644338458
30
0
10
5.170168914048042
20
11.476217543770868
30
0
10
5.4360233831895135
20
11.955490447656576
30
0
10
5.8189983813509185
20
12.648260956882842
30
0
10
5.8194986455487872
20
12.64916589397996
30
0
10
5.8199989097466558
20
12.65007083107708
30
0
10
5.8204991739445253
20
12.650975768174199
30
0
0
SPLINE
5
351
100
AcDbEntity
8
0
100
AcDbSpline
70
0
71
3
72
17
73
13
74
0
42
0.000000001
43
0.0000000001
44
0.0000000001
40
-1.0059247820716264
40
-1.0059247820716264
40
-1.0059247820716264
40
-1.0059247820716264
40
-1
40
-1
40
-1
40
-0.91706622896524648
40
-0.91706622896524648
40
-0.91706622896524648
40
-0.31881209013196593
40
-0.31881209013196593
40
-0.31881209013196593
40
0
40
0
40
0
40
0
10
5.8204991739446008
20
12.650975768174179
30
0
10
5.820961597891773
20
12.651900613843992
30
0
10
5.8214240218389541
20
12.652825459513823
30
0
10
5.8218864457861343
20
12.65375030518365
30
0
10
5.828614339539218
20
12.667206060324673
30
0
10
5.8350862237989469
20
12.680341506278035
30
0
10
5.8413038968822164
20
12.693163392183296
30
0
10
5.8861559349550925
20
12.785655825781374
30
0
10
5.9178410010190383
20
12.860422764124436
30
0
10
5.9370273375165006
20
12.926978743417424
30
0
10
5.9472518151150346
20
12.962446698408188
30
0
10
5.9547960914989426
20
12.995173268982828
30
0
10
5.9547960914989426
20
13.035466714108967
30
0
0
SPLINE
5
352
100
AcDbEntity
8
0
100
AcDbSpline
70
0
71
3
72
17
73
13
74
0
42
0.000000001
43
0.0000000001
44
0.0000000001
40
-1
40
-1
40
-1
40
-1
40
-0.8825316522758293
40
-0.8825316522758293
40
-0.8825316522758293
40
-0.52319529174268653
40
-0.52319529174268653
40
-0.52319529174268653
40
-0.26484766007937355
40
-0.26484766007937355
40
-0.26484766007937355
40
0
40
0
40
0
40
0
10
5.9547960914989426
20
13.035466714108967
30
0
10
5.9547960914989426
20
13.041429703126838
30
0
10
5.9545836364270777
20
13.047687195935067
30
0
10
5.9540272999663939
20
13.054374692832104
30
0
10
5.9523254634897009
20
13.074831784828502
30
0
10
5.9483965879829572
20
13.100380507088483
30
0
10
5.9309770768066343
20
13.130963212086648
30
0
10
5.9184531856800628
20
13.152950882341926
30
0
10
5.8970035881889045
20
13.176968648111263
30
0
10
5.8698185569841055
20
13.192638513734604
30
0
10
5.8419495501833802
20
13.208702633298545
30
0
10
5.8109207289459874
20
13.214735129064408
30
0
10
5.78650319135342
20
13.214735129064408
30
0
0
SPLINE
5
353
100
AcDbEntity
8
0
100
AcDbSpline
70
0
71
3
72
17
73
13
74
0
42
0.000000001
43
0.0000000001
44
0.0000000001
40
-1
40
-1
40
-1
40
-1
40
-0.95520861767630127
40
-0.95520861767630127
40
-0.95520861767630127
40
-0.75399955270346064
40
-0.75399955270346064
40
-0.75399955270346064
40
-0.5
40
-0.5
40
-0.5
40
-0.0024415856038985254
40
-0.0024415856038985254
40
-0.0024415856038985254
40
-0.0024415856038985254
10
5.78650319135342
20
13.214735129064408
30
0
10
5.7779136293556768
20
13.214735129064408
30
0
10
5.7697805442297732
20
13.214111364667474
30
0
10
5.7621648437209823
20
13.21307252883922
30
0
10
5.7279540670270856
20
13.208405935070063
30
0
10
5.7045682800921602
20
13.196898327150336
30
0
10
5.6852725145660852
20
13.185629527491496
30
0
10
5.6609141894908435
20
13.171404174010345
30
0
10
5.6423828239745406
20
13.155988477526254
30
0
10
5.6240696947601201
20
13.138983419381166
30
0
10
5.5881962003481211
20
13.105672298643642
30
0
10
5.5538244175861893
20
13.065293754480932
30
0
10
5.5145300458806181
20
13.014260979922945
30
0
0
SPLINE
5
354
100
AcDbEntity
8
0
100
AcDbSpline
70
0
71
3
72
11
73
7
74
0
42
0.000000001
43
0.0000000001
44
0.0000000001
40
-0.99916637086514293
40
-0.99916637086514293
40
-0.99916637086514293
40
-0.99916637086514293
40
-0.63734094353296344
40
-0.63734094353296344
40
-0.63734094353296344
40
-0.086920092034246582
40
-0.086920092034246582
40
-0.086920092034246582
40
-0.086920092034246582
10
5.514530045880627
20
13.014260979922936
30
0
10
5.430235430026336
20
12.907409447777111
30
0
10
5.33174329226628
20
12.765892073473969
30
0
10
5.2165011491989581
20
12.58732000908403
30
0
10
5.0411909754962725
20
12.31567025671559
30
0
10
4.8276390238192182
20
11.958598726448493
30
0
10
4.5748342700364253
20
11.514805012750172
30
0
0
SPLINE
5
355
100
AcDbEntity
8
0
100
AcDbSpline
70
0
71
3
72
14
73
10
74
0
42
0.000000001
43
0.0000000001
44
0.0000000001
40
0.043925123893341043
40
0.043925123893341043
40
0.043925123893341043
40
0.043925123893341043
40
0.50437705941430533
40
0.50437705941430533
40
0.50437705941430533
40
0.89137478707583884
40
0.89137478707583884
40
0.89137478707583884
40
0.99516586648801819
40
0.99516586648801819
40
0.99516586648801819
40
0.99516586648801819
10
4.5748342700364253
20
11.514805012750173
30
0
10
4.5463869154453302
20
11.608754129958006
30
0
10
4.5226265832940058
20
11.690721660368819
30
0
10
4.504593350665079
20
11.756496721372365
30
0
10
4.4894368934728845
20
11.81177892822501
30
0
10
4.4782725255277045
20
11.856080276852296
30
0
10
4.4722046043334052
20
11.883674569197202
30
0
10
4.4705772146989755
20
11.891075236393361
30
0
10
4.4693229444983844
20
11.897234114088933
30
0
10
4.4684880661118154
20
11.901686275906609
30
0
0
SPLINE
5
356
100
AcDbEntity
8
0
100
AcDbSpline
70
0
71
3
72
17
73
13
74
0
42
0.000000001
43
0.0000000001
44
0.0000000001
40
0.0086559021179616578
40
0.0086559021179616578
40
0.0086559021179616578
40
0.0086559021179616578
40
0.18545591072562262
40
0.18545591072562262
40
0.18545591072562262
40
0.62179876121941591
40
0.62179876121941591
40
0.62179876121941591
40
1
40
1
40
1
40
1.0002905289874
40
1.0002905289874
40
1.0002905289874
40
1.0002905289874
10
4.468488066111945
20
11.901686275906632
30
0
10
4.4681034910585069
20
11.903932397516384
30
0
10
4.4662506432692561
20
11.918801432625225
30
0
10
4.4651030541294947
20
11.937812807979002
30
0
10
4.4622708013463495
20
11.984732928509558
30
0
10
4.461892492722078
20
12.060900387474634
30
0
10
4.4646729888814569
20
12.136986509103755
30
0
10
4.4670829907657827
20
12.202934342147376
30
0
10
4.4718286296888863
20
12.270149851940761
30
0
10
4.4779281836352567
20
12.320753558755092
30
0
10
4.477933627799791
20
12.320798725157157
30
0
10
4.4779390719643262
20
12.32084389155923
30
0
10
4.477944516128888
20
12.320889057961521
30
0
0
SPLINE
5
357
100
AcDbEntity
8
0
100
AcDbSpline
70
0
71
3
72
20
73
16
74
0
42
0.000000001
43
0.0000000001
44
0.0000000001
40
-0.00027792618362141425
40
-0.00027792618362141425
40
-0.00027792618362141425
40
-0.00027792618362141425
40
0
40
0
40
0
40
0.5
40
0.5
40
0.5
40
0.81628525351763304
40
0.81628525351763304
40
0.81628525351763304
40
1
40
1
40
1
40
1.0006706190913455
40
1.0006706190913455
40
1.0006706190913455
40
1.0006706190913455
10
4.4779445164468648
20
12.320889057922642
30
0
10
4.4779499173390729
20
12.320934386839399
30
0
10
4.477955318231186
20
12.320979715755341
30
0
10
4.4779607191232929
20
12.321025044671243
30
0
10
4.4887065652716229
20
12.41121339627329
30
0
10
4.4954303327790415
20
12.515719286499692
30
0
10
4.4983610209831619
20
12.613256253293097
30
0
10
4.500214887906405
20
12.674955261832286
30
0
10
4.5005265692720666
20
12.733375488440775
30
0
10
4.4988539877592553
20
12.784346335705656
30
0
10
4.4978824663709522
20
12.813952825983387
30
0
10
4.4963499979865311
20
12.84076599432869
30
0
10
4.4933406134123262
20
12.867098109352982
30
0
10
4.4933331665400855
20
12.867163269485081
30
0
10
4.493325719667844
20
12.867228429617192
30
0
10
4.4933182727955057
20
12.867293589750167
30
0
0
SPLINE
5
358
100
AcDbEntity
8
0
100
AcDbSpline
70
0
71
3
72
14
73
10
74
0
42
0.000000001
43
0.0000000001
44
0.0000000001
40
-0.00043644231731026595
40
-0.00043644231731026595
40
-0.00043644231731026595
40
-0.00043644231731026595
40
0
40
0
40
0
40
0.90685266871698655
40
0.90685266871698655
40
0.90685266871698655
40
1
40
1
40
1
40
1
10
4.4933182727336325
20
12.867293589741665
30
0
10
4.493310700136159
20
12.867358714079931
30
0
10
4.4933031275387352
20
12.867423838417773
30
0
10
4.4932955549413096
20
12.867488962755631
30
0
10
4.4753208242065812
20
13.022071647074293
30
0
10
4.4357163635594157
20
13.176854770067139
30
0
10
4.3790270812751659
20
13.312039520841042
30
0
10
4.3732042441823475
20
13.325925016466877
30
0
10
4.3671844115521008
20
13.339609739376401
30
0
10
4.3609555666198068
20
13.353079616542487
30
0
0
SPLINE
5
359
100
AcDbEntity
8
0
100
AcDbSpline
70
0
71
3
72
14
73
10
74
0
42
0.000000001
43
0.0000000001
44
0.0000000001
40
6.8515338464399551e-05
40
6.8515338464399551e-05
40
6.8515338464399551e-05
40
6.8515338464399551e-05
40
0.4962080696772504
40
0.4962080696772504
40
0.4962080696772504
40
1
40
1
40
1
40
1.0006419704217324
40
1.0006419704217324
40
1.0006419704217324
40
1.0006419704217324
10
4.3609555727556355
20
13.353079619322646
30
0
10
4.3010871254887535
20
13.482623893492997
30
0
10
4.210176394169344
20
13.600534537109068
30
0
10
4.1025681673699355
20
13.704953773122023
30
0
10
3.9933002087405693
20
13.810983554488478
30
0
10
3.8666384705389603
20
13.902466331191212
30
0
10
3.7299379413856171
20
13.966571237719645
30
0
10
3.7297944754158863
20
13.966638515239609
30
0
10
3.7296510094461519
20
13.96670579275958
30
0
10
3.7295075434765028
20
13.966773070279507
30
0
0
SPLINE
5
360
100
AcDbEntity
8
0
100
AcDbSpline
70
0
71
3
72
17
73
13
74
0
42
0.000000001
43
0.0000000001
44
0.0000000001
40
-0.0010903705071751996
40
-0.0010903705071751996
40
-0.0010903705071751996
40
-0.0010903705071751996
40
0
40
0
40
0
40
0.69395549180741101
40
0.69395549180741101
40
0.69395549180741101
40
1
40
1
40
1
40
1.001100774586928
40
1.001100774586928
40
1.001100774586928
40
1.001100774586928
10
3.7295075434702891
20
13.966773070267047
30
0
10
3.7293637610783645
20
13.966839664216991
30
0
10
3.729219978686225
20
13.966906258167034
30
0
10
3.7290761962940824
20
13.966972852117079
30
0
10
3.6147601985042068
20
14.019919208988179
30
0
10
3.4798080021916236
20
14.057792501519277
30
0
10
3.327492598765128
20
14.085748594320071
30
0
10
3.2603192810493078
20
14.098077639587689
30
0
10
3.1899096576480281
20
14.108258466871947
30
0
10
3.1169627261911699
20
14.116187481160736
30
0
10
3.1167167277958536
20
14.116214220116747
30
0
10
3.1164707294005396
20
14.116240959072762
30
0
10
3.1162247310052722
20
14.116267698028766
30
0
0
SPLINE
5
361
100
AcDbEntity
8
0
100
AcDbSpline
70
0
71
3
72
20
73
16
74
0
42
0.000000001
43
0.0000000001
44
0.0000000001
40
-0.0021114637106699847
40
-0.0021114637106699847
40
-0.0021114637106699847
40
-0.0021114637106699847
40
0
40
0
40
0
40
0.32455594208971761
40
0.32455594208971761
40
0.32455594208971761
40
0.68978335402271518
40
0.68978335402271518
40
0.68978335402271518
40
0.96606210058907027
40
0.96606210058907027
40
0.96606210058907027
40
1
40
1
40
1
40
1
10
3.1162247310056936
20
14.116267698030706
30
0
10
3.115978540720389
20
14.11629261014291
30
0
10
3.1157323504353287
20
14.116317522255088
30
0
10
3.1154861601502697
20
14.116342434367267
30
0
10
3.0659173593939704
20
14.121358324919987
30
0
10
3.0103392465099965
20
14.123034062990476
30
0
10
2.9499718465837041
20
14.123161595589353
30
0
10
2.8820395539310271
20
14.123305109834467
30
0
10
2.8096133145592588
20
14.121147151291002
30
0
10
2.7432549834671303
20
14.116894325851991
30
0
10
2.693057774989986
20
14.113677247277749
30
0
10
2.6470931076489754
20
14.109493947300559
30
0
10
2.6051809493626408
20
14.102952488233516
30
0
10
2.6000324874208718
20
14.102148939706613
30
0
10
2.5949230426128724
20
14.101301910264901
30
0
10
2.5898200460342973
20
14.100395456925286
30
0
0
SPLINE
5
362
100
AcDbEntity
8
0
100
AcDbSpline
70
0
71
3
72
20
73
16
74
0
42
0.000000001
43
0.0000000001
44
0.0000000001
40
0.00046499038025483292
40
0.00046499038025483292
40
0.00046499038025483292
40
0.00046499038025483292
40
0.5
40
0.5
40
0.5
40
0.75
40
0.75
40
0.75
40
0.88863193117147865
40
0.88863193117147865
40
0.88863193117147865
40
1
40
1
40
1
40
1.0022864353149459
40
1.0022864353149459
40
1.0022864353149459
40
1.0022864353149459
10
2.5898200177030546
20
14.100395617538434
30
0
10
2.493912948012329
20
14.083479123923395
30
0
10
2.3806813288112694
20
14.055540946016155
30
0
10
2.279270463075505
20
14.0265401916519
30
0
10
2.2285178312364669
20
14.012026316845441
30
0
10
2.181209534681825
20
13.997341586977869
30
0
10
2.1401163554073661
20
13.983003007068037
30
0
10
2.1173290482041902
20
13.975051866975409
30
0
10
2.0965708492011257
20
13.967300822888616
30
0
10
2.076537711351091
20
13.958770374829713
30
0
10
2.0604443636202983
20
13.9519175558685
30
0
10
2.0455391267621947
20
13.945416590759921
30
0
10
2.0250477816620442
20
13.933020591872177
30
0
10
2.0249192465008847
20
13.932942836033943
30
0
10
2.0247907113398202
20
13.932865080195768
30
0
10
2.0246621761791599
20
13.93278732435784
30
0
0
SPLINE
5
363
100
AcDbEntity
8
0
100
AcDbSpline
70
0
71
3
72
14
73
10
74
0
42
0.000000001
43
0.0000000001
44
0.0000000001
40
-0.0017101464717255497
40
-0.0017101464717255497
40
-0.0017101464717255497
40
-0.0017101464717255497
40
0
40
0
40
0
40
0.23047341218399289
40
0.23047341218399289
40
0.23047341218399289
40
0.27227366895495037
40
0.27227366895495037
40
0.27227366895495037
40
0.27227366895495037
10
2.0246621761752022
20
13.932787324364122
30
0
10
2.0245339918054648
20
13.932708989471507
30
0
10
2.0244058074358136
20
13.93263065457894
30
0
10
2.0242776230661379
20
13.93255231968636
30
0
10
1.9916920289687108
20
13.912638901071265
30
0
10
1.9639150170675046
20
13.89083254956121
30
0
10
1.9294773381212031
20
13.862120458953067
30
0
10
1.9232314817818088
20
13.856913035031676
30
0
10
1.916835029441742
20
13.851507394013012
30
0
10
1.9102037340898916
20
13.845835027715964
30
0
0
SPLINE
5
364
100
AcDbEntity
8
0
100
AcDbSpline
70
0
71
3
72
14
73
10
74
0
42
0.000000001
43
0.0000000001
44
0.0000000001
40
0.5239670514476189
40
0.5239670514476189
40
0.5239670514476189
40
0.5239670514476189
40
0.82673601793383455
40
0.82673601793383455
40
0.82673601793383455
40
1
40
1
40
1
40
1.0003014358474716
40
1.0003014358474716
40
1.0003014358474716
40
1.0003014358474716
10
1.9102037340898905
20
13.845835027715964
30
0
10
1.9618176897375381
20
13.93501245879372
30
0
10
1.9981177115959869
20
14.009659061154705
30
0
10
2.0268532746192509
20
14.083248562501014
30
0
10
2.0432976220505807
20
14.125361234052194
30
0
10
2.057129722446061
20
14.166535739558549
30
0
10
2.070378708412957
20
14.20911257795702
30
0
10
2.0704002565699375
20
14.209181824946931
30
0
10
2.0704218047269207
20
14.209251071936844
30
0
10
2.070443352883959
20
14.209320318926936
30
0
0
SPLINE
5
365
100
AcDbEntity
8
0
100
AcDbSpline
70
0
71
3
72
17
73
13
74
0
42
0.000000001
43
0.0000000001
44
0.0000000001
40
-0.00020418797134731615
40
-0.00020418797134731615
40
-0.00020418797134731615
40
-0.00020418797134731615
40
0
40
0
40
0
40
0.48561732493250553
40
0.48561732493250553
40
0.48561732493250553
40
1
40
1
40
1
40
1.0001223377955342
40
1.0001223377955342
40
1.0001223377955342
40
1.0001223377955342
10
2.0704433528959867
20
14.209320318923009
30
0
10
2.0704647514836116
20
14.209389616335914
30
0
10
2.0704861500712313
20
14.209458913748803
30
0
10
2.0705075486588536
20
14.209528211161699
30
0
10
2.1338154636624127
20
14.414545233921567
30
0
10
2.1343935403812999
20
14.639316944487781
30
0
10
2.0889832345302422
20
14.86127660498048
30
0
10
2.0408830671761495
20
15.096383958156514
30
0
10
1.9403093323655902
20
15.329581027143218
30
0
10
1.7919737616114049
20
15.533441114819052
30
0
10
1.7919426859956225
20
15.533483822564239
30
0
10
1.7919116103798312
20
15.533526530309439
30
0
10
1.7918805347638582
20
15.53356923805489
30
0
0
SPLINE
5
366
100
AcDbEntity
8
0
100
AcDbSpline
70
0
71
3
72
11
73
7
74
0
42
0.000000001
43
0.0000000001
44
0.0000000001
40
-0.00037737082130327422
40
-0.00037737082130327422
40
-0.00037737082130327422
40
-0.00037737082130327422
40
0
40
0
40
0
40
0.40170882657105433
40
0.40170882657105433
40
0.40170882657105433
40
0.40170882657105433
10
1.7918805348413378
20
15.533569238110179
30
0
10
1.791849367964067
20
15.533611928874842
30
0
10
1.7918182010871553
20
15.533654619639016
30
0
10
1.7917870342102562
20
15.53369731040317
30
0
10
1.7503931855936008
20
15.59039644758397
30
0
10
1.7028803462235782
20
15.642365995686076
30
0
10
1.6495050087708794
20
15.689894633030224
30
0
0
ARC
5
367
100
AcDbEntity
8
0
100
AcDbCircle
10
1.5309495918575511
20
15.938026882286009
30
0
40
0.27500000000041414
210
-8.8209598204877239e-33
220
-4.2145773966511391e-33
230
1
100
AcDbArc
50
-64.461937284681639
51
182.17441997089935
0
SPLINE
5
368
100
AcDbEntity
8
0
100
AcDbSpline
70
0
71
3
72
11
73
7
74
0
42
0.000000001
43
0.0000000001
44
0.0000000001
40
-0.6219527052963667
40
-0.6219527052963667
40
-0.6219527052963667
40
-0.6219527052963667
40
0
40
0
40
0
40
0.002363496729873381
40
0.002363496729873381
40
0.002363496729873381
40
0.002363496729873381
10
3.9189387641656883
20
10.494433133860129
30
0
10
3.7966668884852917
20
10.361381109200554
30
0
10
3.6966713719381854
20
10.259229851893386
30
0
10
3.6212601027385576
20
10.18951001714551
30
0
10
3.6209545772365037
20
10.189227550244468
30
0
10
3.6206490517344494
20
10.188945083343425
30
0
10
3.6203435262323826
20
10.188662616442372
30
0
0
SPLINE
5
369
100
AcDbEntity
8
0
100
AcDbSpline
70
0
71
3
72
14
73
10
74
0
42
0.000000001
43
0.0000000001
44
0.0000000001
40
-1.0018135421577723
40
-1.0018135421577723
40
-1.0018135421577723
40
-1.0018135421577723
40
-1
40
-1
40
-1
40
-0.42569491356075784
40
-0.42569491356075784
40
-0.42569491356075784
40
-0.31136900556747416
40
-0.31136900556747416
40
-0.31136900556747416
40
-0.31136900556747416
10
3.6203435262310086
20
10.188662616443768
30
0
10
3.6200427439615028
20
10.188375103880135
30
0
10
3.6197419616919682
20
10.188087591316476
30
0
10
3.6194411794224335
20
10.187800078752815
30
0
10
3.5310519907488405
20
10.103310383682885
30
0
10
3.454320932180079
20
10.047262522248072
30
0
10
3.3974719922500083
20
10.018553068815049
30
0
10
3.386155173316264
20
10.012837928188189
30
0
10
3.3755837567561753
20
10.008143386766463
30
0
10
3.3660962607648481
20
10.004462180763284
30
0
0
SPLINE
5
370
100
AcDbEntity
8
0
100
AcDbSpline
70
0
71
3
72
11
73
7
74
0
42
0.000000001
43
0.0000000001
44
0.0000000001
40
-0.86931020540567749
40
-0.86931020540567749
40
-0.86931020540567749
40
-0.86931020540567749
40
-0.75394724482480235
40
-0.75394724482480235
40
-0.75394724482480235
40
0
40
0
40
0
40
0
10
3.366096260764849
20
10.004462180763284
30
0
10
3.3670397969657939
20
10.014620737687077
30
0
10
3.3684446742808452
20
10.025627343686812
30
0
10
3.3703623545656298
20
10.037428610179411
30
0
10
3.3828952313216361
20
10.114555031976657
30
0
10
3.4183244918692841
20
10.22467293047103
30
0
10
3.4793064533561262
20
10.359704391076153
30
0
0
SPLINE
5
371
100
AcDbEntity
8
0
100
AcDbSpline
70
0
71
3
72
8
73
4
74
0
42
0.000000001
43
0.0000000001
44
0.0000000001
40
-1
40
-1
40
-1
40
-1
40
-0.19228369617779428
40
-0.19228369617779428
40
-0.19228369617779428
40
-0.19228369617779428
10
3.4793064533561262
20
10.359704391076153
30
0
10
3.5446633120983697
20
10.504423122342811
30
0
10
3.6188878563868396
20
10.635104693267648
30
0
10
3.7017605853385867
20
10.752291268808909
30
0
0
LINE
5
372
100
AcDbEntity
8
0
100
AcDbLine
10
3.7017605853385867
20
10.752291268808909
30
0
11
3.6950931687959874
21
10.740456592899017
31
0
0
LINE
5
373
100
AcDbEntity
8
0
100
AcDbLine
10
3.6950931687959874
20
10.740456592899017
30
0
11
3.6718691445735767
21
10.670783725759145
31
0
0
SPLINE
5
374
100
AcDbEntity
8
0
100
AcDbSpline
70
0
71
3
72
23
73
19
74
0
42
0.000000001
43
0.0000000001
44
0.0000000001
40
-1.665336964825179
40
-1.665336964825179
40
-1.665336964825179
40
-1.665336964825179
40
-1.5218292845235166
40
-1.5218292845235166
40
-1.5218292845235166
40
-1
40
-1
40
-1
40
-0.94846370822309334
40
-0.94846370822309334
40
-0.94846370822309334
40
-0.61818130135435889
40
-0.61818130135435889
40
-0.61818130135435889
40
-0.32407820480849514
40
-0.32407820480849514
40
-0.32407820480849514
40
0
40
0
40
0
40
0
10
3.6718691445735767
20
10.670783725759145
30
0
10
3.6718691445735767
20
10.669033647236381
30
0
10
3.6718691445735767
20
10.667283568713616
30
0
10
3.6718691445735767
20
10.665533490190853
30
0
10
3.6718691445735767
20
10.659169773479146
30
0
10
3.6718691445735767
20
10.652806056767439
30
0
10
3.6718691445735767
20
10.646442340055733
30
0
10
3.6718691445735767
20
10.643237039540615
30
0
10
3.6719513274284163
20
10.63991489286034
30
0
10
3.6721386751394949
20
10.636466982685782
30
0
10
3.6733393368635521
20
10.614370242081121
30
0
10
3.6789406204120385
20
10.585419641656577
30
0
10
3.6969163073335229
20
10.556316212271691
30
0
10
3.7129229279593945
20
10.530400788003876
30
0
10
3.7393534697973765
20
10.507290948427098
30
0
10
3.7653760426848439
20
10.494814137106818
30
0
10
3.7940508468773708
20
10.481065684057874
30
0
10
3.8200056199758494
20
10.478149815372539
30
0
10
3.840161669256771
20
10.478149815372539
30
0
0
SPLINE
5
375
100
AcDbEntity
8
0
100
AcDbSpline
70
0
71
3
72
11
73
7
74
0
42
0.000000001
43
0.0000000001
44
0.0000000001
40
-1
40
-1
40
-1
40
-1
40
-0.8427846605935061
40
-0.8427846605935061
40
-0.8427846605935061
40
-0.68425782340005925
40
-0.68425782340005925
40
-0.68425782340005925
40
-0.68425782340005925
10
3.840161669256771
20
10.478149815372539
30
0
10
3.8579681482853552
20
10.478149815372539
30
0
10
3.872579502353517
20
10.480576664578953
30
0
10
3.8852524256715699
20
10.483599504736583
30
0
10
3.8980310671145117
20
10.486647561569583
30
0
10
3.9089039316950016
20
10.49040169882772
30
0
10
3.9189387641656883
20
10.494433133860133
30
0
0
SPLINE
5
376
100
AcDbEntity
8
0
100
AcDbSpline
70
0
71
2
72
6
73
3
74
0
42
0.000000001
43
0.0000000001
44
0.0000000001
40
0.018240484912828911
40
0.018240484912828911
40
0.018240484912828911
40
0.060757095974648082
40
0.060757095974648082
40
0.060757095974648082
10
1.6561974111747622
20
10.308733568503429
30
0
10
1.6691386500370129
20
10.33285961431646
30
0
10
1.6817888995135486
20
10.356297867221086
30
0
0
SPLINE
5
377
100
AcDbEntity
8
0
100
AcDbSpline
70
0
71
2
72
6
73
3
74
0
42
0.000000001
43
0.0000000001
44
0.0000000001
40
0.060757095974648151
40
0.060757095974648151
40
0.060757095974648151
40
1
40
1
40
1
10
1.6817888995135486
20
10.356297867221082
30
0
10
1.9612480746042027
20
10.874076969873702
30
0
10
2.09869830092354
20
11.056198647582569
30
0
0
SPLINE
5
378
100
AcDbEntity
8
0
100
AcDbSpline
70
0
71
2
72
6
73
3
74
0
42
0.000000001
43
0.0000000001
44
0.0000000001
40
0
40
0
40
0
40
1
40
1
40
1
10
2.09869830092354
20
11.056198647582569
30
0
10
2.1718689628498096
20
11.151320526859836
30
0
10
2.2779665446681574
20
11.215344738713343
30
0
0
SPLINE
5
379
100
AcDbEntity
8
0
100
AcDbSpline
70
0
71
2
72
6
73
3
74
0
42
0.000000001
43
0.0000000001
44
0.0000000001
40
0
40
0
40
0
40
1
40
1
40
1
10
2.2779665446681574
20
11.215344738713343
30
0
10
2.3840641264865052
20
11.279369138298016
30
0
10
2.4426007686662197
20
11.279369138298016
30
0
0
SPLINE
5
380
100
AcDbEntity
8
0
100
AcDbSpline
70
0
71
2
72
6
73
3
74
0
42
0.000000001
43
0.0000000001
44
0.0000000001
40
0
40
0
40
0
40
1
40
1
40
1
10
2.4426007686662197
20
11.279369138298016
30
0
10
2.4791861934949369
20
11.279369138298016
30
0
10
2.4791861934949369
20
11.25375941601038
30
0
0
SPLINE
5
381
100
AcDbEntity
8
0
100
AcDbSpline
70
0
71
2
72
6
73
3
74
0
42
0.000000001
43
0.0000000001
44
0.0000000001
40
0
40
0
40
0
40
1
40
1
40
1
10
2.4791861934949369
20
11.25375941601038
30
0
10
2.4791861934949369
20
11.239125396263825
30
0
10
2.4645517982860525
20
11.213515486245024
30
0
0
SPLINE
5
382
100
AcDbEntity
8
0
100
AcDbSpline
70
0
71
2
72
6
73
3
74
0
42
0.000000001
43
0.0000000001
44
0.0000000001
40
0
40
0
40
0
40
1
40
1
40
1
10
2.4645517982860525
20
11.213515486245024
30
0
10
2.4572347884127748
20
11.198881466498468
30
0
10
2.3145519694968746
20
10.970223030646899
30
0
0
SPLINE
5
383
100
AcDbEntity
8
0
100
AcDbSpline
70
0
71
2
72
6
73
3
74
0
42
0.000000001
43
0.0000000001
44
0.0000000001
40
0
40
0
40
0
40
1
40
1
40
1
10
2.3145519694968746
20
10.970223030646899
30
0
10
2.1718689628498096
20
10.741564407064164
30
0
10
2.0840640934458206
20
10.576930370797266
30
0
0
SPLINE
5
384
100
AcDbEntity
8
0
100
AcDbSpline
70
0
71
2
72
6
73
3
74
0
42
0.000000001
43
0.0000000001
44
0.0000000001
40
0
40
0
40
0
40
0.6375847234764348
40
0.6375847234764348
40
0.6375847234764348
10
2.0840640934458206
20
10.576930370797266
30
0
10
1.9301107241540463
20
10.294682427350246
30
0
10
1.8743156712504334
20
10.165621010953641
30
0
0
SPLINE
5
385
100
AcDbEntity
8
0
100
AcDbSpline
70
0
71
2
72
6
73
3
74
0
42
0.000000001
43
0.0000000001
44
0.0000000001
40
0.63758472347643513
40
0.63758472347643513
40
0.63758472347643513
40
1
40
1
40
1
10
1.8743156712504332
20
10.16562101095364
30
0
10
1.8426007025848499
20
10.092260048575396
30
0
10
1.8426007025848499
20
10.068393679056525
30
0
0
SPLINE
5
386
100
AcDbEntity
8
0
100
AcDbSpline
70
0
71
2
72
6
73
3
74
0
42
0.000000001
43
0.0000000001
44
0.0000000001
40
0
40
0
40
0
40
1
40
1
40
1
10
1.8426007025848499
20
10.068393679056525
30
0
10
1.8426007025848499
20
10.042783769037724
30
0
10
1.8645519199358471
20
10.042783769037724
30
0
0
SPLINE
5
387
100
AcDbEntity
8
0
100
AcDbSpline
70
0
71
2
72
6
73
3
74
0
42
0.000000001
43
0.0000000001
44
0.0000000001
40
0
40
0
40
0
40
0.97947459881737298
40
0.97947459881737298
40
0.97947459881737298
10
1.8645519199358471
20
10.042783769037724
30
0
10
1.8968030015874324
20
10.042783769037724
30
0
10
1.9746824650883394
20
10.10596199956195
30
0
0
SPLINE
5
388
100
AcDbEntity
8
0
100
AcDbSpline
70
0
71
2
72
6
73
3
74
0
42
0.000000001
43
0.0000000001
44
0.0000000001
40
0.97947459881737675
40
0.97947459881737675
40
0.97947459881737675
40
1
40
1
40
1
10
1.9746824650883403
20
10.105961999561952
30
0
10
1.9763144698735318
20
10.107285932340895
30
0
10
1.9779665116274727
20
10.10863760882188
30
0
0
SPLINE
5
389
100
AcDbEntity
8
0
100
AcDbSpline
70
0
71
2
72
6
73
3
74
0
42
0.000000001
43
0.0000000001
44
0.0000000001
40
0
40
0
40
0
40
1
40
1
40
1
10
1.9779665116274727
20
10.10863760882188
30
0
10
2.2157715852829689
20
10.313515574854135
30
0
10
2.5011372231147697
20
10.661076735264617
30
0
0
SPLINE
5
390
100
AcDbEntity
8
0
100
AcDbSpline
70
0
71
2
72
6
73
3
74
0
42
0.000000001
43
0.0000000001
44
0.0000000001
40
0
40
0
40
0
40
1
40
1
40
1
10
2.5011372231147697
20
10.661076735264617
30
0
10
2.6584544372395542
20
10.829369276468153
30
0
10
2.8304056711108943
20
11.100101082284564
30
0
0
SPLINE
5
391
100
AcDbEntity
8
0
100
AcDbSpline
70
0
71
2
72
6
73
3
74
0
42
0.000000001
43
0.0000000001
44
0.0000000001
40
0
40
0
40
0
40
1
40
1
40
1
10
2.8304056711108943
20
11.100101082284564
30
0
10
2.9474787677391583
20
11.279369138298016
30
0
10
3.1413812189614951
20
11.279369138298016
30
0
0
SPLINE
5
392
100
AcDbEntity
8
0
100
AcDbSpline
70
0
71
2
72
6
73
3
74
0
42
0.000000001
43
0.0000000001
44
0.0000000001
40
0
40
0
40
0
40
1
40
1
40
1
10
3.1413812189614951
20
11.279369138298016
30
0
10
3.1743077633912442
20
11.279369138298016
30
0
10
3.1743077633912442
20
11.250100911073741
30
0
0
LINE
5
393
100
AcDbEntity
8
0
100
AcDbLine
10
3.1743077633912442
20
11.250100911073741
30
0
11
3.145039723898134
21
11.180588754084111
31
0
0
SPLINE
5
394
100
AcDbEntity
8
0
100
AcDbSpline
70
0
71
2
72
6
73
3
74
0
42
0.000000001
43
0.0000000001
44
0.0000000001
40
0
40
0
40
0
40
1
40
1
40
1
10
3.145039723898134
20
11.180588754084111
30
0
10
3.0938202793228617
20
11.089125379743482
30
0
10
2.9163812880465638
20
10.7799790843612
30
0
0
SPLINE
5
395
100
AcDbEntity
8
0
100
AcDbSpline
70
0
71
2
72
6
73
3
74
0
42
0.000000001
43
0.0000000001
44
0.0000000001
40
0
40
0
40
0
40
1
40
1
40
1
10
2.9163812880465638
20
10.7799790843612
30
0
10
2.7389422967702659
20
10.470832601247754
30
0
10
2.7133323867514654
20
10.426930166545759
30
0
0
SPLINE
5
396
100
AcDbEntity
8
0
100
AcDbSpline
70
0
71
2
72
6
73
3
74
0
42
0.000000001
43
0.0000000001
44
0.0000000001
40
0
40
0
40
0
40
1
40
1
40
1
10
2.7133323867514654
20
10.426930166545759
30
0
10
2.5633323702311226
20
10.163515558333792
30
0
10
2.5633323702311226
20
10.079369193866441
30
0
0
SPLINE
5
397
100
AcDbEntity
8
0
100
AcDbSpline
70
0
71
2
72
6
73
3
74
0
42
0.000000001
43
0.0000000001
44
0.0000000001
40
0
40
0
40
0
40
1
40
1
40
1
10
2.5633323702311226
20
10.079369193866441
30
0
10
2.5633323702311226
20
10.046442649436692
30
0
10
2.5852835875821203
20
10.046442649436692
30
0
0
SPLINE
5
398
100
AcDbEntity
8
0
100
AcDbSpline
70
0
71
2
72
6
73
3
74
0
42
0.000000001
43
0.0000000001
44
0.0000000001
40
0
40
0
40
0
40
0.92113957150227987
40
0.92113957150227987
40
0.92113957150227987
10
2.5852835875821203
20
10.046442649436692
30
0
10
2.6189838701320736
20
10.046442649436692
30
0
10
2.7892715868021645
20
10.201655490705924
30
0
0
SPLINE
5
399
100
AcDbEntity
8
0
100
AcDbSpline
70
0
71
2
72
6
73
3
74
0
42
0.000000001
43
0.0000000001
44
0.0000000001
40
0.92113957150227999
40
0.92113957150227999
40
0.92113957150227999
40
1
40
1
40
1
10
2.7892715868021645
20
10.201655490705928
30
0
10
2.8038502269126968
20
10.214943543406646
30
0
10
2.8194299685698132
20
10.229369210386784
30
0
0
SPLINE
5
400
100
AcDbEntity
8
0
100
AcDbSpline
70
0
71
2
72
6
73
3
74
0
42
0.000000001
43
0.0000000001
44
0.0000000001
40
0
40
0
40
0
40
0.83315185582755569
40
0.83315185582755569
40
0.83315185582755569
10
2.8194299685698132
20
10.229369210386784
30
0
10
2.9474508508854149
20
10.357390092702385
30
0
10
3.1440394784408707
20
10.579374200763279
30
0
0
SPLINE
5
401
100
AcDbEntity
8
0
100
AcDbSpline
70
0
71
2
72
6
73
3
74
0
42
0.000000001
43
0.0000000001
44
0.0000000001
40
0.16898788611334797
40
0.16898788611334797
40
0.16898788611334797
40
0.55593941799129576
40
0.55593941799129576
40
0.55593941799129576
10
3.1440394784408725
20
10.579374200763286
30
0
10
3.2258884476906582
20
10.702568956422608
30
0
10
3.3233496690476634
20
10.811247018641648
30
0
0
SPLINE
5
402
100
AcDbEntity
8
0
100
AcDbSpline
70
0
71
2
72
6
73
3
74
0
42
0.000000001
43
0.0000000001
44
0.0000000001
40
0.55593941799133062
40
0.55593941799133062
40
0.55593941799133062
40
1
40
1
40
1
10
3.3233496690476803
20
10.811247018641668
30
0
10
3.4351949083442621
20
10.93596455968963
30
0
10
3.5676007987032059
20
11.041564252373684
30
0
0
SPLINE
5
403
100
AcDbEntity
8
0
100
AcDbSpline
70
0
71
2
72
6
73
3
74
0
42
0.000000001
43
0.0000000001
44
0.0000000001
40
0
40
0
40
0
40
1
40
1
40
1
10
3.5676007987032059
20
11.041564252373684
30
0
10
3.8657712038132424
20
11.279369138298016
30
0
10
4.132844692424178
20
11.279369138298016
30
0
0
SPLINE
5
404
100
AcDbEntity
8
0
100
AcDbSpline
70
0
71
2
72
6
73
3
74
0
42
0.000000001
43
0.0000000001
44
0.0000000001
40
0
40
0
40
0
40
1
40
1
40
1
10
4.132844692424178
20
11.279369138298016
30
0
10
4.2755275113400781
20
11.279369138298016
30
0
10
4.2755275113400781
20
11.173271556479667
30
0
0
SPLINE
5
405
100
AcDbEntity
8
0
100
AcDbSpline
70
0
71
2
72
6
73
3
74
0
42
0.000000001
43
0.0000000001
44
0.0000000001
40
0
40
0
40
0
40
1
40
1
40
1
10
4.2755275113400781
20
11.173271556479667
30
0
10
4.2755275113400781
20
10.990344807798412
30
0
10
4.0377224376845824
20
10.759857119478523
30
0
0
SPLINE
5
406
100
AcDbEntity
8
0
100
AcDbSpline
70
0
71
2
72
6
73
3
74
0
42
0.000000001
43
0.0000000001
44
0.0000000001
40
0
40
0
40
0
40
1
40
1
40
1
10
4.0377224376845824
20
10.759857119478523
30
0
10
4.0157714080647491
20
10.73790571439636
30
0
10
3.9426005584073152
20
10.68302776488445
30
0
0
SPLINE
5
407
100
AcDbEntity
8
0
100
AcDbSpline
70
0
71
2
72
6
73
3
74
0
42
0.000000001
43
0.0000000001
44
0.0000000001
40
0
40
0
40
0
40
1
40
1
40
1
10
3.9426005584073152
20
10.68302776488445
30
0
10
3.8694300842122105
20
10.628149815372538
30
0
10
3.840161669256771
20
10.628149815372538
30
0
0
SPLINE
5
408
100
AcDbEntity
8
0
100
AcDbSpline
70
0
71
2
72
6
73
3
74
0
42
0.000000001
43
0.0000000001
44
0.0000000001
40
0
40
0
40
0
40
1
40
1
40
1
10
3.840161669256771
20
10.628149815372538
30
0
10
3.8218691445735771
20
10.628149815372538
30
0
10
3.8218691445735771
20
10.646442340055733
30
0
0
LINE
5
409
100
AcDbEntity
8
0
100
AcDbLine
10
3.8218691445735771
20
10.646442340055733
30
0
11
3.8328446593834933
21
10.67936925994781
31
0
0
SPLINE
5
410
100
AcDbEntity
8
0
100
AcDbSpline
70
0
71
2
72
6
73
3
74
0
42
0.000000001
43
0.0000000001
44
0.0000000001
40
0
40
0
40
0
40
1
40
1
40
1
10
3.8328446593834933
20
10.67936925994781
30
0
10
3.9791859832360323
20
10.939125363223139
30
0
10
3.9791859832360323
20
11.074491172265763
30
0
0
SPLINE
5
411
100
AcDbEntity
8
0
100
AcDbSpline
70
0
71
2
72
6
73
3
74
0
42
0.000000001
43
0.0000000001
44
0.0000000001
40
0
40
0
40
0
40
1
40
1
40
1
10
3.9791859832360323
20
11.074491172265763
30
0
10
3.9791859832360323
20
11.147662021923196
30
0
10
3.9316250435973989
20
11.147662021923196
30
0
0
SPLINE
5
412
100
AcDbEntity
8
0
100
AcDbSpline
70
0
71
2
72
6
73
3
74
0
42
0.000000001
43
0.0000000001
44
0.0000000001
40
0
40
0
40
0
40
1
40
1
40
1
10
3.9316250435973989
20
11.147662021923196
30
0
10
3.8182106396369382
20
11.147662021923196
30
0
10
3.6444301532972792
20
10.926320595944905
30
0
0
SPLINE
5
413
100
AcDbEntity
8
0
100
AcDbSpline
70
0
71
2
72
6
73
3
74
0
42
0.000000001
43
0.0000000001
44
0.0000000001
40
0
40
0
40
0
40
1
40
1
40
1
10
3.6444301532972792
20
10.926320595944905
30
0
10
3.4706496669576197
20
10.704978982235447
30
0
10
3.3426008677882746
20
10.421442409140802
30
0
0
SPLINE
5
414
100
AcDbEntity
8
0
100
AcDbSpline
70
0
71
2
72
6
73
3
74
0
42
0.000000001
43
0.0000000001
44
0.0000000001
40
0
40
0
40
0
40
1
40
1
40
1
10
3.3426008677882746
20
10.421442409140802
30
0
10
3.2145520686189295
20
10.137905836046155
30
0
10
3.2145520686189295
20
9.9732717997792584
30
0
0
SPLINE
5
415
100
AcDbEntity
8
0
100
AcDbSpline
70
0
71
2
72
6
73
3
74
0
42
0.000000001
43
0.0000000001
44
0.0000000001
40
0
40
0
40
0
40
1
40
1
40
1
10
3.2145520686189295
20
9.9732717997792584
30
0
10
3.2145520686189295
20
9.8415644956732731
30
0
10
3.3096739478961963
20
9.8415644956732731
30
0
0
SPLINE
5
416
100
AcDbEntity
8
0
100
AcDbSpline
70
0
71
2
72
6
73
3
74
0
42
0.000000001
43
0.0000000001
44
0.0000000001
40
0
40
0
40
0
40
1
40
1
40
1
10
3.3096739478961963
20
9.8415644956732731
30
0
10
3.4743081718942586
20
9.8415644956732731
30
0
10
3.7230883848973422
20
10.079369193866441
30
0
0
SPLINE
5
417
100
AcDbEntity
8
0
100
AcDbSpline
70
0
71
2
72
6
73
3
74
0
42
0.000000001
43
0.0000000001
44
0.0000000001
40
0
40
0
40
0
40
0.24178306944419437
40
0.24178306944419437
40
0.24178306944419437
10
3.7230883848973422
20
10.079369193866441
30
0
10
3.7699707601168493
20
10.122713265483101
30
0
10
3.8266913468919315
20
10.179745301743791
30
0
0
SPLINE
5
418
100
AcDbEntity
8
0
100
AcDbSpline
70
0
71
2
72
6
73
3
74
0
42
0.000000001
43
0.0000000001
44
0.0000000001
40
0.24178306944419925
40
0.24178306944419925
40
0.24178306944419925
40
0.97943901403636624
40
0.97943901403636624
40
0.97943901403636624
10
3.8266913468919337
20
10.179745301743793
30
0
10
3.9997401799288266
20
10.35374433598802
30
0
10
4.2643629902557834
20
10.655150811755423
30
0
0
LINE
5
419
100
AcDbEntity
8
0
100
AcDbLine
10
4.2643629902557834
20
10.655150811755423
30
0
11
4.5828445542540415
21
11.224491376517269
31
0
0
SPLINE
5
420
100
AcDbEntity
8
0
100
AcDbSpline
70
0
71
2
72
6
73
3
74
0
42
0.000000001
43
0.0000000001
44
0.0000000001
40
0
40
0
40
0
40
0.035428909990562862
40
0.035428909990562862
40
0.035428909990562862
10
4.5828445542540415
20
11.224491376517269
30
0
10
4.6083792982855396
20
11.26985765701675
30
0
10
4.6334226744482621
20
11.314140173271895
30
0
0
SPLINE
5
421
100
AcDbEntity
8
0
100
AcDbSpline
70
0
71
2
72
6
73
3
74
0
42
0.000000001
43
0.0000000001
44
0.0000000001
40
0.035428909990751385
40
0.035428909990751385
40
0.035428909990751385
40
1
40
1
40
1
10
4.6334226744485285
20
11.314140173272365
30
0
10
5.3152420318383271
20
12.519755445770105
30
0
10
5.6328448576276031
20
12.922052310148507
30
0
0
SPLINE
5
422
100
AcDbEntity
8
0
100
AcDbSpline
70
0
71
2
72
6
73
3
74
0
42
0.000000001
43
0.0000000001
44
0.0000000001
40
0
40
0
40
0
40
1
40
1
40
1
10
5.6328448576276031
20
12.922052310148507
30
0
10
5.7426007566514254
20
13.064735129064408
30
0
10
5.78650319135342
20
13.064735129064408
30
0
0
SPLINE
5
423
100
AcDbEntity
8
0
100
AcDbSpline
70
0
71
2
72
6
73
3
74
0
42
0.000000001
43
0.0000000001
44
0.0000000001
40
0
40
0
40
0
40
1
40
1
40
1
10
5.78650319135342
20
13.064735129064408
30
0
10
5.8047960914989432
20
13.064735129064408
30
0
10
5.8047960914989432
20
13.035466714108967
30
0
0
SPLINE
5
424
100
AcDbEntity
8
0
100
AcDbSpline
70
0
71
2
72
6
73
3
74
0
42
0.000000001
43
0.0000000001
44
0.0000000001
40
0
40
0
40
0
40
1
40
1
40
1
10
5.8047960914989432
20
13.035466714108967
30
0
10
5.8047960914989432
20
12.954979230040585
30
0
10
5.6877224316771846
20
12.720832473590564
30
0
0
SPLINE
5
425
100
AcDbEntity
8
0
100
AcDbSpline
70
0
71
2
72
6
73
3
74
0
42
0.000000001
43
0.0000000001
44
0.0000000001
40
0
40
0
40
0
40
1
40
1
40
1
10
5.6877224316771846
20
12.720832473590564
30
0
10
5.113332651076945
20
11.68180824822041
30
0
10
4.8901615971680039
20
11.283027643234655
30
0
0
SPLINE
5
426
100
AcDbEntity
8
0
100
AcDbSpline
70
0
71
2
72
6
73
3
74
0
42
0.000000001
43
0.0000000001
44
0.0000000001
40
0
40
0
40
0
40
0.2756739386099904
40
0.2756739386099904
40
0.2756739386099904
10
4.8901615971680039
20
11.283027643234655
30
0
10
4.7701425807446434
20
11.068203730783564
30
0
10
4.6765368498573512
20
10.901479785247433
30
0
0
SPLINE
5
427
100
AcDbEntity
8
0
100
AcDbSpline
70
0
71
3
72
8
73
4
74
0
42
0.000000001
43
0.0000000001
44
0.0000000001
40
-0.80953977455616288
40
-0.80953977455616288
40
-0.80953977455616288
40
-0.80953977455616288
40
-0.37355568741745038
40
-0.37355568741745038
40
-0.37355568741745038
40
-0.37355568741745038
10
4.676536849857353
20
10.901479785247435
30
0
10
4.6681047011894394
20
10.79228590870458
30
0
10
4.6457734902507468
20
10.682302827079502
30
0
10
4.6126215214334829
20
10.580068517511302
30
0
0
SPLINE
5
428
100
AcDbEntity
8
0
100
AcDbSpline
70
0
71
2
72
6
73
3
74
0
42
0.000000001
43
0.0000000001
44
0.0000000001
40
0.12798357145369205
40
0.12798357145369205
40
0.12798357145369205
40
1
40
1
40
1
10
4.6126215214334829
20
10.580068517511302
30
0
10
4.7620813300654019
20
10.737874246463104
30
0
10
4.886503092231365
20
10.862296008629066
30
0
0
SPLINE
5
429
100
AcDbEntity
8
0
100
AcDbSpline
70
0
71
2
72
6
73
3
74
0
42
0.000000001
43
0.0000000001
44
0.0000000001
40
0
40
0
40
0
40
1
40
1
40
1
10
4.886503092231365
20
10.862296008629066
30
0
10
5.029186286609594
20
11.004979015276131
30
0
10
5.2047960254175729
20
11.142174264518239
30
0
0
SPLINE
5
430
100
AcDbEntity
8
0
100
AcDbSpline
70
0
71
2
72
6
73
3
74
0
42
0.000000001
43
0.0000000001
44
0.0000000001
40
0
40
0
40
0
40
1
40
1
40
1
10
5.2047960254175729
20
11.142174264518239
30
0
10
5.3804057642255518
20
11.279369138298016
30
0
10
5.464552128692902
20
11.279369138298016
30
0
0
SPLINE
5
431
100
AcDbEntity
8
0
100
AcDbSpline
70
0
71
2
72
6
73
3
74
0
42
0.000000001
43
0.0000000001
44
0.0000000001
40
0
40
0
40
0
40
1
40
1
40
1
10
5.464552128692902
20
11.279369138298016
30
0
10
5.523088583141452
20
11.279369138298016
30
0
10
5.523088583141452
20
11.191564456625191
30
0
0
SPLINE
5
432
100
AcDbEntity
8
0
100
AcDbSpline
70
0
71
2
72
6
73
3
74
0
42
0.000000001
43
0.0000000001
44
0.0000000001
40
0
40
0
40
0
40
1
40
1
40
1
10
5.523088583141452
20
11.191564456625191
30
0
10
5.523088583141452
20
11.14034501204992
30
0
10
5.4865031583127344
20
11.034247242500406
30
0
0
SPLINE
5
433
100
AcDbEntity
8
0
100
AcDbSpline
70
0
71
2
72
6
73
3
74
0
42
0.000000001
43
0.0000000001
44
0.0000000001
40
0
40
0
40
0
40
1
40
1
40
1
10
5.4865031583127344
20
11.034247242500406
30
0
10
5.4499177334840176
20
10.928149848413224
30
0
10
5.4133323086553009
20
10.928149848413224
30
0
0
SPLINE
5
434
100
AcDbEntity
8
0
100
AcDbSpline
70
0
71
2
72
6
73
3
74
0
42
0.000000001
43
0.0000000001
44
0.0000000001
40
0
40
0
40
0
40
1
40
1
40
1
10
5.4133323086553009
20
10.928149848413224
30
0
10
5.3986982889087454
20
10.928149848413224
30
0
10
5.3877227740988287
20
10.96473527324194
30
0
0
SPLINE
5
435
100
AcDbEntity
8
0
100
AcDbSpline
70
0
71
2
72
6
73
3
74
0
42
0.000000001
43
0.0000000001
44
0.0000000001
40
0
40
0
40
0
40
1
40
1
40
1
10
5.3877227740988287
20
10.96473527324194
30
0
10
5.3694302494156352
20
11.056198647582569
30
0
10
5.2816250045493165
20
11.056198647582569
30
0
0
SPLINE
5
436
100
AcDbEntity
8
0
100
AcDbSpline
70
0
71
2
72
6
73
3
74
0
42
0.000000001
43
0.0000000001
44
0.0000000001
40
0
40
0
40
0
40
1
40
1
40
1
10
5.2816250045493165
20
11.056198647582569
30
0
10
5.1572347103166098
20
11.056198647582569
30
0
10
5.0511373162294273
20
10.820222826395392
30
0
0
SPLINE
5
437
100
AcDbEntity
8
0
100
AcDbSpline
70
0
71
2
72
6
73
3
74
0
42
0.000000001
43
0.0000000001
44
0.0000000001
40
0
40
0
40
0
40
1
40
1
40
1
10
5.0511373162294273
20
10.820222826395392
30
0
10
4.9450399221422439
20
10.584247380670543
30
0
10
4.9011371119779197
20
10.362905954692252
30
0
0
SPLINE
5
438
100
AcDbEntity
8
0
100
AcDbSpline
70
0
71
2
72
6
73
3
74
0
42
0.000000001
43
0.0000000001
44
0.0000000001
40
0
40
0
40
0
40
1
40
1
40
1
10
4.9011371119779197
20
10.362905954692252
30
0
10
4.8572350527382548
20
10.141564340982795
30
0
10
4.8572350527382548
20
10.064735174119885
30
0
0
SPLINE
5
439
100
AcDbEntity
8
0
100
AcDbSpline
70
0
71
2
72
6
73
3
74
0
42
0.000000001
43
0.0000000001
44
0.0000000001
40
0
40
0
40
0
40
1
40
1
40
1
10
4.8572350527382548
20
10.064735174119885
30
0
10
4.8572350527382548
20
9.9842473145891741
30
0
10
4.8974786070412808
20
9.9842473145891741
30
0
0
SPLINE
5
440
100
AcDbEntity
8
0
100
AcDbSpline
70
0
71
2
72
6
73
3
74
0
42
0.000000001
43
0.0000000001
44
0.0000000001
40
0
40
0
40
0
40
1
40
1
40
1
10
4.8974786070412808
20
9.9842473145891741
30
0
10
4.9304055269333595
20
9.9842473145891741
30
0
10
4.9834542239769508
20
10.02632049682285
30
0
0
SPLINE
5
441
100
AcDbEntity
8
0
100
AcDbSpline
70
0
71
2
72
6
73
3
74
0
42
0.000000001
43
0.0000000001
44
0.0000000001
40
0
40
0
40
0
40
1
40
1
40
1
10
4.9834542239769508
20
10.02632049682285
30
0
10
5.0365032964828718
20
10.068393679056525
30
0
10
5.1078445182096575
20
10.141564340982795
30
0
0
SPLINE
5
442
100
AcDbEntity
8
0
100
AcDbSpline
70
0
71
2
72
6
73
3
74
0
42
0.000000001
43
0.0000000001
44
0.0000000001
40
0
40
0
40
0
40
0.23337328443308022
40
0.23337328443308022
40
0.23337328443308022
10
5.1078445182096575
20
10.141564340982795
30
0
10
5.1244937410623832
20
10.158640462492109
30
0
10
5.1380544940275756
20
10.172528487372283
30
0
0
SPLINE
5
443
100
AcDbEntity
8
0
100
AcDbSpline
70
0
71
2
72
6
73
3
74
0
42
0.000000001
43
0.0000000001
44
0.0000000001
40
0.23337328443308022
40
0.23337328443308022
40
0.23337328443308022
40
1
40
1
40
1
10
5.1380544940275756
20
10.172528487372283
30
0
10
5.1826013046514836
20
10.21815037989294
30
0
10
5.1938201351453275
20
10.229369210386784
30
0
0
SPLINE
5
444
100
AcDbEntity
8
0
100
AcDbSpline
70
0
71
2
72
6
73
3
74
0
42
0.000000001
43
0.0000000001
44
0.0000000001
40
0
40
0
40
0
40
0.871303383102075
40
0.871303383102075
40
0.871303383102075
10
5.1938201351453275
20
10.229369210386784
30
0
10
5.3277034883040573
20
10.363252399974714
30
0
10
5.536577619753035
20
10.599901337211351
30
0
0
SPLINE
5
445
100
AcDbEntity
8
0
100
AcDbSpline
70
0
71
2
72
6
73
3
74
0
42
0.000000001
43
0.0000000001
44
0.0000000001
40
0.301745227504289
40
0.301745227504289
40
0.301745227504289
40
0.57811660508932561
40
0.57811660508932561
40
0.57811660508932561
10
5.5365776197530332
20
10.599901337211351
30
0
10
5.6080868451752677
20
10.726916025927423
30
0
10
5.6673006192856423
20
10.824868616281165
30
0
0
SPLINE
5
446
100
AcDbEntity
8
0
100
AcDbSpline
70
0
71
2
72
6
73
3
74
0
42
0.000000001
43
0.0000000001
44
0.0000000001
40
0.57811660508984275
40
0.57811660508984275
40
0.57811660508984275
40
1
40
1
40
1
10
5.6673006192858635
20
10.824868616281531
30
0
10
5.7576909783216204
20
10.97439412691782
30
0
10
5.8194301112454978
20
11.056198272120239
30
0
0
SPLINE
5
447
100
AcDbEntity
8
0
100
AcDbSpline
70
0
71
2
72
6
73
3
74
0
42
0.000000001
43
0.0000000001
44
0.0000000001
40
0
40
0
40
0
40
1
40
1
40
1
10
5.8194301112454978
20
11.056198272120239
30
0
10
5.8926009609029322
20
11.151320526859836
30
0
10
5.9986983549901156
20
11.215344738713343
30
0
0
SPLINE
5
448
100
AcDbEntity
8
0
100
AcDbSpline
70
0
71
2
72
6
73
3
74
0
42
0.000000001
43
0.0000000001
44
0.0000000001
40
0
40
0
40
0
40
1
40
1
40
1
10
5.9986983549901156
20
11.215344738713343
30
0
10
6.1047957490772982
20
11.279369326029181
30
0
10
6.1633325789881779
20
11.279369326029181
30
0
0
SPLINE
5
449
100
AcDbEntity
8
0
100
AcDbSpline
70
0
71
2
72
6
73
3
74
0
42
0.000000001
43
0.0000000001
44
0.0000000001
40
0
40
0
40
0
40
1
40
1
40
1
10
6.1633325789881779
20
11.279369326029181
30
0
10
6.1999176283545649
20
11.279369326029181
30
0
10
6.1999176283545649
20
11.25375941601038
30
0
0
SPLINE
5
450
100
AcDbEntity
8
0
100
AcDbSpline
70
0
71
2
72
6
73
3
74
0
42
0.000000001
43
0.0000000001
44
0.0000000001
40
0
40
0
40
0
40
1
40
1
40
1
10
6.1999176283545649
20
11.25375941601038
30
0
10
6.1999176283545649
20
11.239125396263825
30
0
10
6.1852836086080103
20
11.213515486245024
30
0
0
SPLINE
5
451
100
AcDbEntity
8
0
100
AcDbSpline
70
0
71
2
72
6
73
3
74
0
42
0.000000001
43
0.0000000001
44
0.0000000001
40
0
40
0
40
0
40
1
40
1
40
1
10
6.1852836086080103
20
11.213515486245024
30
0
10
6.1779665987347325
20
11.198881466498468
30
0
10
6.0352837798188324
20
10.970222655184569
30
0
0
SPLINE
5
452
100
AcDbEntity
8
0
100
AcDbSpline
70
0
71
2
72
6
73
3
74
0
42
0.000000001
43
0.0000000001
44
0.0000000001
40
0
40
0
40
0
40
1
40
1
40
1
10
6.0352837798188324
20
10.970222655184569
30
0
10
5.8926009609029322
20
10.741564219333
30
0
10
5.8047960914989432
20
10.576930183066102
30
0
0
SPLINE
5
453
100
AcDbEntity
8
0
100
AcDbSpline
70
0
71
2
72
6
73
3
74
0
42
0.000000001
43
0.0000000001
44
0.0000000001
40
0
40
0
40
0
40
1
40
1
40
1
10
5.8047960914989432
20
10.576930183066102
30
0
10
5.5633325129068076
20
10.134247331109517
30
0
10
5.5633325129068076
20
10.068393679056525
30
0
0
SPLINE
5
454
100
AcDbEntity
8
0
100
AcDbSpline
70
0
71
2
72
6
73
3
74
0
42
0.000000001
43
0.0000000001
44
0.0000000001
40
0
40
0
40
0
40
1
40
1
40
1
10
5.5633325129068076
20
10.068393679056525
30
0
10
5.5633325129068076
20
10.042783769037724
30
0
10
5.5852835425266401
20
10.042783769037724
30
0
0
SPLINE
5
455
100
AcDbEntity
8
0
100
AcDbSpline
70
0
71
2
72
6
73
3
74
0
42
0.000000001
43
0.0000000001
44
0.0000000001
40
0
40
0
40
0
40
1
40
1
40
1
10
5.5852835425266401
20
10.042783769037724
30
0
10
5.6182104624187188
20
10.042783769037724
30
0
10
5.69869832194943
20
10.108637421090716
30
0
0
SPLINE
5
456
100
AcDbEntity
8
0
100
AcDbSpline
70
0
71
2
72
6
73
3
74
0
42
0.000000001
43
0.0000000001
44
0.0000000001
40
0
40
0
40
0
40
1
40
1
40
1
10
5.69869832194943
20
10.108637421090716
30
0
10
5.9365033956049267
20
10.313515574854135
30
0
10
6.221869033436727
20
10.661076547533453
30
0
0
SPLINE
5
457
100
AcDbEntity
8
0
100
AcDbSpline
70
0
71
2
72
6
73
3
74
0
42
0.000000001
43
0.0000000001
44
0.0000000001
40
0
40
0
40
0
40
1
40
1
40
1
10
6.221869033436727
20
10.661076547533453
30
0
10
6.3791866230238412
20
10.829369088736989
30
0
10
6.5511378568951812
20
11.100100706822234
30
0
0
SPLINE
5
458
100
AcDbEntity
8
0
100
AcDbSpline
70
0
71
2
72
6
73
3
74
0
42
0.000000001
43
0.0000000001
44
0.0000000001
40
0
40
0
40
0
40
1
40
1
40
1
10
6.5511378568951812
20
11.100100706822234
30
0
10
6.598698421071485
20
11.173271556479667
30
0
10
6.6919910478804328
20
11.22632025352326
30
0
0
SPLINE
5
459
100
AcDbEntity
8
0
100
AcDbSpline
70
0
71
2
72
6
73
3
74
0
42
0.000000001
43
0.0000000001
44
0.0000000001
40
0
40
0
40
0
40
1
40
1
40
1
10
6.6919910478804328
20
11.22632025352326
30
0
10
6.7852836746893805
20
11.279369326029181
30
0
10
6.8621130292834529
20
11.279369326029181
30
0
0
SPLINE
5
460
100
AcDbEntity
8
0
100
AcDbSpline
70
0
71
2
72
6
73
3
74
0
42
0.000000001
43
0.0000000001
44
0.0000000001
40
0
40
0
40
0
40
1
40
1
40
1
10
6.8621130292834529
20
11.279369326029181
30
0
10
6.895039573713202
20
11.279369326029181
30
0
10
6.895039573713202
20
11.250100911073741
30
0
0
LINE
5
461
100
AcDbEntity
8
0
100
AcDbLine
10
6.895039573713202
20
11.250100911073741
30
0
11
6.8657715342200918
21
11.180588566352945
31
0
0
SPLINE
5
462
100
AcDbEntity
8
0
100
AcDbSpline
70
0
71
2
72
6
73
3
74
0
42
0.000000001
43
0.0000000001
44
0.0000000001
40
0
40
0
40
0
40
1
40
1
40
1
10
6.8657715342200918
20
11.180588566352945
30
0
10
6.8145517141824907
20
11.089125192012318
30
0
10
6.6371127229061928
20
10.779978896630036
30
0
0
SPLINE
5
463
100
AcDbEntity
8
0
100
AcDbSpline
70
0
71
2
72
6
73
3
74
0
42
0.000000001
43
0.0000000001
44
0.0000000001
40
0
40
0
40
0
40
1
40
1
40
1
10
6.6371127229061928
20
10.779978896630036
30
0
10
6.459673731629894
20
10.470832601247754
30
0
10
6.4377227020100616
20
10.430588671482399
30
0
0
SPLINE
5
464
100
AcDbEntity
8
0
100
AcDbSpline
70
0
71
2
72
6
73
3
74
0
42
0.000000001
43
0.0000000001
44
0.0000000001
40
0
40
0
40
0
40
1
40
1
40
1
10
6.4377227020100616
20
10.430588671482399
30
0
10
6.4084546625169514
20
10.375710721970487
30
0
10
6.3041857699734294
20
10.194613038026386
30
0
0
SPLINE
5
465
100
AcDbEntity
8
0
100
AcDbSpline
70
0
71
2
72
6
73
3
74
0
42
0.000000001
43
0.0000000001
44
0.0000000001
40
0
40
0
40
0
40
1
40
1
40
1
10
6.3041857699734294
20
10.194613038026386
30
0
10
6.1999176283545649
20
10.013515354082283
30
0
10
6.1560155691149001
20
9.9366863749505399
30
0
0
ARC
5
466
100
AcDbEntity
8
0
100
AcDbCircle
10
8.5499121346330913
20
8.4471220821490842
30
-2.9759058953403969e-44
40
2.8194933141947498
210
1.3023827615688316e-32
220
2.093074891076431e-32
230
1
100
AcDbArc
50
148.10871383775523
51
152.13935681754904
0
LINE
5
467
100
AcDbEntity
8
0
100
AcDbLine
10
6.0572351849009953
20
9.7647351410792069
30
4.885566796870462e-33
11
5.962112930161398
21
9.5891254022712218
31
0
0
SPLINE
5
468
100
AcDbEntity
8
0
100
AcDbSpline
70
0
71
2
72
6
73
3
74
0
42
0.000000001
43
0.0000000001
44
0.0000000001
40
0
40
0
40
0
40
1
40
1
40
1
10
5.962112930161398
20
9.5891254022712218
30
0
10
5.2560154699928452
20
8.2903448858945765
30
0
10
4.9889423568442384
20
7.8988814785132639
30
0
0
SPLINE
5
469
100
AcDbEntity
8
0
100
AcDbSpline
70
0
71
2
72
6
73
3
74
0
42
0.000000001
43
0.0000000001
44
0.0000000001
40
0
40
0
40
0
40
1
40
1
40
1
10
4.9889423568442384
20
7.8988814785132639
30
0
10
4.9633324468254374
20
7.8586375487479083
30
0
10
4.9230885170600818
20
7.8019303467676773
30
0
0
SPLINE
5
470
100
AcDbEntity
8
0
100
AcDbSpline
70
0
71
2
72
6
73
3
74
0
42
0.000000001
43
0.0000000001
44
0.0000000001
40
0
40
0
40
0
40
1
40
1
40
1
10
4.9230885170600818
20
7.8019303467676773
30
0
10
4.8828445872947261
20
7.7452227693251183
30
0
10
4.7913812129540982
20
7.6482716375795317
30
0
0
SPLINE
5
471
100
AcDbEntity
8
0
100
AcDbSpline
70
0
71
2
72
6
73
3
74
0
42
0.000000001
43
0.0000000001
44
0.0000000001
40
0
40
0
40
0
40
1
40
1
40
1
10
4.7913812129540982
20
7.6482716375795317
30
0
10
4.6999178386134695
20
7.5513205058339459
30
0
10
4.6450398891015592
20
7.5513205058339459
30
0
0
SPLINE
5
472
100
AcDbEntity
8
0
100
AcDbSpline
70
0
71
2
72
6
73
3
74
0
42
0.000000001
43
0.0000000001
44
0.0000000001
40
0
40
0
40
0
40
1
40
1
40
1
10
4.6450398891015547
20
7.5513205058339468
30
0
10
4.5572620664367633
20
7.549141299721648
30
0
10
4.5509968465342743
20
7.8015026337195934
30
0
0
SPLINE
5
473
100
AcDbEntity
8
0
100
AcDbSpline
70
0
71
2
72
6
73
3
74
0
42
0.000000001
43
0.0000000001
44
0.0000000001
40
0
40
0
40
0
40
0.77144647609832684
40
0.77144647609832684
40
0.77144647609832684
10
4.5509968465342778
20
7.8015026337195916
30
0
10
4.5530325107612422
20
8.0893765091275203
30
0
10
4.7142844651003566
20
8.4153170598898974
30
0
0
ARC
5
474
100
AcDbEntity
8
0
100
AcDbCircle
10
4.7467557837000065
20
8.3911579734033044
30
0
40
0.040472805579384409
210
-1.4715250279092383e-32
220
-1.9778213896919561e-32
230
1
100
AcDbArc
50
-11.18254039699789
51
143.35026931154434
0
SPLINE
5
475
100
AcDbEntity
8
0
100
AcDbSpline
70
0
71
2
72
6
73
3
74
0
42
0.000000001
43
0.0000000001
44
0.0000000001
40
0.60837260430014406
40
0.60837260430014406
40
0.60837260430014406
40
1
40
1
40
1
10
4.7864601846682362
20
8.3833088629300914
30
0
10
4.7637262019741833
20
8.3309629226961111
30
0
10
4.7365032634421871
20
8.2629057234074565
30
0
0
SPLINE
5
476
100
AcDbEntity
8
0
100
AcDbSpline
70
0
71
2
72
6
73
3
74
0
42
0.000000001
43
0.0000000001
44
0.0000000001
40
0
40
0
40
0
40
1
40
1
40
1
10
4.7365032634421871
20
8.2629057234074565
30
0
10
4.6669912941837213
20
8.0891252370677975
30
0
10
4.6669912941837213
20
7.9720523281706983
30
0
0
SPLINE
5
477
100
AcDbEntity
8
0
100
AcDbSpline
70
0
71
2
72
6
73
3
74
0
42
0.000000001
43
0.0000000001
44
0.0000000001
40
0
40
0
40
0
40
1
40
1
40
1
10
4.6669912941837213
20
7.9720523281706983
30
0
10
4.6669912941837213
20
7.9098569933231797
30
0
10
4.6889423238035537
20
7.9098569933231797
30
0
0
SPLINE
5
478
100
AcDbEntity
8
0
100
AcDbSpline
70
0
71
2
72
6
73
3
74
0
42
0.000000001
43
0.0000000001
44
0.0000000001
40
0
40
0
40
0
40
1
40
1
40
1
10
4.6889423238035537
20
7.9098569933231797
30
0
10
4.7072348484867472
20
7.9098569933231797
30
0
10
4.7438202733154649
20
7.9446131656835774
30
0
0
SPLINE
5
479
100
AcDbEntity
8
0
100
AcDbSpline
70
0
71
2
72
6
73
3
74
0
42
0.000000001
43
0.0000000001
44
0.0000000001
40
0
40
0
40
0
40
1
40
1
40
1
10
4.7438202733154649
20
7.9446131656835774
30
0
10
4.7804056981441816
20
7.9793693380439752
30
0
10
4.8060156081629826
20
8.015954387410364
30
0
0
LINE
5
480
100
AcDbEntity
8
0
100
AcDbLine
10
4.8060156081629835
20
8.015954387410364
30
0
11
4.8316251427194539
21
8.0525401877014104
31
0
0
SPLINE
5
481
100
AcDbEntity
8
0
100
AcDbSpline
70
0
71
2
72
6
73
3
74
0
42
0.000000001
43
0.0000000001
44
0.0000000001
40
0
40
0
40
0
40
1
40
1
40
1
10
4.8316251427194539
20
8.0525401877014104
30
0
10
5.1938205106076563
20
8.6196129584283714
30
0
10
5.6182104624187188
20
9.4061982781276363
30
0
0
ARC
5
482
100
AcDbEntity
8
0
100
AcDbCircle
10
8.6887430223580147
20
7.8311163666044683
30
0
40
3.450949612737753
210
0
220
0
230
1
100
AcDbArc
50
149.44485830639738
51
152.84367272243904
0
SPLINE
5
483
100
AcDbEntity
8
0
100
AcDbSpline
70
0
71
2
72
6
73
3
74
0
42
0.000000001
43
0.0000000001
44
0.0000000001
40
0
40
0
40
0
40
1
40
1
40
1
10
5.7169912220949533
20
9.5854665218722541
30
0
10
5.8377226359286922
20
9.8049790708445563
30
0
10
6.0389422847554712
20
10.196442290494705
30
0
0
LINE
5
484
100
AcDbEntity
8
0
100
AcDbLine
10
6.0389422847554712
20
10.196442290494705
30
0
11
6.1926006184812881
21
10.496442323535391
31
1.9410947470989462e-32
0
SPLINE
5
485
100
AcDbEntity
8
0
100
AcDbSpline
70
0
71
2
72
6
73
3
74
0
42
0.000000001
43
0.0000000001
44
0.0000000001
40
0
40
0
40
0
40
1
40
1
40
1
10
6.1926006184812881
20
10.496442323535391
30
0
10
6.1926006184812881
20
10.50741802607647
30
0
10
6.1852836086080103
20
10.50741802607647
30
0
0
SPLINE
5
486
100
AcDbEntity
8
0
100
AcDbSpline
70
0
71
2
72
6
73
3
74
0
42
0.000000001
43
0.0000000001
44
0.0000000001
40
0
40
0
40
0
40
1
40
1
40
1
10
6.1852836086080103
20
10.50741802607647
30
0
10
6.1779665987347325
20
10.50741802607647
30
0
10
6.1669910839248168
20
10.496442323535391
30
0
0
SPLINE
5
487
100
AcDbEntity
8
0
100
AcDbSpline
70
0
71
2
72
6
73
3
74
0
42
0.000000001
43
0.0000000001
44
0.0000000001
40
0
40
0
40
0
40
1
40
1
40
1
10
6.1669910839248168
20
10.496442323535391
30
0
10
6.0316252748821935
20
10.33912529714177
30
0
10
5.8816254460930155
20
10.187296028153108
30
0
0
SPLINE
5
488
100
AcDbEntity
8
0
100
AcDbSpline
70
0
71
2
72
6
73
3
74
0
42
0.000000001
43
0.0000000001
44
0.0000000001
40
0
40
0
40
0
40
1
40
1
40
1
10
5.8816254460930155
20
10.187296028153108
30
0
10
5.7316252418415088
20
10.035466759164446
30
0
10
5.6511373823107967
20
9.9622962849693408
30
0
0
LINE
5
489
100
AcDbEntity
8
0
100
AcDbLine
10
5.6511373823107967
20
9.9622962849693408
30
0
11
5.5706495227800854
21
9.8891254353119074
31
-2.4263684338736828e-33
0
SPLINE
5
490
100
AcDbEntity
8
0
100
AcDbSpline
70
0
71
2
72
6
73
3
74
0
42
0.000000001
43
0.0000000001
44
0.0000000001
40
0
40
0
40
0
40
1
40
1
40
1
10
5.5706495227800854
20
9.8891254353119074
30
0
10
5.2962593997582008
20
9.6293693320365783
30
0
10
5.1828446203354108
20
9.6293693320365783
30
0
0
SPLINE
5
491
100
AcDbEntity
8
0
100
AcDbSpline
70
0
71
2
72
6
73
3
74
0
42
0.000000001
43
0.0000000001
44
0.0000000001
40
0
40
0
40
0
40
1
40
1
40
1
10
5.1828446203354108
20
9.6293693320365783
30
0
10
5.1316251757601385
20
9.6293693320365783
30
0
10
5.1316251757601385
20
9.6952227963584061
30
0
0
SPLINE
5
492
100
AcDbEntity
8
0
100
AcDbSpline
70
0
71
2
72
6
73
3
74
0
42
0.000000001
43
0.0000000001
44
0.0000000001
40
0
40
0
40
0
40
1
40
1
40
1
10
5.1316251757601385
20
9.6952227963584061
30
0
10
5.1316251757601385
20
9.7683936460158396
30
0
10
5.1901620056710174
20
9.9165642223366977
30
0
0
SPLINE
5
493
100
AcDbEntity
8
0
100
AcDbSpline
70
0
71
2
72
6
73
3
74
0
42
0.000000001
43
0.0000000001
44
0.0000000001
40
0
40
0
40
0
40
1
40
1
40
1
10
5.1901620056710174
20
9.9165642223366977
30
0
10
5.2486984601195674
20
10.064734986388721
30
0
10
5.3072349145681175
20
10.174491073143708
30
0
0
LINE
5
494
100
AcDbEntity
8
0
100
AcDbLine
10
5.3072349145681166
20
10.174491073143706
30
0
11
5.3657717444789963
21
10.287905852566498
31
4.8527368677473655e-33
0
SPLINE
5
495
100
AcDbEntity
8
0
100
AcDbSpline
70
0
71
2
72
6
73
3
74
0
42
0.000000001
43
0.0000000001
44
0.0000000001
40
0
40
0
40
0
40
0.046976747232774979
40
0.046976747232774979
40
0.046976747232774979
10
5.3657717444789963
20
10.287905852566498
30
0
10
5.3802084818862905
20
10.314888833740842
30
0
10
5.3942899773545978
20
10.341032148610031
30
0
0
SPLINE
5
496
100
AcDbEntity
8
0
100
AcDbSpline
70
0
71
2
72
6
73
3
74
0
42
0.000000001
43
0.0000000001
44
0.0000000001
40
0.33890189345994676
40
0.33890189345994676
40
0.33890189345994676
40
1
40
1
40
1
10
5.3942899773545987
20
10.341032148610031
30
0
10
5.2292444362055788
20
10.164834183065844
30
0
10
5.0913812459947829
20
10.031808254227807
30
0
0
LINE
5
497
100
AcDbEntity
8
0
100
AcDbLine
10
5.091381245994782
20
10.031808254227807
30
0
11
5.063618051034898
21
10.004045246538094
31
0
0
LINE
5
498
100
AcDbEntity
8
0
100
AcDbLine
10
5.063618051034898
20
10.004045246538094
30
0
11
5.0236985292046361
21
9.9641255374376616
31
0
0
SPLINE
5
499
100
AcDbEntity
8
0
100
AcDbSpline
70
0
71
2
72
6
73
3
74
0
42
0.000000001
43
0.0000000001
44
0.0000000001
40
0
40
0
40
0
40
1
40
1
40
1
10
5.0236985292046361
20
9.9641255374376616
30
0
10
4.974307961635354
20
9.9147349698683787
30
0
10
4.9450399221422439
20
9.8872961828435884
30
0
0
SPLINE
5
500
100
AcDbEntity
8
0
100
AcDbSpline
70
0
71
2
72
6
73
3
74
0
42
0.000000001
43
0.0000000001
44
0.0000000001
40
0
40
0
40
0
40
1
40
1
40
1
10
4.9450399221422439
20
9.8872961828435884
30
0
10
4.915771507186804
20
9.8598570203564684
30
0
10
4.8682105675481706
20
9.8141253331861531
30
0
0
SPLINE
5
501
100
AcDbEntity
8
0
100
AcDbSpline
70
0
71
2
72
6
73
3
74
0
42
0.000000001
43
0.0000000001
44
0.0000000001
40
0
40
0
40
0
40
1
40
1
40
1
10
4.8682105675481706
20
9.8141253331861531
30
0
10
4.8206496279095372
20
9.7683936460158396
30
0
10
4.7877227080174594
20
9.7427837359970386
30
0
0
SPLINE
5
502
100
AcDbEntity
8
0
100
AcDbSpline
70
0
71
2
72
6
73
3
74
0
42
0.000000001
43
0.0000000001
44
0.0000000001
40
0
40
0
40
0
40
1
40
1
40
1
10
4.7877227080174594
20
9.7427837359970386
30
0
10
4.7547957881253806
20
9.7171742014405673
30
0
10
4.716381110828344
20
9.6897350389534473
30
0
0
SPLINE
5
503
100
AcDbEntity
8
0
100
AcDbSpline
70
0
71
2
72
6
73
3
74
0
42
0.000000001
43
0.0000000001
44
0.0000000001
40
0
40
0
40
0
40
1
40
1
40
1
10
4.716381110828344
20
9.6897350389534473
30
0
10
4.677966808993637
20
9.662296251928657
30
0
10
4.6468691415698782
20
9.6494911091880908
30
0
0
SPLINE
5
504
100
AcDbEntity
8
0
100
AcDbSpline
70
0
71
2
72
6
73
3
74
0
42
0.000000001
43
0.0000000001
44
0.0000000001
40
0
40
0
40
0
40
1
40
1
40
1
10
4.6468691415698782
20
9.6494911091880908
30
0
10
4.6157714741461193
20
9.6366863419098561
30
0
10
4.5938204445262869
20
9.6366863419098561
30
0
0
SPLINE
5
505
100
AcDbEntity
8
0
100
AcDbSpline
70
0
71
2
72
6
73
3
74
0
42
0.000000001
43
0.0000000001
44
0.0000000001
40
0
40
0
40
0
40
1
40
1
40
1
10
4.5938204445262869
20
9.6366863419098561
30
0
10
4.5279666047421303
20
9.6366863419098561
30
0
10
4.5279666047421303
20
9.7574181312059238
30
0
0
SPLINE
5
506
100
AcDbEntity
8
0
100
AcDbSpline
70
0
71
2
72
6
73
3
74
0
42
0.000000001
43
0.0000000001
44
0.0000000001
40
0
40
0
40
0
40
1
40
1
40
1
10
4.5279666047421303
20
9.7574181312059238
30
0
10
4.5279666047421303
20
9.8891254353119074
30
0
10
4.5846738067223605
20
10.09400340134416
30
0
0
SPLINE
5
507
100
AcDbEntity
8
0
100
AcDbSpline
70
0
71
2
72
6
73
3
74
0
42
0.000000001
43
0.0000000001
44
0.0000000001
40
0
40
0
40
0
40
1
40
1
40
1
10
4.5846738067223605
20
10.09400340134416
30
0
10
4.6413813841649203
20
10.298881367376413
30
0
10
4.6999178386134695
20
10.43790586908684
30
0
0
LINE
5
508
100
AcDbEntity
8
0
100
AcDbLine
10
4.6999178386134695
20
10.437905869086839
30
0
11
4.7547957881253806
21
10.576930370797266
31
0
0
SPLINE
5
509
100
AcDbEntity
8
0
100
AcDbSpline
70
0
71
2
72
6
73
3
74
0
42
0.000000001
43
0.0000000001
44
0.0000000001
40
0
40
0
40
0
40
1
40
1
40
1
10
4.7547957881253806
20
10.576930370797266
30
0
10
4.7584542930620195
20
10.584247380670543
30
0
10
4.7584542930620195
20
10.591564390543821
30
0
0
SPLINE
5
510
100
AcDbEntity
8
0
100
AcDbSpline
70
0
71
2
72
6
73
3
74
0
42
0.000000001
43
0.0000000001
44
0.0000000001
40
0
40
0
40
0
40
1
40
1
40
1
10
4.7584542930620195
20
10.591564390543821
30
0
10
4.7584542930620195
20
10.598881400417099
30
0
10
4.7511372831887417
20
10.598881400417099
30
0
0
LINE
5
511
100
AcDbEntity
8
0
100
AcDbLine
10
4.7511372831887417
20
10.598881400417099
30
0
11
4.7291862535689093
21
10.591564390543821
31
0
0
SPLINE
5
512
100
AcDbEntity
8
0
100
AcDbSpline
70
0
71
2
72
6
73
3
74
0
42
0.000000001
43
0.0000000001
44
0.0000000001
40
0
40
0
40
0
40
0.75232192795379571
40
0.75232192795379571
40
0.75232192795379571
10
4.7291862535689093
20
10.591564390543821
30
0
10
4.6245952136435768
20
10.48697335061849
30
0
10
4.514827283889816
20
10.36271072436551
30
0
0
SPLINE
5
513
100
AcDbEntity
8
0
100
AcDbSpline
70
0
71
3
72
11
73
7
74
0
42
0.000000001
43
0.0000000001
44
0.0000000001
40
-0.041419533245139008
40
-0.041419533245139008
40
-0.041419533245139008
40
-0.041419533245139008
40
0
40
0
40
0
40
0.00081650128333895806
40
0.00081650128333895806
40
0.00081650128333895806
40
0.00081650128333895806
10
4.5148272838898134
20
10.362710724365506
30
0
10
4.5095917062222686
20
10.354418281236955
30
0
10
4.5041766527653655
20
10.346225871542241
30
0
10
4.4985695615042474
20
10.338136251325821
30
0
10
4.4984953269380208
20
10.338029149547067
30
0
10
4.4984210923717987
20
10.337922047768318
30
0
10
4.4983468578053083
20
10.337814945989182
30
0
0
SPLINE
5
514
100
AcDbEntity
8
0
100
AcDbSpline
70
0
71
3
72
17
73
13
74
0
42
0.000000001
43
0.0000000001
44
0.0000000001
40
-1.0016546883121742
40
-1.0016546883121742
40
-1.0016546883121742
40
-1.0016546883121742
40
-1
40
-1
40
-1
40
-0.8793158949765606
40
-0.8793158949765606
40
-0.8793158949765606
40
-0.6772921467443398
40
-0.6772921467443398
40
-0.6772921467443398
40
-0.56068946815717147
40
-0.56068946815717147
40
-0.56068946815717147
40
-0.56068946815717147
10
4.498346857751649
20
10.337814946028674
30
0
10
4.4982722115749834
20
10.337708144575908
30
0
10
4.4981975653990984
20
10.337601343124255
30
0
10
4.4981229192231948
20
10.33749454167258
30
0
10
4.48738572467939
20
10.32213209409452
30
0
10
4.4770533353185478
20
10.309253528576347
30
0
10
4.4656410594784735
20
10.29560619030085
30
0
10
4.4465370462314588
20
10.2727607092719
30
0
10
4.4246941764759731
20
10.248623811935859
30
0
10
4.400375041068699
20
10.22281347019112
30
0
10
4.3863386896287055
20
10.207916434525654
30
0
10
4.371521881937813
20
10.192532473819098
30
0
10
4.3562066955306369
20
10.176939680482523
30
0
0
SPLINE
5
515
100
AcDbEntity
8
0
100
AcDbSpline
70
0
71
2
72
6
73
3
74
0
42
0.000000001
43
0.0000000001
44
0.0000000001
40
0.31307445935551181
40
0.31307445935551181
40
0.31307445935551181
40
1
40
1
40
1
10
4.3562066955306378
20
10.176939680482519
30
0
10
4.2697671028334296
20
10.072907986499789
30
0
10
4.216991056891529
20
10.002539839272368
30
0
0
LINE
5
516
100
AcDbEntity
8
0
100
AcDbLine
10
4.216991056891529
20
10.002539839272366
30
0
11
4.1401617022974557
21
9.9001009501218231
31
-4.8527368677473655e-33
0
SPLINE
5
517
100
AcDbEntity
8
0
100
AcDbSpline
70
0
71
2
72
6
73
3
74
0
42
0.000000001
43
0.0000000001
44
0.0000000001
40
0
40
0
40
0
40
1
40
1
40
1
10
4.1401617022974557
20
9.9001009501218231
30
0
10
4.0669908526400214
20
9.7866865461613628
30
0
10
3.9700397208944356
20
9.7025401816940118
30
0
0
SPLINE
5
518
100
AcDbEntity
8
0
100
AcDbSpline
70
0
71
2
72
6
73
3
74
0
42
0.000000001
43
0.0000000001
44
0.0000000001
40
0
40
0
40
0
40
1
40
1
40
1
10
3.9700397208944356
20
9.7025401816940118
30
0
10
3.8730885891488493
20
9.6183938172266625
30
0
10
3.8218691445735771
20
9.6183938172266625
30
0
0
SPLINE
5
519
100
AcDbEntity
8
0
100
AcDbSpline
70
0
71
2
72
6
73
3
74
0
42
0.000000001
43
0.0000000001
44
0.0000000001
40
0
40
0
40
0
40
1
40
1
40
1
10
3.8218691445735771
20
9.6183938172266625
30
0
10
3.7852837197448599
20
9.6183938172266625
30
0
10
3.7852837197448599
20
9.665954756865295
30
0
0
SPLINE
5
520
100
AcDbEntity
8
0
100
AcDbSpline
70
0
71
2
72
6
73
3
74
0
42
0.000000001
43
0.0000000001
44
0.0000000001
40
0
40
0
40
0
40
0.45389852179386925
40
0.45389852179386925
40
0.45389852179386925
10
3.7852837197448599
20
9.665954756865295
30
0
10
3.7852837197448599
20
9.6975061369586939
30
0
10
3.7988511825455511
20
9.7456400145608271
30
0
0
SPLINE
5
521
100
AcDbEntity
8
0
100
AcDbSpline
70
0
71
2
72
6
73
3
74
0
42
0.000000001
43
0.0000000001
44
0.0000000001
40
0.45389852179387008
40
0.45389852179387008
40
0.45389852179387008
40
1
40
1
40
1
10
3.7988511825455511
20
9.7456400145608288
30
0
10
3.8151746802773392
20
9.8035515971023006
30
0
10
3.8511375595290165
20
9.8854669303752676
30
0
0
SPLINE
5
522
100
AcDbEntity
8
0
100
AcDbSpline
70
0
71
2
72
6
73
3
74
0
42
0.000000001
43
0.0000000001
44
0.0000000001
40
0
40
0
40
0
40
0.092596126462793471
40
0.092596126462793471
40
0.092596126462793471
10
3.8511375595290165
20
9.8854669303752676
30
0
10
3.8572353352393733
20
9.8993563334912285
30
0
10
3.8633331141689604
20
9.9129634230113943
30
0
0
SPLINE
5
523
100
AcDbEntity
8
0
100
AcDbSpline
70
0
71
2
72
6
73
3
74
0
42
0.000000001
43
0.0000000001
44
0.0000000001
40
0.092596126462793582
40
0.092596126462793582
40
0.092596126462793582
40
0.68158907894435605
40
0.68158907894435605
40
0.68158907894435605
10
3.86333311416896
20
9.9129634230113943
30
0
10
3.9021203610281523
20
9.999516501820624
30
0
10
3.9409077381399937
20
10.074646944263511
30
0
0
SPLINE
5
524
100
AcDbEntity
8
0
100
AcDbSpline
70
0
71
2
72
6
73
3
74
0
42
0.000000001
43
0.0000000001
44
0.0000000001
40
0.68158907894435627
40
0.68158907894435627
40
0.68158907894435627
40
1
40
1
40
1
10
3.9409077381399937
20
10.07464694426351
30
0
10
3.9618762818542761
20
10.115262631219981
30
0
10
3.9828448636350005
20
10.152540043523874
30
0
0
LINE
5
525
100
AcDbEntity
8
0
100
AcDbLine
10
3.9828448636350005
20
10.152540043523876
30
0
11
4.0486983279568278
21
10.269613140152138
31
0
0
LINE
5
526
100
AcDbEntity
8
0
100
AcDbLine
10
4.0486983279568278
20
10.269613140152138
30
0
11
4.11127380915541
21
10.381477573868748
31
4.8527368677473655e-33
0
SPLINE
5
527
100
AcDbEntity
8
0
100
AcDbSpline
70
0
71
2
72
6
73
3
74
0
42
0.000000001
43
0.0000000001
44
0.0000000001
40
0.26406378246287926
40
0.26406378246287926
40
0.26406378246287926
40
1
40
1
40
1
10
4.11127380915541
20
10.381477573868745
30
0
10
3.9241190043575247
20
10.179893081479534
30
0
10
3.7706493245359756
20
10.031808254227807
30
0
0
SPLINE
5
528
100
AcDbEntity
8
0
100
AcDbSpline
70
0
71
2
72
6
73
3
74
0
42
0.000000001
43
0.0000000001
44
0.0000000001
40
0
40
0
40
0
40
0.094777780911915577
40
0.094777780911915577
40
0.094777780911915577
10
3.7706493245359756
20
10.031808254227807
30
0
10
3.7550456937087699
20
10.016898113359302
30
0
10
3.7390641233597597
20
10.002168719576352
30
0
0
SPLINE
5
529
100
AcDbEntity
8
0
100
AcDbSpline
70
0
71
2
72
6
73
3
74
0
42
0.000000001
43
0.0000000001
44
0.0000000001
40
0.09477778091191888
40
0.09477778091191888
40
0.09477778091191888
40
0.54836684082110865
40
0.54836684082110865
40
0.54836684082110865
10
3.7390641233597575
20
10.002168719576348
30
0
10
3.6625792616048956
20
9.9316765449890365
30
0
10
3.577438058385078
20
9.8653242086591302
30
0
0
SPLINE
5
530
100
AcDbEntity
8
0
100
AcDbSpline
70
0
71
2
72
6
73
3
74
0
42
0.000000001
43
0.0000000001
44
0.0000000001
40
0.54836684082110876
40
0.54836684082110876
40
0.54836684082110876
40
1
40
1
40
1
10
3.5774380583850789
20
9.8653242086591302
30
0
10
3.492663988670619
20
9.7992579872172474
30
0
10
3.3993080697685052
20
9.7372959785920798
30
0
0
SPLINE
5
531
100
AcDbEntity
8
0
100
AcDbSpline
70
0
71
2
72
6
73
3
74
0
42
0.000000001
43
0.0000000001
44
0.0000000001
40
0
40
0
40
0
40
0.85199726444374557
40
0.85199726444374557
40
0.85199726444374557
10
3.3993080697685052
20
9.7372959785920798
30
0
10
3.2231939251188026
20
9.6204061614895675
30
0
10
3.0935551860570607
20
9.6031061487997249
30
0
0
SPLINE
5
532
100
AcDbEntity
8
0
100
AcDbSpline
70
0
71
2
72
6
73
3
74
0
42
0.000000001
43
0.0000000001
44
0.0000000001
40
0.8519972644466256
40
0.8519972644466256
40
0.8519972644466256
40
1
40
1
40
1
10
3.0935551860561845
20
9.6031061487996077
30
0
10
3.0710352921368873
20
9.6001009170811393
30
0
10
3.0499178446208672
20
9.6001009170811393
30
0
0
SPLINE
5
533
100
AcDbEntity
8
0
100
AcDbSpline
70
0
71
2
72
6
73
3
74
0
42
0.000000001
43
0.0000000001
44
0.0000000001
40
0
40
0
40
0
40
0.18010648410065436
40
0.18010648410065436
40
0.18010648410065436
10
3.0499178446208672
20
9.6001009170811393
30
0
10
3.0196072329127337
20
9.6001009170811393
30
0
10
2.9947557589102924
20
9.6085269753348168
30
0
0
SPLINE
5
534
100
AcDbEntity
8
0
100
AcDbSpline
70
0
71
2
72
6
73
3
74
0
42
0.000000001
43
0.0000000001
44
0.0000000001
40
0.18010648410074251
40
0.18010648410074251
40
0.18010648410074251
40
0.92282085399520586
40
0.92282085399520586
40
0.92282085399520586
10
2.994755758910268
20
9.6085269753348239
30
0
10
2.8922744576576451
20
9.6432739450390308
30
0
10
2.8826275716184715
20
9.8213087804658592
30
0
0
SPLINE
5
535
100
AcDbEntity
8
0
100
AcDbSpline
70
0
71
2
72
6
73
3
74
0
42
0.000000001
43
0.0000000001
44
0.0000000001
40
0.92282085399804947
40
0.92282085399804947
40
0.92282085399804947
40
1
40
1
40
1
10
2.8826275716183973
20
9.8213087804672252
30
0
10
2.8816251156861661
20
9.8398092661368839
30
0
10
2.8816251156861661
20
9.8598570203564684
30
0
0
SPLINE
5
536
100
AcDbEntity
8
0
100
AcDbSpline
70
0
71
2
72
6
73
3
74
0
42
0.000000001
43
0.0000000001
44
0.0000000001
40
0
40
0
40
0
40
0.2379804225600293
40
0.2379804225600293
40
0.2379804225600293
10
2.8816251156861661
20
9.8598570203564684
30
0
10
2.8816251156861661
20
9.9251565424558574
30
0
10
2.8926067192574494
20
9.9938748571413232
30
0
0
SPLINE
5
537
100
AcDbEntity
8
0
100
AcDbSpline
70
0
71
2
72
6
73
3
74
0
42
0.000000001
43
0.0000000001
44
0.0000000001
40
0.23798042256003651
40
0.23798042256003651
40
0.23798042256003651
40
0.76389057579645958
40
0.76389057579645958
40
0.76389057579645958
10
2.8926067192574503
20
9.9938748571413267
30
0
10
2.9168748365875579
20
10.145734657277897
30
0
10
2.9947727826512303
20
10.314290494534802
30
0
0
SPLINE
5
538
100
AcDbEntity
8
0
100
AcDbSpline
70
0
71
2
72
6
73
3
74
0
42
0.000000001
43
0.0000000001
44
0.0000000001
40
0.38954476206350053
40
0.38954476206350053
40
0.38954476206350053
40
0.91350671566651476
40
0.91350671566651476
40
0.91350671566651476
10
2.9947727826512303
20
10.314290494534802
30
0
10
2.8656141189830544
20
10.177263622922958
30
0
10
2.753530218696822
20
10.067355535596896
30
0
0
SPLINE
5
539
100
AcDbEntity
8
0
100
AcDbSpline
70
0
71
2
72
6
73
3
74
0
42
0.000000001
43
0.0000000001
44
0.0000000001
40
0.91350671566651487
40
0.91350671566651487
40
0.91350671566651487
40
1
40
1
40
1
10
2.753530218696822
20
10.067355535596894
30
0
10
2.735027912203003
20
10.049212402527266
30
0
10
2.7169908916881038
20
10.031808254227807
30
0
0
SPLINE
5
540
100
AcDbEntity
8
0
100
AcDbSpline
70
0
71
2
72
6
73
3
74
0
42
0.000000001
43
0.0000000001
44
0.0000000001
40
0
40
0
40
0
40
0.53825011893551788
40
0.53825011893551788
40
0.53825011893551788
10
2.7169908916881038
20
10.031808254227807
30
0
10
2.640191847436566
20
9.9589475914108139
30
0
10
2.5533234815997434
20
9.8860869285938211
30
0
0
SPLINE
5
541
100
AcDbEntity
8
0
100
AcDbSpline
70
0
71
2
72
6
73
3
74
0
42
0.000000001
43
0.0000000001
44
0.0000000001
40
0.538250118935518
40
0.538250118935518
40
0.538250118935518
40
1
40
1
40
1
10
2.5533234815997434
20
9.8860869285938211
30
0
10
2.4788015146139379
20
9.8235817823681906
30
0
10
2.3968690814959057
20
9.7610766361425618
30
0
0
SPLINE
5
542
100
AcDbEntity
8
0
100
AcDbSpline
70
0
71
2
72
6
73
3
74
0
42
0.000000001
43
0.0000000001
44
0.0000000001
40
0
40
0
40
0
40
0.10913509733797552
40
0.10913509733797552
40
0.10913509733797552
10
2.3968690814959057
20
9.7610766361425618
30
0
10
2.3775042599114147
20
9.746303475396461
30
0
10
2.3592941718217557
20
9.7331425849863749
30
0
0
SPLINE
5
543
100
AcDbEntity
8
0
100
AcDbSpline
70
0
71
2
72
6
73
3
74
0
42
0.000000001
43
0.0000000001
44
0.0000000001
40
0.10913509733797677
40
0.10913509733797677
40
0.10913509733797677
40
0.12634199077980462
40
0.12634199077980462
40
0.12634199077980462
10
2.3592941718217557
20
9.7331425849863784
30
0
10
2.3564230602090115
20
9.7310675601372729
30
0
10
2.353580653614137
20
9.7290326140154342
30
0
0
SPLINE
5
544
100
AcDbEntity
8
0
100
AcDbSpline
70
0
71
2
72
6
73
3
74
0
42
0.000000001
43
0.0000000001
44
0.0000000001
40
0.1263419907798049
40
0.1263419907798049
40
0.1263419907798049
40
0.81392670847482651
40
0.81392670847482651
40
0.81392670847482651
10
2.353580653614137
20
9.7290326140154324
30
0
10
2.2399985394040463
20
9.6477164915301081
30
0
10
2.1722522777839726
20
9.6303976340306896
30
0
0
SPLINE
5
545
100
AcDbEntity
8
0
100
AcDbSpline
70
0
71
2
72
6
73
3
74
0
42
0.000000001
43
0.0000000001
44
0.0000000001
40
0.81392670847735604
40
0.81392670847735604
40
0.81392670847735604
40
1
40
1
40
1
10
2.1722522777834739
20
9.6303976340305635
30
0
10
2.1539188716393878
20
9.6257108270999385
30
0
10
2.1389422306888961
20
9.6257108270999385
30
0
0
SPLINE
5
546
100
AcDbEntity
8
0
100
AcDbSpline
70
0
71
2
72
6
73
3
74
0
42
0.000000001
43
0.0000000001
44
0.0000000001
40
0
40
0
40
0
40
1
40
1
40
1
10
2.1389422306888961
20
9.6257108270999385
30
0
10
2.0840640934458206
20
9.6257108270999385
30
0
10
2.0840640934458206
20
9.7025401816940118
30
0
0
SPLINE
5
547
100
AcDbEntity
8
0
100
AcDbSpline
70
0
71
2
72
6
73
3
74
0
42
0.000000001
43
0.0000000001
44
0.0000000001
40
0
40
0
40
0
40
0.16237510418894718
40
0.16237510418894718
40
0.16237510418894718
10
2.0840640934458206
20
9.7025401816940118
30
0
10
2.0840640934458206
20
9.7096688441028967
30
0
10
2.0858003693978762
20
9.7194983769152064
30
0
0
SPLINE
5
548
100
AcDbEntity
8
0
100
AcDbSpline
70
0
71
2
72
6
73
3
74
0
42
0.000000001
43
0.0000000001
44
0.0000000001
40
0.16237510418894827
40
0.16237510418894827
40
0.16237510418894827
40
1
40
1
40
1
10
2.0858003693978762
20
9.7194983769152064
30
0
10
2.0947570870591474
20
9.7702048041037113
30
0
10
2.1499177454988123
20
9.8927839402485453
30
0
0
SPLINE
5
549
100
AcDbEntity
8
0
100
AcDbSpline
70
0
71
2
72
6
73
3
74
0
42
0.000000001
43
0.0000000001
44
0.0000000001
40
0
40
0
40
0
40
0.37696991399117691
40
0.37696991399117691
40
0.37696991399117691
10
2.1499177454988123
20
9.8927839402485453
30
0
10
2.1747426618182346
20
9.9479502165145934
30
0
10
2.1995675247820889
20
9.9999971128277618
30
0
0
SPLINE
5
550
100
AcDbEntity
8
0
100
AcDbSpline
70
0
71
2
72
6
73
3
74
0
42
0.000000001
43
0.0000000001
44
0.0000000001
40
0.37696991399117857
40
0.37696991399117857
40
0.37696991399117857
40
1
40
1
40
1
10
2.1995675247820889
20
9.9999971128277618
30
0
10
2.2405963600643894
20
10.086016662619326
30
0
10
2.2816250496047963
20
10.163515558333792
30
0
0
LINE
5
551
100
AcDbEntity
8
0
100
AcDbLine
10
2.2816250496047963
20
10.163515558333792
30
0
11
2.3474788893889529
21
10.287905852566498
31
4.8527368677473655e-33
0
LINE
5
552
100
AcDbEntity
8
0
100
AcDbLine
10
2.3474788893889529
20
10.287905852566498
30
4.8527368677473655e-33
11
2.4608932933494136
21
10.481808303788835
31
0
0
SPLINE
5
553
100
AcDbEntity
8
0
100
AcDbSpline
70
0
71
2
72
6
73
3
74
0
42
0.000000001
43
0.0000000001
44
0.0000000001
40
0
40
0
40
0
40
1
40
1
40
1
10
2.4608932933494136
20
10.481808303788835
30
0
10
2.4608932933494136
20
10.492784006329916
30
0
10
2.4535762834761363
20
10.492784006329916
30
0
0
SPLINE
5
554
100
AcDbEntity
8
0
100
AcDbSpline
70
0
71
2
72
6
73
3
74
0
42
0.000000001
43
0.0000000001
44
0.0000000001
40
0
40
0
40
0
40
1
40
1
40
1
10
2.4535762834761363
20
10.492784006329916
30
0
10
2.4462592736028586
20
10.492784006329916
30
0
10
2.4352837587929423
20
10.481808303788835
30
0
0
SPLINE
5
555
100
AcDbEntity
8
0
100
AcDbSpline
70
0
71
2
72
6
73
3
74
0
42
0.000000001
43
0.0000000001
44
0.0000000001
40
0
40
0
40
0
40
1
40
1
40
1
10
2.4352837587929423
20
10.481808303788835
30
0
10
2.2999177620191551
20
10.324491277395214
30
0
10
2.1535762504354512
20
10.176320513343192
30
0
0
SPLINE
5
556
100
AcDbEntity
8
0
100
AcDbSpline
70
0
71
2
72
6
73
3
74
0
42
0.000000001
43
0.0000000001
44
0.0000000001
40
0
40
0
40
0
40
0.41005152614867957
40
0.41005152614867957
40
0.41005152614867957
10
2.1535762504354512
20
10.176320513343192
30
0
10
2.0935687672510994
20
10.115562865413043
30
0
10
2.0452491832645778
20
10.068031084544026
30
0
0
SPLINE
5
557
100
AcDbEntity
8
0
100
AcDbSpline
70
0
71
2
72
6
73
3
74
0
42
0.000000001
43
0.0000000001
44
0.0000000001
40
0.41005152615104545
40
0.41005152615104545
40
0.41005152615104545
40
1
40
1
40
1
10
2.0452491832640201
20
10.068031084543479
30
0
10
1.9757309324784125
20
9.9996462602109712
30
0
10
1.9304055719888391
20
9.9586377800327028
30
0
0
LINE
5
558
100
AcDbEntity
8
0
100
AcDbLine
10
1.9304055719888391
20
9.9586377800327028
30
0
11
1.8499177124581274
21
9.8891254353119074
31
-2.4263684338736828e-33
0
SPLINE
5
559
100
AcDbEntity
8
0
100
AcDbSpline
70
0
71
2
72
6
73
3
74
0
42
0.000000001
43
0.0000000001
44
0.0000000001
40
0
40
0
40
0
40
1
40
1
40
1
10
1.8499177124581274
20
9.8891254353119074
30
0
10
1.5645519807607446
20
9.6183938172266625
30
0
10
1.4547958940057579
20
9.6183938172266625
30
0
0
SPLINE
5
560
100
AcDbEntity
8
0
100
AcDbSpline
70
0
71
2
72
6
73
3
74
0
42
0.000000001
43
0.0000000001
44
0.0000000001
40
0
40
0
40
0
40
1
40
1
40
1
10
1.4547958940057579
20
9.6183938172266625
30
0
10
1.4035763555649035
20
9.6183938172266625
30
0
10
1.4035763555649035
20
9.6842472815484886
30
0
0
SPLINE
5
561
100
AcDbEntity
8
0
100
AcDbSpline
70
0
71
2
72
6
73
3
74
0
42
0.000000001
43
0.0000000001
44
0.0000000001
40
0
40
0
40
0
40
0.75179185913147129
40
0.75179185913147129
40
0.75179185913147129
10
1.4035763555649035
20
9.6842472815484886
30
0
10
1.4035763555649035
20
9.7392565306466814
30
0
10
1.4376946158941029
20
9.8376888272475558
30
0
0
SPLINE
5
562
100
AcDbEntity
8
0
100
AcDbSpline
70
0
71
2
72
6
73
3
74
0
42
0.000000001
43
0.0000000001
44
0.0000000001
40
0.7517918591316376
40
0.7517918591316376
40
0.7517918591316376
40
1
40
1
40
1
10
1.437694615894118
20
9.8376888272475984
30
0
10
1.4489589437304935
20
9.8701867813607667
30
0
10
1.4639422502129373
20
9.9074179599951009
30
0
0
SPLINE
5
563
100
AcDbEntity
8
0
100
AcDbSpline
70
0
71
2
72
6
73
3
74
0
42
0.000000001
43
0.0000000001
44
0.0000000001
40
0
40
0
40
0
40
1
40
1
40
1
10
1.4639422502129373
20
9.9074179599951009
30
0
10
1.5243080509953888
20
10.057418164246608
30
0
10
1.5865031042461597
20
10.174491260874872
30
0
0
LINE
5
564
100
AcDbEntity
8
0
100
AcDbLine
10
1.5865031042461599
20
10.174491260874872
30
0
11
1.6450397464258739
21
10.287905852566498
31
4.8527368677473655e-33
0
SPLINE
5
565
100
AcDbEntity
8
0
100
AcDbSpline
70
0
71
2
72
6
73
3
74
0
42
0.000000001
43
0.0000000001
44
0.0000000001
40
0
40
0
40
0
40
0.018240484912828422
40
0.018240484912828422
40
0.018240484912828422
10
1.6450397464258739
20
10.287905852566498
30
0
10
1.6506453583106011
20
10.298383007542235
30
0
10
1.6561974111747624
20
10.308733568503431
30
0
0
SPLINE
5
566
100
AcDbEntity
8
0
100
AcDbSpline
70
0
71
2
72
6
73
3
74
0
42
0.000000001
43
0.0000000001
44
0.0000000001
40
0.85954945250629933
40
0.85954945250629933
40
0.85954945250629933
40
1
40
1
40
1
10
1.3836141280576792
20
10.348840631894607
30
0
10
1.4198545373334581
20
10.392687639703047
30
0
10
1.4547958940057579
20
10.43790586908684
30
0
0
SPLINE
5
567
100
AcDbEntity
8
0
100
AcDbSpline
70
0
71
2
72
6
73
3
74
0
42
0.000000001
43
0.0000000001
44
0.0000000001
40
0
40
0
40
0
40
0.10951903088460363
40
0.10951903088460363
40
0.10951903088460363
10
1.4547958940057579
20
10.43790586908684
30
0
10
1.4580013218870709
20
10.441111296968153
30
0
10
1.4612067520201097
20
10.443965669494334
30
0
0
SPLINE
5
568
100
AcDbEntity
8
0
100
AcDbSpline
70
0
71
2
72
6
73
3
74
0
42
0.000000001
43
0.0000000001
44
0.0000000001
40
0.10951903088460598
40
0.10951903088460598
40
0.10951903088460598
40
1
40
1
40
1
10
1.46120675202011
20
10.443965669494334
30
0
10
1.4872695696714811
20
10.467174096311116
30
0
10
1.5133325361854724
20
10.467174096311116
30
0
0
SPLINE
5
569
100
AcDbEntity
8
0
100
AcDbSpline
70
0
71
2
72
6
73
3
74
0
42
0.000000001
43
0.0000000001
44
0.0000000001
40
0
40
0
40
0
40
1
40
1
40
1
10
1.5133325361854724
20
10.467174096311116
30
0
10
1.5426007634097474
20
10.467174096311116
30
0
10
1.5426007634097474
20
10.430588859213563
30
0
0
SPLINE
5
570
100
AcDbEntity
8
0
100
AcDbSpline
70
0
71
2
72
6
73
3
74
0
42
0.000000001
43
0.0000000001
44
0.0000000001
40
0
40
0
40
0
40
0.23928581481960523
40
0.23928581481960523
40
0.23928581481960523
10
1.5426007634097474
20
10.430588859213563
30
0
10
1.5426007634097474
20
10.421834486022902
30
0
10
1.5402964885051798
20
10.409937927598055
30
0
0
SPLINE
5
571
100
AcDbEntity
8
0
100
AcDbSpline
70
0
71
2
72
6
73
3
74
0
42
0.000000001
43
0.0000000001
44
0.0000000001
40
0.23928581481962322
40
0.23928581481962322
40
0.23928581481962322
40
0.40732676545045743
40
0.40732676545045743
40
0.40732676545045743
10
1.5402964885051795
20
10.409937927598051
30
0
10
1.5386782875024574
20
10.401583445789532
30
0
10
1.5359236880257414
20
10.391679333553645
30
0
0
SPLINE
5
572
100
AcDbEntity
8
0
100
AcDbSpline
70
0
71
2
72
6
73
3
74
0
42
0.000000001
43
0.0000000001
44
0.0000000001
40
0.40732676545398966
40
0.40732676545398966
40
0.40732676545398966
40
1
40
1
40
1
10
1.535923688025626
20
10.391679333553231
30
0
10
1.5262083336692673
20
10.35674795395717
30
0
10
1.5023568336443913
20
10.302540060044217
30
0
0
SPLINE
5
573
100
AcDbEntity
8
0
100
AcDbSpline
70
0
71
2
72
6
73
3
74
0
42
0.000000001
43
0.0000000001
44
0.0000000001
40
0
40
0
40
0
40
0.038249227709864157
40
0.038249227709864157
40
0.038249227709864157
10
1.5023568336443913
20
10.302540060044217
30
0
10
1.4932609840024393
20
10.282809061526779
30
0
10
1.4843310601587301
20
10.263661479849121
30
0
0
SPLINE
5
574
100
AcDbEntity
8
0
100
AcDbSpline
70
0
71
2
72
6
73
3
74
0
42
0.000000001
43
0.0000000001
44
0.0000000001
40
0.038249227709864171
40
0.038249227709864171
40
0.038249227709864171
40
0.47910434509327293
40
0.47910434509327293
40
0.47910434509327293
10
1.4843310601587301
20
10.263661479849121
30
0
10
1.381406037614336
20
10.042969197324021
30
0
10
1.3005234895642512
20
9.8997811422706778
30
0
0
SPLINE
5
575
100
AcDbEntity
8
0
100
AcDbSpline
70
0
71
2
72
6
73
3
74
0
42
0.000000001
43
0.0000000001
44
0.0000000001
40
0.47910434509327299
40
0.47910434509327299
40
0.47910434509327299
40
1
40
1
40
1
10
1.300523489564251
20
9.8997811422706761
30
0
10
1.2049561111313216
20
9.7305962269304196
30
0
10
1.1401617473529355
20
9.6696132618019348
30
0
0
SPLINE
5
576
100
AcDbEntity
8
0
100
AcDbSpline
70
0
71
2
72
6
73
3
74
0
42
0.000000001
43
0.0000000001
44
0.0000000001
40
0
40
0
40
0
40
1
40
1
40
1
10
1.1401617473529355
20
9.6696132618019348
30
0
10
1.1035764163898008
20
9.6330278369732163
30
0
10
1.0486983730123076
20
9.6257108270999385
30
0
0
SPLINE
5
577
100
AcDbEntity
8
0
100
AcDbSpline
70
0
71
2
72
6
73
3
74
0
42
0.000000001
43
0.0000000001
44
0.0000000001
40
0
40
0
40
0
40
1
40
1
40
1
10
1.0486983730123076
20
9.6257108270999385
30
0
10
0.82552760070011322
20
9.5964424121444996
30
0
10
0.36821061166499497
20
9.5964424121444996
30
0
0
LINE
5
578
100
AcDbEntity
8
0
100
AcDbLine
10
0.36821061166499502
20
9.5964424121444996
30
0
11
-0.059838167745645085
21
9.6037594220177773
31
0
0
SPLINE
5
579
100
AcDbEntity
8
0
100
AcDbSpline
70
0
71
2
72
6
73
3
74
0
42
0.000000001
43
0.0000000001
44
0.0000000001
40
0
40
0
40
0
40
1
40
1
40
1
10
-0.059838167745645085
20
9.6037594220177773
30
0
10
-0.11471621698973729
20
9.6074179269544153
30
0
10
-0.11471621698973729
20
9.6549788665930496
30
0
0
LINE
5
580
100
AcDbEntity
8
0
100
AcDbLine
10
-0.11471621698973729
20
9.6549788665930496
30
0
11
-0.10739914845047077
21
9.6915642914217663
31
0
0
SPLINE
5
581
100
AcDbEntity
8
0
100
AcDbSpline
70
0
71
2
72
6
73
3
74
0
42
0.000000001
43
0.0000000001
44
0.0000000001
40
0
40
0
40
0
40
1
40
1
40
1
10
-0.10739914845047077
20
9.6915642914217663
30
0
10
-0.056179633476011834
20
9.8159545856544739
30
0
10
0.04077158040195894
20
10.031808254227807
30
0
0
SPLINE
5
582
100
AcDbEntity
8
0
100
AcDbSpline
70
0
71
2
72
6
73
3
74
0
42
0.000000001
43
0.0000000001
44
0.0000000001
40
0
40
0
40
0
40
1
40
1
40
1
10
0.04077158040195894
20
10.031808254227807
30
0
10
0.1377228060131275
20
10.247661922801141
30
0
10
0.44869840079651996
20
10.827540023999834
30
0
0
SPLINE
5
583
100
AcDbEntity
8
0
100
AcDbSpline
70
0
71
2
72
6
73
3
74
0
42
0.000000001
43
0.0000000001
44
0.0000000001
40
0
40
0
40
0
40
1
40
1
40
1
10
0.44869840079651996
20
10.827540023999834
30
0
10
0.75967394864712123
20
11.407417937467361
30
0
10
1.0852837039754424
20
11.886686214252663
30
0
0
SPLINE
5
584
100
AcDbEntity
8
0
100
AcDbSpline
70
0
71
2
72
6
73
3
74
0
42
0.000000001
43
0.0000000001
44
0.0000000001
40
0
40
0
40
0
40
1
40
1
40
1
10
1.0852837039754424
20
11.886686214252663
30
0
10
1.4182105630426232
20
12.369612995974604
30
0
10
1.5206495460587499
20
12.450100855505317
30
0
0
SPLINE
5
585
100
AcDbEntity
8
0
100
AcDbSpline
70
0
71
2
72
6
73
3
74
0
42
0.000000001
43
0.0000000001
44
0.0000000001
40
0
40
0
40
0
40
1
40
1
40
1
10
1.5206495460587499
20
12.450100855505317
30
0
10
1.5682104856973833
20
12.490344785270672
30
0
10
1.6084545093283216
20
12.490344785270672
30
0
0
SPLINE
5
586
100
AcDbEntity
8
0
100
AcDbSpline
70
0
71
2
72
6
73
3
74
0
42
0.000000001
43
0.0000000001
44
0.0000000001
40
0
40
0
40
0
40
1
40
1
40
1
10
1.6084545093283216
20
12.490344785270672
30
0
10
1.6377227365525964
20
12.490344785270672
30
0
10
1.6377227365525964
20
12.457417865378593
30
0
0
SPLINE
5
587
100
AcDbEntity
8
0
100
AcDbSpline
70
0
71
2
72
6
73
3
74
0
42
0.000000001
43
0.0000000001
44
0.0000000001
40
0
40
0
40
0
40
1
40
1
40
1
10
1.6377227365525964
20
12.457417865378593
30
0
10
1.6377227365525964
20
12.398881410930045
30
0
10
1.5389422584731085
20
12.197661762103264
30
0
0
SPLINE
5
588
100
AcDbEntity
8
0
100
AcDbSpline
70
0
71
2
72
6
73
3
74
0
42
0.000000001
43
0.0000000001
44
0.0000000001
40
0
40
0
40
0
40
1
40
1
40
1
10
1.5389422584731085
20
12.197661762103264
30
0
10
1.4401617803936206
20
11.996442301007651
30
0
10
1.3669910246017687
20
11.872052006774943
30
0
0
SPLINE
5
589
100
AcDbEntity
8
0
100
AcDbSpline
70
0
71
2
72
6
73
3
74
0
42
0.000000001
43
0.0000000001
44
0.0000000001
40
0
40
0
40
0
40
1
40
1
40
1
10
1.3669910246017687
20
11.872052006774943
30
0
10
0.51455205284951189
20
10.335466792205132
30
0
10
0.30601546454864176
20
9.7866865461613628
30
0
0
SPLINE
5
590
100
AcDbEntity
8
0
100
AcDbSpline
70
0
71
2
72
6
73
3
74
0
42
0.000000001
43
0.0000000001
44
0.0000000001
40
0
40
0
40
0
40
1
40
1
40
1
10
0.30601546454864176
20
9.7866865461613628
30
0
10
0.30235695961200298
20
9.7757106558891174
30
0
10
0.30235695961200298
20
9.7647351410792016
30
0
0
SPLINE
5
591
100
AcDbEntity
8
0
100
AcDbSpline
70
0
71
2
72
6
73
3
74
0
42
0.000000001
43
0.0000000001
44
0.0000000001
40
0
40
0
40
0
40
1
40
1
40
1
10
0.30235695961200298
20
9.7647351410792016
30
0
10
0.30235695961200298
20
9.7025401816940118
30
0
10
0.43040568838216142
20
9.7025401816940118
30
0
0
SPLINE
5
592
100
AcDbEntity
8
0
100
AcDbSpline
70
0
71
2
72
6
73
3
74
0
42
0.000000001
43
0.0000000001
44
0.0000000001
40
0
40
0
40
0
40
1
40
1
40
1
10
0.43040568838216142
20
9.7025401816940118
30
0
10
0.67918618298199185
20
9.7025401816940118
30
0
10
0.8913812527531052
20
9.8635155252931064
30
0
0
SPLINE
5
593
100
AcDbEntity
8
0
100
AcDbSpline
70
0
71
2
72
6
73
3
74
0
42
0.000000001
43
0.0000000001
44
0.0000000001
40
0
40
0
40
0
40
0.85954945250629922
40
0.85954945250629922
40
0.85954945250629922
10
0.8913812527531052
20
9.8635155252931064
30
0
10
1.1618248612483253
20
10.080499409818026
30
0
10
1.383614128057679
20
10.348840631894607
30
0
0
ENDSEC
0
SECTION
2
OBJECTS
0
DICTIONARY
5
C
100
AcDbDictionary
3
ACAD_GROUP
350
D
3
ACAD_MLINESTYLE
350
17
0
DICTIONARY
5
D
100
AcDbDictionary
0
DICTIONARY
5
1A
330
C
100
AcDbDictionary
0
DICTIONARY
5
17
100
AcDbDictionary
0
ENDSEC
0
EOF
