0
SECTION
2
HEADER
9
$INSUNITS
70
1
9
$ACADVER
1
AC1014
9
$HANDSEED
5
FFFF
0
ENDSEC
0
SECTION
2
TABLES
0
TABLE
2
VPORT
5
8
100
AcDbSymbolTable
0
ENDTAB
0
TABLE
2
LTYPE
5
5
100
AcDbSymbolTable
0
LTYPE
5
14
100
AcDbSymbolTableRecord
100
AcDbLinetypeTableRecord
2
BYBLOCK
70
0
0
LTYPE
5
15
100
AcDbSymbolTableRecord
100
AcDbLinetypeTableRecord
2
BYLAYER
70
0
0
ENDTAB
0
TABLE
2
LAYER
5
2
100
AcDbSymbolTable
70
2
0
LAYER
5
50
100
AcDbSymbolTableRecord
100
AcDbLayerTableRecord
2
0
70
0
6
CONTINUOUS
0
ENDTAB
0
TABLE
2
STYLE
5
3
100
AcDbSymbolTable
70
1
0
STYLE
5
11
100
AcDbSymbolTableRecord
100
AcDbTextStyleTableRecord
2
STANDARD
70
0
0
ENDTAB
0
TABLE
2
VIEW
5
6
100
AcDbSymbolTable
70
0
0
ENDTAB
0
TABLE
2
UCS
5
7
100
AcDbSymbolTable
70
0
0
ENDTAB
0
TABLE
2
APPID
5
9
100
AcDbSymbolTable
70
2
0
APPID
5
12
100
AcDbSymbolTableRecord
100
AcDbRegAppTableRecord
2
ACAD
70
0
0
ENDTAB
0
TABLE
2
DIMSTYLE
5
A
100
AcDbSymbolTable
70
1
0
ENDTAB
0
TABLE
2
BLOCK_RECORD
5
1
100
AcDbSymbolTable
70
1
0
BLOCK_RECORD
5
1F
100
AcDbSymbolTableRecord
100
AcDbBlockTableRecord
2
*MODEL_SPACE
0
BLOCK_RECORD
5
1B
100
AcDbSymbolTableRecord
100
AcDbBlockTableRecord
2
*PAPER_SPACE
0
ENDTAB
0
ENDSEC
0
SECTION
2
BLOCKS
0
BLOCK
5
20
100
AcDbEntity
100
AcDbBlockBegin
2
*MODEL_SPACE
0
ENDBLK
5
21
100
AcDbEntity
100
AcDbBlockEnd
0
BLOCK
5
1C
100
AcDbEntity
100
AcDbBlockBegin
2
*PAPER_SPACE
0
ENDBLK
5
1D
100
AcDbEntity
100
AcDbBlockEnd
0
ENDSEC
0
SECTION
2
ENTITIES
0
SPLINE
5
100
100
AcDbEntity
8
0
100
AcDbSpline
70
4
71
5
72
66
73
60
74
0
42
0.000000001
43
0.0000000001
44
0.0000000001
40
0
40
0
40
0
40
0
40
0
40
0
40
0.018181818181818181
40
0.036363636363636362
40
0.054545454545454543
40
0.072727272727272724
40
0.090909090909090912
40
0.1090909090909091
40
0.12727272727272729
40
0.14545454545454548
40
0.16363636363636366
40
0.18181818181818185
40
0.20000000000000004
40
0.21818181818181823
40
0.23636363636363641
40
0.25454545454545457
40
0.27272727272727276
40
0.29090909090909095
40
0.30909090909090914
40
0.32727272727272733
40
0.34545454545454551
40
0.3636363636363637
40
0.38181818181818189
40
0.40000000000000008
40
0.41818181818181827
40
0.43636363636363645
40
0.45454545454545464
40
0.47272727272727283
40
0.49090909090909102
40
0.50909090909090915
40
0.52727272727272734
40
0.54545454545454553
40
0.56363636363636371
40
0.5818181818181819
40
0.60000000000000009
40
0.61818181818181828
40
0.63636363636363646
40
0.65454545454545465
40
0.67272727272727284
40
0.69090909090909103
40
0.70909090909090922
40
0.7272727272727274
40
0.74545454545454559
40
0.76363636363636378
40
0.78181818181818197
40
0.80000000000000016
40
0.81818181818181834
40
0.83636363636363653
40
0.85454545454545472
40
0.87272727272727291
40
0.89090909090909109
40
0.90909090909090928
40
0.92727272727272747
40
0.94545454545454566
40
0.96363636363636385
40
0.98181818181818203
40
1
40
1
40
1
40
1
40
1
40
1
41
1
41
1
41
1
41
1
41
1
41
1
41
1
41
1
41
1
41
1
41
1
41
1
41
1
41
1
41
1
41
1
41
1
41
1
41
1
41
1
41
1
41
1
41
1
41
1
41
1
41
1
41
1
41
1
41
1
41
1
41
1
41
1
41
1
41
1
41
1
41
1
41
1
41
1
41
1
41
1
41
1
41
1
41
1
41
1
41
1
41
1
41
1
41
1
41
1
41
1
41
1
41
1
41
1
41
1
41
1
41
1
41
1
41
1
41
1
41
1
10
-0.81830600105660667
20
4.934684599663508
30
0
10
-0.82285521066276912
20
4.9310261457800193
30
0
10
-0.8319332816752808
20
4.9235743129946892
30
0
10
-0.84548933727028608
20
4.9119917874778025
30
0
10
-0.8634419652999894
20
4.8957384428271622
30
0
10
-0.88568537324814067
20
4.8740713403974754
30
0
10
-0.90775152914249024
20
4.851057025316929
30
0
10
-0.92967941081061101
20
4.8267048581965257
30
0
10
-0.95153854163760065
20
4.8010342550547245
30
0
10
-0.97341944184721663
20
4.774074257775017
30
0
10
-0.99538014407811348
20
4.7458541124334248
30
0
10
-1.0174015920620294
20
4.7163957063252049
30
0
10
-1.0393399103676459
20
4.685705377346383
30
0
10
-1.0608784313404935
20
4.6537657464453384
30
0
10
-1.0814832132596761
20
4.6205281902394031
30
0
10
-1.1004991197126719
20
4.5859301430536865
30
0
10
-1.1172401885898642
20
4.5499114963095852
30
0
10
-1.1310842448267155
20
4.5124315858270894
30
0
10
-1.1415608523812444
20
4.4734854732375906
30
0
10
-1.1484544058546002
20
4.4331218682963964
30
0
10
-1.151864223459611
20
4.3914566346000656
30
0
10
-1.1521150680310022
20
4.3486707175653665
30
0
10
-1.1496923101405343
20
4.3050108297286069
30
0
10
-1.1451680607148251
20
4.2607890327473408
30
0
10
-1.1391310481154779
20
4.2163833941446303
30
0
10
-1.1321159859453029
20
4.172237318504382
30
0
10
-1.1245304853892641
20
4.1288624323805658
30
0
10
-1.1166513351431779
20
4.0867612506440185
30
0
10
-1.108623845381977
20
4.0463447408195758
30
0
10
-1.1004604949787133
20
4.007853626737826
30
0
10
-1.0920379706673302
20
3.9712731056866373
30
0
10
-1.0830983486822772
20
3.936260709885576
30
0
10
-1.0732382871691961
20
3.9020390982500253
30
0
10
-1.0619960544267069
20
3.8675734664493238
30
0
10
-1.0489548268857056
20
3.8317971722787987
30
0
10
-1.033842292717708
20
3.793823783403683
30
0
10
-1.0166278035072034
20
3.7531574305868696
30
0
10
-0.99763131035242592
20
3.7099229287968463
30
0
10
-0.97759826274756334
20
3.6650354569418901
30
0
10
-0.9575179035162239
20
3.6199075972920789
30
0
10
-0.93846481841040097
20
3.5762001001924917
30
0
10
-0.92143697818276327
20
3.5355625164160607
30
0
10
-0.90718353695927545
20
3.499364767850071
30
0
10
-0.89606374682737788
20
3.4684636160573215
30
0
10
-0.88782396757022986
20
3.442874697551177
30
0
10
-0.88169127007293235
20
3.4218086758820925
30
0
10
-0.87675801633621475
20
3.4040328534822413
30
0
10
-0.8722617484959011
20
3.3881283870790426
30
0
10
-0.86796357097822685
20
3.3728186676797303
30
0
10
-0.86398675049188844
20
3.35701037402155
30
0
10
-0.86055342592919226
20
3.3397900073375748
30
0
10
-0.85777216701781833
20
3.3204341582868655
30
0
10
-0.85568021662106353
20
3.2983894264393507
30
0
10
-0.85427478809519863
20
3.2732562585104361
30
0
10
-0.85355114390657016
20
3.2447727083100686
30
0
10
-0.85350610629417067
20
3.2127867999990722
30
0
10
-0.85401086477440458
20
3.1843388770504615
30
0
10
-0.85469294173160637
20
3.1613856633024349
30
0
10
-0.85528247538484958
20
3.1453651180526894
30
0
10
-0.85561094637653545
20
3.1371752448626498
30
0
0
SPLINE
5
101
100
AcDbEntity
8
0
100
AcDbSpline
70
4
71
5
72
186
73
180
74
0
42
0.000000001
43
0.0000000001
44
0.0000000001
40
0
40
0
40
0
40
0
40
0
40
0
40
0.0057142857142857143
40
0.011428571428571429
40
0.017142857142857144
40
0.022857142857142857
40
0.028571428571428571
40
0.034285714285714287
40
0.040000000000000001
40
0.045714285714285714
40
0.051428571428571428
40
0.057142857142857141
40
0.062857142857142861
40
0.068571428571428575
40
0.074285714285714288
40
0.080000000000000002
40
0.085714285714285715
40
0.091428571428571428
40
0.097142857142857142
40
0.10285714285714286
40
0.10857142857142857
40
0.11428571428571428
40
0.12
40
0.12571428571428572
40
0.13142857142857145
40
0.13714285714285718
40
0.1428571428571429
40
0.14857142857142863
40
0.15428571428571436
40
0.16000000000000009
40
0.16571428571428581
40
0.17142857142857154
40
0.17714285714285727
40
0.182857142857143
40
0.18857142857142872
40
0.19428571428571445
40
0.20000000000000018
40
0.2057142857142859
40
0.21142857142857163
40
0.21714285714285736
40
0.22285714285714309
40
0.22857142857142881
40
0.23428571428571454
40
0.24000000000000027
40
0.245714285714286
40
0.25142857142857172
40
0.25714285714285745
40
0.26285714285714318
40
0.26857142857142891
40
0.27428571428571463
40
0.28000000000000036
40
0.28571428571428609
40
0.29142857142857181
40
0.29714285714285754
40
0.30285714285714327
40
0.308571428571429
40
0.31428571428571472
40
0.32000000000000045
40
0.32571428571428618
40
0.33142857142857191
40
0.33714285714285763
40
0.34285714285714336
40
0.34857142857142909
40
0.35428571428571481
40
0.36000000000000054
40
0.36571428571428627
40
0.371428571428572
40
0.37714285714285772
40
0.38285714285714345
40
0.38857142857142918
40
0.39428571428571491
40
0.40000000000000063
40
0.40571428571428636
40
0.41142857142857209
40
0.41714285714285781
40
0.42285714285714354
40
0.42857142857142927
40
0.434285714285715
40
0.44000000000000072
40
0.44571428571428645
40
0.45142857142857218
40
0.45714285714285791
40
0.46285714285714363
40
0.46857142857142936
40
0.47428571428571509
40
0.48000000000000081
40
0.48571428571428654
40
0.49142857142857227
40
0.497142857142858
40
0.50285714285714367
40
0.50857142857142934
40
0.51428571428571501
40
0.52000000000000068
40
0.52571428571428636
40
0.53142857142857203
40
0.5371428571428577
40
0.54285714285714337
40
0.54857142857142904
40
0.55428571428571471
40
0.56000000000000039
40
0.56571428571428606
40
0.57142857142857173
40
0.5771428571428574
40
0.58285714285714307
40
0.58857142857142875
40
0.59428571428571442
40
0.60000000000000009
40
0.60571428571428576
40
0.61142857142857143
40
0.6171428571428571
40
0.62285714285714278
40
0.62857142857142845
40
0.63428571428571412
40
0.63999999999999979
40
0.64571428571428546
40
0.65142857142857113
40
0.65714285714285681
40
0.66285714285714248
40
0.66857142857142815
40
0.67428571428571382
40
0.67999999999999949
40
0.68571428571428517
40
0.69142857142857084
40
0.69714285714285651
40
0.70285714285714218
40
0.70857142857142785
40
0.71428571428571352
40
0.7199999999999992
40
0.72571428571428487
40
0.73142857142857054
40
0.73714285714285621
40
0.74285714285714188
40
0.74857142857142756
40
0.75428571428571323
40
0.7599999999999989
40
0.76571428571428457
40
0.77142857142857024
40
0.77714285714285591
40
0.78285714285714159
40
0.78857142857142726
40
0.79428571428571293
40
0.7999999999999986
40
0.80571428571428427
40
0.81142857142856994
40
0.81714285714285562
40
0.82285714285714129
40
0.82857142857142696
40
0.83428571428571263
40
0.8399999999999983
40
0.84571428571428398
40
0.85142857142856965
40
0.85714285714285532
40
0.86285714285714099
40
0.86857142857142666
40
0.87428571428571233
40
0.87999999999999801
40
0.88571428571428368
40
0.89142857142856935
40
0.89714285714285502
40
0.90285714285714069
40
0.90857142857142636
40
0.91428571428571204
40
0.91999999999999771
40
0.92571428571428338
40
0.93142857142856905
40
0.93714285714285472
40
0.9428571428571404
40
0.94857142857142607
40
0.95428571428571174
40
0.95999999999999741
40
0.96571428571428308
40
0.97142857142856875
40
0.97714285714285443
40
0.9828571428571401
40
0.98857142857142577
40
0.99428571428571144
40
1
40
1
40
1
40
1
40
1
40
1
41
1
41
1
41
1
41
1
41
1
41
1
41
1
41
1
41
1
41
1
41
1
41
1
41
1
41
1
41
1
41
1
41
1
41
1
41
1
41
1
41
1
41
1
41
1
41
1
41
1
41
1
41
1
41
1
41
1
41
1
41
1
41
1
41
1
41
1
41
1
41
1
41
1
41
1
41
1
41
1
41
1
41
1
41
1
41
1
41
1
41
1
41
1
41
1
41
1
41
1
41
1
41
1
41
1
41
1
41
1
41
1
41
1
41
1
41
1
41
1
41
1
41
1
41
1
41
1
41
1
41
1
41
1
41
1
41
1
41
1
41
1
41
1
41
1
41
1
41
1
41
1
41
1
41
1
41
1
41
1
41
1
41
1
41
1
41
1
41
1
41
1
41
1
41
1
41
1
41
1
41
1
41
1
41
1
41
1
41
1
41
1
41
1
41
1
41
1
41
1
41
1
41
1
41
1
41
1
41
1
41
1
41
1
41
1
41
1
41
1
41
1
41
1
41
1
41
1
41
1
41
1
41
1
41
1
41
1
41
1
41
1
41
1
41
1
41
1
41
1
41
1
41
1
41
1
41
1
41
1
41
1
41
1
41
1
41
1
41
1
41
1
41
1
41
1
41
1
41
1
41
1
41
1
41
1
41
1
41
1
41
1
41
1
41
1
41
1
41
1
41
1
41
1
41
1
41
1
41
1
41
1
41
1
41
1
41
1
41
1
41
1
41
1
41
1
41
1
41
1
41
1
41
1
41
1
41
1
41
1
41
1
41
1
41
1
41
1
41
1
41
1
41
1
41
1
41
1
41
1
10
0.18731481468012598
20
4.9736539507696129
30
0
10
0.18974484482640047
20
4.9712845912082901
30
0
10
0.19462743429422491
20
4.9664144004698221
30
0
10
0.20201885144223897
20
4.9587146664615567
30
0
10
0.21200962076228705
20
4.9476597033942102
30
0
10
0.22466755377603495
20
4.9325041889891272
30
0
10
0.2373344205462182
20
4.9159504699493191
30
0
10
0.24967257553928221
20
4.8978660761500814
30
0
10
0.26117665600050288
20
4.8780653014968403
30
0
10
0.27132486018689411
20
4.8564130499342468
30
0
10
0.2796979692772365
20
4.8329090693279451
30
0
10
0.28611194026086506
20
4.8077806049436322
30
0
10
0.29074317965825647
20
4.7815701538312219
30
0
10
0.29396131300897738
20
4.7549763272529537
30
0
10
0.29615988958541889
20
4.7286930194887091
30
0
10
0.29759276851606609
20
4.7032537056082857
30
0
10
0.29819688583468495
20
4.6788632370710213
30
0
10
0.29745255048421282
20
4.6552641805465065
30
0
10
0.29461444358164945
20
4.6319455506915492
30
0
10
0.28892519206079126
20
4.6083350279909086
30
0
10
0.27981420331796414
20
4.5839785393934322
30
0
10
0.26715473618377722
20
4.5587711889214679
30
0
10
0.25127769025578628
20
4.5329729610930558
30
0
10
0.23278107575748277
20
4.5070435010546666
30
0
10
0.2123994380070022
20
4.4815300832875344
30
0
10
0.19084512504866954
20
4.4569303745208551
30
0
10
0.1686699454535871
20
4.4335738843123735
30
0
10
0.14609604968180639
20
4.4114744999987243
30
0
10
0.1230756981895243
20
4.3904002051539699
30
0
10
0.099389090876891795
20
4.3699791812262667
30
0
10
0.074728191991612153
20
4.3497921697992465
30
0
10
0.048788040820291527
20
4.3294729354762591
30
0
10
0.021351031179707314
20
4.3087997606721453
30
0
10
-0.0076156282144626839
20
4.2878054458477441
30
0
10
-0.037985520308088383
20
4.2667101569678589
30
0
10
-0.069514988086787285
20
4.245830635240182
30
0
10
-0.10187933172325943
20
4.2254976579156107
30
0
10
-0.1347113500355944
20
4.205970304774139
30
0
10
-0.16763901255844008
20
4.1873509567707279
30
0
10
-0.20032314676394264
20
4.1695014389716096
30
0
10
-0.23249610019487732
20
4.1519545135191986
30
0
10
-0.2639512460281962
20
4.1340360237011344
30
0
10
-0.29453118625388486
20
4.1149930327964803
30
0
10
-0.32411650057921965
20
4.0941185120942842
30
0
10
-0.35261415322886625
20
4.0708802460049123
30
0
10
-0.37994633365789904
20
4.045041563040825
30
0
10
-0.40603844686935031
20
4.0168009064966395
30
0
10
-0.43080944836628282
20
3.9868781816928434
30
0
10
-0.45417550592194084
20
3.9562947447279191
30
0
10
-0.47605226381707771
20
3.926186627323462
30
0
10
-0.49635731953201162
20
3.8976104053878098
30
0
10
-0.51501335559594197
20
3.8713397980925919
30
0
10
-0.53194925533928905
20
3.8476950845609141
30
0
10
-0.54710633441930101
20
3.8262875098947871
30
0
10
-0.56042696624474253
20
3.8060601358545081
30
0
10
-0.57182263308470271
20
3.7856992430426573
30
0
10
-0.58114442734548455
20
3.7639663097468663
30
0
10
-0.58815846708682218
20
3.7400319686643835
30
0
10
-0.59250408963472012
20
3.713886452364044
30
0
10
-0.59375892793505225
20
3.6862038938368311
30
0
10
-0.59153459811897457
20
3.6580391710262568
30
0
10
-0.58556613230539445
20
3.6305737751181528
30
0
10
-0.57579509127728778
20
3.6048576251310678
30
0
10
-0.5624783930948466
20
3.5815104883643754
30
0
10
-0.54613987694134125
20
3.5607104237691485
30
0
10
-0.52747056054925145
20
3.5422806376371132
30
0
10
-0.50724419774648544
20
3.5257422235009144
30
0
10
-0.48623047162120153
20
3.510383872027087
30
0
10
-0.46509872293505011
20
3.4953170063579972
30
0
10
-0.44442039178211762
20
3.4796008655527393
30
0
10
-0.42469102198799175
20
3.462377635667313
30
0
10
-0.40634548941295728
20
3.4430072966340135
30
0
10
-0.38977588355324294
20
3.4211955778897987
30
0
10
-0.37534874787986772
20
3.3971437373739706
30
0
10
-0.36341259328842512
20
3.3713971769044444
30
0
10
-0.35430329043621478
20
3.344670135449396
30
0
10
-0.34835204895306188
20
3.3176723973283289
30
0
10
-0.34588818341372535
20
3.2909502406465982
30
0
10
-0.34725467806495552
20
3.2646824575205078
30
0
10
-0.3527499687718556
20
3.2387509233946017
30
0
10
-0.36255003340473796
20
3.2128930652295233
30
0
10
-0.3766316444423925
20
3.1868328715940142
30
0
10
-0.39470717701564517
20
3.1604075479030005
30
0
10
-0.41612389328072591
20
3.1337296818645237
30
0
10
-0.43993755791478689
20
3.1071589842269325
30
0
10
-0.46507322077545871
20
3.0811778795780973
30
0
10
-0.49045637635230727
20
3.0562989851122633
30
0
10
-0.51516111936464537
20
3.032956061083151
30
0
10
-0.53854015470632732
20
3.0114096579712353
30
0
10
-0.56038886694330037
20
2.9916280635306123
30
0
10
-0.58101149563314869
20
2.9732371649502012
30
0
10
-0.6010120017705306
20
2.9556629230913849
30
0
10
-0.62113427721007763
20
2.9382393657892192
30
0
10
-0.64208348732277787
20
2.9203297661573955
30
0
10
-0.66435409835170778
20
2.9014431456711804
30
0
10
-0.68805880476861381
20
2.8813501633938552
30
0
10
-0.71300909861394268
20
2.8600244866165774
30
0
10
-0.73879103275750946
20
2.8375874542970263
30
0
10
-0.76484237856486259
20
2.814251870473055
30
0
10
-0.7905300169001418
20
2.7902654024744797
30
0
10
-0.81522517382194815
20
2.7658560175922386
30
0
10
-0.83838499717625814
20
2.7411715965445458
30
0
10
-0.85956666613290611
20
2.7162810934984294
30
0
10
-0.8784328665145309
20
2.691183527684549
30
0
10
-0.89476013257327713
20
2.6658144550599867
30
0
10
-0.90844649717382275
20
2.6400528748154644
30
0
10
-0.91951831483692303
20
2.6137293702985636
30
0
10
-0.92814055188563493
20
2.5866299356069598
30
0
10
-0.93455765083127196
20
2.5585762160402381
30
0
10
-0.93903240117784659
20
2.5295050297469057
30
0
10
-0.9417818537957644
20
2.4995578261203124
30
0
10
-0.94292284865298448
20
2.4691440949681516
30
0
10
-0.94239278028815909
20
2.4390698675319262
30
0
10
-0.9399625054230788
20
2.4104271095443455
30
0
10
-0.93533822302390401
20
2.3842625477407373
30
0
10
-0.92824202001314171
20
2.3612844672443059
30
0
10
-0.91849482817176831
20
2.3416019940170814
30
0
10
-0.90611374502438669
20
2.3243332252376212
30
0
10
-0.89134463848694356
20
2.3077147175165327
30
0
10
-0.87461795761253347
20
2.2897845768411234
30
0
10
-0.85652507651569376
20
2.2689216822538394
30
0
10
-0.83778563736429368
20
2.2444296694887838
30
0
10
-0.81922054457349869
20
2.2171390291457671
30
0
10
-0.80167205739957448
20
2.1888366505515782
30
0
10
-0.78592436294573054
20
2.161660403334317
30
0
10
-0.77262041209739063
20
2.1374765300419138
30
0
10
-0.76218826280626706
20
2.1173331282943497
30
0
10
-0.75474405914108145
20
2.1007141585956584
30
0
10
-0.75006988153779885
20
2.0854426634946828
30
0
10
-0.74773940571637432
20
2.0688869558820695
30
0
10
-0.74721066617783516
20
2.0488554982935212
30
0
10
-0.74793467975209871
20
2.0246931958497396
30
0
10
-0.74940802144602314
20
1.9969423168633791
30
0
10
-0.751223209339556
20
1.9669159506339151
30
0
10
-0.75312074220952185
20
1.9362988305415978
30
0
10
-0.75503816988230621
20
1.9067435090062184
30
0
10
-0.75716676280809891
20
1.8794506259217416
30
0
10
-0.75986540230825295
20
1.8551116731411732
30
0
10
-0.76356335473725023
20
1.8338666474745193
30
0
10
-0.76867091442141267
20
1.8152742631552234
30
0
10
-0.77547779828639085
20
1.7982341832476905
30
0
10
-0.7840851455542438
20
1.7810684043072491
30
0
10
-0.79442352150705997
20
1.7620800483469721
30
0
10
-0.80625734461118648
20
1.7399787073574173
30
0
10
-0.81918947949542886
20
1.7144562529538105
30
0
10
-0.83268279539274537
20
1.6863760837744228
30
0
10
-0.8461229072508144
20
1.657208808537586
30
0
10
-0.85887164247437209
20
1.6286358378942962
30
0
10
-0.87032478948647285
20
1.6020662660552629
30
0
10
-0.87996671277715699
20
1.5782364874146007
30
0
10
-0.88742958225959057
20
1.5566552861611627
30
0
10
-0.89253350732902892
20
1.5359532525226498
30
0
10
-0.89532996991326574
20
1.5145199292093574
30
0
10
-0.89612893013428774
20
1.4909909207766412
30
0
10
-0.89556865507572825
20
1.4649237063924712
30
0
10
-0.89453643103978797
20
1.436929490143964
30
0
10
-0.89391179292768208
20
1.4081595031512313
30
0
10
-0.89434085644271466
20
1.3799384377732
30
0
10
-0.89602796396124529
20
1.3533713181461384
30
0
10
-0.89844793687684832
20
1.3288824855261823
30
0
10
-0.90033352797976984
20
1.3060496396782075
30
0
10
-0.90021058537738452
20
1.2840477626635158
30
0
10
-0.89682144701090971
20
1.2619650556145232
30
0
10
-0.88958061004124278
20
1.2391620773066234
30
0
10
-0.87905040913113064
20
1.2156340891353203
30
0
10
-0.86654173906948162
20
1.1918212133503368
30
0
10
-0.85365649422317624
20
1.1683813663063918
30
0
10
-0.84186572329918019
20
1.1459829193046742
30
0
10
-0.8320398437375579
20
1.1250754909063987
30
0
10
-0.82409634313094915
20
1.1057098983789573
30
0
10
-0.81747345570191954
20
1.0876891027647013
30
0
10
-0.81149760585975361
20
1.0706808336694724
30
0
10
-0.80583527818196843
20
1.0543537461861396
30
0
10
-0.80077856399275538
20
1.0384771315958763
30
0
10
-0.79689254314437019
20
1.0228933766312611
30
0
10
-0.79475696057403744
20
1.0075082036307041
30
0
10
-0.79468175730024793
20
0.99532087495126542
30
0
10
-0.79558749575648713
20
0.98624126349871699
30
0
10
-0.79661893173347298
20
0.98021523930099208
30
0
10
-0.79724155145136089
20
0.97720899021749685
30
0
0
SPLINE
5
102
100
AcDbEntity
8
0
100
AcDbSpline
70
4
71
5
72
76
73
70
74
0
42
0.000000001
43
0.0000000001
44
0.0000000001
40
0
40
0
40
0
40
0
40
0
40
0
40
0.015384615384615385
40
0.030769230769230771
40
0.046153846153846156
40
0.061538461538461542
40
0.076923076923076927
40
0.092307692307692313
40
0.1076923076923077
40
0.12307692307692308
40
0.13846153846153847
40
0.15384615384615385
40
0.16923076923076924
40
0.18461538461538463
40
0.20000000000000001
40
0.2153846153846154
40
0.23076923076923078
40
0.24615384615384617
40
0.26153846153846155
40
0.27692307692307694
40
0.29230769230769232
40
0.30769230769230771
40
0.32307692307692309
40
0.33846153846153848
40
0.35384615384615387
40
0.36923076923076925
40
0.38461538461538464
40
0.40000000000000002
40
0.41538461538461541
40
0.43076923076923079
40
0.44615384615384618
40
0.46153846153846156
40
0.47692307692307695
40
0.49230769230769234
40
0.50769230769230766
40
0.52307692307692299
40
0.53846153846153832
40
0.55384615384615365
40
0.56923076923076898
40
0.58461538461538431
40
0.59999999999999964
40
0.61538461538461497
40
0.6307692307692303
40
0.64615384615384563
40
0.66153846153846096
40
0.67692307692307629
40
0.69230769230769162
40
0.70769230769230695
40
0.72307692307692228
40
0.73846153846153761
40
0.75384615384615294
40
0.76923076923076827
40
0.7846153846153836
40
0.79999999999999893
40
0.81538461538461426
40
0.83076923076922959
40
0.84615384615384492
40
0.86153846153846025
40
0.87692307692307558
40
0.89230769230769091
40
0.90769230769230624
40
0.92307692307692157
40
0.9384615384615369
40
0.95384615384615223
40
0.96923076923076756
40
0.98461538461538289
40
1
40
1
40
1
40
1
40
1
40
1
41
1
41
1
41
1
41
1
41
1
41
1
41
1
41
1
41
1
41
1
41
1
41
1
41
1
41
1
41
1
41
1
41
1
41
1
41
1
41
1
41
1
41
1
41
1
41
1
41
1
41
1
41
1
41
1
41
1
41
1
41
1
41
1
41
1
41
1
41
1
41
1
41
1
41
1
41
1
41
1
41
1
41
1
41
1
41
1
41
1
41
1
41
1
41
1
41
1
41
1
41
1
41
1
41
1
41
1
41
1
41
1
41
1
41
1
41
1
41
1
41
1
41
1
41
1
41
1
41
1
41
1
41
1
41
1
41
1
41
1
10
0.41088960300908001
20
4.9634112324671777
30
0
10
0.41102584012372639
20
4.9610667898449563
30
0
10
0.41125375801744296
20
4.9562042504224779
30
0
10
0.41146204721445601
20
4.9483895458866414
30
0
10
0.41147178188570088
20
4.9369271650717232
30
0
10
0.41112756789700139
20
4.9209331905510556
30
0
10
0.4106856711716384
20
4.9034823072180318
30
0
10
0.41068918046187947
20
4.8850162783209576
30
0
10
0.41195822695511608
20
4.8662033551371566
30
0
10
0.41537379741461855
20
4.8477596213333447
30
0
10
0.42171114855670017
20
4.830311493252708
30
0
10
0.43144888284940891
20
4.8142376530145103
30
0
10
0.4445998734970989
20
4.7995303185009739
30
0
10
0.46084439680823014
20
4.7859308103964233
30
0
10
0.47965426818547374
20
4.7730576513131577
30
0
10
0.50041572480321461
20
4.7605319230429117
30
0
10
0.52256228358713441
20
4.7481159215188686
30
0
10
0.54567391863402848
20
4.7358091882818609
30
0
10
0.56942951113730533
20
4.7237596920727043
30
0
10
0.5935812153659189
20
4.7122025817667827
30
0
10
0.61791925918194679
20
4.7013870298837279
30
0
10
0.64224348817085097
20
4.6915112136647812
30
0
10
0.66632581104418753
20
4.6826465192111844
30
0
10
0.68989613432333829
20
4.6746887992817872
30
0
10
0.71270309313726321
20
4.6673932227932164
30
0
10
0.7345606221773654
20
4.6603953066201882
30
0
10
0.75540350321047933
20
4.6532362534832492
30
0
10
0.77533160530604783
20
4.6453884010305098
30
0
10
0.79467904631791408
20
4.6362750361568015
30
0
10
0.81393623553627725
20
4.6253295742894869
30
0
10
0.83363285591884351
20
4.6120645095098682
30
0
10
0.85423011892819645
20
4.5961402342070343
30
0
10
0.87601793209661349
20
4.5774272942488148
30
0
10
0.89898834011764472
20
4.5560883394600316
30
0
10
0.92279078675592041
20
4.5325963426586613
30
0
10
0.94684978587165514
20
4.5076275567147785
30
0
10
0.97044732393513922
20
4.4819816199225233
30
0
10
0.99281884258387842
20
4.4564913879957118
30
0
10
1.0132439170523464
20
4.4319364795648628
30
0
10
1.0311378114673191
20
4.4089570041044555
30
0
10
1.0461462830603552
20
4.3879626922883004
30
0
10
1.0582295313966283
20
4.3690557546258031
30
0
10
1.0675922069645238
20
4.3521217024177332
30
0
10
1.0746236334168651
20
4.3369166944652919
30
0
10
1.07983420714839
20
4.3231410659606953
30
0
10
1.0837943600452509
20
4.3105537044989237
30
0
10
1.0870706003527475
20
4.2989539353905375
30
0
10
1.090160858005931
20
4.2879113091722978
30
0
10
1.0934254511204187
20
4.2765203188408352
30
0
10
1.0970313434762085
20
4.2632197658985174
30
0
10
1.1009986884658407
20
4.2463255053925399
30
0
10
1.1052360360466602
20
4.2244569998614176
30
0
10
1.1095817253172779
20
4.1970725680005359
30
0
10
1.1138361351874881
20
4.164747732064999
30
0
10
1.1177749344678547
20
4.1288035645627277
30
0
10
1.1211656098692688
20
4.0910569617106596
30
0
10
1.1237828003430388
20
4.0535218320147415
30
0
10
1.125423892490927
20
4.0181358840701424
30
0
10
1.1259251370297481
20
3.9864667667639955
30
0
10
1.1251762025235443
20
3.95944932577869
30
0
10
1.1231391893821874
20
3.9370487371819767
30
0
10
1.1198331378780961
20
3.9184831062781766
30
0
10
1.1153114618851179
20
3.9025603084843632
30
0
10
1.1096424109760674
20
3.8879664511278271
30
0
10
1.1028871471868744
20
3.8735927845846239
30
0
10
1.0950822679710246
20
3.8587918330294393
30
0
10
1.088014289657135
20
3.8463466674755105
30
0
10
1.0822529895151782
20
3.8366248122768121
30
0
10
1.0782076232946987
20
3.8299710975625949
30
0
10
1.0761338149265585
20
3.8266011269827391
30
0
0
SPLINE
5
103
100
AcDbEntity
8
0
100
AcDbSpline
70
4
71
5
72
26
73
20
74
0
42
0.000000001
43
0.0000000001
44
0.0000000001
40
0
40
0
40
0
40
0
40
0
40
0
40
0.066666666666666666
40
0.13333333333333333
40
0.20000000000000001
40
0.26666666666666666
40
0.33333333333333331
40
0.39999999999999997
40
0.46666666666666662
40
0.53333333333333333
40
0.59999999999999998
40
0.66666666666666663
40
0.73333333333333328
40
0.79999999999999993
40
0.86666666666666659
40
0.93333333333333324
40
1
40
1
40
1
40
1
40
1
40
1
41
1
41
1
41
1
41
1
41
1
41
1
41
1
41
1
41
1
41
1
41
1
41
1
41
1
41
1
41
1
41
1
41
1
41
1
41
1
41
1
10
0.64178882903609391
20
3.9042888480363187
30
0
10
0.6426445669473112
20
3.9056354727884766
30
0
10
0.64439780270249969
20
3.9083118353855784
30
0
10
0.6471529360011502
20
3.9122757199934455
30
0
10
0.65107882873058032
20
3.917458832353979
30
0
10
0.65641931999309555
20
3.9237578998709428
30
0
10
0.66221117106507865
20
3.9298554659032479
30
0
10
0.66847551189589238
20
3.9357144752305757
30
0
10
0.6752317921958132
20
3.9412780614488634
30
0
10
0.682494000785691
20
3.9464687701840262
30
0
10
0.69027275928451215
20
3.9511995801972541
30
0
10
0.69857471259772619
20
3.9553843243821909
30
0
10
0.70740154058542504
20
3.9589486498702722
30
0
10
0.71674610356095414
20
3.9618455316114991
30
0
10
0.72659108204355816
20
3.9640630299295183
30
0
10
0.7369164784824167
20
3.9656076891701062
30
0
10
0.74554641028847579
20
3.9663175646140103
30
0
10
0.75222096021667406
20
3.966560857741162
30
0
10
0.75675983022897708
20
3.9665954944881654
30
0
10
0.7590515580093784
20
3.9665809226787738
30
0
0
SPLINE
5
104
100
AcDbEntity
8
0
100
AcDbSpline
70
4
71
5
72
36
73
30
74
0
42
0.000000001
43
0.0000000001
44
0.0000000001
40
0
40
0
40
0
40
0
40
0
40
0
40
0.040000000000000001
40
0.080000000000000002
40
0.12
40
0.16
40
0.20000000000000001
40
0.24000000000000002
40
0.28000000000000003
40
0.32000000000000001
40
0.35999999999999999
40
0.39999999999999997
40
0.43999999999999995
40
0.47999999999999993
40
0.51999999999999991
40
0.55999999999999994
40
0.59999999999999998
40
0.64000000000000001
40
0.68000000000000005
40
0.72000000000000008
40
0.76000000000000012
40
0.80000000000000016
40
0.84000000000000019
40
0.88000000000000023
40
0.92000000000000026
40
0.9600000000000003
40
1
40
1
40
1
40
1
40
1
40
1
41
1
41
1
41
1
41
1
41
1
41
1
41
1
41
1
41
1
41
1
41
1
41
1
41
1
41
1
41
1
41
1
41
1
41
1
41
1
41
1
41
1
41
1
41
1
41
1
41
1
41
1
41
1
41
1
41
1
41
1
10
0.36220645530561774
20
3.9487713057053062
30
0
10
0.36171621820837419
20
3.9502296453773837
30
0
10
0.36068522493340271
20
3.9531138441180302
30
0
10
0.35898717876073993
20
3.9573427010911897
30
0
10
0.35641920545388872
20
3.9627857806008633
30
0
10
0.35269708267736605
20
3.9692590255838676
30
0
10
0.34845380338402676
20
3.9753919034272913
30
0
10
0.34367782057169427
20
3.981169019421793
30
0
10
0.33835508520041196
20
3.986567961881256
30
0
10
0.33247201850213837
20
3.9915599373072777
30
0
10
0.32602454291876909
20
3.9961151439771401
30
0
10
0.31902697786861073
20
4.000207352998177
30
0
10
0.31151978763163118
20
4.0038190140927306
30
0
10
0.30358229343476417
20
4.0069464441754841
30
0
10
0.29532825025700477
20
4.0096051727290734
30
0
10
0.28688498601604373
20
4.0118349188998943
30
0
10
0.27837658844118396
20
4.0137057797527058
30
0
10
0.26990720463132994
20
4.0153229404064481
30
0
10
0.26154016876202685
20
4.0168361919005662
30
0
10
0.25329338771966597
20
4.0184345786168514
30
0
10
0.24515529891158594
20
4.0203230036672819
30
0
10
0.23709554948149147
20
4.0227027607293051
30
0
10
0.22907678877406351
20
4.0257522095489868
30
0
10
0.22106762903243202
20
4.0296025894774656
30
0
10
0.21304847745883329
20
4.0343314294282404
30
0
10
0.20500747445743323
20
4.0399794651620216
30
0
10
0.19855272269372856
20
4.0452446014225165
30
0
10
0.19369852224547704
20
4.0496134269260153
30
0
10
0.19045656823067816
20
4.0527121387566316
30
0
10
0.18883413595949197
20
4.0543080354833254
30
0
0
SPLINE
5
105
100
AcDbEntity
8
0
100
AcDbSpline
70
4
71
5
72
41
73
35
74
0
42
0.000000001
43
0.0000000001
44
0.0000000001
40
0
40
0
40
0
40
0
40
0
40
0
40
0.033333333333333333
40
0.066666666666666666
40
0.10000000000000001
40
0.13333333333333333
40
0.16666666666666666
40
0.19999999999999998
40
0.23333333333333331
40
0.26666666666666666
40
0.29999999999999999
40
0.33333333333333331
40
0.36666666666666664
40
0.39999999999999997
40
0.43333333333333329
40
0.46666666666666662
40
0.49999999999999994
40
0.53333333333333333
40
0.56666666666666665
40
0.59999999999999998
40
0.6333333333333333
40
0.66666666666666663
40
0.69999999999999996
40
0.73333333333333328
40
0.76666666666666661
40
0.79999999999999993
40
0.83333333333333326
40
0.86666666666666659
40
0.89999999999999991
40
0.93333333333333324
40
0.96666666666666656
40
1
40
1
40
1
40
1
40
1
40
1
41
1
41
1
41
1
41
1
41
1
41
1
41
1
41
1
41
1
41
1
41
1
41
1
41
1
41
1
41
1
41
1
41
1
41
1
41
1
41
1
41
1
41
1
41
1
41
1
41
1
41
1
41
1
41
1
41
1
41
1
41
1
41
1
41
1
41
1
41
1
10
-0.17867906182109772
20
3.8086972497429796
30
0
10
-0.17723932858980515
20
3.8094098560817828
30
0
10
-0.17420192945200361
20
3.8107827200427957
30
0
10
-0.16917202243757859
20
3.8126849776470961
30
0
10
-0.1615162357276767
20
3.8149066084660124
30
0
10
-0.15039818554674347
20
3.8171299955147209
30
0
10
-0.13785240026531176
20
3.8187167073010166
30
0
10
-0.1241310517603209
20
3.8195069331870553
30
0
10
-0.10967592929664402
20
3.8192317342860647
30
0
10
-0.095026941182950242
20
3.8175914001297877
30
0
10
-0.080716456839241141
20
3.814344471845184
30
0
10
-0.067167720474195405
20
3.809394837541265
30
0
10
-0.054593670372555178
20
3.8028777814048449
30
0
10
-0.042886533041495999
20
3.795256916229607
30
0
10
-0.031704709903468312
20
3.7871959147582284
30
0
10
-0.020569309578835664
20
3.7794182446188156
30
0
10
-0.0089547520591652767
20
3.7725747600221435
30
0
10
0.0036162539027152288
20
3.7671016216163022
30
0
10
0.017486457009942804
20
3.7630983631400095
30
0
10
0.032865419754869243
20
3.7604306043111051
30
0
10
0.049824195019922538
20
3.7588132738519269
30
0
10
0.068289836039922405
20
3.7579023493568635
30
0
10
0.088041680721112861
20
3.7573758825198027
30
0
10
0.10869736880175566
20
3.7570352325078242
30
0
10
0.12974892937026544
20
3.7568057913236137
30
0
10
0.15061846295745962
20
3.7566994169725358
30
0
10
0.17070597061989284
20
3.7567902628279222
30
0
10
0.18944188486907579
20
3.7571848440962112
30
0
10
0.20633388691099067
20
3.7579964414117262
30
0
10
0.22102647134252201
20
3.7593138581615326
30
0
10
0.23332472039119503
20
3.7611850967686311
30
0
10
0.24117686391016913
20
3.7631429999599617
30
0
10
0.24593978864399157
20
3.7648729322358823
30
0
10
0.24861540945829466
20
3.7661422513126266
30
0
10
0.24982830667436381
20
3.7668059176146631
30
0
0
SPLINE
5
106
100
AcDbEntity
8
0
100
AcDbSpline
70
4
71
5
72
21
73
15
74
0
42
0.000000001
43
0.0000000001
44
0.0000000001
40
0
40
0
40
0
40
0
40
0
40
0
40
0.10000000000000001
40
0.20000000000000001
40
0.30000000000000004
40
0.40000000000000002
40
0.5
40
0.59999999999999998
40
0.69999999999999996
40
0.79999999999999993
40
0.89999999999999991
40
1
40
1
40
1
40
1
40
1
40
1
41
1
41
1
41
1
41
1
41
1
41
1
41
1
41
1
41
1
41
1
41
1
41
1
41
1
41
1
41
1
10
0.18452609539922746
20
3.7578021053480568
30
0
10
0.18480832061268318
20
3.7567169630179542
30
0
10
0.18535605638070163
20
3.7545133206350134
30
0
10
0.18612751600304206
20
3.7511077837866216
30
0
10
0.18705419132911669
20
3.7463636296171696
30
0
10
0.18803137083487131
20
3.7400718835958218
30
0
10
0.18881222918775339
20
3.7333883361827933
30
0
10
0.18938234492797448
20
3.7262842062299937
30
0
10
0.18973683262605701
20
3.7187497438037953
30
0
10
0.18988738137038896
20
3.7108082770119108
30
0
10
0.18985075034148663
20
3.7024932524293894
30
0
10
0.18968465510015478
20
3.695568237847318
30
0
10
0.18948813228475342
20
3.6902308823342866
30
0
10
0.18932566361938036
20
3.6866098731412507
30
0
10
0.1892365654910883
20
3.6847836746368379
30
0
0
SPLINE
5
107
100
AcDbEntity
8
0
100
AcDbSpline
70
4
71
5
72
21
73
15
74
0
42
0.000000001
43
0.0000000001
44
0.0000000001
40
0
40
0
40
0
40
0
40
0
40
0
40
0.10000000000000001
40
0.20000000000000001
40
0.30000000000000004
40
0.40000000000000002
40
0.5
40
0.59999999999999998
40
0.69999999999999996
40
0.79999999999999993
40
0.89999999999999991
40
1
40
1
40
1
40
1
40
1
40
1
41
1
41
1
41
1
41
1
41
1
41
1
41
1
41
1
41
1
41
1
41
1
41
1
41
1
41
1
41
1
10
0.13106441459107915
20
3.7568266625374314
30
0
10
0.13135222457593645
20
3.7555869533767754
30
0
10
0.1319109658001586
20
3.7530831487305294
30
0
10
0.13269844180454882
20
3.7492542833708349
30
0
10
0.13364546855752343
20
3.7440004005635381
30
0
10
0.1346462283467989
20
3.7371686154199226
30
0
10
0.13544835484033041
20
3.7300498459077573
30
0
10
0.13603679434941035
20
3.7226223425340454
30
0
10
0.13640548304632416
20
3.7148773443109797
30
0
10
0.1365654848406411
20
3.7068308363180251
30
0
10
0.13653355871331202
20
3.6985070318447053
30
0
10
0.13636757209765946
20
3.6916450730161507
30
0
10
0.13616917824407507
20
3.6863918279291417
30
0
10
0.13600460791562244
20
3.6828429864519636
30
0
10
0.13591424541315891
20
3.6810568956163268
30
0
0
SPLINE
5
108
100
AcDbEntity
8
0
100
AcDbSpline
70
4
71
5
72
21
73
15
74
0
42
0.000000001
43
0.0000000001
44
0.0000000001
40
0
40
0
40
0
40
0
40
0
40
0
40
0.10000000000000001
40
0.20000000000000001
40
0.30000000000000004
40
0.40000000000000002
40
0.5
40
0.59999999999999998
40
0.69999999999999996
40
0.79999999999999993
40
0.89999999999999991
40
1
40
1
40
1
40
1
40
1
40
1
41
1
41
1
41
1
41
1
41
1
41
1
41
1
41
1
41
1
41
1
41
1
41
1
41
1
41
1
41
1
10
0.0782024520619784
20
3.7578021053480568
30
0
10
0.078271322319018899
20
3.7567248817915346
30
0
10
0.07839575374450114
20
3.7545405679086663
30
0
10
0.07854247362243541
20
3.7511744967872604
30
0
10
0.078656931819959877
20
3.7465042531130703
30
0
10
0.078655743244339188
20
3.7403427133757265
30
0
10
0.078498192839564385
20
3.7338302838880097
30
0
10
0.0781727455596469
20
3.7269410789877724
30
0
10
0.077675392050946965
20
3.7196661013310535
30
0
10
0.077015364648727339
20
3.7120260690931222
30
0
10
0.076205990983660404
20
3.7040508906538347
30
0
10
0.075449331272184769
20
3.6974257814741671
30
0
10
0.074824415117962312
20
3.692328090963223
30
0
10
0.074382702597200867
20
3.6888733000761325
30
0
10
0.074155570558669226
20
3.6871318212322404
30
0
0
SPLINE
5
109
100
AcDbEntity
8
0
100
AcDbSpline
70
4
71
5
72
21
73
15
74
0
42
0.000000001
43
0.0000000001
44
0.0000000001
40
0
40
0
40
0
40
0
40
0
40
0
40
0.10000000000000001
40
0.20000000000000001
40
0.30000000000000004
40
0.40000000000000002
40
0.5
40
0.59999999999999998
40
0.69999999999999996
40
0.79999999999999993
40
0.89999999999999991
40
1
40
1
40
1
40
1
40
1
40
1
41
1
41
1
41
1
41
1
41
1
41
1
41
1
41
1
41
1
41
1
41
1
41
1
41
1
41
1
41
1
10
0.015884739097842986
20
3.7638994125428451
30
0
10
0.015980081400109192
20
3.762208530475414
30
0
10
0.016154014393063354
20
3.7588604641221499
30
0
10
0.016364661897433203
20
3.753939452204611
30
0
10
0.016543343142254051
20
3.7475836539445888
30
0
10
0.016584545383285795
20
3.7400053202882906
30
0
10
0.016426254502312481
20
3.732828289850846
30
0
10
0.016050445935616001
20
3.7260888211022962
30
0
10
0.015444317423373859
20
3.7198126672514547
30
0
10
0.014612660416756858
20
3.713990189746418
30
0
10
0.013570737821204959
20
3.7085906855081032
30
0
10
0.012581887351348858
20
3.7045835107498184
30
0
10
0.011758307892071251
20
3.7017429645896596
30
0
10
0.011173425212942914
20
3.6999213426992315
30
0
10
0.010872026485601117
20
3.6990285505634044
30
0
0
SPLINE
5
110
100
AcDbEntity
8
0
100
AcDbSpline
70
4
71
5
72
16
73
10
74
0
42
0.000000001
43
0.0000000001
44
0.0000000001
40
0
40
0
40
0
40
0
40
0
40
0
40
0.20000000000000001
40
0.40000000000000002
40
0.60000000000000009
40
0.80000000000000004
40
1
40
1
40
1
40
1
40
1
40
1
41
1
41
1
41
1
41
1
41
1
41
1
41
1
41
1
41
1
41
1
10
-0.028041791303718634
20
3.7847063276687476
30
0
10
-0.028874709334403333
20
3.7830814445171033
30
0
10
-0.030540545395773243
20
3.779831678213847
30
0
10
-0.033039299487829771
20
3.7749570287590699
30
0
10
-0.036370971610574801
20
3.7684574961528825
30
0
10
-0.040535561764009569
20
3.7603330803954185
30
0
10
-0.043867233886758908
20
3.7538335477896601
30
0
10
-0.046365987978821376
20
3.7489588983354873
30
0
10
-0.048031824040196437
20
3.7457091320327716
30
0
10
-0.048864742070883996
20
3.744084248881431
30
0
0
SPLINE
5
111
100
AcDbEntity
8
0
100
AcDbSpline
70
4
71
5
72
41
73
35
74
0
42
0.000000001
43
0.0000000001
44
0.0000000001
40
0
40
0
40
0
40
0
40
0
40
0
40
0.033333333333333333
40
0.066666666666666666
40
0.10000000000000001
40
0.13333333333333333
40
0.16666666666666666
40
0.19999999999999998
40
0.23333333333333331
40
0.26666666666666666
40
0.29999999999999999
40
0.33333333333333331
40
0.36666666666666664
40
0.39999999999999997
40
0.43333333333333329
40
0.46666666666666662
40
0.49999999999999994
40
0.53333333333333333
40
0.56666666666666665
40
0.59999999999999998
40
0.6333333333333333
40
0.66666666666666663
40
0.69999999999999996
40
0.73333333333333328
40
0.76666666666666661
40
0.79999999999999993
40
0.83333333333333326
40
0.86666666666666659
40
0.89999999999999991
40
0.93333333333333324
40
0.96666666666666656
40
1
40
1
40
1
40
1
40
1
40
1
41
1
41
1
41
1
41
1
41
1
41
1
41
1
41
1
41
1
41
1
41
1
41
1
41
1
41
1
41
1
41
1
41
1
41
1
41
1
41
1
41
1
41
1
41
1
41
1
41
1
41
1
41
1
41
1
41
1
41
1
41
1
41
1
41
1
41
1
41
1
10
0.77029917465112407
20
3.5993182955914649
30
0
10
0.77343319735937754
20
3.5986778589382853
30
0
10
0.77983483721140823
20
3.5972763840513613
30
0
10
0.78983809244987946
20
3.5948123631181699
30
0
10
0.80397870354274747
20
3.5908021078028485
30
0
10
0.82297185316558341
20
3.5845809618167879
30
0
10
0.84320300728929509
20
3.5771649392133766
30
0
10
0.86450516156212165
20
3.5685900967394359
30
0
10
0.88658069647120075
20
3.5589286949991839
30
0
10
0.90899997233216123
20
3.5482893523659547
30
0
10
0.93127820866151045
20
3.5367916478942565
30
0
10
0.95293355873824426
20
3.5245471715412497
30
0
10
0.97355481770375452
20
3.5116370344601986
30
0
10
0.9928604122210406
20
3.4980934982086289
30
0
10
1.0107755959638622
20
3.4838727940127692
30
0
10
1.0273785032267104
20
3.4688941759031451
30
0
10
1.0428257585446339
20
3.4530885415968164
30
0
10
1.057282991518278
20
3.4364476568870073
30
0
10
1.0708609918268432
20
3.4190651052203718
30
0
10
1.0835311283620721
20
3.4012033202331153
30
0
10
1.0951477050883618
20
3.3832341123700886
30
0
10
1.1055175195088229
20
3.3655246636011817
30
0
10
1.114455865442231
20
3.3483373712674984
30
0
10
1.1218443938662441
20
3.3317317422184729
30
0
10
1.1276992965342392
20
3.3154418660687672
30
0
10
1.1321414645384387
20
3.2989642026123378
30
0
10
1.1353458545492499
20
3.2816910877834577
30
0
10
1.1375020610517206
20
3.2630178207428719
30
0
10
1.138763088901884
20
3.2424835522355395
30
0
10
1.1392307350437048
20
3.2198040613364247
30
0
10
1.138970207779576
20
3.1948169081768047
30
0
10
1.1382071812500036
20
3.1729254587629168
30
0
10
1.1373293743229416
20
3.1554304501282298
30
0
10
1.1366086115864953
20
3.1432895958654812
30
0
10
1.1362143412232211
20
3.1370997882329159
30
0
0
SPLINE
5
112
100
AcDbEntity
8
0
100
AcDbSpline
70
4
71
5
72
161
73
155
74
0
42
0.000000001
43
0.0000000001
44
0.0000000001
40
0
40
0
40
0
40
0
40
0
40
0
40
0.0066666666666666671
40
0.013333333333333334
40
0.02
40
0.026666666666666668
40
0.033333333333333333
40
0.040000000000000001
40
0.046666666666666669
40
0.053333333333333337
40
0.060000000000000005
40
0.066666666666666666
40
0.073333333333333334
40
0.080000000000000002
40
0.08666666666666667
40
0.093333333333333338
40
0.10000000000000001
40
0.10666666666666667
40
0.11333333333333334
40
0.12000000000000001
40
0.12666666666666668
40
0.13333333333333333
40
0.13999999999999999
40
0.14666666666666664
40
0.15333333333333329
40
0.15999999999999995
40
0.1666666666666666
40
0.17333333333333326
40
0.17999999999999991
40
0.18666666666666656
40
0.19333333333333322
40
0.19999999999999987
40
0.20666666666666653
40
0.21333333333333318
40
0.21999999999999983
40
0.22666666666666649
40
0.23333333333333314
40
0.2399999999999998
40
0.24666666666666645
40
0.25333333333333313
40
0.25999999999999979
40
0.26666666666666644
40
0.2733333333333331
40
0.27999999999999975
40
0.2866666666666664
40
0.29333333333333306
40
0.29999999999999971
40
0.30666666666666637
40
0.31333333333333302
40
0.31999999999999967
40
0.32666666666666633
40
0.33333333333333298
40
0.33999999999999964
40
0.34666666666666629
40
0.35333333333333294
40
0.3599999999999996
40
0.36666666666666625
40
0.37333333333333291
40
0.37999999999999956
40
0.38666666666666621
40
0.39333333333333287
40
0.39999999999999952
40
0.40666666666666618
40
0.41333333333333283
40
0.41999999999999948
40
0.42666666666666614
40
0.43333333333333279
40
0.43999999999999945
40
0.4466666666666661
40
0.45333333333333276
40
0.45999999999999941
40
0.46666666666666606
40
0.47333333333333272
40
0.47999999999999937
40
0.48666666666666603
40
0.49333333333333268
40
0.49999999999999933
40
0.50666666666666604
40
0.51333333333333275
40
0.51999999999999946
40
0.52666666666666617
40
0.53333333333333288
40
0.53999999999999959
40
0.5466666666666663
40
0.55333333333333301
40
0.55999999999999972
40
0.56666666666666643
40
0.57333333333333314
40
0.57999999999999985
40
0.58666666666666656
40
0.59333333333333327
40
0.59999999999999998
40
0.60666666666666669
40
0.6133333333333334
40
0.62000000000000011
40
0.62666666666666682
40
0.63333333333333353
40
0.64000000000000024
40
0.64666666666666694
40
0.65333333333333365
40
0.66000000000000036
40
0.66666666666666707
40
0.67333333333333378
40
0.68000000000000049
40
0.6866666666666672
40
0.69333333333333391
40
0.70000000000000062
40
0.70666666666666733
40
0.71333333333333404
40
0.72000000000000075
40
0.72666666666666746
40
0.73333333333333417
40
0.74000000000000088
40
0.74666666666666759
40
0.7533333333333343
40
0.76000000000000101
40
0.76666666666666772
40
0.77333333333333443
40
0.78000000000000114
40
0.78666666666666785
40
0.79333333333333456
40
0.80000000000000127
40
0.80666666666666798
40
0.81333333333333468
40
0.82000000000000139
40
0.8266666666666681
40
0.83333333333333481
40
0.84000000000000152
40
0.84666666666666823
40
0.85333333333333494
40
0.86000000000000165
40
0.86666666666666836
40
0.87333333333333507
40
0.88000000000000178
40
0.88666666666666849
40
0.8933333333333352
40
0.90000000000000191
40
0.90666666666666862
40
0.91333333333333533
40
0.92000000000000204
40
0.92666666666666875
40
0.93333333333333546
40
0.94000000000000217
40
0.94666666666666888
40
0.95333333333333559
40
0.9600000000000023
40
0.96666666666666901
40
0.97333333333333572
40
0.98000000000000242
40
0.98666666666666913
40
0.99333333333333584
40
1
40
1
40
1
40
1
40
1
40
1
41
1
41
1
41
1
41
1
41
1
41
1
41
1
41
1
41
1
41
1
41
1
41
1
41
1
41
1
41
1
41
1
41
1
41
1
41
1
41
1
41
1
41
1
41
1
41
1
41
1
41
1
41
1
41
1
41
1
41
1
41
1
41
1
41
1
41
1
41
1
41
1
41
1
41
1
41
1
41
1
41
1
41
1
41
1
41
1
41
1
41
1
41
1
41
1
41
1
41
1
41
1
41
1
41
1
41
1
41
1
41
1
41
1
41
1
41
1
41
1
41
1
41
1
41
1
41
1
41
1
41
1
41
1
41
1
41
1
41
1
41
1
41
1
41
1
41
1
41
1
41
1
41
1
41
1
41
1
41
1
41
1
41
1
41
1
41
1
41
1
41
1
41
1
41
1
41
1
41
1
41
1
41
1
41
1
41
1
41
1
41
1
41
1
41
1
41
1
41
1
41
1
41
1
41
1
41
1
41
1
41
1
41
1
41
1
41
1
41
1
41
1
41
1
41
1
41
1
41
1
41
1
41
1
41
1
41
1
41
1
41
1
41
1
41
1
41
1
41
1
41
1
41
1
41
1
41
1
41
1
41
1
41
1
41
1
41
1
41
1
41
1
41
1
41
1
41
1
41
1
41
1
41
1
41
1
41
1
41
1
41
1
41
1
41
1
41
1
41
1
41
1
41
1
41
1
41
1
41
1
10
0.54419170460607291
20
3.6990285505634044
30
0
10
0.54435726828028186
20
3.698278179462513
30
0
10
0.54464117901290365
20
3.6963015216206769
30
0
10
0.54492542007149625
20
3.6919088974684553
30
0
10
0.54502092241905697
20
3.6831956339169758
30
0
10
0.54469671063563452
20
3.6677003190643576
30
0
10
0.54401175530230139
20
3.648056550349231
30
0
10
0.54313935215483811
20
3.6252093527542142
30
0
10
0.54234414695280964
20
3.6006278431914218
30
0
10
0.54190106644851643
20
3.5759779782463026
30
0
10
0.54203077855020654
20
3.552867999459512
30
0
10
0.54282811857547097
20
3.5325635330723455
30
0
10
0.54419451077274184
20
3.5157188394704573
30
0
10
0.54576618372798158
20
3.5020931799992625
30
0
10
0.54685113987406953
20
3.4902956664723259
30
0
10
0.54664266217835256
20
3.4783949977783157
30
0
10
0.54441872179333539
20
3.4644873900800373
30
0
10
0.53975789509499439
20
3.4473107204945359
30
0
10
0.53271657065701794
20
3.426752532065295
30
0
10
0.5236927319935708
20
3.4035037254543532
30
0
10
0.51331695768315122
20
3.378786165871285
30
0
10
0.50233471231008731
20
3.3540569572550343
30
0
10
0.49148872481159456
20
3.3307120015881622
30
0
10
0.48140986071742897
20
3.3098148521572779
30
0
10
0.47248363676401822
20
3.2917540042390199
30
0
10
0.46479684681510142
20
3.2761347354284216
30
0
10
0.45823879763517272
20
3.2621198202742985
30
0
10
0.45257087002932206
20
3.2486825235018646
30
0
10
0.44750493340379083
20
3.2348747122936357
30
0
10
0.4427870171148387
20
3.2201361915395212
30
0
10
0.43824809867433573
20
3.2044259965081237
30
0
10
0.43378519221439066
20
3.187999212336758
30
0
10
0.42935825739393524
20
3.1712542451613368
30
0
10
0.42497970302189214
20
3.1545667160281803
30
0
10
0.42070969982948825
20
3.1380927825005163
30
0
10
0.41663835152369705
20
3.1217358785729585
30
0
10
0.41285928189039961
20
3.1052588790912963
30
0
10
0.40944375393013199
20
3.0883575955279876
30
0
10
0.4064185588661946
20
3.0707440816937202
30
0
10
0.40373244541388015
20
3.0522406414616423
30
0
10
0.40126872321478507
20
3.0328069401276965
30
0
10
0.39889774651022347
20
3.0125068414230713
30
0
10
0.39651684630614276
20
2.9914926088685903
30
0
10
0.3940981116346477
20
2.9699818711444217
30
0
10
0.3917265691164733
20
2.9482380005782578
30
0
10
0.3896585775494833
20
2.9265482965473684
30
0
10
0.38827557999897183
20
2.9052075554064167
30
0
10
0.38799802674952205
20
2.8845032305790759
30
0
10
0.38921389916664462
20
2.8647000518277497
30
0
10
0.39219759383663649
20
2.8460249646870821
30
0
10
0.39704120527431253
20
2.8286516838856586
30
0
10
0.40355872725915665
20
2.8126860247616658
30
0
10
0.41137813131429268
20
2.7981455866653056
30
0
10
0.42007555861893331
20
2.7849379112875035
30
0
10
0.42929422853596377
20
2.7728395993102453
30
0
10
0.43887163238429311
20
2.7614739268978812
30
0
10
0.44895813438615306
20
2.7502919180634522
30
0
10
0.45987977425060128
20
2.7386881396569027
30
0
10
0.47200255171179489
20
2.7261166855929528
30
0
10
0.48560254225756427
20
2.7122014184107042
30
0
10
0.50071874759771862
20
2.6968619367186206
30
0
10
0.51705793129811328
20
2.6803928472743919
30
0
10
0.53412911681383013
20
2.6633370564762378
30
0
10
0.55134708567273827
20
2.6463869421370827
30
0
10
0.56814517606025483
20
2.6302770278488143
30
0
10
0.58409036412143223
20
2.6156750300783629
30
0
10
0.59898276694183117
20
2.603085929371515
30
0
10
0.6129992036440961
20
2.5927189514765505
30
0
10
0.62661257032664597
20
2.584543449738824
30
0
10
0.64041486336410558
20
2.5784257165796611
30
0
10
0.65496910288582533
20
2.5742419930187892
30
0
10
0.67065379395409241
20
2.5719964819394208
30
0
10
0.68749830263825096
20
2.5719503301284985
30
0
10
0.7052555399057473
20
2.5745015338129442
30
0
10
0.7234923277500579
20
2.5800485999223786
30
0
10
0.74167449772128347
20
2.5888548363672172
30
0
10
0.75925131531327983
20
2.6009244476485596
30
0
10
0.77574760430705647
20
2.6158420140034031
30
0
10
0.7907968769455993
20
2.6328676761510539
30
0
10
0.80416037108125105
20
2.6510978138860195
30
0
10
0.8157494180004542
20
2.6696000118725336
30
0
10
0.82564985862205675
20
2.687566228117785
30
0
10
0.83413770809687637
20
2.7044408270659801
30
0
10
0.84171860835105194
20
2.72010322130253
30
0
10
0.84906047650899941
20
2.7348144773281517
30
0
10
0.85686918147331548
20
2.7490358530793233
30
0
10
0.86577661258358263
20
2.7632806625292026
30
0
10
0.87623506453954936
20
2.7779659223591837
30
0
10
0.88838013587575826
20
2.7932300955543088
30
0
10
0.90204791543792628
20
2.8089319609061492
30
0
10
0.91688075943988367
20
2.8247550902189191
30
0
10
0.93240436047895681
20
2.8402777789915121
30
0
10
0.94811953319147113
20
2.855061259984236
30
0
10
0.96358101124817219
20
2.8687207578554994
30
0
10
0.97849877857251288
20
2.8810275017359799
30
0
10
0.99273969753929081
20
2.8918751162889218
30
0
10
1.0062807023090714
20
2.9011878796089872
30
0
10
1.0191803852241841
20
2.9088383590542835
30
0
10
1.0315360889693221
20
2.9145810884631671
30
0
10
1.043464355012993
20
2.9179295044499827
30
0
10
1.0549918852015285
20
2.9182944997662292
30
0
10
1.0659064794303574
20
2.9152649844358689
30
0
10
1.0756025163130059
20
2.9088627537270817
30
0
10
1.0829786485031774
20
2.8997585958381968
30
0
10
1.086945973066914
20
2.8889412586127783
30
0
10
1.0868378433916106
20
2.8774505207104499
30
0
10
1.0829578492763643
20
2.8660545114501303
30
0
10
1.0762783701599621
20
2.8552066878221507
30
0
10
1.0679846509705671
20
2.8450639623367744
30
0
10
1.0590255697296875
20
2.8354733973411923
30
0
10
1.0498003441643429
20
2.8260041071736342
30
0
10
1.040417970493017
20
2.8161104754047455
30
0
10
1.0308515828607872
20
2.8052685914899822
30
0
10
1.0211524834200112
20
2.7931364474750224
30
0
10
1.0115841174687705
20
2.7796641360698304
30
0
10
1.0025037057143951
20
2.7650119891242348
30
0
10
0.99427484702196844
20
2.7494967729614568
30
0
10
0.98717640462735379
20
2.7335263319942418
30
0
10
0.98129330948138593
20
2.7175407807414125
30
0
10
0.97648131933222082
20
2.7019459790578444
30
0
10
0.97247486061870547
20
2.687042281719132
30
0
10
0.96896668638574424
20
2.6729479370551763
30
0
10
0.96569184306041822
20
2.659537831806162
30
0
10
0.96252747864108035
20
2.646341963294196
30
0
10
0.95947978863034455
20
2.6326665014564545
30
0
10
0.95662567029986101
20
2.6178077901547181
30
0
10
0.95407170621954462
20
2.6012187302545331
30
0
10
0.95190031402896313
20
2.5827353192555926
30
0
10
0.9501414344384449
20
2.562633111955559
30
0
10
0.94877522240977474
20
2.5414491227193898
30
0
10
0.94772796816375682
20
2.5198632157597465
30
0
10
0.94686950354974364
20
2.4985495520698895
30
0
10
0.94601278495868779
20
2.4780546386136355
30
0
10
0.94490547893148935
20
2.4586295583733433
30
0
10
0.9432552788280324
20
2.4402304699488795
30
0
10
0.94078003120939069
20
2.4226430381953281
30
0
10
0.93725226063660216
20
2.4055732725479246
30
0
10
0.93254248685842545
20
2.3887471023640319
30
0
10
0.92667148045332115
20
2.3720182231582734
30
0
10
0.91983275901913819
20
2.3554352279971562
30
0
10
0.9123084923317949
20
2.3391546827174188
30
0
10
0.90440174215248181
20
2.3233784794677428
30
0
10
0.89636405055603929
20
2.3082832525649879
30
0
10
0.8883209144096148
20
2.2939494653924624
30
0
10
0.88020987887354651
20
2.2803012828863993
30
0
10
0.87184465529576871
20
2.2671614499754327
30
0
10
0.86297041484179049
20
2.2542979121449296
30
0
10
0.85331868652953691
20
2.2414703771608502
30
0
10
0.84267139318568207
20
2.2284845726623765
30
0
10
0.83088835011986406
20
2.2152153111105664
30
0
10
0.81788386700689608
20
2.2015860095776079
30
0
10
0.80646958793485812
20
2.1903644438814327
30
0
10
0.79733403815589532
20
2.1817636060716978
30
0
10
0.79098821986758561
20
2.1759476597821155
30
0
10
0.78775144695059329
20
2.1730191723223107
30
0
0
SPLINE
5
113
100
AcDbEntity
8
0
100
AcDbSpline
70
4
71
5
72
31
73
25
74
0
42
0.000000001
43
0.0000000001
44
0.0000000001
40
0
40
0
40
0
40
0
40
0
40
0
40
0.050000000000000003
40
0.10000000000000001
40
0.15000000000000002
40
0.20000000000000001
40
0.25
40
0.29999999999999999
40
0.34999999999999998
40
0.39999999999999997
40
0.44999999999999996
40
0.49999999999999994
40
0.54999999999999993
40
0.59999999999999998
40
0.65000000000000002
40
0.70000000000000007
40
0.75000000000000011
40
0.80000000000000016
40
0.8500000000000002
40
0.90000000000000024
40
0.95000000000000029
40
1
40
1
40
1
40
1
40
1
40
1
41
1
41
1
41
1
41
1
41
1
41
1
41
1
41
1
41
1
41
1
41
1
41
1
41
1
41
1
41
1
41
1
41
1
41
1
41
1
41
1
41
1
41
1
41
1
41
1
41
1
10
1.1269625962399801
20
2.7231500746954831
30
0
10
1.1273164736927417
20
2.7212440276880643
30
0
10
1.1280091419216725
20
2.7173702650219296
30
0
10
1.129002886574147
20
2.7113746152349711
30
0
10
1.1302369749238097
20
2.7030088926925009
30
0
10
1.1316143282923115
20
2.6919263811264686
30
0
10
1.1327884740498197
20
2.6802156554962648
30
0
10
1.1336867251318918
20
2.6678832759651949
30
0
10
1.1341884796417527
20
2.6549521411750292
30
0
10
1.1341184398706876
20
2.6414685473667654
30
0
10
1.1332856052575875
20
2.6275072154900516
30
0
10
1.1315163805949409
20
2.613176934088226
30
0
10
1.1286931844359414
20
2.598627987468396
30
0
10
1.1247871364985653
20
2.5840577986553117
30
0
10
1.1199091248553801
20
2.5697237943020936
30
0
10
1.1142960794654106
20
2.5559299529462112
30
0
10
1.1082541386763498
20
2.5429954572586579
30
0
10
1.102116550508615
20
2.531228404494914
30
0
10
1.0961970818538631
20
2.5208968187931919
30
0
10
1.0907446695226652
20
2.5121983853280261
30
0
10
1.085898783619154
20
2.5052301043817353
30
0
10
1.0825575858768508
20
2.5010644452721582
30
0
10
1.0803596646194356
20
2.498730705730138
30
0
10
1.0790307113659074
20
2.4975247893442001
30
0
10
1.0784003163203457
20
2.4970093085025584
30
0
0
SPLINE
5
114
100
AcDbEntity
8
0
100
AcDbSpline
70
4
71
5
72
41
73
35
74
0
42
0.000000001
43
0.0000000001
44
0.0000000001
40
0
40
0
40
0
40
0
40
0
40
0
40
0.033333333333333333
40
0.066666666666666666
40
0.10000000000000001
40
0.13333333333333333
40
0.16666666666666666
40
0.19999999999999998
40
0.23333333333333331
40
0.26666666666666666
40
0.29999999999999999
40
0.33333333333333331
40
0.36666666666666664
40
0.39999999999999997
40
0.43333333333333329
40
0.46666666666666662
40
0.49999999999999994
40
0.53333333333333333
40
0.56666666666666665
40
0.59999999999999998
40
0.6333333333333333
40
0.66666666666666663
40
0.69999999999999996
40
0.73333333333333328
40
0.76666666666666661
40
0.79999999999999993
40
0.83333333333333326
40
0.86666666666666659
40
0.89999999999999991
40
0.93333333333333324
40
0.96666666666666656
40
1
40
1
40
1
40
1
40
1
40
1
41
1
41
1
41
1
41
1
41
1
41
1
41
1
41
1
41
1
41
1
41
1
41
1
41
1
41
1
41
1
41
1
41
1
41
1
41
1
41
1
41
1
41
1
41
1
41
1
41
1
41
1
41
1
41
1
41
1
41
1
41
1
41
1
41
1
41
1
41
1
10
0.99244729487275607
20
2.1511919425571526
30
0
10
0.99860721993849755
20
2.1526001691281396
30
0
10
1.010769070757785
20
2.1552415115180694
30
0
10
1.0285378508363188
20
2.1586781924816076
30
0
10
1.0512798327272965
20
2.1622078695417479
30
0
10
1.0781483391228999
20
2.164841330854534
30
0
10
1.1035468990928503
20
2.1656423659552164
30
0
10
1.1276678927311263
20
2.1645177891473719
30
0
10
1.1508443810683988
20
2.1613257229228573
30
0
10
1.1735929428367586
20
2.1558647378686757
30
0
10
1.1965164356554239
20
2.1479106822346092
30
0
10
1.2201985465465721
20
2.1372563363949459
30
0
10
1.2451074890519029
20
2.123749226748056
30
0
10
1.2714808165232565
20
2.1073343307479782
30
0
10
1.2992615875476907
20
2.0880858054678142
30
0
10
1.3281831112452824
20
2.066205501070979
30
0
10
1.357825626706995
20
2.0420291524940439
30
0
10
1.387682066930052
20
2.016030276558026
30
0
10
1.4172200007711255
20
1.9888285423246712
30
0
10
1.4459422961176089
20
1.961193267235418
30
0
10
1.4734550485911955
20
1.934062262322829
30
0
10
1.4994794034550474
20
1.9084569333564465
30
0
10
1.523852011884324
20
1.8853737091524274
30
0
10
1.5465298404913228
20
1.8656858451406451
30
0
10
1.5675959856350214
20
1.8500341239043798
30
0
10
1.5872627157230366
20
1.838733042528494
30
0
10
1.6058866368699445
20
1.8316334373390299
30
0
10
1.6239082887550043
20
1.8282510566881274
30
0
10
1.6417711750424357
20
1.8279645582514383
30
0
10
1.6598505477904593
20
1.8301828767563584
30
0
10
1.6783714512206598
20
1.8345373426611571
30
0
10
1.693628399190467
20
1.8395779557507803
30
0
10
1.7053342217051362
20
1.8442024138363358
30
0
10
1.7132548103085301
20
1.8476598555740884
30
0
10
1.7172442824944059
20
1.8494821917290021
30
0
0
SPLINE
5
115
100
AcDbEntity
8
0
100
AcDbSpline
70
4
71
5
72
81
73
75
74
0
42
0.000000001
43
0.0000000001
44
0.0000000001
40
0
40
0
40
0
40
0
40
0
40
0
40
0.014285714285714285
40
0.028571428571428571
40
0.042857142857142858
40
0.057142857142857141
40
0.071428571428571425
40
0.085714285714285715
40
0.10000000000000001
40
0.1142857142857143
40
0.12857142857142859
40
0.14285714285714288
40
0.15714285714285717
40
0.17142857142857146
40
0.18571428571428575
40
0.20000000000000004
40
0.21428571428571433
40
0.22857142857142862
40
0.24285714285714291
40
0.25714285714285717
40
0.27142857142857146
40
0.28571428571428575
40
0.30000000000000004
40
0.31428571428571433
40
0.32857142857142863
40
0.34285714285714292
40
0.35714285714285721
40
0.3714285714285715
40
0.38571428571428579
40
0.40000000000000008
40
0.41428571428571437
40
0.42857142857142866
40
0.44285714285714295
40
0.45714285714285724
40
0.47142857142857153
40
0.48571428571428582
40
0.50000000000000011
40
0.51428571428571435
40
0.52857142857142858
40
0.54285714285714282
40
0.55714285714285705
40
0.57142857142857129
40
0.58571428571428552
40
0.59999999999999976
40
0.61428571428571399
40
0.62857142857142823
40
0.64285714285714246
40
0.6571428571428567
40
0.67142857142857093
40
0.68571428571428517
40
0.6999999999999994
40
0.71428571428571364
40
0.72857142857142787
40
0.74285714285714211
40
0.75714285714285634
40
0.77142857142857058
40
0.78571428571428481
40
0.79999999999999905
40
0.81428571428571328
40
0.82857142857142752
40
0.84285714285714175
40
0.85714285714285599
40
0.87142857142857022
40
0.88571428571428445
40
0.89999999999999869
40
0.91428571428571292
40
0.92857142857142716
40
0.94285714285714139
40
0.95714285714285563
40
0.97142857142856986
40
0.9857142857142841
40
1
40
1
40
1
40
1
40
1
40
1
41
1
41
1
41
1
41
1
41
1
41
1
41
1
41
1
41
1
41
1
41
1
41
1
41
1
41
1
41
1
41
1
41
1
41
1
41
1
41
1
41
1
41
1
41
1
41
1
41
1
41
1
41
1
41
1
41
1
41
1
41
1
41
1
41
1
41
1
41
1
41
1
41
1
41
1
41
1
41
1
41
1
41
1
41
1
41
1
41
1
41
1
41
1
41
1
41
1
41
1
41
1
41
1
41
1
41
1
41
1
41
1
41
1
41
1
41
1
41
1
41
1
41
1
41
1
41
1
41
1
41
1
41
1
41
1
41
1
41
1
41
1
41
1
41
1
41
1
41
1
10
2.2270792061526801
20
2.0718747938028006
30
0
10
2.2298805698623396
20
2.0703578217433134
30
0
10
2.2351490903780964
20
2.0670402203965179
30
0
10
2.2420491623188457
20
2.0612130009357887
30
0
10
2.2492439388270555
20
2.0517398364021973
30
0
10
2.2548407955656407
20
2.0372013376569753
30
0
10
2.2568987624051431
20
2.0203730807393359
30
0
10
2.2551109110407856
20
2.0021219476277743
30
0
10
2.2490825068630649
20
1.9837025910242969
30
0
10
2.2385804699258616
20
1.9663979097290003
30
0
10
2.2237158750335051
20
1.9512566120243813
30
0
10
2.2052010732646572
20
1.9387462793059183
30
0
10
2.18442949735977
20
1.928581635958504
30
0
10
2.1630798168967305
20
1.9200126931664458
30
0
10
2.1427890077466434
20
1.9120389551012571
30
0
10
2.1248307437279919
20
1.9036371554505165
30
0
10
2.109713549091853
20
1.8940193051893182
30
0
10
2.0970791103185262
20
1.8827539643327951
30
0
10
2.086191348614582
20
1.8696164736228806
30
0
10
2.0762636193957871
20
1.8545078690177319
30
0
10
2.0669177941876442
20
1.837328672563052
30
0
10
2.0583668260100469
20
1.8179303513649041
30
0
10
2.0510923353391379
20
1.7961981144170747
30
0
10
2.0456162878335311
20
1.7721103154736833
30
0
10
2.0422575510541576
20
1.7458004037371291
30
0
10
2.0408414100431611
20
1.717634469941925
30
0
10
2.0406125741192289
20
1.6882256185807272
30
0
10
2.0405181317944123
20
1.6583346450438974
30
0
10
2.0394039066650183
20
1.6287969906136501
30
0
10
2.0362493282565373
20
1.6004388740330984
30
0
10
2.0303769895734316
20
1.5739989690726164
30
0
10
2.021694769440276
20
1.550045456611354
30
0
10
2.0108630628358415
20
1.5289012599875609
30
0
10
1.9989195615305941
20
1.5106350252281313
30
0
10
1.9869446131317354
20
1.4950416973787335
30
0
10
1.975734045154786
20
1.4816347253341491
30
0
10
1.965414851875668
20
1.4696139432546838
30
0
10
1.9552535220700604
20
1.4579037903058158
30
0
10
1.9441486433313577
20
1.4454488100958085
30
0
10
1.9309805388630628
20
1.4314438646146503
30
0
10
1.9150782312911707
20
1.4156391331771849
30
0
10
1.8964344493027785
20
1.3984523446180075
30
0
10
1.8754599092265496
20
1.3807087140966379
30
0
10
1.8528374906074974
20
1.3634637869762645
30
0
10
1.8293307619346908
20
1.3477857185395192
30
0
10
1.8056266692229013
20
1.3345731019897227
30
0
10
1.7821270346057936
20
1.3243116532099222
30
0
10
1.75894183609554
20
1.3170821449780141
30
0
10
1.7359888128549754
20
1.3127015015931343
30
0
10
1.7130616102511951
20
1.3108251552118306
30
0
10
1.6899073701802421
20
1.3110591925799637
30
0
10
1.6663082856652269
20
1.313082491687257
30
0
10
1.6421349128443252
20
1.3167176748509448
30
0
10
1.617326946856064
20
1.3218738396010963
30
0
10
1.5918887383483928
20
1.3285157935495395
30
0
10
1.5658791217546764
20
1.3366216461112526
30
0
10
1.539403536242985
20
1.3461480689423797
30
0
10
1.5126058073181909
20
1.356985405363863
30
0
10
1.4856567726804304
20
1.3689566499898616
30
0
10
1.4587412049300648
20
1.3818329781701955
30
0
10
1.4320454878892879
20
1.3953438514216085
30
0
10
1.4057446398937152
20
1.4091893327235865
30
0
10
1.3799904053626781
20
1.4230513520827204
30
0
10
1.3548969255559207
20
1.4366055075347888
30
0
10
1.3305336489785524
20
1.4495322602010876
30
0
10
1.3069366653899674
20
1.4615274345108036
30
0
10
1.2841163591595033
20
1.472312556674068
30
0
10
1.2620667151031422
20
1.4816459181622676
30
0
10
1.2407733417588866
20
1.4893319540681913
30
0
10
1.2202233723263278
20
1.4952349622434593
30
0
10
1.200409067380285
20
1.4992766218695923
30
0
10
1.1851424579768888
20
1.5009902709892231
30
0
10
1.1740205936522803
20
1.5014156185595766
30
0
10
1.1667517838433741
20
1.5013171265030691
30
0
10
1.1631538207803687
20
1.5011723668357706
30
0
0
SPLINE
5
116
100
AcDbEntity
8
0
100
AcDbSpline
70
4
71
5
72
131
73
125
74
0
42
0.000000001
43
0.0000000001
44
0.0000000001
40
0
40
0
40
0
40
0
40
0
40
0
40
0.0083333333333333332
40
0.016666666666666666
40
0.025000000000000001
40
0.033333333333333333
40
0.041666666666666664
40
0.049999999999999996
40
0.058333333333333327
40
0.066666666666666666
40
0.074999999999999997
40
0.083333333333333329
40
0.09166666666666666
40
0.099999999999999992
40
0.10833333333333332
40
0.11666666666666665
40
0.12499999999999999
40
0.13333333333333333
40
0.14166666666666666
40
0.14999999999999999
40
0.15833333333333333
40
0.16666666666666666
40
0.17499999999999999
40
0.18333333333333332
40
0.19166666666666665
40
0.19999999999999998
40
0.20833333333333331
40
0.21666666666666665
40
0.22499999999999998
40
0.23333333333333331
40
0.24166666666666664
40
0.24999999999999997
40
0.2583333333333333
40
0.26666666666666666
40
0.27500000000000002
40
0.28333333333333338
40
0.29166666666666674
40
0.3000000000000001
40
0.30833333333333346
40
0.31666666666666682
40
0.32500000000000018
40
0.33333333333333354
40
0.3416666666666669
40
0.35000000000000026
40
0.35833333333333361
40
0.36666666666666697
40
0.37500000000000033
40
0.38333333333333369
40
0.39166666666666705
40
0.40000000000000041
40
0.40833333333333377
40
0.41666666666666713
40
0.42500000000000049
40
0.43333333333333385
40
0.44166666666666721
40
0.45000000000000057
40
0.45833333333333393
40
0.46666666666666728
40
0.47500000000000064
40
0.483333333333334
40
0.49166666666666736
40
0.50000000000000067
40
0.50833333333333397
40
0.51666666666666727
40
0.52500000000000058
40
0.53333333333333388
40
0.54166666666666718
40
0.55000000000000049
40
0.55833333333333379
40
0.5666666666666671
40
0.5750000000000004
40
0.5833333333333337
40
0.59166666666666701
40
0.60000000000000031
40
0.60833333333333361
40
0.61666666666666692
40
0.62500000000000022
40
0.63333333333333353
40
0.64166666666666683
40
0.65000000000000013
40
0.65833333333333344
40
0.66666666666666674
40
0.67500000000000004
40
0.68333333333333335
40
0.69166666666666665
40
0.69999999999999996
40
0.70833333333333326
40
0.71666666666666656
40
0.72499999999999987
40
0.73333333333333317
40
0.74166666666666647
40
0.74999999999999978
40
0.75833333333333308
40
0.76666666666666639
40
0.77499999999999969
40
0.78333333333333299
40
0.7916666666666663
40
0.7999999999999996
40
0.8083333333333329
40
0.81666666666666621
40
0.82499999999999951
40
0.83333333333333282
40
0.84166666666666612
40
0.84999999999999942
40
0.85833333333333273
40
0.86666666666666603
40
0.87499999999999933
40
0.88333333333333264
40
0.89166666666666594
40
0.89999999999999925
40
0.90833333333333255
40
0.91666666666666585
40
0.92499999999999916
40
0.93333333333333246
40
0.94166666666666576
40
0.94999999999999907
40
0.95833333333333237
40
0.96666666666666567
40
0.97499999999999898
40
0.98333333333333228
40
0.99166666666666559
40
1
40
1
40
1
40
1
40
1
40
1
41
1
41
1
41
1
41
1
41
1
41
1
41
1
41
1
41
1
41
1
41
1
41
1
41
1
41
1
41
1
41
1
41
1
41
1
41
1
41
1
41
1
41
1
41
1
41
1
41
1
41
1
41
1
41
1
41
1
41
1
41
1
41
1
41
1
41
1
41
1
41
1
41
1
41
1
41
1
41
1
41
1
41
1
41
1
41
1
41
1
41
1
41
1
41
1
41
1
41
1
41
1
41
1
41
1
41
1
41
1
41
1
41
1
41
1
41
1
41
1
41
1
41
1
41
1
41
1
41
1
41
1
41
1
41
1
41
1
41
1
41
1
41
1
41
1
41
1
41
1
41
1
41
1
41
1
41
1
41
1
41
1
41
1
41
1
41
1
41
1
41
1
41
1
41
1
41
1
41
1
41
1
41
1
41
1
41
1
41
1
41
1
41
1
41
1
41
1
41
1
41
1
41
1
41
1
41
1
41
1
41
1
41
1
41
1
41
1
41
1
41
1
41
1
41
1
41
1
41
1
41
1
41
1
41
1
41
1
41
1
41
1
41
1
41
1
41
1
41
1
10
-1.1050100995875705
20
2.3032088596852729
30
0
10
-1.1072895495562307
20
2.3019147166541147
30
0
10
-1.1119996163203771
20
2.2993946219994204
30
0
10
-1.1195177608223852
20
2.2958190444839603
30
0
10
-1.130452139147184
20
2.2914608683393105
30
0
10
-1.1461787823155276
20
2.2867178517348674
30
0
10
-1.1656776969682752
20
2.2827487770685897
30
0
10
-1.1906994124409875
20
2.2796584723922626
30
0
10
-1.2217029119219551
20
2.2775732870619523
30
0
10
-1.2567419091905869
20
2.2766291051589995
30
0
10
-1.2926913325162257
20
2.2769700697025272
30
0
10
-1.3264219169172913
20
2.2787488306492727
30
0
10
-1.3558531846974746
20
2.2821222612423795
30
0
10
-1.3814071477609819
20
2.2872588988479521
30
0
10
-1.4054530168006711
20
2.2942896032734743
30
0
10
-1.4308176271454207
20
2.3032316844596736
30
0
10
-1.4595617171847233
20
2.3139209925512771
30
0
10
-1.4917267676062718
20
2.3259419633306497
30
0
10
-1.526117152700321
20
2.3386329472839424
30
0
10
-1.5610142878625493
20
2.3510793229081299
30
0
10
-1.5948480552698068
20
2.3621281240238741
30
0
10
-1.6270526172636588
20
2.3703524750648115
30
0
10
-1.658206387074826
20
2.3741960597694858
30
0
10
-1.6893374770006702
20
2.3723360311481319
30
0
10
-1.7214739540121917
20
2.3639660490377881
30
0
10
-1.7550380007255051
20
2.3491626687656573
30
0
10
-1.7894771540595593
20
2.3290635952641394
30
0
10
-1.8236916812144768
20
2.3053235924309541
30
0
10
-1.8563506257118965
20
2.2796729332864278
30
0
10
-1.8862475134888661
20
2.2534421517495633
30
0
10
-1.9126470666344233
20
2.2270866440039736
30
0
10
-1.9356138219934416
20
2.1997512966581856
30
0
10
-1.9557215649642214
20
2.1699485949006401
30
0
10
-1.9737859803772226
20
2.1361985761638773
30
0
10
-1.9905920634874044
20
2.0976723548060865
30
0
10
-2.0066158695522143
20
2.0548593314322212
30
0
10
-2.0217712515850046
20
2.0101527206946774
30
0
10
-2.0356411600243014
20
1.9668420170263952
30
0
10
-2.0476766725060007
20
1.9282253482001612
30
0
10
-2.0574227410043799
20
1.896600207214389
30
0
10
-2.0646992119093404
20
1.8724802769303681
30
0
10
-2.0698852091123352
20
1.8532747222443802
30
0
10
-2.0737400361439451
20
1.8343845987297358
30
0
10
-2.0770319927337715
20
1.811284305909822
30
0
10
-2.0801569050652007
20
1.7816945750240094
30
0
10
-2.0831221258903541
20
1.7456663484153894
30
0
10
-2.0857215268389693
20
1.7045856337038043
30
0
10
-2.0876492676274814
20
1.6605242685647972
30
0
10
-2.0886366193538892
20
1.6154592227686355
30
0
10
-2.0885854415655545
20
1.5705148957046988
30
0
10
-2.0875224779702179
20
1.5261229392903666
30
0
10
-2.0855432574656625
20
1.4822374575799167
30
0
10
-2.0827592315791752
20
1.4385308586060335
30
0
10
-2.0792452006787547
20
1.3945935610318081
30
0
10
-2.0749826930779678
20
1.3501419463370052
30
0
10
-2.0698164767830134
20
1.305193712098212
30
0
10
-2.0635213934938856
20
1.2599638358984702
30
0
10
-2.0558582992087704
20
1.2147873652533738
30
0
10
-2.0466353737595262
20
1.1700307373610439
30
0
10
-2.0357644111596946
20
1.1260108507129922
30
0
10
-2.0233258731980714
20
1.0829040049484981
30
0
10
-2.0096106295932428
20
1.0406793991400065
30
0
10
-1.9950325646594107
20
0.99916469303595201
30
0
10
-1.9800581871606866
20
0.95809494301222953
30
0
10
-1.9651270478122342
20
0.91716918308476691
30
0
10
-1.9505821305392437
20
0.87610082287419544
30
0
10
-1.93658121053076
20
0.83467774420976415
30
0
10
-1.9230666541495358
20
0.79279422328374027
30
0
10
-1.9098412014112072
20
0.75043302808700507
30
0
10
-1.8966193299215273
20
0.70765818578297746
30
0
10
-1.8830903096206282
20
0.66460428567483343
30
0
10
-1.8689717534018659
20
0.62146551342191403
30
0
10
-1.8540783610211107
20
0.57848925535389728
30
0
10
-1.8383393924001776
20
0.53594975209485207
30
0
10
-1.8217689941670692
20
0.49410161916396483
30
0
10
-1.8044495529964979
20
0.45314026427221099
30
0
10
-1.7865096580659388
20
0.41315656739532947
30
0
10
-1.7681046236654026
20
0.37410067566585309
30
0
10
-1.7493953605518033
20
0.33572491556981704
30
0
10
-1.7305306847142286
20
0.29761782386424435
30
0
10
-1.711631056960065
20
0.25929007210004812
30
0
10
-1.6927720574319975
20
0.22024407055556594
30
0
10
-1.6739675914866858
20
0.18005110104025443
30
0
10
-1.6551540231752728
20
0.13842340593437669
30
0
10
-1.6361715835221529
20
0.095293496519045076
30
0
10
-1.616800215866339
20
0.050777000925578408
30
0
10
-1.5967991639398329
20
0.0051286703629539326
30
0
10
-1.5759442502768628
20
-0.04129874269519028
30
0
10
-1.5540682439167954
20
-0.08809751485840088
30
0
10
-1.5310950102654295
20
-0.13484538238009139
30
0
10
-1.5070884873162353
20
-0.18115138241213577
30
0
10
-1.482248562171935
20
-0.22668271574945992
30
0
10
-1.456849784157247
20
-0.27117111369427693
30
0
10
-1.4311949761866165
20
-0.3144248048759527
30
0
10
-1.4055634185989065
20
-0.35633792099357253
30
0
10
-1.3801599113516445
20
-0.39690176222536389
30
0
10
-1.3550668243227302
20
-0.43621360939032933
30
0
10
-1.3301857717721082
20
-0.47449116940208591
30
0
10
-1.3052866617000092
20
-0.51203298133200925
30
0
10
-1.2800720911679837
20
-0.54917113470380252
30
0
10
-1.2542356455402563
20
-0.58622717350600839
30
0
10
-1.2275241673712567
20
-0.62346564751563183
30
0
10
-1.1997950175659851
20
-0.66105103056332926
30
0
10
-1.1710843887263529
20
-0.69899681229931121
30
0
10
-1.1415665525797623
20
-0.73719244136141404
30
0
10
-1.1114980620927031
20
-0.77544089994459597
30
0
10
-1.0811684817751648
20
-0.81349187147001289
30
0
10
-1.0508457777304434
20
-0.851078087652966
30
0
10
-1.0207300907187995
20
-0.88794714214628745
30
0
10
-0.99088865113196345
20
-0.92390314066649681
30
0
10
-0.96126580039183207
20
-0.9588094548854188
30
0
10
-0.9317487412611799
20
-0.99256277825311645
30
0
10
-0.90221568963935106
20
-1.0250760599895454
30
0
10
-0.87259409401719279
20
-1.0562567383795218
30
0
10
-0.84290797799658945
20
-1.0859894425980854
30
0
10
-0.81334666231825581
20
-1.1141105539135079
30
0
10
-0.78423845201854103
20
-1.1404182517105927
30
0
10
-0.75597959423889727
20
-1.1646991271327658
30
0
10
-0.72897472745425096
20
-1.1867506705236415
30
0
10
-0.70357831902457946
20
-1.2064030817569447
30
0
10
-0.68002125801610958
20
-1.2235473845626841
30
0
10
-0.66273539348121291
20
-1.2352147912570191
30
0
10
-0.65066545911591467
20
-1.2428054947493055
30
0
10
-0.64301624390928003
20
-1.2473505685875939
30
0
10
-0.63929099324362426
20
-1.2494942546337044
30
0
0
SPLINE
5
117
100
AcDbEntity
8
0
100
AcDbSpline
70
4
71
5
72
126
73
120
74
0
42
0.000000001
43
0.0000000001
44
0.0000000001
40
0
40
0
40
0
40
0
40
0
40
0
40
0.0086956521739130436
40
0.017391304347826087
40
0.026086956521739132
40
0.034782608695652174
40
0.043478260869565216
40
0.052173913043478258
40
0.0608695652173913
40
0.069565217391304349
40
0.078260869565217397
40
0.086956521739130446
40
0.095652173913043495
40
0.10434782608695654
40
0.11304347826086959
40
0.12173913043478264
40
0.13043478260869568
40
0.13913043478260873
40
0.14782608695652177
40
0.15652173913043482
40
0.16521739130434787
40
0.17391304347826092
40
0.18260869565217397
40
0.19130434782608702
40
0.20000000000000007
40
0.20869565217391312
40
0.21739130434782616
40
0.22608695652173921
40
0.23478260869565226
40
0.24347826086956531
40
0.25217391304347836
40
0.26086956521739141
40
0.26956521739130446
40
0.27826086956521751
40
0.28695652173913055
40
0.2956521739130436
40
0.30434782608695665
40
0.3130434782608697
40
0.32173913043478275
40
0.3304347826086958
40
0.33913043478260885
40
0.3478260869565219
40
0.35652173913043494
40
0.36521739130434799
40
0.37391304347826104
40
0.38260869565217409
40
0.39130434782608714
40
0.40000000000000019
40
0.40869565217391324
40
0.41739130434782629
40
0.42608695652173934
40
0.43478260869565238
40
0.44347826086956543
40
0.45217391304347848
40
0.46086956521739153
40
0.46956521739130458
40
0.47826086956521763
40
0.48695652173913068
40
0.49565217391304373
40
0.50434782608695672
40
0.51304347826086971
40
0.52173913043478271
40
0.5304347826086957
40
0.53913043478260869
40
0.54782608695652169
40
0.55652173913043468
40
0.56521739130434767
40
0.57391304347826066
40
0.58260869565217366
40
0.59130434782608665
40
0.59999999999999964
40
0.60869565217391264
40
0.61739130434782563
40
0.62608695652173862
40
0.63478260869565162
40
0.64347826086956461
40
0.6521739130434776
40
0.6608695652173906
40
0.66956521739130359
40
0.67826086956521658
40
0.68695652173912958
40
0.69565217391304257
40
0.70434782608695556
40
0.71304347826086856
40
0.72173913043478155
40
0.73043478260869454
40
0.73913043478260754
40
0.74782608695652053
40
0.75652173913043352
40
0.76521739130434652
40
0.77391304347825951
40
0.7826086956521725
40
0.7913043478260855
40
0.79999999999999849
40
0.80869565217391148
40
0.81739130434782448
40
0.82608695652173747
40
0.83478260869565046
40
0.84347826086956346
40
0.85217391304347645
40
0.86086956521738944
40
0.86956521739130244
40
0.87826086956521543
40
0.88695652173912842
40
0.89565217391304142
40
0.90434782608695441
40
0.9130434782608674
40
0.9217391304347804
40
0.93043478260869339
40
0.93913043478260638
40
0.94782608695651938
40
0.95652173913043237
40
0.96521739130434536
40
0.97391304347825836
40
0.98260869565217135
40
0.99130434782608434
40
1
40
1
40
1
40
1
40
1
40
1
41
1
41
1
41
1
41
1
41
1
41
1
41
1
41
1
41
1
41
1
41
1
41
1
41
1
41
1
41
1
41
1
41
1
41
1
41
1
41
1
41
1
41
1
41
1
41
1
41
1
41
1
41
1
41
1
41
1
41
1
41
1
41
1
41
1
41
1
41
1
41
1
41
1
41
1
41
1
41
1
41
1
41
1
41
1
41
1
41
1
41
1
41
1
41
1
41
1
41
1
41
1
41
1
41
1
41
1
41
1
41
1
41
1
41
1
41
1
41
1
41
1
41
1
41
1
41
1
41
1
41
1
41
1
41
1
41
1
41
1
41
1
41
1
41
1
41
1
41
1
41
1
41
1
41
1
41
1
41
1
41
1
41
1
41
1
41
1
41
1
41
1
41
1
41
1
41
1
41
1
41
1
41
1
41
1
41
1
41
1
41
1
41
1
41
1
41
1
41
1
41
1
41
1
41
1
41
1
41
1
41
1
41
1
41
1
41
1
41
1
41
1
41
1
41
1
41
1
41
1
41
1
41
1
41
1
41
1
41
1
10
-0.17369100899807288
20
3.0606421203537577
30
0
10
-0.17364961954176106
20
3.057737561111634
30
0
10
-0.17358284815488481
20
3.0515842924410284
30
0
10
-0.17353075899833761
20
3.0413217081928217
30
0
10
-0.1735570604408192
20
3.0255746499693399
30
0
10
-0.17372271391663494
20
3.0026264049683324
30
0
10
-0.17393291123160809
20
2.976980028616969
30
0
10
-0.17403137536691984
20
2.9496693786992396
30
0
10
-0.17389524570253465
20
2.9217737070660603
30
0
10
-0.17350159671047918
20
2.8941257398292053
30
0
10
-0.17304546663809497
20
2.8668635539803931
30
0
10
-0.17287885066685715
20
2.8394825339849494
30
0
10
-0.17328318181594352
20
2.8113288630232827
30
0
10
-0.17431260438692425
20
2.7819268175282508
30
0
10
-0.1755505627403656
20
2.7514759376769637
30
0
10
-0.17621305489458486
20
2.7207294554048711
30
0
10
-0.17541999379664613
20
2.6905819556006856
30
0
10
-0.17238986835949446
20
2.661785614443295
30
0
10
-0.16672225642124971
20
2.6345249897531642
30
0
10
-0.1584117107852672
20
2.6084153013194555
30
0
10
-0.1476233437553266
20
2.5828723605879444
30
0
10
-0.13455329054560927
20
2.5573532918706072
30
0
10
-0.11920991690173555
20
2.5317122084372294
30
0
10
-0.10146689243722647
20
2.5061797124975325
30
0
10
-0.081245872685416234
20
2.4811769698762389
30
0
10
-0.05863947883622507
20
2.4571878163697285
30
0
10
-0.034103916168641148
20
2.4345918913235498
30
0
10
-0.0084601173181344906
20
2.4135685716487711
30
0
10
0.017352688227270315
20
2.394081521644619
30
0
10
0.042463787787484386
20
2.3758433120768339
30
0
10
0.066279658483133039
20
2.3582893589229212
30
0
10
0.088689572241680559
20
2.3405438090944886
30
0
10
0.10992072360047475
20
2.3216290446733292
30
0
10
0.13038252398043471
20
2.3006826958895799
30
0
10
0.15051716333908569
20
2.2771665999748221
30
0
10
0.17064218213135202
20
2.2510936856537329
30
0
10
0.19093345155444449
20
2.2228370593848141
30
0
10
0.21141301845193378
20
2.192911166355703
30
0
10
0.23193844230029159
20
2.1617775671053643
30
0
10
0.25218366303842427
20
2.1296068114564846
30
0
10
0.27164771827051976
20
2.0961641124042791
30
0
10
0.28975440385974199
20
2.0610872301860459
30
0
10
0.30593538605555953
20
2.0240930639159944
30
0
10
0.31972183124080927
20
1.9852217588643595
30
0
10
0.33082779644614541
20
1.9450430829439205
30
0
10
0.33924960962066725
20
1.9049372616833629
30
0
10
0.3452068816595496
20
1.8666454745329322
30
0
10
0.34906492106948894
20
1.8317430651688698
30
0
10
0.3512624097452659
20
1.8011171458702027
30
0
10
0.3522401251922781
20
1.7744943131214141
30
0
10
0.35236077137221866
20
1.7498089061525139
30
0
10
0.35191771540456585
20
1.724010510832976
30
0
10
0.35115813707163168
20
1.6940908904072407
30
0
10
0.35030169734941397
20
1.6580631464069735
30
0
10
0.34955939693891019
20
1.6158810186904282
30
0
10
0.34912013022278449
20
1.5688368968256257
30
0
10
0.34913924300996529
20
1.5190459719350951
30
0
10
0.34972644104202383
20
1.4689010731782985
30
0
10
0.35093362432767317
20
1.4205332503236849
30
0
10
0.35274349709100516
20
1.3752862008042099
30
0
10
0.35505572293160687
20
1.3331401398677825
30
0
10
0.35771716798935077
20
1.2930821558604078
30
0
10
0.36055460952427892
20
1.2535339317026444
30
0
10
0.36340726964879139
20
1.2127661945117549
30
0
10
0.36615776588161097
20
1.1693008003570418
30
0
10
0.36876771950998843
20
1.1223607730749512
30
0
10
0.371299329707449
20
1.0721702363573169
30
0
10
0.37387867707782407
20
1.0196261414581507
30
0
10
0.37666731870556114
20
0.9660603633757272
30
0
10
0.37983120129368175
20
0.912970700195882
30
0
10
0.38350950897899155
20
0.86175629244466501
30
0
10
0.38778635868414019
20
0.81347199633982714
30
0
10
0.39265438476066528
20
0.76852386030773723
30
0
10
0.39800473586741947
20
0.72655897667381442
30
0
10
0.40367246519277583
20
0.68676336793243276
30
0
10
0.40946953628732224
20
0.64806923012165518
30
0
10
0.41522424890249932
20
0.60940785089086813
30
0
10
0.42081448542789135
20
0.56992075561129429
30
0
10
0.42621235030913274
20
0.52924519929949954
30
0
10
0.43147873022339811
20
0.4874756332808996
30
0
10
0.43673346996360701
20
0.44496742577878345
30
0
10
0.4421333180043957
20
0.40219119801214931
30
0
10
0.4478464692255843
20
0.35956399521220878
30
0
10
0.45402904602749866
20
0.31729563714172376
30
0
10
0.46079947542371225
20
0.27521424980264336
30
0
10
0.46823880304295429
20
0.23288431899278592
30
0
10
0.47639262623517858
20
0.18974482931419015
30
0
10
0.48527252164086399
20
0.14523893631551638
30
0
10
0.49485746097248684
20
0.098949826485067019
30
0
10
0.5050956981682202
20
0.050727787304249462
30
0
10
0.51590513621897183
20
0.00083778508008734319
30
0
10
0.52719352573209721
20
-0.050146979352696588
30
0
10
0.53888061959896116
20
-0.10147641924081742
30
0
10
0.55091966297588757
20
-0.15234600123494782
30
0
10
0.56331910147868303
20
-0.20202264999457026
30
0
10
0.57616439715629852
20
-0.24996974867440397
30
0
10
0.58963941669472475
20
-0.29597127071792229
30
0
10
0.60404923400120281
20
-0.34026017563177224
30
0
10
0.61975244903733628
20
-0.38337995167579608
30
0
10
0.6370907431183529
20
-0.42603976919137337
30
0
10
0.6563215894011184
20
-0.46897501193444185
30
0
10
0.67754476482215231
20
-0.5127989795139497
30
0
10
0.70064270959395969
20
-0.55787370635168587
30
0
10
0.72518675481856187
20
-0.60413413380930314
30
0
10
0.75047862301017354
20
-0.65109708653107479
30
0
10
0.77569541989144208
20
-0.69801216740045058
30
0
10
0.80000605759764098
20
-0.74397252764111632
30
0
10
0.82269633981674795
20
-0.78803982377077497
30
0
10
0.84329744709099463
20
-0.82936817646132266
30
0
10
0.8616964970027805
20
-0.86731659354112156
30
0
10
0.87829739052726308
20
-0.9015971440150905
30
0
10
0.89391674287607104
20
-0.93223154698560096
30
0
10
0.90957424631883366
20
-0.95943102957299642
30
0
10
0.9263161959185473
20
-0.98350060951988938
30
0
10
0.94502785993890503
20
-1.0047345213767169
30
0
10
0.96624343861946149
20
-1.0233120382225047
30
0
10
0.98543102467526356
20
-1.0361206777078182
30
0
10
1.0011073595901809
20
-1.0445859737231724
30
0
10
1.0121295518896818
20
-1.0497223612212692
30
0
10
1.0177834750835455
20
-1.0521637699180368
30
0
0
SPLINE
5
118
100
AcDbEntity
8
0
100
AcDbSpline
70
4
71
5
72
56
73
50
74
0
42
0.000000001
43
0.0000000001
44
0.0000000001
40
0
40
0
40
0
40
0
40
0
40
0
40
0.022222222222222223
40
0.044444444444444446
40
0.066666666666666666
40
0.088888888888888892
40
0.11111111111111112
40
0.13333333333333333
40
0.15555555555555556
40
0.17777777777777778
40
0.20000000000000001
40
0.22222222222222224
40
0.24444444444444446
40
0.26666666666666666
40
0.28888888888888886
40
0.31111111111111106
40
0.33333333333333326
40
0.35555555555555546
40
0.37777777777777766
40
0.39999999999999986
40
0.42222222222222205
40
0.44444444444444425
40
0.46666666666666645
40
0.48888888888888865
40
0.51111111111111085
40
0.5333333333333331
40
0.55555555555555536
40
0.57777777777777761
40
0.59999999999999987
40
0.62222222222222212
40
0.64444444444444438
40
0.66666666666666663
40
0.68888888888888888
40
0.71111111111111114
40
0.73333333333333339
40
0.75555555555555565
40
0.7777777777777779
40
0.80000000000000016
40
0.82222222222222241
40
0.84444444444444466
40
0.86666666666666692
40
0.88888888888888917
40
0.91111111111111143
40
0.93333333333333368
40
0.95555555555555594
40
0.97777777777777819
40
1
40
1
40
1
40
1
40
1
40
1
41
1
41
1
41
1
41
1
41
1
41
1
41
1
41
1
41
1
41
1
41
1
41
1
41
1
41
1
41
1
41
1
41
1
41
1
41
1
41
1
41
1
41
1
41
1
41
1
41
1
41
1
41
1
41
1
41
1
41
1
41
1
41
1
41
1
41
1
41
1
41
1
41
1
41
1
41
1
41
1
41
1
41
1
41
1
41
1
41
1
41
1
41
1
41
1
41
1
41
1
10
1.1694194412247021
20
-1.0432914527502033
30
0
10
1.1751138117393014
20
-1.0447299493564817
30
0
10
1.1866890710193079
20
-1.0469510444071963
30
0
10
1.2046113413247357
20
-1.048315084838195
30
0
10
1.2296288695074411
20
-1.0461946345599777
30
0
10
1.2626130606934445
20
-1.0370649883026473
30
0
10
1.2968593700921227
20
-1.0217319102103815
30
0
10
1.331404459011637
20
-1.000800753405316
30
0
10
1.3649166889964179
20
-0.97515536569506966
30
0
10
1.3960817672680925
20
-0.94578607608830945
30
0
10
1.4238811702777514
20
-0.91366390129666608
30
0
10
1.4479945012302993
20
-0.87957514146387761
30
0
10
1.468872200826107
20
-0.84404558579163924
30
0
10
1.4873261787007077
20
-0.80738645833042633
30
0
10
1.5042459166675504
20
-0.7697126264115165
30
0
10
1.5202421331899438
20
-0.730968424477353
30
0
10
1.5353859236969578
20
-0.69095792113003474
30
0
10
1.5494390116222687
20
-0.64943346578792771
30
0
10
1.5620426694319531
20
-0.60618260346252251
30
0
10
1.5729037919299353
20
-0.56110479638733957
30
0
10
1.5820271123471608
20
-0.51432006452833046
30
0
10
1.5896964747007871
20
-0.46612428839692943
30
0
10
1.5963332786265398
20
-0.41687210635871758
30
0
10
1.6023899392775138
20
-0.36687828290171443
30
0
10
1.6082389170482592
20
-0.31632184498311855
30
0
10
1.6140385392873033
20
-0.26512228443923685
30
0
10
1.6197467297207579
20
-0.21297346694189989
30
0
10
1.625199465964879
20
-0.15944525675625476
30
0
10
1.630169187337756
20
-0.10406443144120672
30
0
10
1.6344283650833822
20
-0.046400605619480388
30
0
10
1.6378178079116883
20
0.013841625542587657
30
0
10
1.6402910528294474
20
0.076758748582149192
30
0
10
1.6418807313452934
20
0.14227632910984533
30
0
10
1.6426788630173068
20
0.21016002218269408
30
0
10
1.6428122349208978
20
0.28003292794658358
30
0
10
1.6424192942411209
20
0.35138895880313215
30
0
10
1.6416282713522024
20
0.42360893264421529
30
0
10
1.640530284309915
20
0.49597108577017235
30
0
10
1.6391760631796852
20
0.56768233541137136
30
0
10
1.6375867439807443
20
0.63792137638617297
30
0
10
1.6357603031301915
20
0.70587835811802935
30
0
10
1.6336796505445288
20
0.77079541352874015
30
0
10
1.6313201262786878
20
0.83200846799798645
30
0
10
1.6286568435989155
20
0.88898556209851753
30
0
10
1.625673117877666
20
0.94137599982216424
30
0
10
1.622359859441725
20
0.98898147813889536
30
0
10
1.6194424139531229
20
1.0231652534204405
30
0
10
1.6171038899883654
20
1.0465990803583263
30
0
10
1.6154780637623629
20
1.0612428459428072
30
0
10
1.6146484481923526
20
1.0683200331942018
30
0
0
SPLINE
5
119
100
AcDbEntity
8
0
100
AcDbSpline
70
4
71
5
72
61
73
55
74
0
42
0.000000001
43
0.0000000001
44
0.0000000001
40
0
40
0
40
0
40
0
40
0
40
0
40
0.02
40
0.040000000000000001
40
0.059999999999999998
40
0.080000000000000002
40
0.10000000000000001
40
0.12000000000000001
40
0.14000000000000001
40
0.16
40
0.17999999999999999
40
0.19999999999999998
40
0.21999999999999997
40
0.23999999999999996
40
0.25999999999999995
40
0.27999999999999997
40
0.29999999999999999
40
0.32000000000000001
40
0.34000000000000002
40
0.36000000000000004
40
0.38000000000000006
40
0.40000000000000008
40
0.4200000000000001
40
0.44000000000000011
40
0.46000000000000013
40
0.48000000000000015
40
0.50000000000000011
40
0.52000000000000013
40
0.54000000000000015
40
0.56000000000000016
40
0.58000000000000018
40
0.6000000000000002
40
0.62000000000000022
40
0.64000000000000024
40
0.66000000000000025
40
0.68000000000000027
40
0.70000000000000029
40
0.72000000000000031
40
0.74000000000000032
40
0.76000000000000034
40
0.78000000000000036
40
0.80000000000000038
40
0.8200000000000004
40
0.84000000000000041
40
0.86000000000000043
40
0.88000000000000045
40
0.90000000000000047
40
0.92000000000000048
40
0.9400000000000005
40
0.96000000000000052
40
0.98000000000000054
40
1
40
1
40
1
40
1
40
1
40
1
41
1
41
1
41
1
41
1
41
1
41
1
41
1
41
1
41
1
41
1
41
1
41
1
41
1
41
1
41
1
41
1
41
1
41
1
41
1
41
1
41
1
41
1
41
1
41
1
41
1
41
1
41
1
41
1
41
1
41
1
41
1
41
1
41
1
41
1
41
1
41
1
41
1
41
1
41
1
41
1
41
1
41
1
41
1
41
1
41
1
41
1
41
1
41
1
41
1
41
1
41
1
41
1
41
1
41
1
41
1
10
1.2444308500072945
20
0.13995302772360971
30
0
10
1.2435543502136504
20
0.14610041116121356
30
0
10
1.2417839280011602
20
0.15854560595592213
30
0
10
1.2390760293841683
20
0.17766474027977344
30
0
10
1.2353608769383635
20
0.20405968585465961
30
0
10
1.2305308731117726
20
0.23849191475142476
30
0
10
1.2254799668966232
20
0.27414901898841298
30
0
10
1.2201396662345059
20
0.31061545158198345
30
0
10
1.2143944440813712
20
0.34715551836287156
30
0
10
1.2080784470819883
20
0.38281999518585563
30
0
10
1.2009840334261224
20
0.41678852540089339
30
0
10
1.1928659419553871
20
0.44866356757042924
30
0
10
1.1834496755856998
20
0.47875505161471621
30
0
10
1.172431377135037
20
0.50844954906243545
30
0
10
1.1595500350283479
20
0.53975036369391871
30
0
10
1.1446741084220962
20
0.57466707500610614
30
0
10
1.127878933829539
20
0.61467882488870562
30
0
10
1.1095389443860357
20
0.66011836075257191
30
0
10
1.0903840584924083
20
0.70972499378859144
30
0
10
1.071320642982508
20
0.76127246384158453
30
0
10
1.053275465575398
20
0.81208834003950825
30
0
10
1.037035610175022
20
0.85960033348742748
30
0
10
1.0230793048099467
20
0.90190075932053237
30
0
10
1.0114345536733786
20
0.93823491146527205
30
0
10
1.0014610897810721
20
0.96970466074943895
30
0
10
0.99205437650657202
20
0.99878189709660181
30
0
10
0.98201525012007829
20
1.0283593907819404
30
0
10
0.97034279952992564
20
1.0610086851612897
30
0
10
0.95661023827086233
20
1.0980277353416734
30
0
10
0.94114385527325728
20
1.1389728333409417
30
0
10
0.92471683974063068
20
1.1823731677938392
30
0
10
0.90834007517601223
20
1.226209466593444
30
0
10
0.89300556064983572
20
1.2685081343425999
30
0
10
0.87947286830759674
20
1.3078302309729881
30
0
10
0.86797921245096699
20
1.3439473198122305
30
0
10
0.85828002148508808
20
1.3777083035317601
30
0
10
0.84984607734688988
20
1.4105240472107299
30
0
10
0.84201269242203702
20
1.4439666559253665
30
0
10
0.8341435409679967
20
1.4793381043442129
30
0
10
0.82580069173639237
20
1.5172087524035593
30
0
10
0.8167443281007204
20
1.5575337998805165
30
0
10
0.80691101034847357
20
1.5998366359474374
30
0
10
0.79640114079554425
20
1.6433711680600098
30
0
10
0.78546091811574237
20
1.687282012894268
30
0
10
0.7744723104534057
20
1.7307900055565497
30
0
10
0.76391884774288921
20
1.7732656241675537
30
0
10
0.75433040988849109
20
1.814197534247612
30
0
10
0.74623348385734312
20
1.8531907749892724
30
0
10
0.74010018802679534
20
1.8899530126387443
30
0
10
0.7362953269893312
20
1.9242865915299445
30
0
10
0.73503073951418774
20
1.956077457125933
30
0
10
0.73613341181962211
20
1.9794334560061373
30
0
10
0.73816341225328552
20
1.9957758934251093
30
0
10
0.74005107875604281
20
2.006149163102775
30
0
10
0.74112849430473127
20
2.0112053758485211
30
0
0
SPLINE
5
120
100
AcDbEntity
8
0
100
AcDbSpline
70
4
71
5
72
41
73
35
74
0
42
0.000000001
43
0.0000000001
44
0.0000000001
40
0
40
0
40
0
40
0
40
0
40
0
40
0.033333333333333333
40
0.066666666666666666
40
0.10000000000000001
40
0.13333333333333333
40
0.16666666666666666
40
0.19999999999999998
40
0.23333333333333331
40
0.26666666666666666
40
0.29999999999999999
40
0.33333333333333331
40
0.36666666666666664
40
0.39999999999999997
40
0.43333333333333329
40
0.46666666666666662
40
0.49999999999999994
40
0.53333333333333333
40
0.56666666666666665
40
0.59999999999999998
40
0.6333333333333333
40
0.66666666666666663
40
0.69999999999999996
40
0.73333333333333328
40
0.76666666666666661
40
0.79999999999999993
40
0.83333333333333326
40
0.86666666666666659
40
0.89999999999999991
40
0.93333333333333324
40
0.96666666666666656
40
1
40
1
40
1
40
1
40
1
40
1
41
1
41
1
41
1
41
1
41
1
41
1
41
1
41
1
41
1
41
1
41
1
41
1
41
1
41
1
41
1
41
1
41
1
41
1
41
1
41
1
41
1
41
1
41
1
41
1
41
1
41
1
41
1
41
1
41
1
41
1
41
1
41
1
41
1
41
1
41
1
10
-0.14414120018263768
20
2.1946440193374022
30
0
10
-0.14659331737942635
20
2.1935908738330974
30
0
10
-0.15156728189684734
20
2.1913585947011263
30
0
10
-0.15923742251172018
20
2.1876322112440687
30
0
10
-0.16988339218293569
20
2.1819064050146482
30
0
10
-0.18387390449299298
20
2.1734837707393315
30
0
10
-0.19849268487115385
20
2.163800083543443
30
0
10
-0.21362497202920069
20
2.1528745439327457
30
0
10
-0.22907117865431628
20
2.1407494028866192
30
0
10
-0.24453215537929496
20
2.1274968660611662
30
0
10
-0.25966306945824008
20
2.1132165861470771
30
0
10
-0.2741182193280432
20
2.0980344047834198
30
0
10
-0.2876016331284198
20
2.0821013500127465
30
0
10
-0.29991025270728694
20
2.0655922133938609
30
0
10
-0.31099407572724158
20
2.0487064027170936
30
0
10
-0.32096625686483793
20
2.0316622565075377
30
0
10
-0.33001691984500492
20
2.0146784806371096
30
0
10
-0.33835015351182379
20
1.9979586383590455
30
0
10
-0.34610920040282322
20
1.9816739487242208
30
0
10
-0.35331346517079398
20
1.9659474522966294
30
0
10
-0.35977157698066936
20
1.9508348093954786
30
0
10
-0.36517139385511704
20
1.9363272204832727
30
0
10
-0.36920503786867387
20
1.9223578695046757
30
0
10
-0.37167718666272132
20
1.9088069946490562
30
0
10
-0.3726318581937697
20
1.8955060574973235
30
0
10
-0.37244229770281972
20
1.882244534998631
30
0
10
-0.37166866807358739
20
1.8687965869813998
30
0
10
-0.3709390086695567
20
1.8549461116410089
30
0
10
-0.37082796432160342
20
1.8405110723592342
30
0
10
-0.37172132266483077
20
1.8253720433493748
30
0
10
-0.37384009126042733
20
1.8094621600451004
30
0
10
-0.3766000192916284
20
1.7960933850140841
30
0
10
-0.37928234837586156
20
1.7857031731175506
30
0
10
-0.38134227119173875
20
1.7786150379344503
30
0
10
-0.38244015699384859
20
1.7750306388654882
30
0
0
SPLINE
5
121
100
AcDbEntity
8
0
100
AcDbSpline
70
4
71
5
72
101
73
95
74
0
42
0.000000001
43
0.0000000001
44
0.0000000001
40
0
40
0
40
0
40
0
40
0
40
0
40
0.011111111111111112
40
0.022222222222222223
40
0.033333333333333333
40
0.044444444444444446
40
0.055555555555555559
40
0.066666666666666666
40
0.077777777777777779
40
0.088888888888888892
40
0.10000000000000001
40
0.11111111111111112
40
0.12222222222222223
40
0.13333333333333333
40
0.14444444444444443
40
0.15555555555555553
40
0.16666666666666663
40
0.17777777777777773
40
0.18888888888888883
40
0.19999999999999993
40
0.21111111111111103
40
0.22222222222222213
40
0.23333333333333323
40
0.24444444444444433
40
0.25555555555555542
40
0.26666666666666655
40
0.27777777777777768
40
0.28888888888888881
40
0.29999999999999993
40
0.31111111111111106
40
0.32222222222222219
40
0.33333333333333331
40
0.34444444444444444
40
0.35555555555555557
40
0.3666666666666667
40
0.37777777777777782
40
0.38888888888888895
40
0.40000000000000008
40
0.4111111111111112
40
0.42222222222222233
40
0.43333333333333346
40
0.44444444444444459
40
0.45555555555555571
40
0.46666666666666684
40
0.47777777777777797
40
0.48888888888888909
40
0.50000000000000022
40
0.51111111111111129
40
0.52222222222222237
40
0.53333333333333344
40
0.54444444444444451
40
0.55555555555555558
40
0.56666666666666665
40
0.57777777777777772
40
0.5888888888888888
40
0.59999999999999987
40
0.61111111111111094
40
0.62222222222222201
40
0.63333333333333308
40
0.64444444444444415
40
0.65555555555555522
40
0.6666666666666663
40
0.67777777777777737
40
0.68888888888888844
40
0.69999999999999951
40
0.71111111111111058
40
0.72222222222222165
40
0.73333333333333273
40
0.7444444444444438
40
0.75555555555555487
40
0.76666666666666594
40
0.77777777777777701
40
0.78888888888888808
40
0.79999999999999916
40
0.81111111111111023
40
0.8222222222222213
40
0.83333333333333237
40
0.84444444444444344
40
0.85555555555555451
40
0.86666666666666559
40
0.87777777777777666
40
0.88888888888888773
40
0.8999999999999988
40
0.91111111111110987
40
0.92222222222222094
40
0.93333333333333202
40
0.94444444444444309
40
0.95555555555555416
40
0.96666666666666523
40
0.9777777777777763
40
0.98888888888888737
40
1
40
1
40
1
40
1
40
1
40
1
41
1
41
1
41
1
41
1
41
1
41
1
41
1
41
1
41
1
41
1
41
1
41
1
41
1
41
1
41
1
41
1
41
1
41
1
41
1
41
1
41
1
41
1
41
1
41
1
41
1
41
1
41
1
41
1
41
1
41
1
41
1
41
1
41
1
41
1
41
1
41
1
41
1
41
1
41
1
41
1
41
1
41
1
41
1
41
1
41
1
41
1
41
1
41
1
41
1
41
1
41
1
41
1
41
1
41
1
41
1
41
1
41
1
41
1
41
1
41
1
41
1
41
1
41
1
41
1
41
1
41
1
41
1
41
1
41
1
41
1
41
1
41
1
41
1
41
1
41
1
41
1
41
1
41
1
41
1
41
1
41
1
41
1
41
1
41
1
41
1
41
1
41
1
41
1
41
1
41
1
41
1
41
1
41
1
41
1
41
1
10
-0.49848138813669884
20
2.3821749375236161
30
0
10
-0.50061841171383092
20
2.3816063780835202
30
0
10
-0.50480328586275369
20
2.3803129281326116
30
0
10
-0.51081308064337105
20
2.3779037266518039
30
0
10
-0.51829097763022514
20
2.3737535054031418
30
0
10
-0.52674518694174666
20
2.3670491040344181
30
0
10
-0.53430322285080323
20
2.3589752729871618
30
0
10
-0.54096060826245429
20
2.3498183513904527
30
0
10
-0.54670885496248212
20
2.34007960639478
30
0
10
-0.55154540010104303
20
2.3303912153999748
30
0
10
-0.55549289428396786
20
2.3213181476420104
30
0
10
-0.55861351447161256
20
2.3132134354146383
30
0
10
-0.56103035356644704
20
2.3060075199692003
30
0
10
-0.56292962399162527
20
2.2991682534428493
30
0
10
-0.56452033565107129
20
2.2920443589117423
30
0
10
-0.56600199397641027
20
2.2841261049797099
30
0
10
-0.56753017414215212
20
2.2753548707176976
30
0
10
-0.56916692705963978
20
2.2659783225178667
30
0
10
-0.5708333166523033
20
2.2563941226623871
30
0
10
-0.57225403664693875
20
2.2469911508450502
30
0
10
-0.57292595574684324
20
2.2380100410107295
30
0
10
-0.5723099982400961
20
2.229567630968234
30
0
10
-0.56998478985751011
20
2.2216679945985329
30
0
10
-0.56585100568931046
20
2.2142131668758189
30
0
10
-0.56019298904223946
20
2.2070327335004762
30
0
10
-0.55347614969199399
20
2.199963094711932
30
0
10
-0.5462167345557507
20
2.1929043566663466
30
0
10
-0.53879095405956068
20
2.1859115067984298
30
0
10
-0.53139560490725191
20
2.1791698246840205
30
0
10
-0.52414713188664763
20
2.1728499490227797
30
0
10
-0.51713652642812102
20
2.1670104821271798
30
0
10
-0.5105180689448755
20
2.1614473395601514
30
0
10
-0.50452759201855391
20
2.1556850225992177
30
0
10
-0.49939911503224671
20
2.1491884841739934
30
0
10
-0.49531136560962324
20
2.1415086888097821
30
0
10
-0.49230693668289272
20
2.1324897222381343
30
0
10
-0.49031937739170373
20
2.122232346305525
30
0
10
-0.48923717114893522
20
2.1109770965738308
30
0
10
-0.48895022799650761
20
2.0990208283996146
30
0
10
-0.48941650186530716
20
2.0866025155917205
30
0
10
-0.49066895912811587
20
2.0738694113668474
30
0
10
-0.49276926806268329
20
2.0609132558117844
30
0
10
-0.49577462745362566
20
2.0477882437805919
30
0
10
-0.49970221386484986
20
2.0345348311717038
30
0
10
-0.50448744995532446
20
2.0212047988232329
30
0
10
-0.50996898534438484
20
2.0078730745631588
30
0
10
-0.51593011568368552
20
1.9946193365390548
30
0
10
-0.52212742262442713
20
1.9815166337548058
30
0
10
-0.52832574966793322
20
1.9686162743459097
30
0
10
-0.53432758137546987
20
1.9559364066722691
30
0
10
-0.54001218701538323
20
1.9434436253757468
30
0
10
-0.54533132003673634
20
1.9310660480883675
30
0
10
-0.55028565318853506
20
1.9187198423114897
30
0
10
-0.5549069298844832
20
1.9063327480976928
30
0
10
-0.55923873180466843
20
1.8938660231448117
30
0
10
-0.56331555097531349
20
1.8813438798315787
30
0
10
-0.56715010785308528
20
1.8688576555752008
30
0
10
-0.5707414090459173
20
1.8565103308032658
30
0
10
-0.57407874256639468
20
1.84437171152001
30
0
10
-0.57714708928435265
20
1.832431813243746
30
0
10
-0.57993238146798765
20
1.8205491597838643
30
0
10
-0.58242546695795394
20
1.8084184359389688
30
0
10
-0.58461664062398133
20
1.7956561873846806
30
0
10
-0.58649145446802031
20
1.7818710651714842
30
0
10
-0.58802579290584478
20
1.7667425672810049
30
0
10
-0.58918179811968874
20
1.7500903614206378
30
0
10
-0.5899020078286451
20
1.7319629566267905
30
0
10
-0.59011481099799512
20
1.7126044817462478
30
0
10
-0.58974270041406074
20
1.6923912584409528
30
0
10
-0.58870962452738607
20
1.6717784347506879
30
0
10
-0.58694859783203612
20
1.6512431831203624
30
0
10
-0.58440948481180055
20
1.6312277974141232
30
0
10
-0.58106607801051058
20
1.6120865737651371
30
0
10
-0.5769250611214336
20
1.594021922911866
30
0
10
-0.57202910866663137
20
1.5770545598490142
30
0
10
-0.56644589853720706
20
1.561075790725627
30
0
10
-0.56025984838015197
20
1.5458838527375625
30
0
10
-0.55356291571493599
20
1.5312259372459966
30
0
10
-0.54644551404618869
20
1.5168390266682596
30
0
10
-0.5389880707277438
20
1.5024881827297316
30
0
10
-0.5312505471339366
20
1.4880136868897162
30
0
10
-0.52327241947131142
20
1.473332115692636
30
0
10
-0.51507731681283198
20
1.4584168574866887
30
0
10
-0.50667615254369347
20
1.4432852750621619
30
0
10
-0.49807088129840521
20
1.4279831012646809
30
0
10
-0.48925795725579452
20
1.4125701495079777
30
0
10
-0.48023196841460725
20
1.3971052409031768
30
0
10
-0.47098904470611458
20
1.3816321326562035
30
0
10
-0.46152651881522211
20
1.3661821239007719
30
0
10
-0.45184273531520086
20
1.3507759986117609
30
0
10
-0.44193680596207219
20
1.3354262065074674
30
0
10
-0.43383407252909456
20
1.3231963893687086
30
0
10
-0.42765689194457063
20
1.3140530781218551
30
0
10
-0.42349427807710016
20
1.3079704463941391
30
0
10
-0.4214018477722335
20
1.3049323578134413
30
0
0
SPLINE
5
122
100
AcDbEntity
8
0
100
AcDbSpline
70
4
71
5
72
81
73
75
74
0
42
0.000000001
43
0.0000000001
44
0.0000000001
40
0
40
0
40
0
40
0
40
0
40
0
40
0.014285714285714285
40
0.028571428571428571
40
0.042857142857142858
40
0.057142857142857141
40
0.071428571428571425
40
0.085714285714285715
40
0.10000000000000001
40
0.1142857142857143
40
0.12857142857142859
40
0.14285714285714288
40
0.15714285714285717
40
0.17142857142857146
40
0.18571428571428575
40
0.20000000000000004
40
0.21428571428571433
40
0.22857142857142862
40
0.24285714285714291
40
0.25714285714285717
40
0.27142857142857146
40
0.28571428571428575
40
0.30000000000000004
40
0.31428571428571433
40
0.32857142857142863
40
0.34285714285714292
40
0.35714285714285721
40
0.3714285714285715
40
0.38571428571428579
40
0.40000000000000008
40
0.41428571428571437
40
0.42857142857142866
40
0.44285714285714295
40
0.45714285714285724
40
0.47142857142857153
40
0.48571428571428582
40
0.50000000000000011
40
0.51428571428571435
40
0.52857142857142858
40
0.54285714285714282
40
0.55714285714285705
40
0.57142857142857129
40
0.58571428571428552
40
0.59999999999999976
40
0.61428571428571399
40
0.62857142857142823
40
0.64285714285714246
40
0.6571428571428567
40
0.67142857142857093
40
0.68571428571428517
40
0.6999999999999994
40
0.71428571428571364
40
0.72857142857142787
40
0.74285714285714211
40
0.75714285714285634
40
0.77142857142857058
40
0.78571428571428481
40
0.79999999999999905
40
0.81428571428571328
40
0.82857142857142752
40
0.84285714285714175
40
0.85714285714285599
40
0.87142857142857022
40
0.88571428571428445
40
0.89999999999999869
40
0.91428571428571292
40
0.92857142857142716
40
0.94285714285714139
40
0.95714285714285563
40
0.97142857142856986
40
0.9857142857142841
40
1
40
1
40
1
40
1
40
1
40
1
41
1
41
1
41
1
41
1
41
1
41
1
41
1
41
1
41
1
41
1
41
1
41
1
41
1
41
1
41
1
41
1
41
1
41
1
41
1
41
1
41
1
41
1
41
1
41
1
41
1
41
1
41
1
41
1
41
1
41
1
41
1
41
1
41
1
41
1
41
1
41
1
41
1
41
1
41
1
41
1
41
1
41
1
41
1
41
1
41
1
41
1
41
1
41
1
41
1
41
1
41
1
41
1
41
1
41
1
41
1
41
1
41
1
41
1
41
1
41
1
41
1
41
1
41
1
41
1
41
1
41
1
41
1
41
1
41
1
41
1
41
1
41
1
41
1
41
1
41
1
10
-0.11799198457655917
20
1.7470001043413264
30
0
10
-0.118721283958708
20
1.7397788337078828
30
0
10
-0.12032953971261701
20
1.7255011846802686
30
0
10
-0.12319089619859934
20
1.7045794234780127
30
0
10
-0.12790426588677123
20
1.6776731865750767
30
0
10
-0.13528842889308154
20
1.6456384898201415
30
0
10
-0.1441479543714981
20
1.6150398611421832
30
0
10
-0.15444693565362655
20
1.585560787259898
30
0
10
-0.16612221775671729
20
1.5566475247687015
30
0
10
-0.17908288315415002
20
1.5275763586305742
30
0
10
-0.19321681558807341
20
1.4976573415781396
30
0
10
-0.20839493385981564
20
1.4663906058591414
30
0
10
-0.22447702774453815
20
1.433662674603063
30
0
10
-0.24131490300157951
20
1.3998661064078173
30
0
10
-0.2587445899463246
20
1.3656573162952446
30
0
10
-0.27657901387131095
20
1.3317538982000872
30
0
10
-0.29460217873811745
20
1.2987276243138188
30
0
10
-0.31255863095957137
20
1.2667739424337581
30
0
10
-0.33015682787608125
20
1.2355664248136791
30
0
10
-0.34713388017875196
20
1.2045196626721391
30
0
10
-0.36331629486739686
20
1.1730083384425776
30
0
10
-0.37867375647339963
20
1.1405796129826336
30
0
10
-0.39339666525688194
20
1.1072249177457403
30
0
10
-0.40789189197973647
20
1.0734300275717414
30
0
10
-0.42265221461682356
20
1.0398780872023563
30
0
10
-0.43815025419474174
20
1.0072203340957115
30
0
10
-0.45473382691558201
20
0.97585000370732311
30
0
10
-0.47249280817583472
20
0.94559976477881424
30
0
10
-0.49125598205416809
20
0.91578873952398943
30
0
10
-0.51069238035860287
20
0.8855460898889369
30
0
10
-0.53038403876693063
20
0.85406646644244943
30
0
10
-0.54990636249026748
20
0.8208669608098369
30
0
10
-0.56891543317802273
20
0.78611167063009535
30
0
10
-0.58716292850721863
20
0.75045477587283693
30
0
10
-0.60448717915827332
20
0.71474342235109989
30
0
10
-0.62081342818232144
20
0.67975361612903851
30
0
10
-0.63614812474922011
20
0.64594485073953856
30
0
10
-0.65058146632909308
20
0.61312543053269974
30
0
10
-0.66426205567986185
20
0.58051344434472119
30
0
10
-0.67735361033739483
20
0.54707492807814684
30
0
10
-0.6899952431060532
20
0.51179112205760857
30
0
10
-0.70226404696873357
20
0.47392980737361401
30
0
10
-0.71412699725038642
20
0.43337892625339408
30
0
10
-0.72545379455350867
20
0.39058030803094046
30
0
10
-0.73605356636670172
20
0.3463039664585667
30
0
10
-0.74570351622837416
20
0.30147609216365784
30
0
10
-0.75418128402276274
20
0.25698270001374929
30
0
10
-0.7612947587076575
20
0.21348902168177039
30
0
10
-0.76691557750363981
20
0.17123766554495998
30
0
10
-0.77096196616455537
20
0.13013519359104181
30
0
10
-0.77337879572400436
20
0.089856732931524463
30
0
10
-0.77411760515331474
20
0.049945473066405462
30
0
10
-0.77311913110203923
20
0.0099101949441769005
30
0
10
-0.7702887349203299
20
-0.030666932027063457
30
0
10
-0.7654974653009553
20
-0.072062363310785804
30
0
10
-0.75861500352718425
20
-0.11439167189957772
30
0
10
-0.74953384903647613
20
-0.15757865410726782
30
0
10
-0.73819840495259692
20
-0.20132611027603201
30
0
10
-0.72462901251402656
20
-0.24509186193510768
30
0
10
-0.70895621935699804
20
-0.28804576348901578
30
0
10
-0.69138166350057106
20
-0.32917705053243829
30
0
10
-0.67212542412353682
20
-0.3674297379758939
30
0
10
-0.65137668274153848
20
-0.40183159299213761
30
0
10
-0.62924617282424833
20
-0.43161827345918657
30
0
10
-0.60571016708052106
20
-0.45637800323673777
30
0
10
-0.58058136612147782
20
-0.47613192771797347
30
0
10
-0.55358215553143009
20
-0.49116974492993482
30
0
10
-0.52440242524018954
20
-0.50192255171275524
30
0
10
-0.49276220640738766
20
-0.50882375792884382
30
0
10
-0.45847542873771685
20
-0.51216885824623659
30
0
10
-0.42143343379214704
20
-0.51213636154375131
30
0
10
-0.38955372838160679
20
-0.50948201068247201
30
0
10
-0.36437353979112941
20
-0.50602750734270519
30
0
10
-0.34702230359911912
20
-0.50307418011782035
30
0
10
-0.33820557483549613
20
-0.50143493466947331
30
0
0
SPLINE
5
123
100
AcDbEntity
8
0
100
AcDbSpline
70
4
71
5
72
31
73
25
74
0
42
0.000000001
43
0.0000000001
44
0.0000000001
40
0
40
0
40
0
40
0
40
0
40
0
40
0.050000000000000003
40
0.10000000000000001
40
0.15000000000000002
40
0.20000000000000001
40
0.25
40
0.29999999999999999
40
0.34999999999999998
40
0.39999999999999997
40
0.44999999999999996
40
0.49999999999999994
40
0.54999999999999993
40
0.59999999999999998
40
0.65000000000000002
40
0.70000000000000007
40
0.75000000000000011
40
0.80000000000000016
40
0.8500000000000002
40
0.90000000000000024
40
0.95000000000000029
40
1
40
1
40
1
40
1
40
1
40
1
41
1
41
1
41
1
41
1
41
1
41
1
41
1
41
1
41
1
41
1
41
1
41
1
41
1
41
1
41
1
41
1
41
1
41
1
41
1
41
1
41
1
41
1
41
1
41
1
41
1
10
-0.21412851718172105
20
-0.38769593834787242
30
0
10
-0.21257791589575337
20
-0.3909022267189497
30
0
10
-0.20921117396793362
20
-0.39732073799914414
30
0
10
-0.20336443876918384
20
-0.40696633212101802
30
0
10
-0.19396908284135567
20
-0.41986272136599162
30
0
10
-0.17953272400837814
20
-0.43599803228779455
30
0
10
-0.1623942581870027
20
-0.45200878749752943
30
0
10
-0.14258523914101842
20
-0.46762017358225511
30
0
10
-0.12021330255214954
20
-0.48235328965169488
30
0
10
-0.095467019909290463
20
-0.49558533423606982
30
0
10
-0.068609054333852101
20
-0.50666195666763847
30
0
10
-0.039977893333726172
20
-0.51499817848552054
30
0
10
-0.0099872486646052794
20
-0.52017614692207881
30
0
10
0.020864138272999776
20
-0.52207563934556678
30
0
10
0.05200541776872615
20
-0.52090573737496981
30
0
10
0.082843009312387583
20
-0.51707898002360109
30
0
10
0.11279958690920108
20
-0.51113055097670412
30
0
10
0.14135944651175628
20
-0.5036222720942487
30
0
10
0.16810822240517712
20
-0.49506247395173164
30
0
10
0.19278971287278679
20
-0.48580527224240283
30
0
10
0.21527956844445306
20
-0.47606150738498276
30
0
10
0.23148546680179877
20
-0.46796492466455974
30
0
10
0.24263777287114494
20
-0.46174025811325958
30
0
10
0.2496290487711155
20
-0.45752312729515687
30
0
10
0.25301378913913858
20
-0.45539772187263483
30
0
0
SPLINE
5
124
100
AcDbEntity
8
0
100
AcDbSpline
70
4
71
5
72
31
73
25
74
0
42
0.000000001
43
0.0000000001
44
0.0000000001
40
0
40
0
40
0
40
0
40
0
40
0
40
0.050000000000000003
40
0.10000000000000001
40
0.15000000000000002
40
0.20000000000000001
40
0.25
40
0.29999999999999999
40
0.34999999999999998
40
0.39999999999999997
40
0.44999999999999996
40
0.49999999999999994
40
0.54999999999999993
40
0.59999999999999998
40
0.65000000000000002
40
0.70000000000000007
40
0.75000000000000011
40
0.80000000000000016
40
0.8500000000000002
40
0.90000000000000024
40
0.95000000000000029
40
1
40
1
40
1
40
1
40
1
40
1
41
1
41
1
41
1
41
1
41
1
41
1
41
1
41
1
41
1
41
1
41
1
41
1
41
1
41
1
41
1
41
1
41
1
41
1
41
1
41
1
41
1
41
1
41
1
41
1
41
1
10
-0.50677762231996226
20
-1.2669440557999061
30
0
10
-0.50023835459231303
20
-1.2666607643621222
30
0
10
-0.48718753704599821
20
-1.265921938882236
30
0
10
-0.467694479582414
20
-1.2642969608172601
30
0
10
-0.441870622362459
20
-1.2610927306160198
30
0
10
-0.40985027715359512
20
-1.2553512819691122
30
0
10
-0.37802367372631268
20
-1.2478988870781462
30
0
10
-0.34625737668346807
20
-1.2388170717339795
30
0
10
-0.31431209282436662
20
-1.2282840607232157
30
0
10
-0.28185890708997519
20
-1.2165699707697366
30
0
10
-0.24856645038831907
20
-1.2039718367983829
30
0
10
-0.21417530089657308
20
-1.1907626101302502
30
0
10
-0.17856923682121084
20
-1.177141234527987
30
0
10
-0.14187572132953843
20
-1.1631676378451867
30
0
10
-0.1044522243451156
20
-1.1487648843576364
30
0
10
-0.066786192947616327
20
-1.1337726711937592
30
0
10
-0.029421989882942905
20
-1.1179855051899854
30
0
10
0.0071184760548370024
20
-1.1011952197805019
30
0
10
0.042419759668407879
20
-1.0832360023450152
30
0
10
0.076235246312525443
20
-1.0640183536917975
30
0
10
0.10843465953770903
20
-1.0435024388058176
30
0
10
0.13286345012458867
20
-1.0260459150199344
30
0
10
0.15043556541048875
20
-1.0123702361159599
30
0
10
0.16181858234984628
20
-1.0029949438238306
30
0
10
0.16742715797709387
20
-0.99824275374707816
30
0
0
SPLINE
5
125
100
AcDbEntity
8
0
100
AcDbSpline
70
4
71
5
72
101
73
95
74
0
42
0.000000001
43
0.0000000001
44
0.0000000001
40
0
40
0
40
0
40
0
40
0
40
0
40
0.011111111111111112
40
0.022222222222222223
40
0.033333333333333333
40
0.044444444444444446
40
0.055555555555555559
40
0.066666666666666666
40
0.077777777777777779
40
0.088888888888888892
40
0.10000000000000001
40
0.11111111111111112
40
0.12222222222222223
40
0.13333333333333333
40
0.14444444444444443
40
0.15555555555555553
40
0.16666666666666663
40
0.17777777777777773
40
0.18888888888888883
40
0.19999999999999993
40
0.21111111111111103
40
0.22222222222222213
40
0.23333333333333323
40
0.24444444444444433
40
0.25555555555555542
40
0.26666666666666655
40
0.27777777777777768
40
0.28888888888888881
40
0.29999999999999993
40
0.31111111111111106
40
0.32222222222222219
40
0.33333333333333331
40
0.34444444444444444
40
0.35555555555555557
40
0.3666666666666667
40
0.37777777777777782
40
0.38888888888888895
40
0.40000000000000008
40
0.4111111111111112
40
0.42222222222222233
40
0.43333333333333346
40
0.44444444444444459
40
0.45555555555555571
40
0.46666666666666684
40
0.47777777777777797
40
0.48888888888888909
40
0.50000000000000022
40
0.51111111111111129
40
0.52222222222222237
40
0.53333333333333344
40
0.54444444444444451
40
0.55555555555555558
40
0.56666666666666665
40
0.57777777777777772
40
0.5888888888888888
40
0.59999999999999987
40
0.61111111111111094
40
0.62222222222222201
40
0.63333333333333308
40
0.64444444444444415
40
0.65555555555555522
40
0.6666666666666663
40
0.67777777777777737
40
0.68888888888888844
40
0.69999999999999951
40
0.71111111111111058
40
0.72222222222222165
40
0.73333333333333273
40
0.7444444444444438
40
0.75555555555555487
40
0.76666666666666594
40
0.77777777777777701
40
0.78888888888888808
40
0.79999999999999916
40
0.81111111111111023
40
0.8222222222222213
40
0.83333333333333237
40
0.84444444444444344
40
0.85555555555555451
40
0.86666666666666559
40
0.87777777777777666
40
0.88888888888888773
40
0.8999999999999988
40
0.91111111111110987
40
0.92222222222222094
40
0.93333333333333202
40
0.94444444444444309
40
0.95555555555555416
40
0.96666666666666523
40
0.9777777777777763
40
0.98888888888888737
40
1
40
1
40
1
40
1
40
1
40
1
41
1
41
1
41
1
41
1
41
1
41
1
41
1
41
1
41
1
41
1
41
1
41
1
41
1
41
1
41
1
41
1
41
1
41
1
41
1
41
1
41
1
41
1
41
1
41
1
41
1
41
1
41
1
41
1
41
1
41
1
41
1
41
1
41
1
41
1
41
1
41
1
41
1
41
1
41
1
41
1
41
1
41
1
41
1
41
1
41
1
41
1
41
1
41
1
41
1
41
1
41
1
41
1
41
1
41
1
41
1
41
1
41
1
41
1
41
1
41
1
41
1
41
1
41
1
41
1
41
1
41
1
41
1
41
1
41
1
41
1
41
1
41
1
41
1
41
1
41
1
41
1
41
1
41
1
41
1
41
1
41
1
41
1
41
1
41
1
41
1
41
1
41
1
41
1
41
1
41
1
41
1
41
1
41
1
41
1
41
1
10
-1.4829260459657021
20
-0.58377748682611108
30
0
10
-1.4832113207977855
20
-0.586846796741472
30
0
10
-1.4836872299765196
20
-0.59308970218668045
30
0
10
-1.4841171818804113
20
-0.60276691021066831
30
0
10
-1.4841224300249112
20
-0.61629574030764955
30
0
10
-1.4831338182888418
20
-0.63428618633983846
30
0
10
-1.4810041331278363
20
-0.65346476281224763
30
0
10
-1.4774462674535693
20
-0.67404526185178637
30
0
10
-1.4721432115283701
20
-0.69627826325563213
30
0
10
-1.4648426856697105
20
-0.72039211431165984
30
0
10
-1.4554789473681553
20
-0.74652015299703678
30
0
10
-1.4442109119036322
20
-0.77466929703385756
30
0
10
-1.4313373797077904
20
-0.80474940540370066
30
0
10
-1.4172405148322347
20
-0.83658821555027163
30
0
10
-1.4023203191010571
20
-0.86995183778750185
30
0
10
-1.3869275234496223
20
-0.90456324739273153
30
0
10
-1.3713139837005566
20
-0.94012024251372361
30
0
10
-1.3556571508393285
20
-0.97630702505089872
30
0
10
-1.3400727200206335
20
-1.0128069160225954
30
0
10
-1.3246318026078117
20
-1.0493145583295678
30
0
10
-1.3093762835697265
20
-1.0855484691335435
30
0
10
-1.2943345600396534
20
-1.1212631640402331
30
0
10
-1.279538092172025
20
-1.1562622848909887
30
0
10
-1.2650232891358446
20
-1.190399949408588
30
0
10
-1.2508318090915671
20
-1.2235809396448452
30
0
10
-1.2370114415485234
20
-1.2557613349130805
30
0
10
-1.2236167332337939
20
-1.2869490349483101
30
0
10
-1.2107097633430288
20
-1.3172043035400225
30
0
10
-1.1983607720815894
20
-1.3466405524334915
30
0
10
-1.1866520067795978
20
-1.3754129525740593
30
0
10
-1.1756813666390165
20
-1.4037068937394028
30
0
10
-1.16556664120092
20
-1.4317263974537529
30
0
10
-1.1564483465704825
20
-1.4596828729021787
30
0
10
-1.1484962734151349
20
-1.4877829318216274
30
0
10
-1.1418791220972018
20
-1.516225781141439
30
0
10
-1.136728807910657
20
-1.5452019881201318
30
0
10
-1.1331069863567185
20
-1.5748916747026622
30
0
10
-1.1309697543150421
20
-1.6054631236334269
30
0
10
-1.1301354289219225
20
-1.637070643520357
30
0
10
-1.1303466386362411
20
-1.6698241007242454
30
0
10
-1.1313280870912497
20
-1.7037606856854106
30
0
10
-1.1328488258981146
20
-1.7388129796250904
30
0
10
-1.134775960542223
20
-1.7747849166935072
30
0
10
-1.1371489619411543
20
-1.8113080481419319
30
0
10
-1.1401599037634806
20
-1.8478883654990153
30
0
10
-1.1440844514526867
20
-1.8840012430138235
30
0
10
-1.1492288642155466
20
-1.91916971333484
30
0
10
-1.1558690825606577
20
-1.9530532773555898
30
0
10
-1.1641962547526146
20
-1.9855238894610894
30
0
10
-1.1742513804156491
20
-2.0167696518135312
30
0
10
-1.1859369125823229
20
-2.047193586769708
30
0
10
-1.1990433804794791
20
-2.0772769922579242
30
0
10
-1.2132697772150884
20
-2.1074481779279024
30
0
10
-1.2282486025910986
20
-2.137964615171752
30
0
10
-1.2435636656498816
20
-2.1687509820668054
30
0
10
-1.2587897164682622
20
-2.1993948967192636
30
0
10
-1.2735606159724757
20
-2.2293581031074652
30
0
10
-1.2876311406650722
20
-2.2581353824047645
30
0
10
-1.3009401348624539
20
-2.2854322535947285
30
0
10
-1.3136763152465463
20
-2.311340344803654
30
0
10
-1.3263345046870667
20
-2.3364984216800746
30
0
10
-1.3395606929158153
20
-2.3618628250358853
30
0
10
-1.3540036877525128
20
-2.388492232830044
30
0
10
-1.3701688581773821
20
-2.4173323363003458
30
0
10
-1.3882603394904411
20
-2.4489883941497559
30
0
10
-1.4080588919649741
20
-2.483538293720648
30
0
10
-1.4290501823418813
20
-2.5206365714533638
30
0
10
-1.4505275138962128
20
-2.5595869248753282
30
0
10
-1.471702606485584
20
-2.599428141244549
30
0
10
-1.4918164721703104
20
-2.6390104052115322
30
0
10
-1.5102418177929555
20
-2.6770840694866544
30
0
10
-1.5266096870585455
20
-2.7123623329092155
30
0
10
-1.5408553563234302
20
-2.7436640183242509
30
0
10
-1.5531227979643625
20
-2.7701744222667459
30
0
10
-1.563700196114155
20
-2.7917055260778998
30
0
10
-1.5729451779362118
20
-2.8089021959035327
30
0
10
-1.5812096179418851
20
-2.8236026724820351
30
0
10
-1.5887811219830605
20
-2.8387086047026577
30
0
10
-1.5958700753184318
20
-2.8570695312826992
30
0
10
-1.6025833760345845
20
-2.8804742786039488
30
0
10
-1.6089134069813653
20
-2.9088605891235182
30
0
10
-1.6147805004632636
20
-2.9410174008949372
30
0
10
-1.6200695876708633
20
-2.9750895657036387
30
0
10
-1.624667315056155
20
-3.0091357427745455
30
0
10
-1.6285030197379649
20
-3.0417188195571963
30
0
10
-1.6315755597245063
20
-3.072311839278528
30
0
10
-1.6339278284829086
20
-3.100984558188931
30
0
10
-1.6356291023118448
20
-3.1282001391387819
30
0
10
-1.636755484531591
20
-3.1545816261757151
30
0
10
-1.6373684466448768
20
-3.1806612357572202
30
0
10
-1.637503408798016
20
-3.2067394415584323
30
0
10
-1.6372437769922292
20
-3.2277262136371969
30
0
10
-1.6368450341761314
20
-3.2435585065965284
30
0
10
-1.6364885605989952
20
-3.2541544766105197
30
0
10
-1.6362876618689488
20
-3.2594627309943704
30
0
0
SPLINE
5
126
100
AcDbEntity
8
0
100
AcDbSpline
70
4
71
5
72
111
73
105
74
0
42
0.000000001
43
0.0000000001
44
0.0000000001
40
0
40
0
40
0
40
0
40
0
40
0
40
0.01
40
0.02
40
0.029999999999999999
40
0.040000000000000001
40
0.050000000000000003
40
0.060000000000000005
40
0.070000000000000007
40
0.080000000000000002
40
0.089999999999999997
40
0.099999999999999992
40
0.10999999999999999
40
0.11999999999999998
40
0.12999999999999998
40
0.13999999999999999
40
0.14999999999999999
40
0.16
40
0.17000000000000001
40
0.18000000000000002
40
0.19000000000000003
40
0.20000000000000004
40
0.21000000000000005
40
0.22000000000000006
40
0.23000000000000007
40
0.24000000000000007
40
0.25000000000000006
40
0.26000000000000006
40
0.27000000000000007
40
0.28000000000000008
40
0.29000000000000009
40
0.3000000000000001
40
0.31000000000000011
40
0.32000000000000012
40
0.33000000000000013
40
0.34000000000000014
40
0.35000000000000014
40
0.36000000000000015
40
0.37000000000000016
40
0.38000000000000017
40
0.39000000000000018
40
0.40000000000000019
40
0.4100000000000002
40
0.42000000000000021
40
0.43000000000000022
40
0.44000000000000022
40
0.45000000000000023
40
0.46000000000000024
40
0.47000000000000025
40
0.48000000000000026
40
0.49000000000000027
40
0.50000000000000022
40
0.51000000000000023
40
0.52000000000000024
40
0.53000000000000025
40
0.54000000000000026
40
0.55000000000000027
40
0.56000000000000028
40
0.57000000000000028
40
0.58000000000000029
40
0.5900000000000003
40
0.60000000000000031
40
0.61000000000000032
40
0.62000000000000033
40
0.63000000000000034
40
0.64000000000000035
40
0.65000000000000036
40
0.66000000000000036
40
0.67000000000000037
40
0.68000000000000038
40
0.69000000000000039
40
0.7000000000000004
40
0.71000000000000041
40
0.72000000000000042
40
0.73000000000000043
40
0.74000000000000044
40
0.75000000000000044
40
0.76000000000000045
40
0.77000000000000046
40
0.78000000000000047
40
0.79000000000000048
40
0.80000000000000049
40
0.8100000000000005
40
0.82000000000000051
40
0.83000000000000052
40
0.84000000000000052
40
0.85000000000000053
40
0.86000000000000054
40
0.87000000000000055
40
0.88000000000000056
40
0.89000000000000057
40
0.90000000000000058
40
0.91000000000000059
40
0.9200000000000006
40
0.9300000000000006
40
0.94000000000000061
40
0.95000000000000062
40
0.96000000000000063
40
0.97000000000000064
40
0.98000000000000065
40
0.99000000000000066
40
1
40
1
40
1
40
1
40
1
40
1
41
1
41
1
41
1
41
1
41
1
41
1
41
1
41
1
41
1
41
1
41
1
41
1
41
1
41
1
41
1
41
1
41
1
41
1
41
1
41
1
41
1
41
1
41
1
41
1
41
1
41
1
41
1
41
1
41
1
41
1
41
1
41
1
41
1
41
1
41
1
41
1
41
1
41
1
41
1
41
1
41
1
41
1
41
1
41
1
41
1
41
1
41
1
41
1
41
1
41
1
41
1
41
1
41
1
41
1
41
1
41
1
41
1
41
1
41
1
41
1
41
1
41
1
41
1
41
1
41
1
41
1
41
1
41
1
41
1
41
1
41
1
41
1
41
1
41
1
41
1
41
1
41
1
41
1
41
1
41
1
41
1
41
1
41
1
41
1
41
1
41
1
41
1
41
1
41
1
41
1
41
1
41
1
41
1
41
1
41
1
41
1
41
1
41
1
41
1
41
1
41
1
41
1
41
1
41
1
41
1
10
1.2989405913640748
20
-1.348354206606301
30
0
10
1.2982533481261116
20
-1.3529422786631471
30
0
10
1.2970892330961532
20
-1.3623459807198346
30
0
10
1.2959742311235201
20
-1.3771342307185594
30
0
10
1.2957496204252874
20
-1.3982173131434923
30
0
10
1.2976347643277513
20
-1.4268578351132759
30
0
10
1.3018620023351133
20
-1.4578119470752651
30
0
10
1.308801039629601
20
-1.491139623144045
30
0
10
1.3189057812859806
20
-1.5268697913791933
30
0
10
1.3325468805946357
20
-1.5649071595641562
30
0
10
1.3498811757719726
20
-1.6049635366849735
30
0
10
1.3706649700060369
20
-1.6464441115405919
30
0
10
1.3942402687824798
20
-1.688480314920918
30
0
10
1.4197389785683472
20
-1.7301502308794403
30
0
10
1.4462310060815318
20
-1.7706498146988976
30
0
10
1.4728979512901132
20
-1.80948855931988
30
0
10
1.4991890694633647
20
-1.8466645043596768
30
0
10
1.5250033034149646
20
-1.8828762187168528
30
0
10
1.550544236776586
20
-1.9192436636124652
30
0
10
1.5761543737502375
20
-1.956999505871625
30
0
10
1.6021489526096073
20
-1.9971752189992267
30
0
10
1.6286680705645131
20
-2.0403254386671787
30
0
10
1.6554761350232747
20
-2.0861463329800212
30
0
10
1.6819659109696128
20
-2.1335027486884028
30
0
10
1.7073533764657398
20
-2.1808363347955062
30
0
10
1.7308159991699559
20
-2.2264603900715021
30
0
10
1.7516617213347454
20
-2.2689167137636481
30
0
10
1.7694672738725752
20
-2.307269484474618
30
0
10
1.7842737836907194
20
-2.3415177741069817
30
0
10
1.7965631476954393
20
-2.3725530790364902
30
0
10
1.8070758644675555
20
-2.4017883075896229
30
0
10
1.8166796037134885
20
-2.4308909159555374
30
0
10
1.8262074477339347
20
-2.4614558840551237
30
0
10
1.8363438159174448
20
-2.4947677950420175
30
0
10
1.8475496482034939
20
-2.5316320380105606
30
0
10
1.8599852666319241
20
-2.5722048456942197
30
0
10
1.8734178856658863
20
-2.6157888558642233
30
0
10
1.8871831130156507
20
-2.6607451236581725
30
0
10
1.9004233783892679
20
-2.7049987741112322
30
0
10
1.9122910863632268
20
-2.7464691088057371
30
0
10
1.9221630386875257
20
-2.7835238204798611
30
0
10
1.929855824449334
20
-2.8154351793915411
30
0
10
1.9358238547524087
20
-2.8428015317823121
30
0
10
1.9408063140991114
20
-2.8671106218481692
30
0
10
1.9455362002793317
20
-2.8903557022913233
30
0
10
1.9503467012316995
20
-2.9146036366480295
30
0
10
1.9551896391061521
20
-2.9417247341785364
30
0
10
1.9598704967033016
20
-2.9732321582203163
30
0
10
1.9642466756417047
20
-3.0100497601767504
30
0
10
1.9683448394728991
20
-3.0524336065839561
30
0
10
1.9722737186180128
20
-3.1001369877898624
30
0
10
1.976185833114706
20
-3.1525209760992294
30
0
10
1.9802189925608578
20
-3.2086870846279307
30
0
10
1.9844475029757946
20
-3.2675989025594712
30
0
10
1.9888262933288541
20
-3.3282120586108865
30
0
10
1.9932220605369313
20
-3.3894912068551424
30
0
10
1.997447620599448
20
-3.4504225087189919
30
0
10
2.0012949581366337
20
-3.5100281629360452
30
0
10
2.0045691045998129
20
-3.5673790967441872
30
0
10
2.0071209632168681
20
-3.6216107933138604
30
0
10
2.0088822786442493
20
-3.6719323300720572
30
0
10
2.0098949223121156
20
-3.7176537948677679
30
0
10
2.0102822644964653
20
-3.7583721649057003
30
0
10
2.0102252563109619
20
-3.7941562208995996
30
0
10
2.0099364412534446
20
-3.8257094926376509
30
0
10
2.0096356483602866
20
-3.854596203141285
30
0
10
2.0095221293881655
20
-3.8832732871740716
30
0
10
2.009722921677298
20
-3.9142591523530244
30
0
10
2.0102539431897157
20
-3.9495180822917249
30
0
10
2.0109556705590474
20
-3.9895727642548344
30
0
10
2.0115244283192633
20
-4.0335153709427312
30
0
10
2.0116152479011258
20
-4.0796861847015959
30
0
10
2.0109289851753975
20
-4.12618388435755
30
0
10
2.0092952751547153
20
-4.1713943778465019
30
0
10
2.0067834009154653
20
-4.2146349493735773
30
0
10
2.0036992736342234
20
-4.2562662363607462
30
0
10
2.0004670680983181
20
-4.297250360941252
30
0
10
1.9975382833934994
20
-4.3388482449543471
30
0
10
1.9952981193099277
20
-4.3822857469767893
30
0
10
1.993952193184475
20
-4.4283708430170066
30
0
10
1.9935042562502698
20
-4.4773795193507198
30
0
10
1.9938273067311476
20
-4.5292230994338851
30
0
10
1.9947082427873097
20
-4.5835364112012948
30
0
10
1.9959049689849819
20
-4.6398014405953871
30
0
10
1.9971942109530116
20
-4.6974480340165048
30
0
10
1.9984330517574702
20
-4.7559832749340121
30
0
10
1.9995750878412761
20
-4.8150318810476058
30
0
10
2.0006462116575685
20
-4.8742986552460268
30
0
10
2.0017315167171503
20
-4.9335522766942548
30
0
10
2.0029578438987925
20
-4.9926007704592452
30
0
10
2.0044778810670034
20
-5.051269737144592
30
0
10
2.0064544271756248
20
-5.1093813721692865
30
0
10
2.0090425276382491
20
-5.1667281520186732
30
0
10
2.0123837751575673
20
-5.2230760499645532
30
0
10
2.0166061373387318
20
-5.2781812718239376
30
0
10
2.0218220445520778
20
-5.3318024761971321
30
0
10
2.0281270988161122
20
-5.3837152720714778
30
0
10
2.0355987145281396
20
-5.4337248317659386
30
0
10
2.0442942634768633
20
-5.4816815546197546
30
0
10
2.0542510781174905
20
-5.5274882358681579
30
0
10
2.065491171577333
20
-5.5710868974202317
30
0
10
2.0755182507031327
20
-5.6041770579298751
30
0
10
2.0836221396991181
20
-5.6279845977227314
30
0
10
2.0892840578451954
20
-5.6434074436866339
30
0
10
2.0921798483485778
20
-5.6510066546066104
30
0
0
LWPOLYLINE
5
127
100
AcDbEntity
8
0
100
AcDbPolyline
90
8
70
1
43
0.0
10
3
20
7.2499999999999991
42
0.41421356237309381
10
2.75
20
7.5
10
-2.75
20
7.5
42
0.41421356237308893
10
-2.9999999999999996
20
7.2500000000000009
10
-3
20
-7.2499999999999973
42
0.41421356237309548
10
-2.75
20
-7.5
10
2.75
20
-7.5
42
0.41421356237308893
10
2.9999999999999996
20
-7.2500000000000009
0
ENDSEC
0
SECTION
2
OBJECTS
0
DICTIONARY
5
C
100
AcDbDictionary
3
ACAD_GROUP
350
D
3
ACAD_MLINESTYLE
350
17
0
DICTIONARY
5
D
100
AcDbDictionary
0
DICTIONARY
5
1A
330
C
100
AcDbDictionary
0
DICTIONARY
5
17
100
AcDbDictionary
0
ENDSEC
0
EOF
