  0
SECTION
  2
HEADER
  9
$ACADVER
  1
AC1009
  9
$DWGCODEPAGE
  3
ansi_1252
  9
$INSBASE
 10
0.0
 20
0.0
 30
0.0
  9
$EXTMIN
 10
-11.1955601030595
 20
-5.013752868981142
 30
0.0
  9
$EXTMAX
 10
11.08619235370564
 20
2.828414418457268
 30
0.0
  9
$LIMMIN
 10
0.0
 20
0.0
  9
$LIMMAX
 10
12.0
 20
9.0
  9
$ORTHOMODE
 70
     0
  9
$REGENMODE
 70
     1
  9
$FILLMODE
 70
     1
  9
$QTEXTMODE
 70
     0
  9
$MIRRTEXT
 70
     1
  9
$DRAGMODE
 70
     2
  9
$LTSCALE
 40
1.0
  9
$OSMODE
 70
    37
  9
$ATTMODE
 70
     1
  9
$TEXTSIZE
 40
0.2
  9
$TRACEWID
 40
0.05
  9
$TEXTSTYLE
  7
STANDARD
  9
$CLAYER
  8
0
  9
$CELTYPE
  6
BYLAYER
  9
$CECOLOR
 62
   256
  9
$DIMSCALE
 40
1.0
  9
$DIMASZ
 40
0.18
  9
$DIMEXO
 40
0.0625
  9
$DIMDLI
 40
0.38
  9
$DIMRND
 40
0.0
  9
$DIMDLE
 40
0.0
  9
$DIMEXE
 40
0.18
  9
$DIMTP
 40
0.0
  9
$DIMTM
 40
0.0
  9
$DIMTXT
 40
0.18
  9
$DIMCEN
 40
0.09
  9
$DIMTSZ
 40
0.0
  9
$DIMTOL
 70
     0
  9
$DIMLIM
 70
     0
  9
$DIMTIH
 70
     1
  9
$DIMTOH
 70
     1
  9
$DIMSE1
 70
     0
  9
$DIMSE2
 70
     0
  9
$DIMTAD
 70
     0
  9
$DIMZIN
 70
     0
  9
$DIMBLK
  1

  9
$DIMASO
 70
     1
  9
$DIMSHO
 70
     1
  9
$DIMPOST
  1

  9
$DIMAPOST
  1

  9
$DIMALT
 70
     0
  9
$DIMALTD
 70
     2
  9
$DIMALTF
 40
25.4
  9
$DIMLFAC
 40
1.0
  9
$DIMTOFL
 70
     0
  9
$DIMTVP
 40
0.0
  9
$DIMTIX
 70
     0
  9
$DIMSOXD
 70
     0
  9
$DIMSAH
 70
     0
  9
$DIMBLK1
  1

  9
$DIMBLK2
  1

  9
$DIMSTYLE
  2
STANDARD
  9
$DIMCLRD
 70
     0
  9
$DIMCLRE
 70
     0
  9
$DIMCLRT
 70
     0
  9
$DIMTFAC
 40
1.0
  9
$DIMGAP
 40
0.09
  9
$LUNITS
 70
     2
  9
$LUPREC
 70
     4
  9
$SKETCHINC
 40
0.1
  9
$FILLETRAD
 40
0.0
  9
$AUNITS
 70
     0
  9
$AUPREC
 70
     0
  9
$MENU
  1
.
  9
$ELEVATION
 40
0.0
  9
$PELEVATION
 40
0.0
  9
$THICKNESS
 40
0.0
  9
$LIMCHECK
 70
     0
  9
$CHAMFERA
 40
0.0
  9
$CHAMFERB
 40
0.0
  9
$SKPOLY
 70
     0
  9
$TDCREATE
 40
2454910.5
  9
$TDUPDATE
 40
2459485.458791724
  9
$TDINDWG
 40
0.0000000116
  9
$TDUSRTIMER
 40
0.0000000116
  9
$USRTIMER
 70
     1
  9
$ANGBASE
 50
0.0
  9
$ANGDIR
 70
     0
  9
$PDMODE
 70
     0
  9
$PDSIZE
 40
0.0
  9
$PLINEWID
 40
0.0
  9
$COORDS
 70
     1
  9
$SPLFRAME
 70
     0
  9
$SPLINETYPE
 70
     6
  9
$SPLINESEGS
 70
     8
  9
$ATTDIA
 70
     0
  9
$ATTREQ
 70
     1
  9
$HANDLING
 70
     1
  9
$HANDSEED
  5
524
  9
$SURFTAB1
 70
     6
  9
$SURFTAB2
 70
     6
  9
$SURFTYPE
 70
     6
  9
$SURFU
 70
     6
  9
$SURFV
 70
     6
  9
$UCSNAME
  2

  9
$UCSORG
 10
0.0
 20
0.0
 30
0.0
  9
$UCSXDIR
 10
1.0
 20
0.0
 30
0.0
  9
$UCSYDIR
 10
0.0
 20
1.0
 30
0.0
  9
$PUCSNAME
  2

  9
$PUCSORG
 10
0.0
 20
0.0
 30
0.0
  9
$PUCSXDIR
 10
1.0
 20
0.0
 30
0.0
  9
$PUCSYDIR
 10
0.0
 20
1.0
 30
0.0
  9
$USERI1
 70
     0
  9
$USERI2
 70
     0
  9
$USERI3
 70
     0
  9
$USERI4
 70
     0
  9
$USERI5
 70
     0
  9
$USERR1
 40
0.0
  9
$USERR2
 40
0.0
  9
$USERR3
 40
0.0
  9
$USERR4
 40
0.0
  9
$USERR5
 40
0.0
  9
$WORLDVIEW
 70
     1
  9
$SHADEDGE
 70
     3
  9
$SHADEDIF
 70
    70
  9
$TILEMODE
 70
     1
  9
$MAXACTVP
 70
    64
  9
$PLIMCHECK
 70
     0
  9
$PEXTMIN
 10
1.000000000000000E+20
 20
1.000000000000000E+20
 30
1.000000000000000E+20
  9
$PEXTMAX
 10
-1.000000000000000E+20
 20
-1.000000000000000E+20
 30
-1.000000000000000E+20
  9
$PLIMMIN
 10
0.0
 20
0.0
  9
$PLIMMAX
 10
12.0
 20
9.0
  9
$UNITMODE
 70
     0
  9
$VISRETAIN
 70
     1
  9
$PLINEGEN
 70
     0
  9
$PSLTSCALE
 70
     1
  0
ENDSEC
  0
SECTION
  2
TABLES
  0
TABLE
  2
VPORT
 70
     1
  0
VPORT
  2
*ACTIVE
 70
     0
 10
0.0
 20
0.0
 11
1.0
 21
1.0
 12
10.42990654205607
 22
4.5
 13
0.0
 23
0.0
 14
0.5
 24
0.5
 15
0.5
 25
0.5
 16
0.0
 26
0.0
 36
1.0
 17
0.0
 27
0.0
 37
0.0
 40
9.0
 41
1.972972972850329
 42
50.0
 43
0.0
 44
0.0
 50
0.0
 51
0.0
 71
     0
 72
   100
 73
     1
 74
     3
 75
     0
 76
     0
 77
     0
 78
     0
  0
ENDTAB
  0
TABLE
  2
LTYPE
 70
     2
  0
LTYPE
  2
CONTINUOUS
 70
     0
  3
Solid line
 72
    65
 73
     0
 40
0.0
  0
LTYPE
  2
CONTINUOUS2
 70
     0
  3
Solid Line
 72
    65
 73
     0
 40
0.0
  0
ENDTAB
  0
TABLE
  2
LAYER
 70
     1
  0
LAYER
  2
0
 70
     0
 62
     7
  6
CONTINUOUS
  0
ENDTAB
  0
TABLE
  2
STYLE
 70
     1
  0
STYLE
  2
STANDARD
 70
     0
 40
0.0
 41
1.0
 50
0.0
 71
     0
 42
0.2
  3
txt
  4

  0
ENDTAB
  0
TABLE
  2
VIEW
 70
     0
  0
ENDTAB
  0
TABLE
  2
UCS
 70
     0
  0
ENDTAB
  0
TABLE
  2
APPID
 70
     1
  0
APPID
  2
ACAD
 70
     0
  0
ENDTAB
  0
TABLE
  2
DIMSTYLE
 70
     1
  0
DIMSTYLE
  2
STANDARD
 70
     0
  3

  4

  5

  6

  7

 40
1.0
 41
0.18
 42
0.0625
 43
0.38
 44
0.18
 45
0.0
 46
0.0
 47
0.0
 48
0.0
140
0.18
141
0.09
142
0.0
143
25.4
144
1.0
145
0.0
146
1.0
147
0.09
 71
     0
 72
     0
 73
     1
 74
     1
 75
     0
 76
     0
 77
     0
 78
     0
170
     0
171
     2
172
     0
173
     0
174
     0
175
     0
176
     0
177
     0
178
     0
  0
ENDTAB
  0
ENDSEC
  0
SECTION
  2
BLOCKS
  0
BLOCK
  8
0
  2
$MODEL_SPACE
 70
     0
 10
0.0
 20
0.0
 30
0.0
  3
$MODEL_SPACE
  1

  0
ENDBLK
  5
21
  8
0
  0
BLOCK
 67
     1
  8
0
  2
$PAPER_SPACE
 70
     0
 10
0.0
 20
0.0
 30
0.0
  3
$PAPER_SPACE
  1

  0
ENDBLK
  5
1D
 67
     1
  8
0
  0
ENDSEC
  0
SECTION
  2
ENTITIES
  0
POLYLINE
  5
5F
  8
0
 66
     1
 10
0.0
 20
0.0
 30
0.0
 70
     1
  0
VERTEX
  5
89
  8
0
 10
-7.60794776302702
 20
-2.568613220447901
 30
0.0
  0
VERTEX
  5
8A
  8
0
 10
-7.607947763027028
 20
-4.61375286898114
 30
0.0
  0
VERTEX
  5
8B
  8
0
 10
-9.607947763027022
 20
-4.61375286898114
 30
0.0
  0
VERTEX
  5
8C
  8
0
 10
-9.607947763026997
 20
-3.655128732546489
 30
0.0
  0
VERTEX
  5
8D
  8
0
 10
-9.284504817824088
 20
-3.456716314265743
 30
0.0
 42
-0.0210403663351812
  0
VERTEX
  5
8E
  8
0
 10
-7.950433901064436
 20
-2.731971941616262
 30
0.0
 42
-0.0039434161982302
  0
VERTEX
  5
8F
  8
0
 10
-7.779405561903092
 20
-2.649842393867026
 30
0.0
 42
0.0013144660096292
  0
SEQEND
  5
501
  8
0
  0
POLYLINE
  5
60
  8
0
 66
     1
 10
0.0
 20
0.0
 30
0.0
 70
     1
  0
VERTEX
  5
90
  8
0
 10
9.58714433213136
 20
-4.61375286898114
 30
0.0
  0
VERTEX
  5
91
  8
0
 10
7.587144332131364
 20
-4.61375286898114
 30
0.0
  0
VERTEX
  5
92
  8
0
 10
7.587144332131319
 20
-2.568613220447936
 30
0.0
 42
-0.0028932279158657
  0
VERTEX
  5
93
  8
0
 10
8.017582978812133
 20
-2.776989309503584
 30
0.0
 42
-0.0102547012589412
  0
VERTEX
  5
94
  8
0
 10
8.604290793849986
 20
-3.080308681200556
 30
0.0
 42
-0.0052596549180236
  0
VERTEX
  5
95
  8
0
 10
8.9359575760826
 20
-3.265033913106043
 30
0.0
 42
-0.0052590732281361
  0
VERTEX
  5
96
  8
0
 10
9.263701386928439
 20
-3.45671631426581
 30
0.0
  0
VERTEX
  5
97
  8
0
 10
9.587144332131357
 20
-3.655128732546564
 30
0.0
  0
SEQEND
  5
502
  8
0
  0
POLYLINE
  5
61
  8
0
 66
     1
 10
0.0
 20
0.0
 30
0.0
 70
     1
  0
VERTEX
  5
98
  8
0
 10
9.645827441885727
 20
-1.722118214755155
 30
0.0
 42
-0.0276030814085717
  0
VERTEX
  5
99
  8
0
 10
10.27602750493604
 20
-0.9297912585824174
 30
0.0
 42
-0.0266883183929581
  0
VERTEX
  5
9A
  8
0
 10
10.54479073409795
 20
-0.658367442046643
 30
0.0
 42
-0.0420942769548784
  0
VERTEX
  5
9B
  8
0
 10
10.745838074646
 20
-0.5046336580605848
 30
0.0
 42
-0.1164812510279463
  0
VERTEX
  5
9C
  8
0
 10
10.83317898820686
 20
-0.4740555648780171
 30
0.0
 42
-0.1179564139669194
  0
VERTEX
  5
9D
  8
0
 10
10.84995224150041
 20
-0.4762481278275281
 30
0.0
 42
-0.270698789610942
  0
VERTEX
  5
9E
  8
0
 10
10.86734244649245
 20
-0.4978739048855598
 30
0.0
 42
-0.1110451296710704
  0
VERTEX
  5
9F
  8
0
 10
10.86341362972517
 20
-0.5518585895039416
 30
0.0
 42
-0.0632568256059122
  0
VERTEX
  5
A0
  8
0
 10
10.77381006357803
 20
-0.7524100740536445
 30
0.0
 42
-0.0568462261237431
  0
VERTEX
  5
A1
  8
0
 10
10.54283693756423
 20
-1.049958262727206
 30
0.0
 42
-0.0492202662379344
  0
VERTEX
  5
A2
  8
0
 10
9.991836104090716
 20
-1.51290400823684
 30
0.0
 42
-0.0105232285970619
  0
VERTEX
  5
A3
  8
0
 10
9.827579340800733
 20
-1.620370787318766
 30
0.0
 42
-0.0097393611743814
  0
VERTEX
  5
A4
  8
0
 10
9.64554687272647
 20
-1.729199850111941
 30
0.0
 42
0.1636592761189251
  0
VERTEX
  5
A5
  8
0
 10
9.642705690753699
 20
-1.732393935301475
 30
0.0
 42
-0.5470622122388542
  0
VERTEX
  5
A6
  8
0
 10
9.638490350553838
 20
-1.733104851752142
 30
0.0
 42
-0.4134726267469759
  0
VERTEX
  5
A7
  8
0
 10
9.638625308234872
 20
-1.730261509042123
 30
0.0
 42
0.0537610031253337
  0
SEQEND
  5
503
  8
0
  0
POLYLINE
  5
62
  8
0
 66
     1
 10
0.0
 20
0.0
 30
0.0
 70
     1
  0
VERTEX
  5
A8
  8
0
 10
8.267395074491228
 20
-0.9835863096321845
 30
0.0
 42
-0.0276030814085754
  0
VERTEX
  5
A9
  8
0
 10
8.83031498768042
 20
-0.1421260929366525
 30
0.0
 42
-0.0266883183929391
  0
VERTEX
  5
AA
  8
0
 10
9.075851321590132
 20
0.1504768295755744
 30
0.0
 42
-0.0420942769549007
  0
VERTEX
  5
AB
  8
0
 10
9.2635777031621
 20
0.3202205043971812
 30
0.0
 42
-0.116481251027788
  0
VERTEX
  5
AC
  8
0
 10
9.348108709269102
 20
0.3578763667679922
 30
0.0
 42
-0.1179564139670431
  0
VERTEX
  5
AD
  8
0
 10
9.365005445518317
 20
0.357070350352746
 30
0.0
 42
-0.2706987896113224
  0
VERTEX
  5
AE
  8
0
 10
9.384114873269843
 20
0.3369476459112887
 30
0.0
 42
-0.1110451296707961
  0
VERTEX
  5
AF
  8
0
 10
9.38463806297772
 20
0.2828227159152191
 30
0.0
 42
-0.0632568256059979
  0
VERTEX
  5
B0
  8
0
 10
9.31182753913027
 20
0.0755829402002725
 30
0.0
 42
-0.0568462261236863
  0
VERTEX
  5
B1
  8
0
 10
9.1061013400526
 20
-0.2399487389330484
 30
0.0
 42
-0.0492202662379274
  0
VERTEX
  5
B2
  8
0
 10
8.595030264184821
 20
-0.7466311218763186
 30
0.0
 42
-0.0105232285970536
  0
VERTEX
  5
B3
  8
0
 10
8.440165745505057
 20
-0.867239470454737
 30
0.0
 42
-0.009739361174368
  0
VERTEX
  5
B4
  8
0
 10
8.267697718268987
 20
-0.9906670359454514
 30
0.0
 42
0.1636592761187044
  0
VERTEX
  5
B5
  8
0
 10
8.265128778916514
 20
-0.994083912560682
 30
0.0
 42
-0.5470622122389381
  0
VERTEX
  5
B6
  8
0
 10
8.26098616417763
 20
-0.9951390136580079
 30
0.0
 42
-0.413472626745931
  0
VERTEX
  5
B7
  8
0
 10
8.260886880891327
 20
-0.9922942018590757
 30
0.0
 42
0.0537610031253444
  0
SEQEND
  5
504
  8
0
  0
POLYLINE
  5
63
  8
0
 66
     1
 10
0.0
 20
0.0
 30
0.0
 70
     1
  0
VERTEX
  5
B8
  8
0
 10
5.91391530899433
 20
-1.152147985617495
 30
0.0
 42
-0.2761229675026193
  0
VERTEX
  5
B9
  8
0
 10
5.885440766418708
 20
-1.115300520001364
 30
0.0
 42
-0.0926637075545158
  0
VERTEX
  5
BA
  8
0
 10
5.893978985751293
 20
-0.985540638383909
 30
0.0
 42
-0.0428531437854235
  0
VERTEX
  5
BB
  8
0
 10
5.957776308357205
 20
-0.802960585233128
 30
0.0
 42
-0.0670893736756166
  0
VERTEX
  5
BC
  8
0
 10
6.165822948292304
 20
-0.4679964950832106
 30
0.0
 42
-0.0545574965902207
  0
VERTEX
  5
BD
  8
0
 10
6.293322714380446
 20
-0.3438631761646226
 30
0.0
 42
-0.1877339355135799
  0
VERTEX
  5
BE
  8
0
 10
6.530814340504604
 20
-0.2725098034492714
 30
0.0
 42
-0.0688935665916454
  0
VERTEX
  5
BF
  8
0
 10
6.616163854161869
 20
-0.2913136798776619
 30
0.0
 42
-0.1821127805038016
  0
VERTEX
  5
C0
  8
0
 10
6.718611366931462
 20
-0.3802106935715014
 30
0.0
 42
0.0558102658690734
  0
VERTEX
  5
C1
  8
0
 10
6.723443232340949
 20
-0.3871635729696107
 30
0.0
 42
-0.2002844872904238
  0
VERTEX
  5
C2
  8
0
 10
6.726134702094816
 20
-0.3951913650586016
 30
0.0
  0
VERTEX
  5
C3
  8
0
 10
6.653701859953133
 20
-0.5052335308854684
 30
0.0
 42
-0.0181003151116402
  0
VERTEX
  5
C4
  8
0
 10
6.498582116580945
 20
-0.7281524927705788
 30
0.0
 42
-0.0668023855066391
  0
VERTEX
  5
C5
  8
0
 10
6.239466876993235
 20
-0.9913706628321817
 30
0.0
 42
-0.0368119131503811
  0
VERTEX
  5
C6
  8
0
 10
6.023359204450863
 20
-1.134897818182883
 30
0.0
 42
-0.1195293327143305
  0
VERTEX
  5
C7
  8
0
 10
5.945465571810194
 20
-1.156853150730755
 30
0.0
 42
-0.0462446441780963
  0
VERTEX
  5
C8
  8
0
 10
5.927858449708821
 20
-1.155872869470628
 30
0.0
 42
-0.0565654835325705
  0
SEQEND
  5
505
  8
0
  0
POLYLINE
  5
64
  8
0
 66
     1
 10
0.0
 20
0.0
 30
0.0
 70
     1
  0
VERTEX
  5
C9
  8
0
 10
5.430336257453368
 20
-2.552218842388551
 30
0.0
 42
-0.0950413056421713
  0
VERTEX
  5
CA
  8
0
 10
5.400686126157886
 20
-2.500572585432336
 30
0.0
 42
-0.1091404920320959
  0
VERTEX
  5
CB
  8
0
 10
5.39475858582301
 20
-2.448904501939706
 30
0.0
 42
-0.0450088840610878
  0
VERTEX
  5
CC
  8
0
 10
5.40280716334547
 20
-2.407754648003489
 30
0.0
 42
-0.0605990945546358
  0
VERTEX
  5
CD
  8
0
 10
5.439592045803438
 20
-2.321749633283709
 30
0.0
 42
-0.1724351875739459
  0
VERTEX
  5
CE
  8
0
 10
5.566229044562203
 20
-2.21419987711717
 30
0.0
 42
-0.2288557468050476
  0
VERTEX
  5
CF
  8
0
 10
5.693677252594381
 20
-2.225367444324928
 30
0.0
 42
-0.065112234958543
  0
VERTEX
  5
D0
  8
0
 10
5.714944459269834
 20
-2.242126824172587
 30
0.0
 42
-0.0913987779669106
  0
VERTEX
  5
D1
  8
0
 10
5.747668524736369
 20
-2.290889282690168
 30
0.0
 42
-0.2210383548052596
  0
VERTEX
  5
D2
  8
0
 10
5.743451000680024
 20
-2.451138360060739
 30
0.0
 42
-0.2685935289530511
  0
VERTEX
  5
D3
  8
0
 10
5.552136887303739
 20
-2.577743465584615
 30
0.0
 42
-0.0651773565221863
  0
VERTEX
  5
D4
  8
0
 10
5.497153108068439
 20
-2.573867878415394
 30
0.0
 42
-0.0523397714844336
  0
VERTEX
  5
D5
  8
0
 10
5.431782207812414
 20
-2.553278667051789
 30
0.0
 42
-0.0557571661343469
  0
VERTEX
  5
D6
  8
0
 10
5.430991512071993
 20
-2.552824781414294
 30
0.0
 42
-0.0569661719807263
  0
SEQEND
  5
506
  8
0
  0
POLYLINE
  5
65
  8
0
 66
     1
 10
0.0
 20
0.0
 30
0.0
 70
     1
  0
VERTEX
  5
D7
  8
0
 10
1.116187606739526
 20
0.8806250031318074
 30
0.0
 42
-0.0276030814085563
  0
VERTEX
  5
D8
  8
0
 10
1.315554115276869
 20
1.873199933617849
 30
0.0
 42
-0.0266895711273317
  0
VERTEX
  5
D9
  8
0
 10
1.430903784685999
 20
2.237332206076411
 30
0.0
 42
-0.0420930228940821
  0
VERTEX
  5
DA
  8
0
 10
1.539684733259967
 20
2.465853092493253
 30
0.0
 42
-0.1164812510278849
  0
VERTEX
  5
DB
  8
0
 10
1.603457891428833
 20
2.532905772924986
 30
0.0
 42
-0.1179564139668904
  0
VERTEX
  5
DC
  8
0
 10
1.619384411163385
 20
2.538606240228838
 30
0.0
 42
-0.2706987896113172
  0
VERTEX
  5
DD
  8
0
 10
1.644724969734709
 20
2.527294761354612
 30
0.0
 42
-0.1110451296707822
  0
VERTEX
  5
DE
  8
0
 10
1.665855432531532
 20
2.477462188507724
 30
0.0
 42
-0.0632568256059693
  0
VERTEX
  5
DF
  8
0
 10
1.677605624265421
 20
2.258118553962419
 30
0.0
 42
-0.0568462261237077
  0
VERTEX
  5
E0
  8
0
 10
1.607800566181677
 20
1.887968903970006
 30
0.0
 42
-0.0492202662379288
  0
VERTEX
  5
E1
  8
0
 10
1.328657515020519
 20
1.22464406743645
 30
0.0
 42
-0.0105232285970543
  0
VERTEX
  5
E2
  8
0
 10
1.231511441172715
 20
1.054080198962899
 30
0.0
 42
-0.0097393611743722
  0
VERTEX
  5
E3
  8
0
 10
1.119168423697199
 20
0.874195150206238
 30
0.0
 42
0.1636592761188037
  0
VERTEX
  5
E4
  8
0
 10
1.118097163636325
 20
0.8700566846593991
 30
0.0
 42
-0.5470622122389638
  0
VERTEX
  5
E5
  8
0
 10
1.114670287479928
 20
0.8675010995973993
 30
0.0
 42
-0.4134726267465962
  0
VERTEX
  5
E6
  8
0
 10
1.11349331197127
 20
0.8700929213494306
 30
0.0
 42
0.0537610031252847
  0
SEQEND
  5
507
  8
0
  0
POLYLINE
  5
66
  8
0
 66
     1
 10
0.0
 20
0.0
 30
0.0
 70
     1
  0
VERTEX
  5
E7
  8
0
 10
4.086791205589644
 20
-1.368095694277738
 30
0.0
 42
-0.0248357645490471
  0
VERTEX
  5
E8
  8
0
 10
3.870214709935248
 20
-1.867730619064774
 30
0.0
 42
-0.0611532354039357
  0
VERTEX
  5
E9
  8
0
 10
3.748481812330388
 20
-2.053195304958305
 30
0.0
 42
-0.0686890274730681
  0
VERTEX
  5
EA
  8
0
 10
3.645215045014701
 20
-2.145729867498186
 30
0.0
 42
-0.1427209453715792
  0
VERTEX
  5
EB
  8
0
 10
3.58067033624511
 20
-2.166401860507831
 30
0.0
 42
-0.2442333880230903
  0
VERTEX
  5
EC
  8
0
 10
3.512031915930056
 20
-2.133019950412325
 30
0.0
 42
-0.1909367187174209
  0
VERTEX
  5
ED
  8
0
 10
3.472868619988845
 20
-1.986810100201016
 30
0.0
 42
-0.0993979556287018
  0
VERTEX
  5
EE
  8
0
 10
3.555925334215886
 20
-1.73084331885472
 30
0.0
 42
-0.0528875205749304
  0
VERTEX
  5
EF
  8
0
 10
3.701030654106581
 20
-1.526547295574012
 30
0.0
 42
-0.0259953281662782
  0
VERTEX
  5
F0
  8
0
 10
3.804657966315966
 20
-1.420793159313219
 30
0.0
 42
-0.0261358405843558
  0
VERTEX
  5
F1
  8
0
 10
3.918114091714949
 20
-1.326902295504959
 30
0.0
 42
0.0534734489280857
  0
VERTEX
  5
F2
  8
0
 10
3.919414762120349
 20
-1.325700513576062
 30
0.0
 42
-0.1629253486418746
  0
VERTEX
  5
F3
  8
0
 10
3.920942929182309
 20
-1.32480567910039
 30
0.0
  0
VERTEX
  5
F4
  8
0
 10
4.088671987589729
 20
-1.363084279171542
 30
0.0
 42
-0.3310919046168039
  0
VERTEX
  5
F5
  8
0
 10
4.088274225098151
 20
-1.365793634977644
 30
0.0
 42
0.1068721439562483
  0
SEQEND
  5
508
  8
0
  0
POLYLINE
  5
67
  8
0
 66
     1
 10
0.0
 20
0.0
 30
0.0
 70
     1
  0
VERTEX
  5
F6
  8
0
 10
6.17629966620522
 20
-4.443076374980272
 30
0.0
 42
0.092137953937288
  0
VERTEX
  5
F7
  8
0
 10
6.322032101362677
 20
-4.163957103506687
 30
0.0
 42
0.1235815406151231
  0
VERTEX
  5
F8
  8
0
 10
6.357996902761742
 20
-3.466358990536687
 30
0.0
 42
0.0602723189715824
  0
VERTEX
  5
F9
  8
0
 10
6.268873174991429
 20
-3.192666427166417
 30
0.0
 42
0.0773674084481359
  0
VERTEX
  5
FA
  8
0
 10
6.143892576270081
 20
-3.005855676971574
 30
0.0
 42
-0.0939478609215687
  0
VERTEX
  5
FB
  8
0
 10
6.262789045300177
 20
-2.964298726327351
 30
0.0
 42
-0.1832378492779168
  0
VERTEX
  5
FC
  8
0
 10
6.483187028704866
 20
-3.01209383020321
 30
0.0
 42
-0.1113020979728058
  0
VERTEX
  5
FD
  8
0
 10
6.61808931677175
 20
-3.150356193155923
 30
0.0
 42
-0.0981884367768639
  0
VERTEX
  5
FE
  8
0
 10
6.743764935962307
 20
-3.488691664187969
 30
0.0
 42
-0.126123107178665
  0
VERTEX
  5
FF
  8
0
 10
6.69102024076837
 20
-4.066615553385759
 30
0.0
 42
-0.0898116048342092
  0
VERTEX
  5
100
  8
0
 10
6.557153274001438
 20
-4.299835876109804
 30
0.0
 42
-0.0804503573311482
  0
VERTEX
  5
101
  8
0
 10
6.431931357065263
 20
-4.407472324907774
 30
0.0
 42
-0.2084831090165328
  0
SEQEND
  5
509
  8
0
  0
POLYLINE
  5
68
  8
0
 66
     1
 10
0.0
 20
0.0
 30
0.0
 70
     1
  0
VERTEX
  5
102
  8
0
 10
5.946066425353132
 20
-4.613752836667774
 30
0.0
 42
0.0546528109834857
  0
VERTEX
  5
103
  8
0
 10
6.025258677481415
 20
-4.577459526503209
 30
0.0
 42
0.0477804431837977
  0
VERTEX
  5
104
  8
0
 10
6.10545610518599
 20
-4.518442374356624
 30
0.0
 42
0.2724719289679404
  0
VERTEX
  5
105
  8
0
 10
6.514445728249788
 20
-4.466446599286884
 30
0.0
 42
0.0937424159098874
  0
VERTEX
  5
106
  8
0
 10
6.69884582270568
 20
-4.258466335985269
 30
0.0
 42
0.045443510244616
  0
VERTEX
  5
107
  8
0
 10
6.771963165384964
 20
-4.10617450684349
 30
0.0
 42
0.0400078908697739
  0
VERTEX
  5
108
  8
0
 10
6.824380140277743
 20
-3.921678184854735
 30
0.0
  0
VERTEX
  5
109
  8
0
 10
6.824380344192007
 20
-4.61375286898114
 30
0.0
  0
SEQEND
  5
50A
  8
0
  0
POLYLINE
  5
69
  8
0
 66
     1
 10
0.0
 20
0.0
 30
0.0
 70
     1
  0
VERTEX
  5
10A
  8
0
 10
-0.4473656085033565
 20
0.9090241134874724
 30
0.0
 42
-0.0276030814085558
  0
VERTEX
  5
10B
  8
0
 10
-0.3302851770819361
 20
1.914630482766225
 30
0.0
 42
-0.0266895711273408
  0
VERTEX
  5
10C
  8
0
 10
-0.2452655882826934
 20
2.287014058664799
 30
0.0
 42
-0.0420930228940801
  0
VERTEX
  5
10D
  8
0
 10
-0.1556423023886782
 20
2.523705327889063
 30
0.0
 42
-0.116481251028014
  0
VERTEX
  5
10E
  8
0
 10
-0.0975982497371526
 20
2.595774500270072
 30
0.0
 42
-0.1179564139667707
  0
VERTEX
  5
10F
  8
0
 10
-0.0821943571602777
 20
2.602765169180671
 30
0.0
 42
-0.2706987896113118
  0
VERTEX
  5
110
  8
0
 10
-0.05600955257509
 20
2.593575529804506
 30
0.0
 42
-0.1110451296707775
  0
VERTEX
  5
111
  8
0
 10
-0.0308533251080125
 20
2.545649065359767
 30
0.0
 42
-0.0632568256059693
  0
VERTEX
  5
112
  8
0
 10
-0.0011081476072383
 20
2.328014230287862
 30
0.0
 42
-0.0568462261237067
  0
VERTEX
  5
113
  8
0
 10
-0.0402425775873747
 20
1.95337839922827
 30
0.0
 42
-0.0492202662379269
  0
VERTEX
  5
114
  8
0
 10
-0.2639008835623236
 20
1.269347958427391
 30
0.0
 42
-0.0105232285970637
  0
VERTEX
  5
115
  8
0
 10
-0.3466940046793689
 20
1.091374106447942
 30
0.0
 42
-0.0097393611743605
  0
VERTEX
  5
116
  8
0
 10
-0.4438662119646329
 20
0.9028611189033133
 30
0.0
 42
0.1636592761188277
  0
VERTEX
  5
117
  8
0
 10
-0.4445935738187949
 20
0.898648585231815
 30
0.0
 42
-0.5470622122389873
  0
VERTEX
  5
118
  8
0
 10
-0.4477987227021226
 20
0.8958198901552645
 30
0.0
 42
-0.4134726267465355
  0
VERTEX
  5
119
  8
0
 10
-0.4491848166334471
 20
0.8983061634620088
 30
0.0
 42
0.0537610031252704
  0
SEQEND
  5
50B
  8
0
  0
POLYLINE
  5
6A
  8
0
 66
     1
 10
0.0
 20
0.0
 30
0.0
 70
     1
  0
VERTEX
  5
11A
  8
0
 10
5.699989135317179
 20
-4.501861863693721
 30
0.0
 42
0.1090567057508955
  0
VERTEX
  5
11B
  8
0
 10
5.871068586049088
 20
-4.238273289675059
 30
0.0
 42
0.1321564609411524
  0
VERTEX
  5
11C
  8
0
 10
5.94174577644424
 20
-3.501651696237988
 30
0.0
 42
0.0675491290111509
  0
VERTEX
  5
11D
  8
0
 10
5.843698332615654
 20
-3.186953490276269
 30
0.0
 42
0.0898467065416629
  0
VERTEX
  5
11E
  8
0
 10
5.699989135317179
 20
-2.983999831549072
 30
0.0
 42
-0.1594738852094258
  0
VERTEX
  5
11F
  8
0
 10
5.717321617922635
 20
-2.981427011888511
 30
0.0
 42
0.0673616805906026
  0
VERTEX
  5
120
  8
0
 10
5.787138513712765
 20
-2.983829744857665
 30
0.0
 42
0.043483924109313
  0
VERTEX
  5
121
  8
0
 10
5.871270171304223
 20
-2.967908346560296
 30
0.0
 42
-0.2039792897237724
  0
VERTEX
  5
122
  8
0
 10
5.917224404488752
 20
-2.973845837214178
 30
0.0
 42
0.0843395391244229
  0
VERTEX
  5
123
  8
0
 10
5.986035356223359
 20
-2.999954825666615
 30
0.0
 42
-0.0445242584100786
  0
VERTEX
  5
124
  8
0
 10
6.003712167026082
 20
-3.005102205575657
 30
0.0
 42
-0.0817875779288487
  0
VERTEX
  5
125
  8
0
 10
6.020858984897647
 20
-3.015277302936306
 30
0.0
 42
-0.0390408542541174
  0
VERTEX
  5
126
  8
0
 10
6.087847437598332
 20
-3.081125431239199
 30
0.0
 42
-0.0950777745501165
  0
VERTEX
  5
127
  8
0
 10
6.218380502769349
 20
-3.305783236083827
 30
0.0
 42
-0.1165778632155668
  0
VERTEX
  5
128
  8
0
 10
6.282046354478862
 20
-3.911866100907885
 30
0.0
 42
-0.0817763846769582
  0
VERTEX
  5
129
  8
0
 10
6.17130082677564
 20
-4.282120815560298
 30
0.0
 42
-0.0949921248870904
  0
VERTEX
  5
12A
  8
0
 10
6.049987859418207
 20
-4.443958703387408
 30
0.0
 42
-0.0911198165797443
  0
VERTEX
  5
12B
  8
0
 10
5.932868915311761
 20
-4.516800407327669
 30
0.0
 42
-0.2142838347934214
  0
VERTEX
  5
12C
  8
0
 10
5.708070114769361
 20
-4.506109831798855
 30
0.0
 42
-0.0035681320336833
  0
VERTEX
  5
12D
  8
0
 10
5.704302016777486
 20
-4.504163230216359
 30
0.0
 42
-0.0030956724108363
  0
SEQEND
  5
50C
  8
0
  0
POLYLINE
  5
6B
  8
0
 66
     1
 10
0.0
 20
0.0
 30
0.0
 70
     1
  0
VERTEX
  5
12E
  8
0
 10
5.192410832166575
 20
-4.441433775475291
 30
0.0
 42
-0.1027365762714887
  0
VERTEX
  5
12F
  8
0
 10
5.054667337265181
 20
-4.244860163463328
 30
0.0
 42
-0.0904293896570997
  0
VERTEX
  5
130
  8
0
 10
4.953809085874326
 20
-3.806384429976428
 30
0.0
 42
-0.1038598991051295
  0
VERTEX
  5
131
  8
0
 10
5.040063901599279
 20
-3.276143161058186
 30
0.0
 42
-0.0861310273349335
  0
VERTEX
  5
132
  8
0
 10
5.156352098991924
 20
-3.082177656521732
 30
0.0
 42
-0.1007408043008255
  0
VERTEX
  5
133
  8
0
 10
5.295616495863746
 20
-2.974521645621396
 30
0.0
 42
-0.2727616148462962
  0
VERTEX
  5
134
  8
0
 10
5.563636611892822
 20
-2.994739634377262
 30
0.0
 42
-0.1381077208202428
  0
VERTEX
  5
135
  8
0
 10
5.765124809245245
 20
-3.239636943638848
 30
0.0
 42
-0.0664154746154866
  0
VERTEX
  5
136
  8
0
 10
5.852594990960641
 20
-3.542293805255089
 30
0.0
 42
-0.1159199781432115
  0
VERTEX
  5
137
  8
0
 10
5.802006627914061
 20
-4.157058113329806
 30
0.0
 42
-0.0926339705290708
  0
VERTEX
  5
138
  8
0
 10
5.674896318987384
 20
-4.39103462847706
 30
0.0
 42
-0.0765537706593781
  0
VERTEX
  5
139
  8
0
 10
5.567050644968784
 20
-4.488639056168959
 30
0.0
 42
-0.0971853750987264
  0
VERTEX
  5
13A
  8
0
 10
5.460657260443846
 20
-4.532250720135155
 30
0.0
 42
-0.1311703190470122
  0
VERTEX
  5
13B
  8
0
 10
5.329326419801399
 20
-4.523623847184649
 30
0.0
 42
-0.1075077842138849
  0
SEQEND
  5
50D
  8
0
  0
POLYLINE
  5
6C
  8
0
 66
     1
 10
0.0
 20
0.0
 30
0.0
 70
     1
  0
VERTEX
  5
13C
  8
0
 10
5.119674712076228
 20
-2.98626036073551
 30
0.0
 42
0.1076408723442606
  0
VERTEX
  5
13D
  8
0
 10
4.950498373197187
 20
-3.248039448846056
 30
0.0
 42
0.1309140375752466
  0
VERTEX
  5
13E
  8
0
 10
4.878139940692402
 20
-3.977022806965349
 30
0.0
 42
0.0677142130676801
  0
VERTEX
  5
13F
  8
0
 10
4.975391811702978
 20
-4.295201031247376
 30
0.0
 42
0.0899175422458477
  0
VERTEX
  5
140
  8
0
 10
5.119674712076228
 20
-4.501107702305681
 30
0.0
 42
-0.0867316505886496
  0
VERTEX
  5
141
  8
0
 10
5.021350964202549
 20
-4.532596916092062
 30
0.0
 42
-0.16668084666563
  0
VERTEX
  5
142
  8
0
 10
4.838236813845413
 20
-4.496731347644969
 30
0.0
 42
-0.0257957101521407
  0
VERTEX
  5
143
  8
0
 10
4.810790023982362
 20
-4.478932068400048
 30
0.0
 42
-0.0204798336127505
  0
VERTEX
  5
144
  8
0
 10
4.778446418459802
 20
-4.453420450333089
 30
0.0
 42
0.3138432493267845
  0
VERTEX
  5
145
  8
0
 10
4.778316995791044
 20
-4.45340738728997
 30
0.0
 42
-0.1446121147312197
  0
VERTEX
  5
146
  8
0
 10
4.778190061913558
 20
-4.453435824255883
 30
0.0
  0
VERTEX
  5
147
  8
0
 10
4.778116201357123
 20
-4.45383096890834
 30
0.0
 42
-0.3509279966755404
  0
VERTEX
  5
148
  8
0
 10
4.777567425338689
 20
-4.453309857568792
 30
0.0
 42
0.1831832047634874
  0
VERTEX
  5
149
  8
0
 10
4.776898634137378
 20
-4.452081548927419
 30
0.0
 42
-0.1010088488133568
  0
VERTEX
  5
14A
  8
0
 10
4.648700192122456
 20
-4.286766848166345
 30
0.0
 42
-0.0859854692414825
  0
VERTEX
  5
14B
  8
0
 10
4.534725162396411
 20
-3.900216350383109
 30
0.0
 42
-0.1166504606849753
  0
VERTEX
  5
14C
  8
0
 10
4.606396306719912
 20
-3.290826252887255
 30
0.0
 42
-0.0977985389416566
  0
VERTEX
  5
14D
  8
0
 10
4.739569310244101
 20
-3.070811855093644
 30
0.0
 42
-0.0535899229160737
  0
VERTEX
  5
14E
  8
0
 10
4.805342042706468
 20
-3.012605990331007
 30
0.0
 42
0.0400637063498867
  0
VERTEX
  5
14F
  8
0
 10
4.822173199794647
 20
-2.99850259170065
 30
0.0
 42
-0.1735035988295265
  0
VERTEX
  5
150
  8
0
 10
4.827666770386054
 20
-2.995956845613942
 30
0.0
 42
0.0631859529633067
  0
VERTEX
  5
151
  8
0
 10
4.851208475305816
 20
-2.990777368475473
 30
0.0
 42
0.0237536632087674
  0
VERTEX
  5
152
  8
0
 10
4.890759157895543
 20
-2.974507609721866
 30
0.0
 42
-0.1190610066071084
  0
VERTEX
  5
153
  8
0
 10
4.932666592970234
 20
-2.965979513294498
 30
0.0
 42
-0.0649541392043653
  0
VERTEX
  5
154
  8
0
 10
4.967770777962406
 20
-2.971860036014968
 30
0.0
 42
0.1190730770334265
  0
VERTEX
  5
155
  8
0
 10
5.109735480565085
 20
-2.980198837600407
 30
0.0
 42
-0.2668875298183446
  0
VERTEX
  5
156
  8
0
 10
5.11533329019082
 20
-2.982199533923586
 30
0.0
 42
0.0564899771637656
  0
SEQEND
  5
50E
  8
0
  0
POLYLINE
  5
6D
  8
0
 66
     1
 10
0.0
 20
0.0
 30
0.0
 70
     1
  0
VERTEX
  5
157
  8
0
 10
4.673510626938204
 20
-3.004348619181053
 30
0.0
 42
0.1023161269968598
  0
VERTEX
  5
158
  8
0
 10
4.51219371446776
 20
-3.273259355276767
 30
0.0
 42
0.1285127207964482
  0
VERTEX
  5
159
  8
0
 10
4.453840438802479
 20
-3.993954596686349
 30
0.0
 42
0.0548970290399009
  0
VERTEX
  5
15A
  8
0
 10
4.529946704416636
 20
-4.254190836636753
 30
0.0
 42
0.068348739827244
  0
VERTEX
  5
15B
  8
0
 10
4.640349835609773
 20
-4.442322903584359
 30
0.0
 42
-0.2296782291230016
  0
VERTEX
  5
15C
  8
0
 10
4.382213672909501
 20
-4.405523300544939
 30
0.0
 42
-0.1072121002081704
  0
VERTEX
  5
15D
  8
0
 10
4.200589048032517
 20
-4.215976539282439
 30
0.0
 42
-0.073808943159044
  0
VERTEX
  5
15E
  8
0
 10
4.09539484537928
 20
-3.969302821522235
 30
0.0
 42
-0.1180568679941661
  0
VERTEX
  5
15F
  8
0
 10
4.084254577711166
 20
-3.431780808772582
 30
0.0
 42
-0.0900452652616424
  0
VERTEX
  5
160
  8
0
 10
4.207091443899615
 20
-3.136238923054184
 30
0.0
 42
-0.1337688825566884
  0
VERTEX
  5
161
  8
0
 10
4.368998861992041
 20
-2.990959360104599
 30
0.0
 42
-0.1280185329736691
  0
VERTEX
  5
162
  8
0
 10
4.518186803958066
 20
-2.959050222256486
 30
0.0
 42
-0.1204914790275591
  0
SEQEND
  5
50F
  8
0
  0
POLYLINE
  5
6E
  8
0
 66
     1
 10
0.0
 20
0.0
 30
0.0
 70
     1
  0
VERTEX
  5
163
  8
0
 10
0.72153315095265
 20
-1.494590904590295
 30
0.0
 42
-0.2237951468033595
  0
VERTEX
  5
164
  8
0
 10
0.8422739505342112
 20
-1.585040460869045
 30
0.0
 42
-0.1515057823663929
  0
VERTEX
  5
165
  8
0
 10
0.8559020335183258
 20
-1.657146048642832
 30
0.0
 42
-0.0976934602327122
  0
VERTEX
  5
166
  8
0
 10
0.8492861992788976
 20
-1.677892540395391
 30
0.0
 42
-0.2317852382310014
  0
VERTEX
  5
167
  8
0
 10
0.8203609708204663
 20
-1.698186776343372
 30
0.0
 42
-0.3485662511279632
  0
VERTEX
  5
168
  8
0
 10
0.7436798477257015
 20
-1.654838864433343
 30
0.0
 42
-0.0904761602877503
  0
VERTEX
  5
169
  8
0
 10
0.7191643298318364
 20
-1.53694675013827
 30
0.0
 42
-0.0112968242033619
  0
VERTEX
  5
16A
  8
0
 10
0.7191139170241585
 20
-1.511396882521572
 30
0.0
 42
-0.0175484354173941
  0
VERTEX
  5
16B
  8
0
 10
0.7200299611781972
 20
-1.494971654378663
 30
0.0
 42
-0.3180997992993351
  0
VERTEX
  5
16C
  8
0
 10
0.7203317602081508
 20
-1.494618224679575
 30
0.0
 42
-0.1131494729937574
  0
SEQEND
  5
510
  8
0
  0
POLYLINE
  5
6F
  8
0
 66
     1
 10
0.0
 20
0.0
 30
0.0
 70
     1
  0
VERTEX
  5
16D
  8
0
 10
0.4637488084270298
 20
-1.902470759859639
 30
0.0
 42
0.179422558987172
  0
VERTEX
  5
16E
  8
0
 10
0.446449557905335
 20
-1.807470224681636
 30
0.0
 42
0.049131009688257
  0
VERTEX
  5
16F
  8
0
 10
0.4045286197738345
 20
-1.750380059745942
 30
0.0
 42
-0.2955682163323628
  0
VERTEX
  5
170
  8
0
 10
0.4033642409004649
 20
-1.743014369530915
 30
0.0
 42
0.01992491817667
  0
VERTEX
  5
171
  8
0
 10
0.4140641729800587
 20
-1.716080142732957
 30
0.0
 42
-0.099797278395784
  0
VERTEX
  5
172
  8
0
 10
0.5043571351806725
 20
-1.564499715322077
 30
0.0
 42
-0.1425335552099766
  0
VERTEX
  5
173
  8
0
 10
0.6106572765754233
 20
-1.499111950413717
 30
0.0
 42
0.140737061427726
  0
VERTEX
  5
174
  8
0
 10
0.6550631624411414
 20
-1.71429558200183
 30
0.0
 42
0.3290015206521201
  0
VERTEX
  5
175
  8
0
 10
0.8431681672096226
 20
-1.805615579256997
 30
0.0
 42
0.3383235913950479
  0
VERTEX
  5
176
  8
0
 10
0.963178168454905
 20
-1.672746581522844
 30
0.0
 42
0.3129754740276868
  0
VERTEX
  5
177
  8
0
 10
0.813269079937424
 20
-1.413644666654223
 30
0.0
 42
0.0274698802535224
  0
VERTEX
  5
178
  8
0
 10
0.7830568022279741
 20
-1.401411837332231
 30
0.0
 42
0.0256652303284697
  0
VERTEX
  5
179
  8
0
 10
0.7495172500598891
 20
-1.39182275576982
 30
0.0
 42
-0.1482216307200434
  0
VERTEX
  5
17A
  8
0
 10
0.827261935937623
 20
-1.313258029570715
 30
0.0
 42
-0.2640317640134826
  0
VERTEX
  5
17B
  8
0
 10
1.031725790100161
 20
-1.317335121226058
 30
0.0
 42
-0.1041582839323002
  0
VERTEX
  5
17C
  8
0
 10
1.11011041077767
 20
-1.389453588240014
 30
0.0
 42
0.0062700399065477
  0
VERTEX
  5
17D
  8
0
 10
1.194497920076126
 20
-1.504713022221869
 30
0.0
 42
0.0447464959512319
  0
VERTEX
  5
17E
  8
0
 10
1.303199067459993
 20
-1.625215805390468
 30
0.0
 42
0.2126392455364104
  0
VERTEX
  5
17F
  8
0
 10
1.494821233702948
 20
-1.690502760135461
 30
0.0
 42
0.0831135568350498
  0
VERTEX
  5
180
  8
0
 10
1.602887453144329
 20
-1.662158131732627
 30
0.0
 42
0.0556770453252592
  0
VERTEX
  5
181
  8
0
 10
1.64884026862199
 20
-1.635011118882573
 30
0.0
 42
0.2215510663046108
  0
VERTEX
  5
182
  8
0
 10
1.669964839171397
 20
-1.595397271841155
 30
0.0
 42
0.4160838151561818
  0
VERTEX
  5
183
  8
0
 10
1.617557258302397
 20
-1.537392188534637
 30
0.0
 42
0.1664141991318832
  0
VERTEX
  5
184
  8
0
 10
1.587901525367867
 20
-1.545995128851406
 30
0.0
 42
-0.1632718750522409
  0
VERTEX
  5
185
  8
0
 10
1.469491800362155
 20
-1.581131891004925
 30
0.0
 42
-0.1867499303901871
  0
VERTEX
  5
186
  8
0
 10
1.368229353027879
 20
-1.537784010897829
 30
0.0
 42
-0.041861894070998
  0
VERTEX
  5
187
  8
0
 10
1.259700766511952
 20
-1.41238455872148
 30
0.0
 42
0.0208235511414577
  0
VERTEX
  5
188
  8
0
 10
1.16121639687283
 20
-1.28842454479089
 30
0.0
 42
0.149595176416961
  0
VERTEX
  5
189
  8
0
 10
1.011547200259798
 20
-1.194423013370705
 30
0.0
 42
0.1560855747962092
  0
VERTEX
  5
18A
  8
0
 10
0.8148470105445574
 20
-1.203450471292318
 30
0.0
 42
0.2208389919706947
  0
VERTEX
  5
18B
  8
0
 10
0.6347098666082291
 20
-1.385338916597198
 30
0.0
 42
0.1731264460225417
  0
VERTEX
  5
18C
  8
0
 10
0.4335229194003111
 20
-1.48406011916103
 30
0.0
 42
0.0951167937248647
  0
VERTEX
  5
18D
  8
0
 10
0.3213988002220488
 20
-1.654415022805287
 30
0.0
 42
-0.1224638753698396
  0
VERTEX
  5
18E
  8
0
 10
0.2429204012566625
 20
-1.463277662722148
 30
0.0
 42
-0.0337998395232226
  0
VERTEX
  5
18F
  8
0
 10
0.231109582099744
 20
-1.312766589030299
 30
0.0
 42
0.0203722486063846
  0
VERTEX
  5
190
  8
0
 10
0.2216790030852307
 20
-1.129724521790856
 30
0.0
 42
0.1715733822496127
  0
VERTEX
  5
191
  8
0
 10
0.1388856307519164
 20
-0.9501713089017962
 30
0.0
 42
0.0371411241521792
  0
VERTEX
  5
192
  8
0
 10
0.1053471467345465
 20
-0.9204782676199207
 30
0.0
 42
0.031811167019898
  0
VERTEX
  5
193
  8
0
 10
0.0618128906930004
 20
-0.891530447280457
 30
0.0
 42
-0.0038744258100859
  0
VERTEX
  5
194
  8
0
 10
0.6134608181011929
 20
-0.9035235291355914
 30
0.0
 42
-0.0086205579317729
  0
VERTEX
  5
195
  8
0
 10
1.14315278086261
 20
-0.9282922315604919
 30
0.0
 42
-0.0150050299518769
  0
VERTEX
  5
196
  8
0
 10
2.221295311718001
 20
-1.029910032568254
 30
0.0
 42
-0.015004531649554
  0
VERTEX
  5
197
  8
0
 10
3.291437451848273
 20
-1.196015880285271
 30
0.0
 42
-0.0037464935332976
  0
VERTEX
  5
198
  8
0
 10
3.468363157439279
 20
-1.230315545309301
 30
0.0
 42
0.0012488259840283
  0
VERTEX
  5
199
  8
0
 10
3.645115319168096
 20
-1.265498575932405
 30
0.0
 42
0.0904226364632144
  0
VERTEX
  5
19A
  8
0
 10
3.336674476694762
 20
-1.669857158104972
 30
0.0
 42
0.0692187953323708
  0
VERTEX
  5
19B
  8
0
 10
3.263276704138767
 20
-1.882018287719597
 30
0.0
 42
0.1174839033268566
  0
VERTEX
  5
19C
  8
0
 10
3.273654966214194
 20
-2.147666389260745
 30
0.0
 42
0.2300879393934586
  0
VERTEX
  5
19D
  8
0
 10
3.45889481681412
 20
-2.356647622213741
 30
0.0
 42
0.1891274457222438
  0
VERTEX
  5
19E
  8
0
 10
3.771080297423253
 20
-2.362706623853879
 30
0.0
 42
0.0904861621304363
  0
VERTEX
  5
19F
  8
0
 10
4.038118596371324
 20
-2.204476441030419
 30
0.0
 42
0.0773308661772994
  0
VERTEX
  5
1A0
  8
0
 10
4.274999582604841
 20
-1.923838134398494
 30
0.0
 42
0.0338912388645051
  0
VERTEX
  5
1A1
  8
0
 10
4.45370207758558
 20
-1.579688926447709
 30
0.0
 42
0.0037711887734578
  0
VERTEX
  5
1A2
  8
0
 10
4.47735145271225
 20
-1.524315215759848
 30
0.0
 42
0.0035183102817383
  0
VERTEX
  5
1A3
  8
0
 10
4.501832604359425
 20
-1.46459838737784
 30
0.0
 42
-0.0043636697957438
  0
VERTEX
  5
1A4
  8
0
 10
5.041111075584115
 20
-1.614506150612619
 30
0.0
 42
-0.0126028786661724
  0
VERTEX
  5
1A5
  8
0
 10
5.842009204061899
 20
-1.866704520634895
 30
0.0
 42
-0.0072700367777167
  0
VERTEX
  5
1A6
  8
0
 10
6.237139374693399
 20
-2.008618258401571
 30
0.0
 42
-0.0048475546348632
  0
VERTEX
  5
1A7
  8
0
 10
6.82438034419201
 20
-2.235741699975326
 30
0.0
  0
VERTEX
  5
1A8
  8
0
 10
6.824380344185848
 20
-3.417002754223216
 30
0.0
 42
0.0969116304471556
  0
VERTEX
  5
1A9
  8
0
 10
6.676939903151655
 20
-3.071059969840938
 30
0.0
 42
0.1390322961176841
  0
VERTEX
  5
1AA
  8
0
 10
6.474208872365704
 20
-2.900856651169131
 30
0.0
 42
0.0708323276448867
  0
VERTEX
  5
1AB
  8
0
 10
6.362536354916632
 20
-2.868663053579772
 30
0.0
 42
0.0743079993058398
  0
VERTEX
  5
1AC
  8
0
 10
6.251701019763324
 20
-2.869671279473802
 30
0.0
 42
-0.2463309946571123
  0
VERTEX
  5
1AD
  8
0
 10
6.251498684706732
 20
-2.869602966724621
 30
0.0
 42
0.0111503642352696
  0
VERTEX
  5
1AE
  8
0
 10
6.162225038582352
 20
-2.780159118118461
 30
0.0
 42
0.085789331031387
  0
VERTEX
  5
1AF
  8
0
 10
6.047068218784853
 20
-2.702572093560743
 30
0.0
 42
0.1801970633136676
  0
VERTEX
  5
1B0
  8
0
 10
5.762009538148901
 20
-2.683970212831088
 30
0.0
 42
0.084451636763686
  0
VERTEX
  5
1B1
  8
0
 10
5.612607760100802
 20
-2.757973860292427
 30
0.0
 42
-0.033168287866322
  0
VERTEX
  5
1B2
  8
0
 10
5.588708183062342
 20
-2.773027641474468
 30
0.0
 42
0.0168842348375635
  0
VERTEX
  5
1B3
  8
0
 10
5.564331394427671
 20
-2.787295727763619
 30
0.0
 42
0.0658116517997626
  0
VERTEX
  5
1B4
  8
0
 10
5.544070972741791
 20
-2.713701570695192
 30
0.0
 42
0.0561501939523455
  0
VERTEX
  5
1B5
  8
0
 10
5.500270685953312
 20
-2.635810947607127
 30
0.0
 42
0.4063094437614594
  0
VERTEX
  5
1B6
  8
0
 10
5.842953445724219
 20
-2.397700406775763
 30
0.0
 42
0.2395029104329847
  0
VERTEX
  5
1B7
  8
0
 10
5.779982857004211
 20
-2.17745124615668
 30
0.0
 42
0.2319132226457565
  0
VERTEX
  5
1B8
  8
0
 10
5.583742798148512
 20
-2.102148564484663
 30
0.0
 42
0.1888033962029839
  0
VERTEX
  5
1B9
  8
0
 10
5.356668600918108
 20
-2.215383639431492
 30
0.0
 42
0.0551028406733973
  0
VERTEX
  5
1BA
  8
0
 10
5.303635193500701
 20
-2.288904253236455
 30
0.0
 42
0.0459905608263725
  0
VERTEX
  5
1BB
  8
0
 10
5.25910095993219
 20
-2.387858426540479
 30
0.0
 42
-0.0710122829577969
  0
VERTEX
  5
1BC
  8
0
 10
5.205601005673068
 20
-2.287690893772293
 30
0.0
 42
-0.0557797174572628
  0
VERTEX
  5
1BD
  8
0
 10
5.171676888250057
 20
-2.147442344413304
 30
0.0
 42
0.072586350420968
  0
VERTEX
  5
1BE
  8
0
 10
5.157483273558578
 20
-2.254206213233281
 30
0.0
 42
0.1292587400452196
  0
VERTEX
  5
1BF
  8
0
 10
5.211691496630596
 20
-2.450195582024887
 30
0.0
 42
0.0649884775130841
  0
VERTEX
  5
1C0
  8
0
 10
5.227675433762299
 20
-2.4709303718241
 30
0.0
 42
-0.2594543567842162
  0
VERTEX
  5
1C1
  8
0
 10
5.231583003655249
 20
-2.484580561812047
 30
0.0
 42
0.0518000106640275
  0
VERTEX
  5
1C2
  8
0
 10
5.219402329865631
 20
-2.581207250684396
 30
0.0
 42
0.025736821481293
  0
VERTEX
  5
1C3
  8
0
 10
5.225186467210468
 20
-2.776744483250983
 30
0.0
 42
-0.0448241955610213
  0
VERTEX
  5
1C4
  8
0
 10
5.180918920847839
 20
-2.749217154319452
 30
0.0
 42
0.1266729658306959
  0
VERTEX
  5
1C5
  8
0
 10
4.988881671472614
 20
-2.669400516088348
 30
0.0
 42
0.1208993451790359
  0
VERTEX
  5
1C6
  8
0
 10
4.793598331260462
 20
-2.688742987950878
 30
0.0
 42
0.1154698113535386
  0
VERTEX
  5
1C7
  8
0
 10
4.620754979368456
 20
-2.79935426006415
 30
0.0
 42
0.0013266996389224
  0
VERTEX
  5
1C8
  8
0
 10
4.58869529548339
 20
-2.832486779128222
 30
0.0
 42
-0.0004422329823401
  0
VERTEX
  5
1C9
  8
0
 10
4.556694270894095
 20
-2.865675957719696
 30
0.0
  0
VERTEX
  5
1CA
  8
0
 10
4.561216249256465
 20
-2.870197936082066
 30
0.0
 42
0.2395194408818689
  0
VERTEX
  5
1CB
  8
0
 10
4.19888137339116
 20
-3.00104475923086
 30
0.0
 42
0.0827406779032442
  0
VERTEX
  5
1CC
  8
0
 10
4.055130388711216
 20
-3.216223596644336
 30
0.0
 42
0.0704845209593819
  0
VERTEX
  5
1CD
  8
0
 10
3.974206031069851
 20
-3.49437536546651
 30
0.0
 42
0.1162949530499123
  0
VERTEX
  5
1CE
  8
0
 10
4.025043821147503
 20
-4.063014543743906
 30
0.0
 42
0.1000293051558254
  0
VERTEX
  5
1CF
  8
0
 10
4.213911442993979
 20
-4.39279410181927
 30
0.0
 42
0.1442754716405116
  0
VERTEX
  5
1D0
  8
0
 10
4.438870351570912
 20
-4.535314577710444
 30
0.0
 42
0.0854729710601739
  0
VERTEX
  5
1D1
  8
0
 10
4.571314834332918
 20
-4.549622461082144
 30
0.0
 42
0.0819253574960262
  0
VERTEX
  5
1D2
  8
0
 10
4.706671763262692
 20
-4.518442374356624
 30
0.0
 42
0.048791425173462
  0
VERTEX
  5
1D3
  8
0
 10
4.786100874149037
 20
-4.577213358959171
 30
0.0
 42
0.0549932614652349
  0
VERTEX
  5
1D4
  8
0
 10
4.865849790398856
 20
-4.613752722360808
 30
0.0
  0
VERTEX
  5
1D5
  8
0
 10
0.9170941502952726
 20
-4.613752604125732
 30
0.0
 42
0.0939737151048927
  0
VERTEX
  5
1D6
  8
0
 10
1.341256471467353
 20
-4.531950542675077
 30
0.0
 42
0.1920020827215772
  0
VERTEX
  5
1D7
  8
0
 10
1.88998010484708
 20
-4.013227281530206
 30
0.0
 42
0.1033119199366351
  0
VERTEX
  5
1D8
  8
0
 10
2.004808810497324
 20
-3.518832878860995
 30
0.0
 42
0.1506152160086767
  0
VERTEX
  5
1D9
  8
0
 10
1.713218344068531
 20
-2.491900531740203
 30
0.0
 42
0.116725147781947
  0
VERTEX
  5
1DA
  8
0
 10
1.178243448576021
 20
-1.980622204200555
 30
0.0
 42
0.0848646533124167
  0
VERTEX
  5
1DB
  8
0
 10
0.8618189399661602
 20
-1.861146584312136
 30
0.0
 42
0.0739212018709245
  0
VERTEX
  5
1DC
  8
0
 10
0.6413263277419488
 20
-1.851409211211012
 30
0.0
 42
0.0885053759772752
  0
SEQEND
  5
511
  8
0
  0
POLYLINE
  5
70
  8
0
 66
     1
 10
0.0
 20
0.0
 30
0.0
 70
     1
  0
VERTEX
  5
1DD
  8
0
 10
-2.464805038226859
 20
-0.3145845627694437
 30
0.0
 42
-0.2761229675026926
  0
VERTEX
  5
1DE
  8
0
 10
-2.506953229250379
 20
-0.2947839241265141
 30
0.0
 42
-0.0926637075545365
  0
VERTEX
  5
1DF
  8
0
 10
-2.558548880034083
 20
-0.175417191378424
 30
0.0
 42
-0.0428531437854009
  0
VERTEX
  5
1E0
  8
0
 10
-2.585065554944493
 20
0.0161616178149349
 30
0.0
 42
-0.0670893736756422
  0
VERTEX
  5
1E1
  8
0
 10
-2.552730846691277
 20
0.4091486566856533
 30
0.0
 42
-0.0545574965901971
  0
VERTEX
  5
1E2
  8
0
 10
-2.495897310810981
 20
0.577776117135089
 30
0.0
 42
-0.1877339355136033
  0
VERTEX
  5
1E3
  8
0
 10
-2.317106230723444
 20
0.7496112880346268
 30
0.0
 42
-0.0688935665916177
  0
VERTEX
  5
1E4
  8
0
 10
-2.232576781657328
 20
0.7718125828357898
 30
0.0
 42
-0.1821127805038692
  0
VERTEX
  5
1E5
  8
0
 10
-2.100857020962421
 20
0.739438572289814
 30
0.0
 42
0.0558102658691701
  0
VERTEX
  5
1E6
  8
0
 10
-2.093385444930533
 20
0.7354554821753718
 30
0.0
 42
-0.2002844872905942
  0
VERTEX
  5
1E7
  8
0
 10
-2.087328229165004
 20
0.7295394368383346
 30
0.0
  0
VERTEX
  5
1E8
  8
0
 10
-2.101586449011161
 20
0.598571891059203
 30
0.0
 42
-0.0181003151116491
  0
VERTEX
  5
1E9
  8
0
 10
-2.137934755829566
 20
0.3294366110544837
 30
0.0
 42
-0.0668023855066533
  0
VERTEX
  5
1EA
  8
0
 10
-2.248443774290307
 20
-0.0230009994186676
 30
0.0
 42
-0.0368119131503768
  0
VERTEX
  5
1EB
  8
0
 10
-2.375281376391623
 20
-0.24930785558514
 30
0.0
 42
-0.1195293327143772
  0
VERTEX
  5
1EC
  8
0
 10
-2.434582437272145
 20
-0.3043790714032604
 30
0.0
 42
-0.0462446441780587
  0
VERTEX
  5
1ED
  8
0
 10
-2.450697989716361
 20
-0.3115387270834821
 30
0.0
 42
-0.0565654835325049
  0
SEQEND
  5
512
  8
0
  0
POLYLINE
  5
71
  8
0
 66
     1
 10
0.0
 20
0.0
 30
0.0
 70
     1
  0
VERTEX
  5
1EE
  8
0
 10
1.173985343515924
 20
-4.438633774183111
 30
0.0
 42
0.1257480032207376
  0
VERTEX
  5
1EF
  8
0
 10
1.41669684285381
 20
-4.172678336914473
 30
0.0
 42
0.100561227268926
  0
VERTEX
  5
1F0
  8
0
 10
1.544335921203608
 20
-3.743546890569661
 30
0.0
 42
0.0548376366515013
  0
VERTEX
  5
1F1
  8
0
 10
1.53777471155917
 20
-3.429830413717566
 30
0.0
 42
0.075521699816849
  0
VERTEX
  5
1F2
  8
0
 10
1.346399499461125
 20
-2.76738262187923
 30
0.0
 42
0.0817669516492283
  0
VERTEX
  5
1F3
  8
0
 10
1.039869375992924
 20
-2.314644405820038
 30
0.0
 42
0.1411804933980159
  0
VERTEX
  5
1F4
  8
0
 10
0.5038862334379187
 20
-1.999192832585766
 30
0.0
 42
-0.1377250607427382
  0
VERTEX
  5
1F5
  8
0
 10
0.7337696586546504
 20
-1.95136174733952
 30
0.0
 42
-0.094309446981312
  0
VERTEX
  5
1F6
  8
0
 10
1.062159782596438
 20
-2.037543995790494
 30
0.0
 42
-0.0875625850447705
  0
VERTEX
  5
1F7
  8
0
 10
1.414798798487737
 20
-2.288973261424095
 30
0.0
 42
-0.1341854764956555
  0
VERTEX
  5
1F8
  8
0
 10
1.848116715855154
 20
-3.063740392335284
 30
0.0
 42
-0.0650651222984822
  0
VERTEX
  5
1F9
  8
0
 10
1.899876571529894
 20
-3.518940487034924
 30
0.0
 42
-0.116590757465709
  0
VERTEX
  5
1FA
  8
0
 10
1.774735328547004
 20
-4.011376714146644
 30
0.0
 42
-0.0970252016279631
  0
VERTEX
  5
1FB
  8
0
 10
1.553796212328754
 20
-4.287722587663302
 30
0.0
 42
-0.1637964475712815
  0
SEQEND
  5
513
  8
0
  0
POLYLINE
  5
72
  8
0
 66
     1
 10
0.0
 20
0.0
 30
0.0
 70
     1
  0
VERTEX
  5
1FC
  8
0
 10
0.7213585155287919
 20
-4.427379425071931
 30
0.0
 42
0.0827618846444751
  0
VERTEX
  5
1FD
  8
0
 10
0.8336143904408587
 20
-4.103102679632086
 30
0.0
 42
0.0535976255141813
  0
VERTEX
  5
1FE
  8
0
 10
0.8658006754019307
 20
-3.576297582639878
 30
0.0
 42
0.067746871502414
  0
VERTEX
  5
1FF
  8
0
 10
0.6961134760260742
 20
-2.650933159688172
 30
0.0
 42
0.0557305029567549
  0
VERTEX
  5
200
  8
0
 10
0.5317561927635087
 20
-2.29065232781811
 30
0.0
 42
0.0315842879805503
  0
VERTEX
  5
201
  8
0
 10
0.4464278675812203
 20
-2.16659087262888
 30
0.0
 42
0.0397989027398344
  0
VERTEX
  5
202
  8
0
 10
0.365350231252758
 20
-2.078715993951944
 30
0.0
 42
-0.152458507803825
  0
VERTEX
  5
203
  8
0
 10
0.8895513064408322
 20
-2.317834272025089
 30
0.0
 42
-0.0873093536239429
  0
VERTEX
  5
204
  8
0
 10
1.204864458521811
 20
-2.719059024044518
 30
0.0
 42
-0.0383137283243136
  0
VERTEX
  5
205
  8
0
 10
1.32746093778378
 20
-2.997087042159564
 30
0.0
 42
-0.0489913401690904
  0
VERTEX
  5
206
  8
0
 10
1.429646836765577
 20
-3.413198377911608
 30
0.0
 42
-0.0844055426426678
  0
VERTEX
  5
207
  8
0
 10
1.417744067801481
 20
-3.879723822147914
 30
0.0
 42
-0.1127247199145196
  0
VERTEX
  5
208
  8
0
 10
1.274974344816876
 20
-4.200784890022835
 30
0.0
 42
-0.1356671883278653
  0
VERTEX
  5
209
  8
0
 10
1.012150077050224
 20
-4.404000811188022
 30
0.0
 42
-0.1553690004086673
  0
SEQEND
  5
514
  8
0
  0
POLYLINE
  5
73
  8
0
 66
     1
 10
0.0
 20
0.0
 30
0.0
 70
     1
  0
VERTEX
  5
20A
  8
0
 10
-0.3007215929058393
 20
-2.046521147128391
 30
0.0
 42
0.0368641916360693
  0
VERTEX
  5
20B
  8
0
 10
-0.2647911295816905
 20
-2.07670639428353
 30
0.0
 42
0.0422338698816079
  0
VERTEX
  5
20C
  8
0
 10
-0.2296567014245058
 20
-2.097796007981216
 30
0.0
 42
0.0846431390309513
  0
VERTEX
  5
20D
  8
0
 10
-0.3911452068243045
 20
-2.338277704036831
 30
0.0
 42
0.0482728261798131
  0
VERTEX
  5
20E
  8
0
 10
-0.553029825495806
 20
-2.817136910577815
 30
0.0
 42
0.0551723630437072
  0
VERTEX
  5
20F
  8
0
 10
-0.6528741255667544
 20
-3.650097871822723
 30
0.0
 42
0.0648337118361613
  0
VERTEX
  5
210
  8
0
 10
-0.6008242993026562
 20
-4.080236424222433
 30
0.0
 42
0.063754675764855
  0
VERTEX
  5
211
  8
0
 10
-0.490351953240025
 20
-4.359051020536759
 30
0.0
 42
0.0797885880594376
  0
VERTEX
  5
212
  8
0
 10
-0.3423663019832126
 20
-4.548231282421384
 30
0.0
 42
-0.0630441501369959
  0
VERTEX
  5
213
  8
0
 10
-0.4153607369757405
 20
-4.556286898296071
 30
0.0
 42
-0.0510518700045833
  0
VERTEX
  5
214
  8
0
 10
-0.6440138564460559
 20
-4.529174732183675
 30
0.0
 42
-0.0691275269417126
  0
VERTEX
  5
215
  8
0
 10
-0.8346938100072019
 20
-4.457821465439769
 30
0.0
 42
-0.1453713025251137
  0
VERTEX
  5
216
  8
0
 10
-1.083986287560689
 20
-4.208812849581748
 30
0.0
 42
-0.0830557286585652
  0
VERTEX
  5
217
  8
0
 10
-1.174073722855481
 20
-3.947098388589569
 30
0.0
 42
-0.052545672043103
  0
VERTEX
  5
218
  8
0
 10
-1.20054397071444
 20
-3.512202947149009
 30
0.0
 42
-0.0276256977490345
  0
VERTEX
  5
219
  8
0
 10
-1.171886141669923
 20
-3.224965245694232
 30
0.0
 42
-0.0695169437944738
  0
VERTEX
  5
21A
  8
0
 10
-1.038784810151284
 20
-2.784548452239337
 30
0.0
 42
-0.099757709775313
  0
VERTEX
  5
21B
  8
0
 10
-0.6456576389849205
 20
-2.246672983767667
 30
0.0
 42
-0.0773092083582615
  0
VERTEX
  5
21C
  8
0
 10
-0.4022261570098847
 20
-2.084923682271638
 30
0.0
 42
-0.0176190445773607
  0
VERTEX
  5
21D
  8
0
 10
-0.351834246310854
 20
-2.063800796899595
 30
0.0
 42
-0.0178430082037838
  0
SEQEND
  5
515
  8
0
  0
POLYLINE
  5
74
  8
0
 66
     1
 10
0.0
 20
0.0
 30
0.0
 70
     1
  0
VERTEX
  5
21E
  8
0
 10
-1.080669111728145
 20
-4.395837729854033
 30
0.0
 42
-0.0625577805650313
  0
VERTEX
  5
21F
  8
0
 10
-1.293084244135937
 20
-4.302672423726593
 30
0.0
 42
-0.1210931693892655
  0
VERTEX
  5
220
  8
0
 10
-1.591449721589825
 20
-4.007924446706699
 30
0.0
 42
-0.0663256963143942
  0
VERTEX
  5
221
  8
0
 10
-1.710132252721959
 20
-3.740746703802482
 30
0.0
 42
-0.0865300391560029
  0
VERTEX
  5
222
  8
0
 10
-1.784867935712951
 20
-3.081830759892699
 30
0.0
 42
-0.196864614931075
  0
VERTEX
  5
223
  8
0
 10
-1.351493011880952
 20
-2.181111047220499
 30
0.0
 42
-0.2130735776121137
  0
VERTEX
  5
224
  8
0
 10
-0.4674326159293831
 20
-1.894290033116659
 30
0.0
 42
-0.0117449313781437
  0
VERTEX
  5
225
  8
0
 10
-0.4156523623770485
 20
-1.901040440655931
 30
0.0
 42
-0.0113594117345549
  0
VERTEX
  5
226
  8
0
 10
-0.3624947733750408
 20
-1.910485323630451
 30
0.0
 42
0.0423594003498309
  0
VERTEX
  5
227
  8
0
 10
-0.3621577187141467
 20
-1.932866397880298
 30
0.0
 42
0.0407026391854271
  0
VERTEX
  5
228
  8
0
 10
-0.3579629372454163
 20
-1.955777061112907
 30
0.0
 42
0.0993559850926507
  0
VERTEX
  5
229
  8
0
 10
-0.698153854923469
 20
-2.153154607015967
 30
0.0
 42
0.0971081890579207
  0
VERTEX
  5
22A
  8
0
 10
-1.110583974379934
 20
-2.691874588687543
 30
0.0
 42
0.0635310493704112
  0
VERTEX
  5
22B
  8
0
 10
-1.258376282509095
 20
-3.119315267836796
 30
0.0
 42
0.0302614535451621
  0
VERTEX
  5
22C
  8
0
 10
-1.296063516294996
 20
-3.376508258191831
 30
0.0
 42
0.046908501175216
  0
VERTEX
  5
22D
  8
0
 10
-1.291730393847509
 20
-3.87140988408209
 30
0.0
 42
0.0733231928507946
  0
VERTEX
  5
22E
  8
0
 10
-1.213490057922563
 20
-4.179251499834063
 30
0.0
 42
0.0387270722513286
  0
VERTEX
  5
22F
  8
0
 10
-1.153723042476217
 20
-4.296131884967435
 30
0.0
 42
0.0411381721774963
  0
SEQEND
  5
516
  8
0
  0
POLYLINE
  5
75
  8
0
 66
     1
 10
0.0
 20
0.0
 30
0.0
 70
     1
  0
VERTEX
  5
230
  8
0
 10
-4.08710099549578
 20
-1.357880742718204
 30
0.0
  0
VERTEX
  5
231
  8
0
 10
-3.995751644021817
 20
-1.336947036760519
 30
0.0
 42
-0.091174110169619
  0
VERTEX
  5
232
  8
0
 10
-3.750175911286973
 20
-1.802362520823134
 30
0.0
 42
-0.0864356374833558
  0
VERTEX
  5
233
  8
0
 10
-3.723627857813581
 20
-2.003497322860288
 30
0.0
 42
-0.0756375329398114
  0
VERTEX
  5
234
  8
0
 10
-3.747735255004538
 20
-2.127379386721208
 30
0.0
 42
-0.2044068893442451
  0
VERTEX
  5
235
  8
0
 10
-3.780583441728214
 20
-2.162891871604958
 30
0.0
 42
-0.3251368079555368
  0
VERTEX
  5
236
  8
0
 10
-3.845397308899322
 20
-2.149238647603003
 30
0.0
 42
-0.065550008258384
  0
VERTEX
  5
237
  8
0
 10
-3.903360047976839
 20
-2.065157714428056
 30
0.0
 42
-0.050821779420722
  0
VERTEX
  5
238
  8
0
 10
-3.972936766617777
 20
-1.886349258446528
 30
0.0
 42
-0.0281226086641667
  0
VERTEX
  5
239
  8
0
 10
-4.086293832356249
 20
-1.362987898442181
 30
0.0
 42
-0.0001200311916256
  0
VERTEX
  5
23A
  8
0
 10
-4.086697618265343
 20
-1.360434352875111
 30
0.0
 42
0.0000400103952082
  0
SEQEND
  5
517
  8
0
  0
POLYLINE
  5
76
  8
0
 66
     1
 10
0.0
 20
0.0
 30
0.0
 70
     1
  0
VERTEX
  5
23B
  8
0
 10
-5.722081638655485
 20
-2.534255295050118
 30
0.0
 42
-0.2947121513013915
  0
VERTEX
  5
23C
  8
0
 10
-5.781977779108952
 20
-2.322300835678582
 30
0.0
 42
-0.2812537020759419
  0
VERTEX
  5
23D
  8
0
 10
-5.676474237233645
 20
-2.228892516253832
 30
0.0
 42
-0.2530861827234576
  0
VERTEX
  5
23E
  8
0
 10
-5.518277773320614
 20
-2.281218522248878
 30
0.0
 42
-0.120307939093941
  0
VERTEX
  5
23F
  8
0
 10
-5.436547502663005
 20
-2.425252970313494
 30
0.0
 42
-0.033363643834456
  0
VERTEX
  5
240
  8
0
 10
-5.42881340197866
 20
-2.461545564131717
 30
0.0
 42
-0.1039059808042658
  0
VERTEX
  5
241
  8
0
 10
-5.432249075736399
 20
-2.51531630948722
 30
0.0
 42
-0.0478993998777169
  0
VERTEX
  5
242
  8
0
 10
-5.444501210250954
 20
-2.54722624725914
 30
0.0
 42
-0.189311733076212
  0
VERTEX
  5
243
  8
0
 10
-5.478127011600677
 20
-2.57757831062211
 30
0.0
 42
-0.086167928370153
  0
VERTEX
  5
244
  8
0
 10
-5.564910853270659
 20
-2.594103621802425
 30
0.0
 42
-0.1759621602056212
  0
VERTEX
  5
245
  8
0
 10
-5.711175656603558
 20
-2.543660380931168
 30
0.0
 42
-0.0077940870124453
  0
VERTEX
  5
246
  8
0
 10
-5.7139708656721
 20
-2.541324825772306
 30
0.0
 42
-0.0026385182899418
  0
SEQEND
  5
518
  8
0
  0
POLYLINE
  5
77
  8
0
 66
     1
 10
0.0
 20
0.0
 30
0.0
 70
     1
  0
VERTEX
  5
247
  8
0
 10
-6.895619629804306
 20
-1.487352614678387
 30
0.0
 42
-0.0641651124475522
  0
VERTEX
  5
248
  8
0
 10
-6.732113689466406
 20
-1.606411438893181
 30
0.0
 42
-0.1718577126139746
  0
VERTEX
  5
249
  8
0
 10
-6.696849441499232
 20
-1.675342590947171
 30
0.0
 42
-0.2871802537410236
  0
VERTEX
  5
24A
  8
0
 10
-6.72692550021958
 20
-1.741475175265114
 30
0.0
 42
-0.2394354173142398
  0
VERTEX
  5
24B
  8
0
 10
-6.928866047021423
 20
-1.764727562196523
 30
0.0
 42
-0.0947944928730873
  0
VERTEX
  5
24C
  8
0
 10
-6.960897453769285
 20
-1.745334618337619
 30
0.0
 42
-0.2021684746029583
  0
VERTEX
  5
24D
  8
0
 10
-6.988080221152281
 20
-1.687355222915802
 30
0.0
 42
-0.1168681294451003
  0
VERTEX
  5
24E
  8
0
 10
-6.971443282473804
 20
-1.602332170691318
 30
0.0
 42
-0.0731754281723595
  0
VERTEX
  5
24F
  8
0
 10
-6.897157132849084
 20
-1.486945415363632
 30
0.0
 42
-0.2852823306802427
  0
VERTEX
  5
250
  8
0
 10
-6.89686368065224
 20
-1.486855635748922
 30
0.0
 42
-0.0606548938868135
  0
SEQEND
  5
519
  8
0
  0
POLYLINE
  5
78
  8
0
 66
     1
 10
0.0
 20
0.0
 30
0.0
 70
     1
  0
VERTEX
  5
251
  8
0
 10
-4.67647657781321
 20
-4.448421020275151
 30
0.0
 42
0.0922657639667261
  0
VERTEX
  5
252
  8
0
 10
-4.532528167314958
 20
-4.174042490549946
 30
0.0
 42
0.1227857186474027
  0
VERTEX
  5
253
  8
0
 10
-4.494696079910399
 20
-3.48438497357902
 30
0.0
 42
0.0608843131700135
  0
VERTEX
  5
254
  8
0
 10
-4.583495087142221
 20
-3.208279847546226
 30
0.0
 42
0.078027130581084
  0
VERTEX
  5
255
  8
0
 10
-4.709426389757646
 20
-3.019595580533503
 30
0.0
 42
-0.0932508412611706
  0
VERTEX
  5
256
  8
0
 10
-4.592262600956141
 20
-2.978462459520566
 30
0.0
 42
-0.1821726094341088
  0
VERTEX
  5
257
  8
0
 10
-4.37489701170681
 20
-3.024502873453175
 30
0.0
 42
-0.1110579645578866
  0
VERTEX
  5
258
  8
0
 10
-4.241099285184117
 20
-3.159626511391521
 30
0.0
 42
-0.0980831539342958
  0
VERTEX
  5
259
  8
0
 10
-4.114812141503794
 20
-3.491391055491894
 30
0.0
 42
-0.1256160357749204
  0
VERTEX
  5
25A
  8
0
 10
-4.161678199066024
 20
-4.063423490258423
 30
0.0
 42
-0.0880806707677936
  0
VERTEX
  5
25B
  8
0
 10
-4.292063562860355
 20
-4.297963071282417
 30
0.0
 42
-0.1034150905255677
  0
VERTEX
  5
25C
  8
0
 10
-4.454838533500081
 20
-4.4300278690757
 30
0.0
 42
-0.1989224029378575
  0
SEQEND
  5
51A
  8
0
  0
POLYLINE
  5
79
  8
0
 66
     1
 10
0.0
 20
0.0
 30
0.0
 70
     1
  0
VERTEX
  5
25D
  8
0
 10
-5.152751838660787
 20
-4.50683181161832
 30
0.0
 42
0.1082139930598073
  0
VERTEX
  5
25E
  8
0
 10
-4.984567817550583
 20
-4.247291233088077
 30
0.0
 42
0.1311363482136702
  0
VERTEX
  5
25F
  8
0
 10
-4.912859086311415
 20
-3.522372907680907
 30
0.0
 42
0.0674780776835253
  0
VERTEX
  5
260
  8
0
 10
-5.009460036746737
 20
-3.206666903005438
 30
0.0
 42
0.0893631037681652
  0
VERTEX
  5
261
  8
0
 10
-5.152751838660787
 20
-3.001622405277216
 30
0.0
 42
-0.064610934122564
  0
VERTEX
  5
262
  8
0
 10
-5.144913321509929
 20
-2.9972367012215
 30
0.0
 42
-0.1388749154914362
  0
VERTEX
  5
263
  8
0
 10
-5.140694987437907
 20
-2.996791775677289
 30
0.0
 42
0.121228660636709
  0
VERTEX
  5
264
  8
0
 10
-4.988058548439136
 20
-2.986031296971964
 30
0.0
 42
-0.1047096776241043
  0
VERTEX
  5
265
  8
0
 10
-4.950003429222804
 20
-2.982097624172715
 30
0.0
 42
-0.0925186843784672
  0
VERTEX
  5
266
  8
0
 10
-4.917221738689989
 20
-2.991886138529251
 30
0.0
 42
0.0626327321486047
  0
VERTEX
  5
267
  8
0
 10
-4.857538759785328
 20
-3.013643669763797
 30
0.0
 42
-0.1571890586756797
  0
VERTEX
  5
268
  8
0
 10
-4.856297494403992
 20
-3.014381498147804
 30
0.0
 42
0.0623434116993856
  0
VERTEX
  5
269
  8
0
 10
-4.851983998231978
 20
-3.018192323934013
 30
0.0
 42
-0.1154662753247895
  0
VERTEX
  5
26A
  8
0
 10
-4.704532860113272
 20
-3.179094721413064
 30
0.0
 42
-0.0766074787648373
  0
VERTEX
  5
26B
  8
0
 10
-4.589819674199221
 20
-3.484809056440982
 30
0.0
 42
-0.129559667190142
  0
VERTEX
  5
26C
  8
0
 10
-4.624474060163314
 20
-4.15544592235657
 30
0.0
 42
-0.0992675291295832
  0
VERTEX
  5
26D
  8
0
 10
-4.769281058832729
 20
-4.416037062675455
 30
0.0
 42
-0.0230324813560227
  0
VERTEX
  5
26E
  8
0
 10
-4.786496947029618
 20
-4.434474777315686
 30
0.0
 42
-0.0161954363816005
  0
VERTEX
  5
26F
  8
0
 10
-4.81295310799002
 20
-4.458690351562433
 30
0.0
 42
0.627296673428662
  0
VERTEX
  5
270
  8
0
 10
-4.81289708789138
 20
-4.458902195149633
 30
0.0
 42
-0.4055772481337208
  0
VERTEX
  5
271
  8
0
 10
-4.812771843550906
 20
-4.459082000077452
 30
0.0
  0
VERTEX
  5
272
  8
0
 10
-4.812383675900336
 20
-4.459186819953851
 30
0.0
 42
-0.5031982942705064
  0
VERTEX
  5
273
  8
0
 10
-4.813276027791012
 20
-4.459647076970004
 30
0.0
 42
0.2999042664542951
  0
VERTEX
  5
274
  8
0
 10
-4.814272057921861
 20
-4.459773775021098
 30
0.0
 42
-0.0876416440220825
  0
VERTEX
  5
275
  8
0
 10
-4.921719712551917
 20
-4.523369514332756
 30
0.0
 42
-0.1960732078987544
  0
VERTEX
  5
276
  8
0
 10
-5.130480657654052
 20
-4.517596727367882
 30
0.0
 42
-0.0088414097134964
  0
VERTEX
  5
277
  8
0
 10
-5.141276006975463
 20
-4.512612240598132
 30
0.0
 42
-0.008181513558603
  0
SEQEND
  5
51B
  8
0
  0
POLYLINE
  5
7A
  8
0
 66
     1
 10
0.0
 20
0.0
 30
0.0
 70
     1
  0
VERTEX
  5
278
  8
0
 10
-5.655638035887652
 20
-4.449800952506602
 30
0.0
 42
-0.1042832656606098
  0
VERTEX
  5
279
  8
0
 10
-5.793665133447101
 20
-4.254798941960507
 30
0.0
 42
-0.0913704090329025
  0
VERTEX
  5
27A
  8
0
 10
-5.894320657468193
 20
-3.816843661228662
 30
0.0
 42
-0.0876706106594567
  0
VERTEX
  5
27B
  8
0
 10
-5.832578599632009
 20
-3.349029072159539
 30
0.0
 42
-0.0922941164192894
  0
VERTEX
  5
27C
  8
0
 10
-5.706797740004951
 20
-3.113317626351111
 30
0.0
 42
-0.0922571617116422
  0
VERTEX
  5
27D
  8
0
 10
-5.578957022964613
 20
-3.002865920812716
 30
0.0
 42
-0.2490501251985102
  0
VERTEX
  5
27E
  8
0
 10
-5.320414643793272
 20
-2.992417336188339
 30
0.0
 42
-0.127449154418486
  0
VERTEX
  5
27F
  8
0
 10
-5.169504433918132
 20
-3.119865300453275
 30
0.0
 42
-0.0820473885744479
  0
VERTEX
  5
280
  8
0
 10
-5.036683459776667
 20
-3.393268768932582
 30
0.0
 42
-0.0604040123300411
  0
VERTEX
  5
281
  8
0
 10
-4.985957395109249
 20
-3.692657080240867
 30
0.0
 42
-0.0812889342533238
  0
VERTEX
  5
282
  8
0
 10
-5.033240877578213
 20
-4.101844992133425
 30
0.0
 42
-0.0811710788871028
  0
VERTEX
  5
283
  8
0
 10
-5.163797988122213
 20
-4.379704377972891
 30
0.0
 42
-0.1257372344014222
  0
VERTEX
  5
284
  8
0
 10
-5.314242579771663
 20
-4.511493621194564
 30
0.0
 42
-0.2137737354007103
  0
VERTEX
  5
285
  8
0
 10
-5.539959201863082
 20
-4.522342244375863
 30
0.0
 42
-0.0937335213907347
  0
SEQEND
  5
51C
  8
0
  0
POLYLINE
  5
7B
  8
0
 66
     1
 10
0.0
 20
0.0
 30
0.0
 70
     1
  0
VERTEX
  5
286
  8
0
 10
-6.845183775082782
 20
-3.422946925779298
 30
0.0
  0
VERTEX
  5
287
  8
0
 10
-6.845183775069641
 20
-2.235741700019376
 30
0.0
 42
-0.0044431397438549
  0
VERTEX
  5
288
  8
0
 10
-6.313774350918838
 20
-2.029825285715227
 30
0.0
 42
-0.0128322762166801
  0
VERTEX
  5
289
  8
0
 10
-5.506388716015387
 20
-1.748642172554891
 30
0.0
 42
-0.0074023339882764
  0
VERTEX
  5
28A
  8
0
 10
-5.097330255944327
 20
-1.624495195413347
 30
0.0
 42
-0.0049358007795115
  0
VERTEX
  5
28B
  8
0
 10
-4.47946759141926
 20
-1.453507510496885
 30
0.0
 42
0.0494390541595739
  0
VERTEX
  5
28C
  8
0
 10
-4.301717319714216
 20
-1.941960019098996
 30
0.0
 42
0.0726427131277668
  0
VERTEX
  5
28D
  8
0
 10
-4.103508969423447
 20
-2.236181038278503
 30
0.0
 42
0.0806393851422358
  0
VERTEX
  5
28E
  8
0
 10
-3.940893516974318
 20
-2.365543642007631
 30
0.0
 42
0.1875266279184052
  0
VERTEX
  5
28F
  8
0
 10
-3.747160445240876
 20
-2.392908239194562
 30
0.0
 42
0.2073542514989117
  0
VERTEX
  5
290
  8
0
 10
-3.579521635534475
 20
-2.268265597186263
 30
0.0
 42
0.1364490264360785
  0
VERTEX
  5
291
  8
0
 10
-3.502422264004523
 20
-1.967973107117509
 30
0.0
 42
0.0857535963377596
  0
VERTEX
  5
292
  8
0
 10
-3.560910274204922
 20
-1.665473882474139
 30
0.0
 42
0.0612979096111089
  0
VERTEX
  5
293
  8
0
 10
-3.760958583480708
 20
-1.285424389728542
 30
0.0
 42
-0.0039668191344056
  0
VERTEX
  5
294
  8
0
 10
-3.206291415352487
 20
-1.178063316111043
 30
0.0
 42
-0.0088263735022101
  0
VERTEX
  5
295
  8
0
 10
-2.670788171877302
 20
-1.088559272076536
 30
0.0
 42
-0.0128000802117263
  0
VERTEX
  5
296
  8
0
 10
-1.7538558281482
 20
-0.9758018110313258
 30
0.0
 42
-0.0127995450376274
  0
VERTEX
  5
297
  8
0
 10
-0.8323161191850463
 20
-0.9101125258323931
 30
0.0
 42
-0.0038361317739182
  0
VERTEX
  5
298
  8
0
 10
-0.6479109133129559
 20
-0.9031217314918243
 30
0.0
 42
0.0012787050157762
  0
VERTEX
  5
299
  8
0
 10
-0.4634723631009474
 20
-0.8970742234155342
 30
0.0
 42
0.0826209640548768
  0
VERTEX
  5
29A
  8
0
 10
-0.5970069622278282
 20
-1.022836370571761
 30
0.0
 42
0.1523966820364201
  0
VERTEX
  5
29B
  8
0
 10
-0.7126692314252174
 20
-1.341642251898398
 30
0.0
 42
0.0829184610423125
  0
VERTEX
  5
29C
  8
0
 10
-0.6961701060106951
 20
-1.478596717627722
 30
0.0
 42
0.1907729881408865
  0
VERTEX
  5
29D
  8
0
 10
-0.5560612297435699
 20
-1.65824506679174
 30
0.0
 42
0.0448517972755642
  0
VERTEX
  5
29E
  8
0
 10
-0.3861998435802443
 20
-1.738579887595872
 30
0.0
 42
0.1825371366148832
  0
VERTEX
  5
29F
  8
0
 10
-0.3385895467789406
 20
-1.738152657512629
 30
0.0
 42
0.1844390899250503
  0
VERTEX
  5
2A0
  8
0
 10
-0.3239958974200388
 20
-1.72496450535174
 30
0.0
 42
0.1301542479416629
  0
VERTEX
  5
2A1
  8
0
 10
-0.3182192952374301
 20
-1.698166672269282
 30
0.0
 42
0.2794928462067927
  0
VERTEX
  5
2A2
  8
0
 10
-0.3207161746280647
 20
-1.694450521810611
 30
0.0
 42
-0.0525958797943998
  0
VERTEX
  5
2A3
  8
0
 10
-0.3357877316739037
 20
-1.685432606969779
 30
0.0
 42
-0.0724193650022073
  0
VERTEX
  5
2A4
  8
0
 10
-0.4912994711513665
 20
-1.528834387818007
 30
0.0
 42
-0.2618508669066784
  0
VERTEX
  5
2A5
  8
0
 10
-0.5289088036728151
 20
-1.229839948105481
 30
0.0
 42
-0.1038327013616249
  0
VERTEX
  5
2A6
  8
0
 10
-0.4516462683299338
 20
-1.115437937841814
 30
0.0
 42
-0.2145714575621381
  0
VERTEX
  5
2A7
  8
0
 10
-0.2265578930883572
 20
-1.034002403403978
 30
0.0
 42
-0.203158187524267
  0
VERTEX
  5
2A8
  8
0
 10
0.0041109657152691
 20
-1.153052615654427
 30
0.0
 42
-0.1482895474386076
  0
VERTEX
  5
2A9
  8
0
 10
0.0799088268562123
 20
-1.332806997304713
 30
0.0
 42
-0.1524196026673894
  0
VERTEX
  5
2AA
  8
0
 10
0.0250248243175195
 20
-1.606517936072247
 30
0.0
 42
-0.105369509066953
  0
VERTEX
  5
2AB
  8
0
 10
-0.061169480206146
 20
-1.706724032733353
 30
0.0
 42
-0.095055888214126
  0
VERTEX
  5
2AC
  8
0
 10
-0.1247140132569173
 20
-1.738280012313363
 30
0.0
 42
-0.0268731426059478
  0
VERTEX
  5
2AD
  8
0
 10
-0.1748612079863676
 20
-1.7493699785708
 30
0.0
 42
0.0670259700830225
  0
VERTEX
  5
2AE
  8
0
 10
-0.2552273272453256
 20
-1.774033348239673
 30
0.0
 42
0.0809386529720682
  0
VERTEX
  5
2AF
  8
0
 10
-0.3130698617456651
 20
-1.813025801748249
 30
0.0
 42
-0.2829647441297221
  0
VERTEX
  5
2B0
  8
0
 10
-0.3193059155686857
 20
-1.814310404033578
 30
0.0
 42
0.0378012602495856
  0
VERTEX
  5
2B1
  8
0
 10
-0.3432799968293372
 20
-1.807603295240223
 30
0.0
 42
0.2552877836911393
  0
VERTEX
  5
2B2
  8
0
 10
-1.490141611820667
 20
-2.165732264181123
 30
0.0
 42
0.1721516284109275
  0
VERTEX
  5
2B3
  8
0
 10
-1.886084959164072
 20
-3.035341001985327
 30
0.0
 42
0.0276840172118707
  0
VERTEX
  5
2B4
  8
0
 10
-1.892420687813314
 20
-3.240000399820066
 30
0.0
 42
0.0473975526001642
  0
VERTEX
  5
2B5
  8
0
 10
-1.84520880002791
 20
-3.634427562719364
 30
0.0
 42
0.0714011434172522
  0
VERTEX
  5
2B6
  8
0
 10
-1.699636900036906
 20
-4.025418184075927
 30
0.0
 42
0.1769193273787484
  0
VERTEX
  5
2B7
  8
0
 10
-1.199171764669122
 20
-4.465784247541895
 30
0.0
 42
0.0318848090619652
  0
VERTEX
  5
2B8
  8
0
 10
-1.066959635826574
 20
-4.507792148052864
 30
0.0
 42
0.0289784805482461
  0
VERTEX
  5
2B9
  8
0
 10
-0.9169791647993792
 20
-4.536007688658003
 30
0.0
 42
-0.1033571380951199
  0
VERTEX
  5
2BA
  8
0
 10
-0.892352275022121
 20
-4.544553138079539
 30
0.0
 42
0.0418580520870847
  0
VERTEX
  5
2BB
  8
0
 10
-0.7988912188299773
 20
-4.590429834252999
 30
0.0
 42
0.0104307756406618
  0
VERTEX
  5
2BC
  8
0
 10
-0.7664814638536173
 20
-4.602325896002553
 30
0.0
 42
0.009661580885018
  0
VERTEX
  5
2BD
  8
0
 10
-0.7310042981200333
 20
-4.613752865855228
 30
0.0
  0
VERTEX
  5
2BE
  8
0
 10
-4.886283035905153
 20
-4.613752861797165
 30
0.0
 42
0.0496224064200421
  0
VERTEX
  5
2BF
  8
0
 10
-4.814177763318568
 20
-4.578188895272725
 30
0.0
 42
0.0443457447768161
  0
VERTEX
  5
2C0
  8
0
 10
-4.742376544503169
 20
-4.524056195033658
 30
0.0
 42
0.2881703623095906
  0
VERTEX
  5
2C1
  8
0
 10
-4.304706573272287
 20
-4.448365151298125
 30
0.0
 42
0.0945661542614758
  0
VERTEX
  5
2C2
  8
0
 10
-4.11991296740917
 20
-4.205200271629097
 30
0.0
 42
0.0636651152953986
  0
VERTEX
  5
2C3
  8
0
 10
-4.028450856292414
 20
-3.941714359154217
 30
0.0
 42
0.1104621425600241
  0
VERTEX
  5
2C4
  8
0
 10
-4.035448698686975
 20
-3.406784765350489
 30
0.0
 42
0.1044505830379069
  0
VERTEX
  5
2C5
  8
0
 10
-4.199614032534064
 20
-3.059212741938016
 30
0.0
 42
0.151346018316293
  0
VERTEX
  5
2C6
  8
0
 10
-4.41793345161255
 20
-2.903029961055292
 30
0.0
 42
0.0570203205240354
  0
VERTEX
  5
2C7
  8
0
 10
-4.504615694995628
 20
-2.88485778531257
 30
0.0
 42
0.0541439564183967
  0
VERTEX
  5
2C8
  8
0
 10
-4.597846464224972
 20
-2.886298406272775
 30
0.0
  0
VERTEX
  5
2C9
  8
0
 10
-4.593353256111169
 20
-2.881805198158975
 30
0.0
 42
0.0127674524628562
  0
VERTEX
  5
2CA
  8
0
 10
-4.684086163461236
 20
-2.792547177000779
 30
0.0
 42
0.0890330314925532
  0
VERTEX
  5
2CB
  8
0
 10
-4.804180050165776
 20
-2.714878891074359
 30
0.0
 42
0.1763004679127827
  0
VERTEX
  5
2CC
  8
0
 10
-5.082392599573648
 20
-2.701664830721016
 30
0.0
 42
0.0821321932913741
  0
VERTEX
  5
2CD
  8
0
 10
-5.228029730046506
 20
-2.774811871048983
 30
0.0
 42
-0.0167719423913378
  0
VERTEX
  5
2CE
  8
0
 10
-5.245032494678311
 20
-2.786339704090851
 30
0.0
 42
-0.0238870648766761
  0
VERTEX
  5
2CF
  8
0
 10
-5.25759229482385
 20
-2.793439533701102
 30
0.0
 42
0.0190271475268864
  0
VERTEX
  5
2D0
  8
0
 10
-5.250442309821283
 20
-2.627204094039949
 30
0.0
 42
0.0605607715727024
  0
VERTEX
  5
2D1
  8
0
 10
-5.265447050416364
 20
-2.498477026247858
 30
0.0
 42
-0.295621278384413
  0
VERTEX
  5
2D2
  8
0
 10
-5.263962712094663
 20
-2.494252084777154
 30
0.0
 42
0.080489018190366
  0
VERTEX
  5
2D3
  8
0
 10
-5.251934493078792
 20
-2.481394788751771
 30
0.0
 42
0.0702104572079007
  0
VERTEX
  5
2D4
  8
0
 10
-5.210639996219384
 20
-2.396185634168525
 30
0.0
 42
0.1153504742062367
  0
VERTEX
  5
2D5
  8
0
 10
-5.19543009473494
 20
-2.20973442723288
 30
0.0
 42
0.0161630705120947
  0
VERTEX
  5
2D6
  8
0
 10
-5.199239438888187
 20
-2.188873142799677
 30
0.0
 42
0.0160390191417321
  0
VERTEX
  5
2D7
  8
0
 10
-5.204423160634344
 20
-2.168141212995584
 30
0.0
 42
-0.0557797174572407
  0
VERTEX
  5
2D8
  8
0
 10
-5.238131442152657
 20
-2.307497456973232
 30
0.0
 42
-0.0710122829577065
  0
VERTEX
  5
2D9
  8
0
 10
-5.291291012876263
 20
-2.407027692393835
 30
0.0
 42
0.1104466558915036
  0
VERTEX
  5
2DA
  8
0
 10
-5.409420132841235
 20
-2.214777277001847
 30
0.0
 42
0.2076305594863681
  0
VERTEX
  5
2DB
  8
0
 10
-5.634185590318998
 20
-2.122288797700064
 30
0.0
 42
0.418911406758765
  0
VERTEX
  5
2DC
  8
0
 10
-5.874165375193726
 20
-2.375630366973715
 30
0.0
 42
0.2674623090638962
  0
VERTEX
  5
2DD
  8
0
 10
-5.720834597746361
 20
-2.621410030085911
 30
0.0
 42
0.0810352842604879
  0
VERTEX
  5
2DE
  8
0
 10
-5.627331222878294
 20
-2.653292503561185
 30
0.0
 42
0.0830672167041476
  0
VERTEX
  5
2DF
  8
0
 10
-5.530926341248975
 20
-2.653402661536704
 30
0.0
 42
0.0561501939522212
  0
VERTEX
  5
2E0
  8
0
 10
-5.574447956837126
 20
-2.730797719983077
 30
0.0
 42
0.0658116517998949
  0
VERTEX
  5
2E1
  8
0
 10
-5.594579475347977
 20
-2.803923647877625
 30
0.0
 42
0.0059795771620617
  0
VERTEX
  5
2E2
  8
0
 10
-5.69955193333988
 20
-2.739368250070044
 30
0.0
 42
0.0792804217314029
  0
VERTEX
  5
2E3
  8
0
 10
-5.813656848500893
 20
-2.693638600575673
 30
0.0
 42
0.1328168906447851
  0
VERTEX
  5
2E4
  8
0
 10
-6.0251350799662
 20
-2.702345714367919
 30
0.0
 42
0.1259660885092531
  0
VERTEX
  5
2E5
  8
0
 10
-6.214375932555799
 20
-2.819898902409165
 30
0.0
 42
0.0002034879952169
  0
VERTEX
  5
2E6
  8
0
 10
-6.253956543890919
 20
-2.86121673294213
 30
0.0
 42
0.0003436020090943
  0
VERTEX
  5
2E7
  8
0
 10
-6.277370188984124
 20
-2.885711615318906
 30
0.0
 42
-0.2987370156149075
  0
VERTEX
  5
2E8
  8
0
 10
-6.281862737868331
 20
-2.886754302671101
 30
0.0
 42
0.0639236113015028
  0
VERTEX
  5
2E9
  8
0
 10
-6.299479293655147
 20
-2.882724773899243
 30
0.0
 42
0.1891672365233677
  0
VERTEX
  5
2EA
  8
0
 10
-6.573080893998555
 20
-2.960430199328871
 30
0.0
 42
0.1012493820021311
  0
VERTEX
  5
2EB
  8
0
 10
-6.746283682583218
 20
-3.158569504184776
 30
0.0
 42
0.0396621830270365
  0
VERTEX
  5
2EC
  8
0
 10
-6.802931663641497
 20
-3.279760185020002
 30
0.0
 42
0.0355295324412963
  0
SEQEND
  5
51D
  8
0
  0
POLYLINE
  5
7C
  8
0
 66
     1
 10
0.0
 20
0.0
 30
0.0
 70
     1
  0
VERTEX
  5
2ED
  8
0
 10
-5.729374119023571
 20
-2.999376258288432
 30
0.0
 42
0.1091527617591338
  0
VERTEX
  5
2EE
  8
0
 10
-5.898299180021861
 20
-3.258394890725732
 30
0.0
 42
0.131372284048893
  0
VERTEX
  5
2EF
  8
0
 10
-5.97074126420422
 20
-3.986198782862116
 30
0.0
 42
0.0679844319599856
  0
VERTEX
  5
2F0
  8
0
 10
-5.87362410201174
 20
-4.302616132135157
 30
0.0
 42
0.0900912252783529
  0
VERTEX
  5
2F1
  8
0
 10
-5.729374119023571
 20
-4.50758117479441
 30
0.0
 42
-0.1970331957962601
  0
VERTEX
  5
2F2
  8
0
 10
-5.938797757991257
 20
-4.530133905339972
 30
0.0
 42
-0.0938192361856602
  0
VERTEX
  5
2F3
  8
0
 10
-6.047802369021224
 20
-4.47491442159666
 30
0.0
 42
-0.1111956401563234
  0
VERTEX
  5
2F4
  8
0
 10
-6.188304020841758
 20
-4.305827746103203
 30
0.0
 42
-0.0920592700564759
  0
VERTEX
  5
2F5
  8
0
 10
-6.31123935462225
 20
-3.891208586449598
 30
0.0
 42
-0.1189860666119767
  0
VERTEX
  5
2F6
  8
0
 10
-6.230689662007911
 20
-3.285530997872135
 30
0.0
 42
-0.102078237832656
  0
VERTEX
  5
2F7
  8
0
 10
-6.09385507414659
 20
-3.073232097218295
 30
0.0
 42
-0.0135590031839992
  0
VERTEX
  5
2F8
  8
0
 10
-6.059863800017374
 20
-3.040423010093844
 30
0.0
 42
-0.1324081201941173
  0
VERTEX
  5
2F9
  8
0
 10
-6.015884368193879
 20
-3.017677468118306
 30
0.0
 42
0.069404160546324
  0
VERTEX
  5
2FA
  8
0
 10
-5.951241158904113
 20
-2.993889989060079
 30
0.0
 42
-0.1930988238348638
  0
VERTEX
  5
2FB
  8
0
 10
-5.88277412961099
 20
-2.986349792311948
 30
0.0
 42
0.0496580576838898
  0
VERTEX
  5
2FC
  8
0
 10
-5.807608084395881
 20
-2.999452344788281
 30
0.0
 42
0.0519128222219659
  0
VERTEX
  5
2FD
  8
0
 10
-5.734639593545447
 20
-2.997234412425069
 30
0.0
 42
-0.1308515605705222
  0
VERTEX
  5
2FE
  8
0
 10
-5.733899398138821
 20
-2.997328253264355
 30
0.0
 42
-0.0193317203670931
  0
SEQEND
  5
51E
  8
0
  0
POLYLINE
  5
7D
  8
0
 66
     1
 10
0.0
 20
0.0
 30
0.0
 70
     1
  0
VERTEX
  5
2FF
  8
0
 10
-6.1704533066709
 20
-3.021093049948368
 30
0.0
 42
0.1020091783210383
  0
VERTEX
  5
300
  8
0
 10
-6.329461774195834
 20
-3.285912392762585
 30
0.0
 42
0.1276352345446692
  0
VERTEX
  5
301
  8
0
 10
-6.38903523385333
 20
-3.997441380175521
 30
0.0
 42
0.0552938915806663
  0
VERTEX
  5
302
  8
0
 10
-6.313568973825038
 20
-4.259053734772758
 30
0.0
 42
0.0685126192865422
  0
VERTEX
  5
303
  8
0
 10
-6.202654212507361
 20
-4.449169697849071
 30
0.0
 42
-0.2505089507991338
  0
VERTEX
  5
304
  8
0
 10
-6.505710779088652
 20
-4.381964705805709
 30
0.0
 42
-0.0804550808077396
  0
VERTEX
  5
305
  8
0
 10
-6.644280599109658
 20
-4.2178126093569
 30
0.0
 42
-0.0728479507168789
  0
VERTEX
  5
306
  8
0
 10
-6.746783126039089
 20
-3.972011875937517
 30
0.0
 42
-0.1175948195540475
  0
VERTEX
  5
307
  8
0
 10
-6.755034799528287
 20
-3.440861704241071
 30
0.0
 42
-0.0913138620790016
  0
VERTEX
  5
308
  8
0
 10
-6.630423310497592
 20
-3.146704411354137
 30
0.0
 42
-0.1364374080344222
  0
VERTEX
  5
309
  8
0
 10
-6.467583974606431
 20
-3.004811049438797
 30
0.0
 42
-0.1257346122631889
  0
VERTEX
  5
30A
  8
0
 10
-6.322025306354619
 20
-2.975999200183827
 30
0.0
 42
-0.1177528091514691
  0
SEQEND
  5
51F
  8
0
  0
POLYLINE
  5
7E
  8
0
 66
     1
 10
0.0
 20
0.0
 30
0.0
 70
     1
  0
VERTEX
  5
30B
  8
0
 10
-6.845183775087668
 20
-4.61375286898114
 30
0.0
  0
VERTEX
  5
30C
  8
0
 10
-6.845183541865771
 20
-3.938189936203099
 30
0.0
 42
0.0958777095966777
  0
VERTEX
  5
30D
  8
0
 10
-6.686940218597608
 20
-4.318899045239695
 30
0.0
 42
0.1013276176148716
  0
VERTEX
  5
30E
  8
0
 10
-6.52190155362191
 20
-4.48338842443671
 30
0.0
 42
0.1200135878534654
  0
VERTEX
  5
30F
  8
0
 10
-6.325662554820777
 20
-4.553442095341611
 30
0.0
 42
0.1280863839975822
  0
VERTEX
  5
310
  8
0
 10
-6.132261380504686
 20
-4.524056195033658
 30
0.0
 42
0.0433794317853402
  0
VERTEX
  5
311
  8
0
 10
-6.059756397038256
 20
-4.578413671105933
 30
0.0
 42
0.0492323391521495
  0
VERTEX
  5
312
  8
0
 10
-5.988109093019776
 20
-4.613752868259387
 30
0.0
  0
SEQEND
  5
520
  8
0
  0
POLYLINE
  5
7F
  8
0
 66
     1
 10
0.0
 20
0.0
 30
0.0
 70
     1
  0
VERTEX
  5
313
  8
0
 10
-9.557075621900626
 20
-3.223298701248579
 30
0.0
 42
-0.0679849161621175
  0
VERTEX
  5
314
  8
0
 10
-9.759194232783043
 20
-2.911130091001414
 30
0.0
 42
-0.0170746675635781
  0
VERTEX
  5
315
  8
0
 10
-9.970230038561418
 20
-2.418431778384472
 30
0.0
 42
-0.007299576290199
  0
VERTEX
  5
316
  8
0
 10
-10.17918248469622
 20
-1.856391301123649
 30
0.0
 42
0.0201819954972981
  0
VERTEX
  5
317
  8
0
 10
-10.40254195596483
 20
-1.299919226873828
 30
0.0
 42
0.0052348343686206
  0
VERTEX
  5
318
  8
0
 10
-10.47009046804126
 20
-1.153610251953102
 30
0.0
 42
0.0050217759070208
  0
VERTEX
  5
319
  8
0
 10
-10.54361823627834
 20
-1.002570567631398
 30
0.0
 42
0.3905058173912206
  0
VERTEX
  5
31A
  8
0
 10
-10.46123520407697
 20
-0.8760423382985296
 30
0.0
 42
0.1951878677863023
  0
VERTEX
  5
31B
  8
0
 10
-10.50768653100734
 20
-0.8007804531642778
 30
0.0
 42
-0.0927984994007797
  0
VERTEX
  5
31C
  8
0
 10
-10.53557171451593
 20
-0.7710528213350456
 30
0.0
 42
-0.2513129132482718
  0
VERTEX
  5
31D
  8
0
 10
-10.54030028519277
 20
-0.7089007041230386
 30
0.0
 42
-0.1246560570185833
  0
VERTEX
  5
31E
  8
0
 10
-10.48493410585117
 20
-0.638224968810946
 30
0.0
 42
-0.0568270500277453
  0
VERTEX
  5
31F
  8
0
 10
-10.2338253107348
 20
-0.4860922366656415
 30
0.0
 42
-0.0161133446304308
  0
VERTEX
  5
320
  8
0
 10
-10.14478041390521
 20
-0.4485548702679312
 30
0.0
 42
-0.0147887033513228
  0
VERTEX
  5
321
  8
0
 10
-10.04542298353925
 20
-0.4137267239708775
 30
0.0
 42
-0.0135382890278988
  0
VERTEX
  5
322
  8
0
 10
-9.833014895401341
 20
-1.062197488221922
 30
0.0
 42
0.0135058275419043
  0
VERTEX
  5
323
  8
0
 10
-9.620648900663618
 20
-1.710682038750144
 30
0.0
 42
0.0213521909685269
  0
VERTEX
  5
324
  8
0
 10
-9.377215753752647
 20
-2.309388734242876
 30
0.0
 42
0.0439614822091771
  0
VERTEX
  5
325
  8
0
 10
-9.221897741357251
 20
-2.582716127481162
 30
0.0
 42
0.0550101566549478
  0
VERTEX
  5
326
  8
0
 10
-9.071418748895876
 20
-2.756194557915616
 30
0.0
 42
0.0751280220194518
  0
VERTEX
  5
327
  8
0
 10
-8.931930839015092
 20
-2.850886086978262
 30
0.0
 42
0.0050406271528148
  0
SEQEND
  5
521
  8
0
  0
POLYLINE
  5
80
  8
0
 66
     1
 10
0.0
 20
0.0
 30
0.0
 70
     1
  0
VERTEX
  5
328
  8
0
 10
-10.00794776302702
 20
-5.013752868981142
 30
0.0
  0
VERTEX
  5
329
  8
0
 10
9.98714433213136
 20
-5.013752868981142
 30
0.0
  0
VERTEX
  5
32A
  8
0
 10
9.987144332131358
 20
-3.51375286898114
 30
0.0
  0
VERTEX
  5
32B
  8
0
 10
9.688416485798147
 20
-3.31919777300174
 30
0.0
 42
0.0037040400371765
  0
VERTEX
  5
32C
  8
0
 10
9.53739301399422
 20
-3.224516161321647
 30
0.0
 42
-0.001234674993243
  0
VERTEX
  5
32D
  8
0
 10
9.385903782038532
 20
-3.130581560521264
 30
0.0
 42
0.0548479367484535
  0
VERTEX
  5
32E
  8
0
 10
9.555019413365056
 20
-3.042002455143523
 30
0.0
 42
-0.0018898788669832
  0
VERTEX
  5
32F
  8
0
 10
9.755225420806271
 20
-2.908447167287596
 30
0.0
 42
-0.0197512939258659
  0
VERTEX
  5
330
  8
0
 10
9.869133684408055
 20
-2.839387864477432
 30
0.0
 42
-0.068358601097194
  0
VERTEX
  5
331
  8
0
 10
10.04224018278934
 20
-2.772442188021923
 30
0.0
 42
0.0544678055458472
  0
VERTEX
  5
332
  8
0
 10
10.06877232340447
 20
-2.763016804086907
 30
0.0
 42
0.1252109632516277
  0
VERTEX
  5
333
  8
0
 10
10.10453143011035
 20
-2.732940554649297
 30
0.0
 42
0.1468028673027609
  0
VERTEX
  5
334
  8
0
 10
10.1265832627521
 20
-2.668739453363921
 30
0.0
 42
0.1439801895750706
  0
VERTEX
  5
335
  8
0
 10
10.10969700152513
 20
-2.601674755041496
 30
0.0
 42
0.0888020638842514
  0
VERTEX
  5
336
  8
0
 10
10.09336941390519
 20
-2.582670998840307
 30
0.0
 42
0.1135761285268978
  0
VERTEX
  5
337
  8
0
 10
10.04197050886427
 20
-2.557354064481995
 30
0.0
 42
0.1149307239035597
  0
VERTEX
  5
338
  8
0
 10
9.982266348415937
 20
-2.557196692900411
 30
0.0
 42
0.0706455268634693
  0
VERTEX
  5
339
  8
0
 10
9.769493429516558
 20
-2.639057914015384
 30
0.0
 42
0.0385046587585619
  0
VERTEX
  5
33A
  8
0
 10
9.572579006117497
 20
-2.769568615741183
 30
0.0
 42
-0.0474970649695131
  0
VERTEX
  5
33B
  8
0
 10
9.37335357346355
 20
-2.896523569923337
 30
0.0
 42
-0.0724878993363759
  0
VERTEX
  5
33C
  8
0
 10
9.213504441030498
 20
-2.950867048319854
 30
0.0
 42
-0.1563540409050382
  0
VERTEX
  5
33D
  8
0
 10
9.134380770509368
 20
-2.940747072577917
 30
0.0
 42
-0.2628172559581912
  0
VERTEX
  5
33E
  8
0
 10
9.081191083953811
 20
-2.866144360285963
 30
0.0
 42
-0.0793132225831264
  0
VERTEX
  5
33F
  8
0
 10
9.087427190191578
 20
-2.748427230264607
 30
0.0
 42
-0.0566367320699594
  0
VERTEX
  5
340
  8
0
 10
9.157677716154693
 20
-2.539503927507033
 30
0.0
 42
-0.0275883985087828
  0
VERTEX
  5
341
  8
0
 10
9.37118680923455
 20
-2.14179456756986
 30
0.0
 42
-0.0059041349401684
  0
VERTEX
  5
342
  8
0
 10
9.382942396067014
 20
-2.123029937022793
 30
0.0
 42
-0.1388281248651772
  0
VERTEX
  5
343
  8
0
 10
9.398494501544368
 20
-2.109294868329132
 30
0.0
 42
0.0542749036758461
  0
VERTEX
  5
344
  8
0
 10
10.38345239122376
 20
-1.497269686764025
 30
0.0
 42
0.0439113175902188
  0
VERTEX
  5
345
  8
0
 10
10.74314809233821
 20
-1.160700156317366
 30
0.0
 42
0.0627523069872293
  0
VERTEX
  5
346
  8
0
 10
11.0235112130043
 20
-0.7556873956979078
 30
0.0
 42
0.0935253652015541
  0
VERTEX
  5
347
  8
0
 10
11.08416617779399
 20
-0.5551004158773689
 30
0.0
 42
0.0832021354717459
  0
VERTEX
  5
348
  8
0
 10
11.07728544335956
 20
-0.4383841196439864
 30
0.0
 42
0.1985885832742675
  0
VERTEX
  5
349
  8
0
 10
10.96750968829111
 20
-0.2836316153268941
 30
0.0
 42
0.1533347931339166
  0
VERTEX
  5
34A
  8
0
 10
10.78320144409624
 20
-0.2351068811770198
 30
0.0
 42
0.0630314319631095
  0
VERTEX
  5
34B
  8
0
 10
10.5777782649263
 20
-0.2709526173281502
 30
0.0
 42
0.0749114556510047
  0
VERTEX
  5
34C
  8
0
 10
10.27689299700037
 20
-0.4156284597645716
 30
0.0
 42
0.0475542360351838
  0
VERTEX
  5
34D
  8
0
 10
9.873554638371552
 20
-0.7504062142486849
 30
0.0
 42
0.0789798723620364
  0
VERTEX
  5
34E
  8
0
 10
9.111933222301067
 20
-1.80526139748602
 30
0.0
 42
0.051169459947202
  0
VERTEX
  5
34F
  8
0
 10
8.885526349599985
 20
-2.396931994970396
 30
0.0
 42
0.040201765017736
  0
VERTEX
  5
350
  8
0
 10
8.842307001367983
 20
-2.63064821330742
 30
0.0
 42
0.0526825873756611
  0
VERTEX
  5
351
  8
0
 10
8.842810243125076
 20
-2.812228648871947
 30
0.0
 42
0.0077379718096667
  0
VERTEX
  5
352
  8
0
 10
8.103451772188151
 20
-2.41829771280154
 30
0.0
 42
0.054947870047773
  0
VERTEX
  5
353
  8
0
 10
8.239177663002266
 20
-2.339061167527065
 30
0.0
 42
0.0099719240801291
  0
VERTEX
  5
354
  8
0
 10
8.446702427396326
 20
-2.178614525589856
 30
0.0
 42
-0.0178325007788766
  0
VERTEX
  5
355
  8
0
 10
8.56924789043232
 20
-2.08691001410063
 30
0.0
 42
-0.0731162018524501
  0
VERTEX
  5
356
  8
0
 10
8.748824845027759
 20
-1.997760301613216
 30
0.0
 42
0.0544678055457548
  0
VERTEX
  5
357
  8
0
 10
8.77449218029579
 20
-1.986185317890404
 30
0.0
 42
0.1252109632517685
  0
VERTEX
  5
358
  8
0
 10
8.807657293933499
 20
-1.953270735559279
 30
0.0
 42
0.1468028673026339
  0
VERTEX
  5
359
  8
0
 10
8.824355747473065
 20
-1.887473878654828
 30
0.0
 42
0.1439801895750923
  0
VERTEX
  5
35A
  8
0
 10
8.802012499174783
 20
-1.822024670601701
 30
0.0
 42
0.0888020638841236
  0
VERTEX
  5
35B
  8
0
 10
8.784177677442697
 20
-1.804427739021842
 30
0.0
 42
0.1135761285269742
  0
VERTEX
  5
35C
  8
0
 10
8.730871207848
 20
-1.783422622881802
 30
0.0
 42
0.1149307239035141
  0
VERTEX
  5
35D
  8
0
 10
8.671356261750415
 20
-1.788174752052777
 30
0.0
 42
0.0706455268634512
  0
VERTEX
  5
35E
  8
0
 10
8.466034531063071
 20
-1.887253314047523
 30
0.0
 42
0.0385046587585705
  0
VERTEX
  5
35F
  8
0
 10
8.28051763535771
 20
-2.033512723370109
 30
0.0
 42
-0.0474970649694988
  0
VERTEX
  5
360
  8
0
 10
8.092405196264414
 20
-2.176418439371662
 30
0.0
 42
-0.0724878993363942
  0
VERTEX
  5
361
  8
0
 10
7.937565505050675
 20
-2.243720956476613
 30
0.0
 42
-0.1563540409050399
  0
VERTEX
  5
362
  8
0
 10
7.857877661206415
 20
-2.240140916084639
 30
0.0
 42
-0.2628172559581913
  0
VERTEX
  5
363
  8
0
 10
7.798734121075825
 20
-2.170164140665805
 30
0.0
 42
-0.0793132225831504
  0
VERTEX
  5
364
  8
0
 10
7.795270228844679
 20
-2.052332849524263
 30
0.0
 42
-0.0566367320699254
  0
VERTEX
  5
365
  8
0
 10
7.848104896640164
 20
-1.838340838663752
 30
0.0
 42
-0.0275883985087472
  0
VERTEX
  5
366
  8
0
 10
8.028190789091186
 20
-1.424423045920285
 30
0.0
 42
-0.0059041349401491
  0
VERTEX
  5
367
  8
0
 10
8.038363715627034
 20
-1.404755388534624
 30
0.0
 42
-0.138828124865157
  0
VERTEX
  5
368
  8
0
 10
8.05273384440002
 20
-1.389788107691199
 30
0.0
 42
0.054274903675839
  0
VERTEX
  5
369
  8
0
 10
8.984035090803076
 20
-0.6988504435278955
 30
0.0
 42
0.0439113175901958
  0
VERTEX
  5
36A
  8
0
 10
9.314839625525915
 20
-0.3338457777602208
 30
0.0
 42
0.0627523069872527
  0
VERTEX
  5
36B
  8
0
 10
9.560952686142251
 20
0.0928475278915353
 30
0.0
 42
0.093525365201401
  0
VERTEX
  5
36C
  8
0
 10
9.604909707888968
 20
0.2977424801632518
 30
0.0
 42
0.0832021354718764
  0
VERTEX
  5
36D
  8
0
 10
9.588455677690366
 20
0.4134978394474556
 30
0.0
 42
0.1985885832744133
  0
VERTEX
  5
36E
  8
0
 10
9.466327625931505
 20
0.558700432285399
 30
0.0
 42
0.1533347931337832
  0
VERTEX
  5
36F
  8
0
 10
9.27865365696284
 20
0.5919067580997694
 30
0.0
 42
0.0630314319631467
  0
VERTEX
  5
370
  8
0
 10
9.07687331640166
 20
0.5392921830898323
 30
0.0
 42
0.0749114556509845
  0
VERTEX
  5
371
  8
0
 10
8.788902293090109
 20
0.3703669523738244
 30
0.0
 42
0.0475542360351775
  0
VERTEX
  5
372
  8
0
 10
8.414455548950967
 20
0.0035596293247941
 30
0.0
 42
0.0789717889225545
  0
VERTEX
  5
373
  8
0
 10
7.742215436542269
 20
-1.110187999243047
 30
0.0
 42
0.0511526903020446
  0
VERTEX
  5
374
  8
0
 10
7.565183740601338
 20
-1.718457756340743
 30
0.0
 42
0.0428998198619022
  0
VERTEX
  5
375
  8
0
 10
7.541308710905333
 20
-1.968344037119052
 30
0.0
 42
0.0569986203044702
  0
VERTEX
  5
376
  8
0
 10
7.561018863084468
 20
-2.156512725927042
 30
0.0
 42
0.0077281325701004
  0
VERTEX
  5
377
  8
0
 10
6.793596632844663
 20
-1.823177501448575
 30
0.0
 42
0.0629872909109671
  0
VERTEX
  5
378
  8
0
 10
6.931474424167741
 20
-1.725898061420647
 30
0.0
 42
0.0112826046166334
  0
VERTEX
  5
379
  8
0
 10
7.136090699365697
 20
-1.530321901590302
 30
0.0
 42
-0.0191531462473387
  0
VERTEX
  5
37A
  8
0
 10
7.244948157285454
 20
-1.429503764396999
 30
0.0
 42
-0.0733988482437355
  0
VERTEX
  5
37B
  8
0
 10
7.413343108640478
 20
-1.32340272528068
 30
0.0
 42
0.0544678335303998
  0
VERTEX
  5
37C
  8
0
 10
7.437714209774881
 20
-1.309301725631484
 30
0.0
 42
0.125210004052818
  0
VERTEX
  5
37D
  8
0
 10
7.467396084056152
 20
-1.273214495065419
 30
0.0
 42
0.1208698182501268
  0
VERTEX
  5
37E
  8
0
 10
7.47841909244712
 20
-1.218447287962081
 30
0.0
 42
0.1579392425133728
  0
VERTEX
  5
37F
  8
0
 10
7.451600505312193
 20
-1.146157189671547
 30
0.0
 42
0.0947400667651119
  0
VERTEX
  5
380
  8
0
 10
7.4317834519276
 20
-1.129008343803154
 30
0.0
 42
0.1195968650028021
  0
VERTEX
  5
381
  8
0
 10
7.373895365593032
 20
-1.111962798804494
 30
0.0
 42
0.114930810264836
  0
VERTEX
  5
382
  8
0
 10
7.315161569280502
 20
-1.122684351568332
 30
0.0
 42
0.0706455522463297
  0
VERTEX
  5
383
  8
0
 10
7.120861597778384
 20
-1.241936647819445
 30
0.0
 42
0.0396953708789763
  0
VERTEX
  5
384
  8
0
 10
6.92904967447507
 20
-1.428257225769781
 30
0.0
 42
-0.069896471377493
  0
VERTEX
  5
385
  8
0
 10
6.726372544855295
 20
-1.602696764917739
 30
0.0
 42
-0.0883245354150624
  0
VERTEX
  5
386
  8
0
 10
6.586438605107311
 20
-1.66102082143963
 30
0.0
 42
-0.2103100416464876
  0
VERTEX
  5
387
  8
0
 10
6.52172977590754
 20
-1.648181833949676
 30
0.0
 42
-0.2656354779143801
  0
VERTEX
  5
388
  8
0
 10
6.498651241010469
 20
-1.599295957480637
 30
0.0
 42
-0.0574433362771215
  0
VERTEX
  5
389
  8
0
 10
6.514328765748438
 20
-1.519062723131482
 30
0.0
 42
-0.0519002429152001
  0
VERTEX
  5
38A
  8
0
 10
6.598837191155185
 20
-1.325386884507044
 30
0.0
 42
-0.0293538074735878
  0
VERTEX
  5
38B
  8
0
 10
6.912915307132928
 20
-0.8394922031839117
 30
0.0
 42
-0.006483476115744
  0
VERTEX
  5
38C
  8
0
 10
7.129685274871625
 20
-0.5516610369710617
 30
0.0
 42
-0.0119587418001317
  0
VERTEX
  5
38D
  8
0
 10
7.252894684968915
 20
-0.4000367447175133
 30
0.0
 42
0.3708597247147026
  0
VERTEX
  5
38E
  8
0
 10
7.252261036554775
 20
-0.2408546935999594
 30
0.0
 42
0.130864600530906
  0
VERTEX
  5
38F
  8
0
 10
7.099076766462807
 20
-0.1368870919366911
 30
0.0
 42
0.0770884252287233
  0
VERTEX
  5
390
  8
0
 10
7.012270029486003
 20
-0.1208961553003391
 30
0.0
 42
0.2213643377916328
  0
VERTEX
  5
391
  8
0
 10
6.891101680793602
 20
-0.1731861930890801
 30
0.0
 42
0.0076787333884656
  0
VERTEX
  5
392
  8
0
 10
6.874607009150236
 20
-0.1922862641609526
 30
0.0
 42
0.0063990762468154
  0
VERTEX
  5
393
  8
0
 10
6.855467219879718
 20
-0.2157535777597941
 30
0.0
 42
0.0758131832779957
  0
VERTEX
  5
394
  8
0
 10
6.704231557362029
 20
-0.1021885955208921
 30
0.0
 42
0.120345153865072
  0
VERTEX
  5
395
  8
0
 10
6.33567511855156
 20
-0.0068191957471249
 30
0.0
 42
0.2344892815702992
  0
VERTEX
  5
396
  8
0
 10
5.731695756423134
 20
-0.2963307365546124
 30
0.0
 42
0.1431655928299455
  0
VERTEX
  5
397
  8
0
 10
5.521581893084557
 20
-0.8242899362017153
 30
0.0
 42
0.0714511549107763
  0
VERTEX
  5
398
  8
0
 10
5.534467277833786
 20
-1.090859573344784
 30
0.0
 42
0.1153852743631428
  0
VERTEX
  5
399
  8
0
 10
5.602514135608221
 20
-1.242943418374778
 30
0.0
 42
0.2221303997269177
  0
VERTEX
  5
39A
  8
0
 10
5.856600988735339
 20
-1.376247421885793
 30
0.0
 42
0.1165240088762326
  0
VERTEX
  5
39B
  8
0
 10
6.120583137406772
 20
-1.326572488268523
 30
0.0
 42
0.0403643918823558
  0
VERTEX
  5
39C
  8
0
 10
6.219337818447207
 20
-1.272790798215703
 30
0.0
 42
0.0134857464102149
  0
VERTEX
  5
39D
  8
0
 10
6.33407661081087
 20
-1.193220862777501
 30
0.0
 42
0.0468776446922681
  0
VERTEX
  5
39E
  8
0
 10
6.278806775341137
 20
-1.454961860399293
 30
0.0
 42
0.0740118846294229
  0
VERTEX
  5
39F
  8
0
 10
6.284472560093533
 20
-1.624859246400032
 30
0.0
 42
0.0043250916510027
  0
VERTEX
  5
3A0
  8
0
 10
5.76100098784611
 20
-1.4408357501603
 30
0.0
 42
0.0124929578980862
  0
VERTEX
  5
3A1
  8
0
 10
4.966921776295005
 20
-1.191351426074248
 30
0.0
 42
0.0036033579729103
  0
VERTEX
  5
3A2
  8
0
 10
4.799926430169579
 20
-1.144734020505807
 30
0.0
 42
-0.0012011147034128
  0
VERTEX
  5
3A3
  8
0
 10
4.632709040965021
 20
-1.098919471756585
 30
0.0
 42
0.0027354911322405
  0
VERTEX
  5
3A4
  8
0
 10
4.655607460038991
 20
-1.025986514552543
 30
0.0
 42
0.0027125738230979
  0
VERTEX
  5
3A5
  8
0
 10
4.677896580848262
 20
-0.9521901485234416
 30
0.0
 42
-0.2508541475485099
  0
VERTEX
  5
3A6
  8
0
 10
4.687489630983316
 20
-0.9424825413014144
 30
0.0
 42
0.0183661272095613
  0
VERTEX
  5
3A7
  8
0
 10
4.737959433141152
 20
-0.924828194735408
 30
0.0
 42
0.0340788959192941
  0
VERTEX
  5
3A8
  8
0
 10
5.127069505791234
 20
-0.7409975926582286
 30
0.0
 42
0.0648607239639234
  0
VERTEX
  5
3A9
  8
0
 10
5.309116706386161
 20
-0.6057303791575969
 30
0.0
 42
0.0700822237344674
  0
VERTEX
  5
3AA
  8
0
 10
5.400290328320177
 20
-0.488808963534445
 30
0.0
 42
0.2633537967215546
  0
VERTEX
  5
3AB
  8
0
 10
5.401084082111796
 20
-0.3807203598878629
 30
0.0
 42
0.2739124248742671
  0
VERTEX
  5
3AC
  8
0
 10
5.307500906526881
 20
-0.3260872928055474
 30
0.0
 42
0.2603134991038506
  0
VERTEX
  5
3AD
  8
0
 10
5.208971550135505
 20
-0.38192941271723
 30
0.0
 42
-0.108195841894382
  0
VERTEX
  5
3AE
  8
0
 10
5.099097416748486
 20
-0.4972056638159639
 30
0.0
 42
-0.0496028645940431
  0
VERTEX
  5
3AF
  8
0
 10
4.796172763985401
 20
-0.6606191236603571
 30
0.0
 42
-0.0025711167778118
  0
VERTEX
  5
3B0
  8
0
 10
4.77296836247286
 20
-0.6701694137075307
 30
0.0
 42
-0.0021882041012123
  0
VERTEX
  5
3B1
  8
0
 10
4.745597908532157
 20
-0.6811308549637147
 30
0.0
 42
-0.0018854274261856
  0
VERTEX
  5
3B2
  8
0
 10
4.932224318635893
 20
0.0202417807389654
 30
0.0
 42
-0.0130307423395141
  0
VERTEX
  5
3B3
  8
0
 10
4.96224725341069
 20
0.1208900617532651
 30
0.0
 42
-0.0448994600347534
  0
VERTEX
  5
3B4
  8
0
 10
5.037485620534564
 20
0.2960594541588402
 30
0.0
 42
-0.0220722391396832
  0
VERTEX
  5
3B5
  8
0
 10
5.092850735441015
 20
0.3885132122020098
 30
0.0
 42
0.3106918096726062
  0
VERTEX
  5
3B6
  8
0
 10
5.090971787285076
 20
0.48860992646153
 30
0.0
 42
0.3282069214341651
  0
VERTEX
  5
3B7
  8
0
 10
4.869213525197733
 20
0.5609419523221297
 30
0.0
 42
0.1290078540343512
  0
VERTEX
  5
3B8
  8
0
 10
4.757982136367989
 20
0.4887699198167132
 30
0.0
 42
0.0632910248653812
  0
VERTEX
  5
3B9
  8
0
 10
4.524771135974718
 20
0.156669266420612
 30
0.0
 42
0.001885335182364
  0
VERTEX
  5
3BA
  8
0
 10
4.391229849439543
 20
-0.0985689699743092
 30
0.0
 42
-0.0349191282500386
  0
VERTEX
  5
3BB
  8
0
 10
4.277622666125699
 20
-0.2846695458292695
 30
0.0
 42
-0.0743626871487943
  0
VERTEX
  5
3BC
  8
0
 10
4.054487786852718
 20
-0.5164766935233245
 30
0.0
 42
-0.102072137438401
  0
VERTEX
  5
3BD
  8
0
 10
3.968470754856289
 20
-0.5583002578134955
 30
0.0
 42
-0.1063676897567404
  0
VERTEX
  5
3BE
  8
0
 10
3.913739710872832
 20
-0.5603365453299267
 30
0.0
 42
-0.2780478817768898
  0
VERTEX
  5
3BF
  8
0
 10
3.849800740180333
 20
-0.5045798374666731
 30
0.0
 42
-0.1137560583536771
  0
VERTEX
  5
3C0
  8
0
 10
3.842219996606131
 20
-0.4153112808696212
 30
0.0
 42
-0.0731114190467889
  0
VERTEX
  5
3C1
  8
0
 10
3.936041274167712
 20
-0.0983486725740422
 30
0.0
 42
-0.0416054867841324
  0
VERTEX
  5
3C2
  8
0
 10
4.122356906506482
 20
0.2294027217521128
 30
0.0
 42
-0.0064777368174427
  0
VERTEX
  5
3C3
  8
0
 10
4.311577936826889
 20
0.4983979767869522
 30
0.0
 42
0.0159910587558522
  0
VERTEX
  5
3C4
  8
0
 10
4.378580352077064
 20
0.5976063082591205
 30
0.0
 42
0.287383854265599
  0
VERTEX
  5
3C5
  8
0
 10
4.378850478669584
 20
0.7130487304433664
 30
0.0
 42
0.1060575481428532
  0
VERTEX
  5
3C6
  8
0
 10
4.309737356972732
 20
0.7845136448888395
 30
0.0
 42
0.1736716378285613
  0
VERTEX
  5
3C7
  8
0
 10
4.12038092538656
 20
0.8322370704856583
 30
0.0
 42
0.2288503988327959
  0
VERTEX
  5
3C8
  8
0
 10
3.972566317419591
 20
0.742224726778369
 30
0.0
 42
0.0605712851055262
  0
VERTEX
  5
3C9
  8
0
 10
3.699705407238189
 20
0.1814765584500836
 30
0.0
 42
0.0590175397188228
  0
VERTEX
  5
3CA
  8
0
 10
3.60847612230618
 20
-0.2383445254016294
 30
0.0
 42
0.0898953661879308
  0
VERTEX
  5
3CB
  8
0
 10
3.632031181395879
 20
-0.5207069200916378
 30
0.0
 42
0.0902445056587221
  0
VERTEX
  5
3CC
  8
0
 10
3.697663988252366
 20
-0.6592061297395636
 30
0.0
 42
0.2162689614380212
  0
VERTEX
  5
3CD
  8
0
 10
3.912519229984001
 20
-0.7828749491712278
 30
0.0
 42
0.1229640691119377
  0
VERTEX
  5
3CE
  8
0
 10
4.074888254630051
 20
-0.7586011533919387
 30
0.0
 42
0.049125316612659
  0
VERTEX
  5
3CF
  8
0
 10
4.165648009616938
 20
-0.7100428000713008
 30
0.0
 42
0.027446398016233
  0
VERTEX
  5
3D0
  8
0
 10
4.271772391255228
 20
-0.6303134965584292
 30
0.0
 42
0.0270075159824766
  0
VERTEX
  5
3D1
  8
0
 10
4.370175687768031
 20
-0.5380510648576874
 30
0.0
 42
0.0096448715698364
  0
VERTEX
  5
3D2
  8
0
 10
4.312271916724582
 20
-0.7093052939303328
 30
0.0
 42
-0.0020898686179284
  0
VERTEX
  5
3D3
  8
0
 10
4.256962207682877
 20
-0.8814148339391309
 30
0.0
 42
-0.234737967623177
  0
VERTEX
  5
3D4
  8
0
 10
4.249562266111941
 20
-0.8889514783116788
 30
0.0
 42
0.0264416744078847
  0
VERTEX
  5
3D5
  8
0
 10
4.211076013396601
 20
-0.9046049601012368
 30
0.0
 42
0.0050924939607475
  0
VERTEX
  5
3D6
  8
0
 10
4.151039455797966
 20
-0.9335577958311292
 30
0.0
 42
0.0053146027922878
  0
VERTEX
  5
3D7
  8
0
 10
4.094101683615533
 20
-0.9624919783698793
 30
0.0
 42
0.0440407461968822
  0
VERTEX
  5
3D8
  8
0
 10
4.092927718699608
 20
-0.9632424959733896
 30
0.0
 42
-0.132329244933073
  0
VERTEX
  5
3D9
  8
0
 10
4.091640956886301
 20
-0.9637770185012742
 30
0.0
  0
VERTEX
  5
3DA
  8
0
 10
3.767240414050203
 20
-0.8912008613862143
 30
0.0
 42
0.0276586339325337
  0
VERTEX
  5
3DB
  8
0
 10
1.796226414335827
 20
-0.582044643962393
 30
0.0
 42
0.0034547491282357
  0
VERTEX
  5
3DC
  8
0
 10
1.630740005818201
 20
-0.5665479400668628
 30
0.0
 42
-0.0011515789703362
  0
VERTEX
  5
3DD
  8
0
 10
1.465183970524032
 20
-0.5518136802156024
 30
0.0
 42
0.0787701798836188
  0
VERTEX
  5
3DE
  8
0
 10
1.586756394166853
 20
-0.4137378983749719
 30
0.0
 42
0.0168952411379034
  0
VERTEX
  5
3DF
  8
0
 10
1.731273491440058
 20
-0.1676062421444413
 30
0.0
 42
-0.0171790289690921
  0
VERTEX
  5
3E0
  8
0
 10
1.812764205930637
 20
-0.028997006606906
 30
0.0
 42
-0.0748259012147337
  0
VERTEX
  5
3E1
  8
0
 10
1.948086157457297
 20
0.12678927083778
 30
0.0
 42
0.0544678055455736
  0
VERTEX
  5
3E2
  8
0
 10
1.967397133740947
 20
0.1472802089061972
 30
0.0
 42
0.1252109632529647
  0
VERTEX
  5
3E3
  8
0
 10
1.985498589953039
 20
0.1903572535544397
 30
0.0
 42
0.1032658391972433
  0
VERTEX
  5
3E4
  8
0
 10
1.98275754721392
 20
0.2382924003296368
 30
0.0
 42
0.1889938914027764
  0
VERTEX
  5
3E5
  8
0
 10
1.930013838082672
 20
0.3096522041295241
 30
0.0
 42
0.0882870870854405
  0
VERTEX
  5
3E6
  8
0
 10
1.906835161605865
 20
0.3190337501996846
 30
0.0
 42
0.1131490435250034
  0
VERTEX
  5
3E7
  8
0
 10
1.849727529611809
 20
0.3180706184394381
 30
0.0
 42
0.1149307239035278
  0
VERTEX
  5
3E8
  8
0
 10
1.796525716584776
 20
0.2909748875710322
 30
0.0
 42
0.0706455268634622
  0
VERTEX
  5
3E9
  8
0
 10
1.644524978514515
 20
0.1210650580569993
 30
0.0
 42
0.0385046587585686
  0
VERTEX
  5
3EA
  8
0
 10
1.528829390355305
 20
-0.0849030566793358
 30
0.0
 42
-0.0474970649695177
  0
VERTEX
  5
3EB
  8
0
 10
1.409455205752662
 20
-0.2887611873928295
 30
0.0
 42
-0.0724878993363759
  0
VERTEX
  5
3EC
  8
0
 10
1.291997705194281
 20
-0.4100405935028943
 30
0.0
 42
-0.1563540409050444
  0
VERTEX
  5
3ED
  8
0
 10
1.216969971650069
 20
-0.437129490582179
 30
0.0
 42
-0.2628172559581914
  0
VERTEX
  5
3EE
  8
0
 10
1.135604923273088
 20
-0.3950054316632041
 30
0.0
 42
-0.0793132225831612
  0
VERTEX
  5
3EF
  8
0
 10
1.087454297697173
 20
-0.2874055758170247
 30
0.0
 42
-0.0566367320699156
  0
VERTEX
  5
3F0
  8
0
 10
1.054663019083043
 20
-0.069440406856313
 30
0.0
 42
-0.0275883985087636
  0
VERTEX
  5
3F1
  8
0
 10
1.063235635861678
 20
0.3818747580240568
 30
0.0
 42
-0.0059041349401446
  0
VERTEX
  5
3F2
  8
0
 10
1.065136765815305
 20
0.4039358297623703
 30
0.0
 42
-0.1388281248651939
  0
VERTEX
  5
3F3
  8
0
 10
1.072710752264543
 20
0.423253045557223
 30
0.0
 42
0.0542749036758422
  0
VERTEX
  5
3F4
  8
0
 10
1.670020152352668
 20
1.417203923557668
 30
0.0
 42
0.0439113175902156
  0
VERTEX
  5
3F5
  8
0
 10
1.836573191562953
 20
1.880798715757835
 30
0.0
 42
0.0627523069872331
  0
VERTEX
  5
3F6
  8
0
 10
1.901306756884535
 20
2.369110482168201
 30
0.0
 42
0.0935253652014396
  0
VERTEX
  5
3F7
  8
0
 10
1.863779356353326
 20
2.575279964479725
 30
0.0
 42
0.0832021354718608
  0
VERTEX
  5
3F8
  8
0
 10
1.804412769200291
 20
2.676005565210556
 30
0.0
 42
0.1985885832742737
  0
VERTEX
  5
3F9
  8
0
 10
1.636129812137518
 20
2.763640605893434
 30
0.0
 42
0.1533347931339093
  0
VERTEX
  5
3FA
  8
0
 10
1.44998013776509
 20
2.722744671699977
 30
0.0
 42
0.0630314319631172
  0
VERTEX
  5
3FB
  8
0
 10
1.283528555783837
 20
2.597136271517377
 30
0.0
 42
0.0749114556509972
  0
VERTEX
  5
3FC
  8
0
 10
1.081772384946666
 20
2.331133468207559
 30
0.0
 42
0.0475542360351844
  0
VERTEX
  5
3FD
  8
0
 10
0.8755648927768487
 20
1.849224299782809
 30
0.0
 42
0.0790522128263154
  0
VERTEX
  5
3FE
  8
0
 10
0.6789627664301204
 20
0.5615391587921483
 30
0.0
 42
0.0513201473974838
  0
VERTEX
  5
3FF
  8
0
 10
0.7477650963985851
 20
-0.0682333034186219
 30
0.0
 42
0.0513782051403422
  0
VERTEX
  5
400
  8
0
 10
0.8408014649475369
 20
-0.3546914968683854
 30
0.0
 42
0.0803256763035491
  0
VERTEX
  5
401
  8
0
 10
0.9462934883219315
 20
-0.5167624896932139
 30
0.0
 42
0.0085902080053735
  0
VERTEX
  5
402
  8
0
 10
0.016642973590837
 20
-0.4914062212602353
 30
0.0
 42
0.0796902529246664
  0
VERTEX
  5
403
  8
0
 10
0.1273635193284121
 20
-0.3433919426809304
 30
0.0
 42
0.0170972971442009
  0
VERTEX
  5
404
  8
0
 10
0.251824828110046
 20
-0.0850845940891136
 30
0.0
 42
-0.0171790289690906
  0
VERTEX
  5
405
  8
0
 10
0.3216429567798725
 20
0.0597556131515631
 30
0.0
 42
-0.0748259012147001
  0
VERTEX
  5
406
  8
0
 10
0.4436977312613871
 20
0.2261407892680984
 30
0.0
 42
0.0544678055455452
  0
VERTEX
  5
407
  8
0
 10
0.4612585256225613
 20
0.248150124772748
 30
0.0
 42
0.1252109632529773
  0
VERTEX
  5
408
  8
0
 10
0.475756830830642
 20
0.2925696434409848
 30
0.0
 42
0.1032658391971852
  0
VERTEX
  5
409
  8
0
 10
0.4690837675528178
 20
0.3401171127548257
 30
0.0
 42
0.1889938914029983
  0
VERTEX
  5
40A
  8
0
 10
0.410651331725587
 20
0.4068986288694829
 30
0.0
 42
0.0882870870852898
  0
VERTEX
  5
40B
  8
0
 10
0.3867797713124305
 20
0.4143426233163159
 30
0.0
 42
0.113149043524917
  0
VERTEX
  5
40C
  8
0
 10
0.3299446915322205
 20
0.4086872753047472
 30
0.0
 42
0.1149307239035851
  0
VERTEX
  5
40D
  8
0
 10
0.2791508684110094
 20
0.3773089535939632
 30
0.0
 42
0.0706455268634626
  0
VERTEX
  5
40E
  8
0
 10
0.1416350406461623
 20
0.1954766911828344
 30
0.0
 42
0.0385046587585688
  0
VERTEX
  5
40F
  8
0
 10
0.0432662040269256
 20
-0.0193067006092774
 30
0.0
 42
-0.0474970649695255
  0
VERTEX
  5
410
  8
0
 10
-0.0589422597235744
 20
-0.232289712479493
 30
0.0
 42
-0.0724878993363738
  0
VERTEX
  5
411
  8
0
 10
-0.1660302789274934
 20
-0.3628160122309788
 30
0.0
 42
-0.1563540409050457
  0
VERTEX
  5
412
  8
0
 10
-0.2385766835663907
 20
-0.3959820840472493
 30
0.0
 42
-0.2628172559581883
  0
VERTEX
  5
413
  8
0
 10
-0.323129741078961
 20
-0.360690613371276
 30
0.0
 42
-0.0793132225831518
  0
VERTEX
  5
414
  8
0
 10
-0.379964357998634
 20
-0.2574141008378589
 30
0.0
 42
-0.0566367320699244
  0
VERTEX
  5
415
  8
0
 10
-0.4305660393210647
 20
-0.0428830944994809
 30
0.0
 42
-0.0275883985087638
  0
VERTEX
  5
416
  8
0
 10
-0.4591302757974073
 20
0.4076088057650725
 30
0.0
 42
-0.0059041349401378
  0
VERTEX
  5
417
  8
0
 10
-0.4590494781742355
 20
0.4297514942442895
 30
0.0
 42
-0.1388281248651944
  0
VERTEX
  5
418
  8
0
 10
-0.4530894278541219
 20
0.4496260482513572
 30
0.0
 42
0.0542749036758447
  0
VERTEX
  5
419
  8
0
 10
0.0604733586465811
 20
1.489323182821401
 30
0.0
 42
0.0439113175902193
  0
VERTEX
  5
41A
  8
0
 10
0.1883449852255498
 20
1.965042525860271
 30
0.0
 42
0.0627523069872277
  0
VERTEX
  5
41B
  8
0
 10
0.2127096231670521
 20
2.457023399586086
 30
0.0
 42
0.0935253652014152
  0
VERTEX
  5
41C
  8
0
 10
0.1583577155707508
 20
2.659409247332121
 30
0.0
 42
0.0832021354718659
  0
VERTEX
  5
41D
  8
0
 10
0.0909103252841877
 20
2.754912586835619
 30
0.0
 42
0.1985885832743409
  0
VERTEX
  5
41E
  8
0
 10
-0.0840083264986963
 20
2.828414418457268
 30
0.0
 42
0.1533347931338438
  0
VERTEX
  5
41F
  8
0
 10
-0.2661651858129149
 20
2.77235144219568
 30
0.0
 42
0.0630314319631261
  0
VERTEX
  5
420
  8
0
 10
-0.4217254597061129
 20
2.633482437278263
 30
0.0
 42
0.0749114556509963
  0
VERTEX
  5
421
  8
0
 10
-0.6009273400700457
 20
2.351791596259972
 30
0.0
 42
0.047554236035182
  0
VERTEX
  5
422
  8
0
 10
-0.766813316505103
 20
1.85455943794659
 30
0.0
 42
0.0790522128263144
  0
VERTEX
  5
423
  8
0
 10
-0.8568743102968635
 20
0.5550693703395346
 30
0.0
 42
0.0513201473974805
  0
VERTEX
  5
424
  8
0
 10
-0.7365240792016212
 20
-0.0669136974713562
 30
0.0
 42
0.0514878586801673
  0
VERTEX
  5
425
  8
0
 10
-0.6200128410476108
 20
-0.3451474239405606
 30
0.0
 42
0.0805320219353532
  0
VERTEX
  5
426
  8
0
 10
-0.5012921962290231
 20
-0.4980636913989367
 30
0.0
 42
0.0083346049685182
  0
VERTEX
  5
427
  8
0
 10
-1.40239461280226
 20
-0.54515113657823
 30
0.0
 42
0.0807506025275732
  0
VERTEX
  5
428
  8
0
 10
-1.307664477639418
 20
-0.3848199299104114
 30
0.0
 42
0.0158896763250025
  0
VERTEX
  5
429
  8
0
 10
-1.207391779320685
 20
-0.1020089274647926
 30
0.0
 42
-0.0186696729413
  0
VERTEX
  5
42A
  8
0
 10
-1.155317770380725
 20
0.0423096587360003
 30
0.0
 42
-0.0745812724368858
  0
VERTEX
  5
42B
  8
0
 10
-1.052359257325244
 20
0.217025094988967
 30
0.0
 42
0.0544678335306659
  0
VERTEX
  5
42C
  8
0
 10
-1.037104281314075
 20
0.2406909875033445
 30
0.0
 42
0.1252100040517353
  0
VERTEX
  5
42D
  8
0
 10
-1.027152964403483
 20
0.2863448281143188
 30
0.0
 42
0.1208695608133203
  0
VERTEX
  5
42E
  8
0
 10
-1.042327435268202
 20
0.3401103477297304
 30
0.0
 42
0.1579412363076562
  0
VERTEX
  5
42F
  8
0
 10
-1.099170115095285
 20
0.3922060068723627
 30
0.0
 42
0.0947383600441522
  0
VERTEX
  5
430
  8
0
 10
-1.12462822635512
 20
0.3984264011119869
 30
0.0
 42
0.1195968650027316
  0
VERTEX
  5
431
  8
0
 10
-1.183917753411472
 20
0.3871877496677243
 30
0.0
 42
0.1149308102648869
  0
VERTEX
  5
432
  8
0
 10
-1.231293315953075
 20
0.3508536527776521
 30
0.0
 42
0.0706455522463684
  0
VERTEX
  5
433
  8
0
 10
-1.349798180634005
 20
0.1560969169921105
 30
0.0
 42
0.0396953708789243
  0
VERTEX
  5
434
  8
0
 10
-1.435493830591047
 20
-0.0972080913821884
 30
0.0
 42
-0.0698964713774592
  0
VERTEX
  5
435
  8
0
 10
-1.536278176995678
 20
-0.3448967814930914
 30
0.0
 42
-0.0883245354150768
  0
VERTEX
  5
436
  8
0
 10
-1.63419752859478
 20
-0.460633567542205
 30
0.0
 42
-0.2103100416465862
  0
VERTEX
  5
437
  8
0
 10
-1.697638021605848
 20
-0.4787271029259678
 30
0.0
 42
-0.2656354779142743
  0
VERTEX
  5
438
  8
0
 10
-1.740476037629502
 20
-0.4457520809502056
 30
0.0
 42
-0.057443336277233
  0
VERTEX
  5
439
  8
0
 10
-1.763125497375917
 20
-0.3672017235402836
 30
0.0
 42
-0.0519002429151096
  0
VERTEX
  5
43A
  8
0
 10
-1.776273270250511
 20
-0.1563009399946862
 30
0.0
 42
-0.029353807473586
  0
VERTEX
  5
43B
  8
0
 10
-1.718433750773807
 20
0.4193667543052962
 30
0.0
 42
-0.006483476115722
  0
VERTEX
  5
43C
  8
0
 10
-1.656835214665506
 20
0.7743901612868513
 30
0.0
 42
-0.0119587417999446
  0
VERTEX
  5
43D
  8
0
 10
-1.616360415646964
 20
0.965524342905639
 30
0.0
 42
0.3708597247144607
  0
VERTEX
  5
43E
  8
0
 10
-1.689539773444483
 20
1.106889503042964
 30
0.0
 42
0.1308646005309187
  0
VERTEX
  5
43F
  8
0
 10
-1.873284455186453
 20
1.129529616354177
 30
0.0
 42
0.0770884252287621
  0
VERTEX
  5
440
  8
0
 10
-1.95782746640223
 20
1.104160365406745
 30
0.0
 42
0.221364337791555
  0
VERTEX
  5
441
  8
0
 10
-2.04180013294439
 20
1.002353646323011
 30
0.0
 42
0.0076787333885199
  0
VERTEX
  5
442
  8
0
 10
-2.047765497332712
 20
0.9778321998875799
 30
0.0
 42
0.0063990762468527
  0
VERTEX
  5
443
  8
0
 10
-2.054092476909023
 20
0.9482177495244641
 30
0.0
 42
0.075813183277974
  0
VERTEX
  5
444
  8
0
 10
-2.240481237736581
 20
0.9802873713690629
 30
0.0
 42
0.1203451538650572
  0
VERTEX
  5
445
  8
0
 10
-2.611960737381864
 20
0.8970278232971066
 30
0.0
 42
0.234489281570315
  0
VERTEX
  5
446
  8
0
 10
-3.017365764438597
 20
0.3638723429963003
 30
0.0
 42
0.1431655928298896
  0
VERTEX
  5
447
  8
0
 10
-2.963499787294386
 20
-0.2018017757023226
 30
0.0
 42
0.0714511549108291
  0
VERTEX
  5
448
  8
0
 10
-2.830429811622979
 20
-0.433140890772596
 30
0.0
 42
0.1153852743631412
  0
VERTEX
  5
449
  8
0
 10
-2.700498290631767
 20
-0.5374369627265114
 30
0.0
 42
0.2221303997269168
  0
VERTEX
  5
44A
  8
0
 10
-2.413578952957655
 20
-0.5401535695733755
 30
0.0
 42
0.1165240088762407
  0
VERTEX
  5
44B
  8
0
 10
-2.201325026457718
 20
-0.37552536867079
 30
0.0
 42
0.0403643918823471
  0
VERTEX
  5
44C
  8
0
 10
-2.137978476796847
 20
-0.2826158866014062
 30
0.0
 42
0.0134857464102055
  0
VERTEX
  5
44D
  8
0
 10
-2.072171907837221
 20
-0.159466138000485
 30
0.0
 42
0.052416807209922
  0
VERTEX
  5
44E
  8
0
 10
-1.99277523922892
 20
-0.438993317556555
 30
0.0
 42
0.0859425141704265
  0
VERTEX
  5
44F
  8
0
 10
-1.899263746943087
 20
-0.590508947910722
 30
0.0
 42
0.0039655449681407
  0
VERTEX
  5
450
  8
0
 10
-2.459947589987704
 20
-0.6598341095077079
 30
0.0
 42
0.0088251287427228
  0
VERTEX
  5
451
  8
0
 10
-2.996826263898456
 20
-0.740206982350351
 30
0.0
 42
0.0051157053337197
  0
VERTEX
  5
452
  8
0
 10
-3.239193310295793
 20
-0.7834299653882459
 30
0.0
 42
0.002558170650668
  0
VERTEX
  5
453
  8
0
 10
-3.722474058124855
 20
-0.8772914774502876
 30
0.0
 42
0.0634549606397118
  0
VERTEX
  5
454
  8
0
 10
-3.582472516917474
 20
-0.6187307693001769
 30
0.0
 42
0.008519869211882
  0
VERTEX
  5
455
  8
0
 10
-3.49074425427773
 20
-0.369367475083952
 30
0.0
 42
-0.0207414378972094
  0
VERTEX
  5
456
  8
0
 10
-3.424554579957702
 20
-0.2021591431362336
 30
0.0
 42
-0.0223775369579684
  0
VERTEX
  5
457
  8
0
 10
-3.350080130931884
 20
-0.0530245922383723
 30
0.0
 42
0.410441803855089
  0
VERTEX
  5
458
  8
0
 10
-3.392406414938467
 20
0.0992869492242792
 30
0.0
 42
0.2285796952075316
  0
VERTEX
  5
459
  8
0
 10
-3.481154061983329
 20
0.1056302030550269
 30
0.0
 42
0.1567644994413979
  0
VERTEX
  5
45A
  8
0
 10
-3.534866866118048
 20
0.0613819113445515
 30
0.0
 42
0.0474384926312728
  0
VERTEX
  5
45B
  8
0
 10
-3.637931858236605
 20
-0.1385797039640926
 30
0.0
 42
0.0177107349083305
  0
VERTEX
  5
45C
  8
0
 10
-3.702974246751231
 20
-0.3191786635771747
 30
0.0
 42
-0.0362008968581149
  0
VERTEX
  5
45D
  8
0
 10
-3.836066656977098
 20
-0.6498626104017245
 30
0.0
 42
-0.080096495523882
  0
VERTEX
  5
45E
  8
0
 10
-3.942385056386355
 20
-0.8004170103493873
 30
0.0
 42
-0.129185152580843
  0
VERTEX
  5
45F
  8
0
 10
-4.005751186330781
 20
-0.8383261855486943
 30
0.0
 42
-0.155270486853391
  0
VERTEX
  5
460
  8
0
 10
-4.066187057955675
 20
-0.8367610398477516
 30
0.0
 42
-0.0910168611001577
  0
VERTEX
  5
461
  8
0
 10
-4.154532682444885
 20
-0.7867035099930885
 30
0.0
 42
-0.2219368576184823
  0
VERTEX
  5
462
  8
0
 10
-4.157491702532853
 20
-0.7803682981078391
 30
0.0
 42
0.0214139510612799
  0
VERTEX
  5
463
  8
0
 10
-4.158675128898298
 20
-0.7528572601263587
 30
0.0
 42
-0.0279370407195054
  0
VERTEX
  5
464
  8
0
 10
-4.183246784039489
 20
0.0672727713484533
 30
0.0
 42
-0.0247608820240483
  0
VERTEX
  5
465
  8
0
 10
-4.15853000616985
 20
0.3943752290198528
 30
0.0
 42
-0.0203805677023604
  0
VERTEX
  5
466
  8
0
 10
-4.135636555875958
 20
0.5312817306170308
 30
0.0
 42
-0.0937235668462262
  0
VERTEX
  5
467
  8
0
 10
-4.068557150985476
 20
0.6929311307656545
 30
0.0
 42
0.394757849260915
  0
VERTEX
  5
468
  8
0
 10
-4.0753840317715
 20
0.7322969176107772
 30
0.0
 42
0.2397223293189831
  0
VERTEX
  5
469
  8
0
 10
-4.204735049250629
 20
0.7553753656512845
 30
0.0
 42
0.1416016488641778
  0
VERTEX
  5
46A
  8
0
 10
-4.278339992497498
 20
0.7076406440023804
 30
0.0
 42
0.0777480459687116
  0
VERTEX
  5
46B
  8
0
 10
-4.471014035568924
 20
0.399596528917346
 30
0.0
 42
0.0395719648239834
  0
VERTEX
  5
46C
  8
0
 10
-4.543248550100015
 20
0.1849725949763297
 30
0.0
 42
0.0529222414887369
  0
VERTEX
  5
46D
  8
0
 10
-4.613981346573238
 20
-0.3176617633747366
 30
0.0
 42
0.0152304620838707
  0
VERTEX
  5
46E
  8
0
 10
-4.614709395626956
 20
-0.5198010253110297
 30
0.0
 42
0.0247780194706972
  0
VERTEX
  5
46F
  8
0
 10
-4.583880250890197
 20
-0.922523805736023
 30
0.0
 42
0.0104449958602425
  0
VERTEX
  5
470
  8
0
 10
-4.571361409130157
 20
-1.007166379723614
 30
0.0
 42
0.0131541936916586
  0
VERTEX
  5
471
  8
0
 10
-4.558260276311108
 20
-1.073836668949329
 30
0.0
 42
0.0055506350262257
  0
VERTEX
  5
472
  8
0
 10
-5.157975064917569
 20
-1.242873165910946
 30
0.0
 42
0.0144299560035217
  0
VERTEX
  5
473
  8
0
 10
-6.089039947775998
 20
-1.545944068779715
 30
0.0
 42
0.0033293509319019
  0
VERTEX
  5
474
  8
0
 10
-6.239509498742683
 20
-1.600905497515933
 30
0.0
 42
-0.0011097799990776
  0
VERTEX
  5
475
  8
0
 10
-6.389733587676738
 20
-1.656534334648981
 30
0.0
 42
0.1971306555101988
  0
VERTEX
  5
476
  8
0
 10
-6.413939088014136
 20
-1.395494400304859
 30
0.0
 42
0.0960723470554923
  0
VERTEX
  5
477
  8
0
 10
-6.574493014317863
 20
-1.194203835280209
 30
0.0
 42
0.0005549681793926
  0
VERTEX
  5
478
  8
0
 10
-6.575474031502507
 20
-1.193369386093292
 30
0.0
 42
-0.0001849893756964
  0
VERTEX
  5
479
  8
0
 10
-6.576455665875454
 20
-1.192535663045774
 30
0.0
 42
0.032786592813269
  0
VERTEX
  5
47A
  8
0
 10
-6.356269150668389
 20
-0.9923468955765546
 30
0.0
 42
0.124348534228501
  0
VERTEX
  5
47B
  8
0
 10
-6.250800093777285
 20
-0.8081229075922052
 30
0.0
 42
0.1871329714478424
  0
VERTEX
  5
47C
  8
0
 10
-6.259213531047634
 20
-0.7220665918465838
 30
0.0
 42
0.3883299871211928
  0
VERTEX
  5
47D
  8
0
 10
-6.395192305581559
 20
-0.6704889017714915
 30
0.0
 42
0.1707637505388068
  0
VERTEX
  5
47E
  8
0
 10
-6.447617319332777
 20
-0.7161487743735824
 30
0.0
 42
0.0578754162896832
  0
VERTEX
  5
47F
  8
0
 10
-6.465903564629979
 20
-0.7593546522628846
 30
0.0
 42
-0.1231858959361867
  0
VERTEX
  5
480
  8
0
 10
-6.514785894418934
 20
-0.8428044965571513
 30
0.0
 42
-0.0212782186633656
  0
VERTEX
  5
481
  8
0
 10
-6.6343858151829
 20
-0.9549448018178336
 30
0.0
 42
-0.0051333327109273
  0
VERTEX
  5
482
  8
0
 10
-6.695267982621449
 20
-1.006267113466691
 30
0.0
 42
-0.0043850666213478
  0
VERTEX
  5
483
  8
0
 10
-6.767669282112334
 20
-1.064979059825447
 30
0.0
 42
0.0293923282656039
  0
VERTEX
  5
484
  8
0
 10
-7.041698203404059
 20
-0.9374387790696564
 30
0.0
 42
-0.0394416921312422
  0
VERTEX
  5
485
  8
0
 10
-7.313111738997026
 20
-0.8044234956752376
 30
0.0
 42
-0.0609832353764878
  0
VERTEX
  5
486
  8
0
 10
-7.474242252247382
 20
-0.6803113233725855
 30
0.0
 42
-0.1626531576930701
  0
VERTEX
  5
487
  8
0
 10
-7.509570838743505
 20
-0.6107892961490768
 30
0.0
 42
-0.242163033261828
  0
VERTEX
  5
488
  8
0
 10
-7.483816884414178
 20
-0.5349838582334892
 30
0.0
 42
-0.1404376206628448
  0
VERTEX
  5
489
  8
0
 10
-7.304032280261767
 20
-0.4393048276480069
 30
0.0
 42
-0.0967594482883663
  0
VERTEX
  5
48A
  8
0
 10
-7.245453602378567
 20
-0.4383032776286995
 30
0.0
 42
-0.2072749522783889
  0
VERTEX
  5
48B
  8
0
 10
-7.162120348005158
 20
-0.4934482309188686
 30
0.0
 42
-0.1337040329655919
  0
VERTEX
  5
48C
  8
0
 10
-7.123361695667329
 20
-0.6137742453750479
 30
0.0
 42
0.1507757013133355
  0
VERTEX
  5
48D
  8
0
 10
-7.100334191417484
 20
-0.6778341895186683
 30
0.0
 42
0.19885522632613
  0
VERTEX
  5
48E
  8
0
 10
-7.032162065595811
 20
-0.7181285175510608
 30
0.0
 42
0.3582044607812246
  0
VERTEX
  5
48F
  8
0
 10
-6.910342095000039
 20
-0.6439930936534484
 30
0.0
 42
0.1053307365971834
  0
VERTEX
  5
490
  8
0
 10
-6.903569130383378
 20
-0.5906459909610707
 30
0.0
 42
0.0817596925089061
  0
VERTEX
  5
491
  8
0
 10
-6.945687555240445
 20
-0.4234382774584102
 30
0.0
 42
0.0957668235322259
  0
VERTEX
  5
492
  8
0
 10
-7.023173432499835
 20
-0.3103879699245402
 30
0.0
 42
0.1939241380414136
  0
VERTEX
  5
493
  8
0
 10
-7.245145559237505
 20
-0.2176145854989568
 30
0.0
 42
0.2198972202472622
  0
VERTEX
  5
494
  8
0
 10
-7.631866680030551
 20
-0.3903661050333005
 30
0.0
 42
0.1840740986742402
  0
VERTEX
  5
495
  8
0
 10
-7.732375992775703
 20
-0.662576492981418
 30
0.0
 42
0.1246893083484217
  0
VERTEX
  5
496
  8
0
 10
-7.665628131445757
 20
-0.9150473284142056
 30
0.0
 42
0.0900767028743821
  0
VERTEX
  5
497
  8
0
 10
-7.438253880591138
 20
-1.192664671946605
 30
0.0
 42
0.0415666392695386
  0
VERTEX
  5
498
  8
0
 10
-7.301650546475832
 20
-1.290560933110871
 30
0.0
 42
0.0325754015009665
  0
VERTEX
  5
499
  8
0
 10
-7.110934295737878
 20
-1.388303016154364
 30
0.0
 42
-0.080465582756218
  0
VERTEX
  5
49A
  8
0
 10
-7.107531610863629
 20
-1.390479496076811
 30
0.0
 42
0.1613291208563191
  0
VERTEX
  5
49B
  8
0
 10
-7.10382673328575
 20
-1.392088598727107
 30
0.0
 42
0.1040385384555752
  0
VERTEX
  5
49C
  8
0
 10
-7.20401643874924
 20
-1.606357188537915
 30
0.0
 42
0.1993633935552921
  0
VERTEX
  5
49D
  8
0
 10
-7.163062115934438
 20
-1.854585712873244
 30
0.0
 42
0.0519894253838517
  0
VERTEX
  5
49E
  8
0
 10
-7.128231295204481
 20
-1.899375384209088
 30
0.0
 42
0.0521287217222006
  0
VERTEX
  5
49F
  8
0
 10
-7.085015388425436
 20
-1.935907517632306
 30
0.0
 42
0.0040248196053253
  0
VERTEX
  5
4A0
  8
0
 10
-7.608319262571185
 20
-2.170394476972366
 30
0.0
 42
0.0089574139895758
  0
VERTEX
  5
4A1
  8
0
 10
-8.105128014791179
 20
-2.408684191499574
 30
0.0
 42
0.0038944433554784
  0
VERTEX
  5
4A2
  8
0
 10
-8.271950555782551
 20
-2.494040423534301
 30
0.0
 42
-0.0012981419515797
  0
VERTEX
  5
4A3
  8
0
 10
-8.438327632001567
 20
-2.580261737829528
 30
0.0
 42
0.0781462546204976
  0
VERTEX
  5
4A4
  8
0
 10
-8.40814402019963
 20
-2.351424372342581
 30
0.0
 42
0.0107078889187131
  0
VERTEX
  5
4A5
  8
0
 10
-8.417741903608059
 20
-2.144040068777559
 30
0.0
 42
-0.0199916350647955
  0
VERTEX
  5
4A6
  8
0
 10
-8.421984962854472
 20
-1.990815420676738
 30
0.0
 42
-0.0738204055101186
  0
VERTEX
  5
4A7
  8
0
 10
-8.388848232946991
 20
-1.785045231826704
 30
0.0
 42
0.0549597575716894
  0
VERTEX
  5
4A8
  8
0
 10
-8.383403281302607
 20
-1.757797188895506
 30
0.0
 42
0.1240365336562672
  0
VERTEX
  5
4A9
  8
0
 10
-8.390787375944567
 20
-1.711863045935998
 30
0.0
 42
0.1209757628447774
  0
VERTEX
  5
4AA
  8
0
 10
-8.424411325327045
 20
-1.667354933843094
 30
0.0
 42
0.1578001810527987
  0
VERTEX
  5
4AB
  8
0
 10
-8.496279918704783
 20
-1.639478810971463
 30
0.0
 42
0.0947381024594854
  0
VERTEX
  5
4AC
  8
0
 10
-8.522259279898641
 20
-1.642926034091327
 30
0.0
 42
0.1195970516270982
  0
VERTEX
  5
4AD
  8
0
 10
-8.5734224362114
 20
-1.674924114461786
 30
0.0
 42
0.1149304164291671
  0
VERTEX
  5
4AE
  8
0
 10
-8.604373367102978
 20
-1.725979739466286
 30
0.0
 42
0.0706458605665111
  0
VERTEX
  5
4AF
  8
0
 10
-8.644080834023324
 20
-1.950471767724151
 30
0.0
 42
0.0368354098327088
  0
VERTEX
  5
4B0
  8
0
 10
-8.63503281568886
 20
-2.178672494525194
 30
0.0
 42
-0.0417195881779992
  0
VERTEX
  5
4B1
  8
0
 10
-8.628210900468291
 20
-2.40695061397826
 30
0.0
 42
-0.0628903873004936
  0
VERTEX
  5
4B2
  8
0
 10
-8.662260908076219
 20
-2.594997702065499
 30
0.0
 42
-0.1366053503425448
  0
VERTEX
  5
4B3
  8
0
 10
-8.710904421342448
 20
-2.669850100553999
 30
0.0
 42
-0.332921372498635
  0
VERTEX
  5
4B4
  8
0
 10
-8.80947909897294
 20
-2.677775824326031
 30
0.0
 42
-0.0902785883988362
  0
VERTEX
  5
4B5
  8
0
 10
-8.907270070996084
 20
-2.588016945985416
 30
0.0
 42
-0.0704315101717018
  0
VERTEX
  5
4B6
  8
0
 10
-9.042923154371046
 20
-2.344071371368914
 30
0.0
 42
-0.0188495173906852
  0
VERTEX
  5
4B7
  8
0
 10
-9.168906017082348
 20
-1.975270598029066
 30
0.0
 42
-0.0097327701373106
  0
VERTEX
  5
4B8
  8
0
 10
-9.296729478907784
 20
-1.517002688839712
 30
0.0
 42
0.0247839757493596
  0
VERTEX
  5
4B9
  8
0
 10
-9.55960377828567
 20
-0.6734997995408945
 30
0.0
 42
0.0109723370931139
  0
VERTEX
  5
4BA
  8
0
 10
-9.642500621460492
 20
-0.4620390879939213
 30
0.0
 42
0.0147733455770478
  0
VERTEX
  5
4BB
  8
0
 10
-9.71207718896197
 20
-0.3083464898147036
 30
0.0
 42
0.0358957721839048
  0
VERTEX
  5
4BC
  8
0
 10
-9.296858082716662
 20
-0.1377705043933321
 30
0.0
 42
0.0908241575619054
  0
VERTEX
  5
4BD
  8
0
 10
-9.1538563329486
 20
-0.0306976073953195
 30
0.0
 42
0.0921807935525184
  0
VERTEX
  5
4BE
  8
0
 10
-9.070363713158502
 20
0.1015621359426092
 30
0.0
 42
0.257735803949107
  0
VERTEX
  5
4BF
  8
0
 10
-9.099832119916439
 20
0.3356387426138405
 30
0.0
 42
0.0989716541532833
  0
VERTEX
  5
4C0
  8
0
 10
-9.182168754892604
 20
0.4113906550260008
 30
0.0
 42
0.0781796530321402
  0
VERTEX
  5
4C1
  8
0
 10
-9.312669970576021
 20
0.4650990376187641
 30
0.0
 42
0.1083169483236944
  0
VERTEX
  5
4C2
  8
0
 10
-9.34922679497231
 20
0.465778814484882
 30
0.0
 42
0.1448549259162482
  0
VERTEX
  5
4C3
  8
0
 10
-9.420833247730705
 20
0.4280518429949484
 30
0.0
 42
0.3994927956988679
  0
VERTEX
  5
4C4
  8
0
 10
-9.427611879166621
 20
0.2499461129019628
 30
0.0
 42
0.1894057501403858
  0
VERTEX
  5
4C5
  8
0
 10
-9.332477922533505
 20
0.2011028109224684
 30
0.0
 42
-0.0852362437748671
  0
VERTEX
  5
4C6
  8
0
 10
-9.294457839398506
 20
0.1905801354441654
 30
0.0
 42
-0.346300547020016
  0
VERTEX
  5
4C7
  8
0
 10
-9.271354176382136
 20
0.1444108077088586
 30
0.0
 42
-0.0977009833702991
  0
VERTEX
  5
4C8
  8
0
 10
-9.287672906394032
 20
0.1055490270593797
 30
0.0
 42
-0.1018415752181076
  0
VERTEX
  5
4C9
  8
0
 10
-9.366169186704669
 20
0.0285958705328856
 30
0.0
 42
-0.0429266383463091
  0
VERTEX
  5
4CA
  8
0
 10
-9.50062134370254
 20
-0.0425482776171907
 30
0.0
 42
-0.0207320132370545
  0
VERTEX
  5
4CB
  8
0
 10
-9.795039654590802
 20
-0.1531762886630515
 30
0.0
 42
0.0166101199323389
  0
VERTEX
  5
4CC
  8
0
 10
-9.924446360701408
 20
0.0607691664186438
 30
0.0
 42
0.0214187180676781
  0
VERTEX
  5
4CD
  8
0
 10
-10.03713649124095
 20
0.2186078258752825
 30
0.0
 42
0.3239122185552916
  0
VERTEX
  5
4CE
  8
0
 10
-10.1144864750194
 20
0.2409706013582409
 30
0.0
 42
0.1602780261585737
  0
VERTEX
  5
4CF
  8
0
 10
-10.23354740938783
 20
0.1480103323797371
 30
0.0
 42
0.1243969419378873
  0
VERTEX
  5
4D0
  8
0
 10
-10.26177569306119
 20
0.0688429340218242
 30
0.0
 42
0.1722579981708117
  0
VERTEX
  5
4D1
  8
0
 10
-10.23466752554263
 20
-0.0390391039297311
 30
0.0
 42
0.0061232655256143
  0
VERTEX
  5
4D2
  8
0
 10
-10.19458605845821
 20
-0.0976771633155412
 30
0.0
 42
-0.0297706218234747
  0
VERTEX
  5
4D3
  8
0
 10
-10.15732059252644
 20
-0.1581439398218278
 30
0.0
 42
-0.0120039992897526
  0
VERTEX
  5
4D4
  8
0
 10
-10.13564736736027
 20
-0.2009392588171484
 30
0.0
 42
-0.0102031669288106
  0
VERTEX
  5
4D5
  8
0
 10
-10.11241031687016
 20
-0.2523682150593268
 30
0.0
 42
0.1023650559120662
  0
VERTEX
  5
4D6
  8
0
 10
-10.60523500537203
 20
-0.5047127154338779
 30
0.0
 42
0.1177809471267349
  0
VERTEX
  5
4D7
  8
0
 10
-10.72040648520911
 20
-0.6533964934432182
 30
0.0
 42
0.0142525622894339
  0
VERTEX
  5
4D8
  8
0
 10
-10.72668919860718
 20
-0.6684204498941361
 30
0.0
 42
0.0141362219280596
  0
VERTEX
  5
4D9
  8
0
 10
-10.73215386998313
 20
-0.6839030314562917
 30
0.0
 42
0.0199180439623802
  0
VERTEX
  5
4DA
  8
0
 10
-10.89752672447972
 20
-0.4588060532685461
 30
0.0
 42
0.0260892223454439
  0
VERTEX
  5
4DB
  8
0
 10
-10.98480015440015
 20
-0.3604205516572789
 30
0.0
 42
0.0871593593816126
  0
VERTEX
  5
4DC
  8
0
 10
-11.00943881425565
 20
-0.3428630193225493
 30
0.0
 42
0.2415839327783195
  0
VERTEX
  5
4DD
  8
0
 10
-11.05526912815474
 20
-0.3441846969053688
 30
0.0
 42
0.1779624545227129
  0
VERTEX
  5
4DE
  8
0
 10
-11.18693595651486
 20
-0.4956319088829844
 30
0.0
 42
0.2747558697925165
  0
VERTEX
  5
4DF
  8
0
 10
-11.16362775454474
 20
-0.6291158214965002
 30
0.0
 42
-0.0625411669645747
  0
VERTEX
  5
4E0
  8
0
 10
-11.02025451796437
 20
-0.8459434669986141
 30
0.0
 42
-0.0147713525844474
  0
VERTEX
  5
4E1
  8
0
 10
-10.85941766376356
 20
-1.19685303499913
 30
0.0
 42
-0.0058382280292633
  0
VERTEX
  5
4E2
  8
0
 10
-10.618895787765
 20
-1.78440227120697
 30
0.0
 42
0.0176125014713471
  0
VERTEX
  5
4E3
  8
0
 10
-10.3646079866751
 20
-2.366126081979012
 30
0.0
 42
0.0291892943510484
  0
VERTEX
  5
4E4
  8
0
 10
-10.03421227519432
 20
-2.962828360055666
 30
0.0
 42
0.0417948671116782
  0
VERTEX
  5
4E5
  8
0
 10
-9.746590703482592
 20
-3.343078840393888
 30
0.0
  0
VERTEX
  5
4E6
  8
0
 10
-10.00794776329558
 20
-3.513752868577347
 30
0.0
  0
SEQEND
  5
522
  8
0
  0
POLYLINE
  5
81
  8
0
 66
     1
 10
0.0
 20
0.0
 30
0.0
 70
     1
  0
VERTEX
  5
4E7
  8
0
 10
-0.2712022634570479
 20
-4.472010454811434
 30
0.0
 42
-0.0974505730378603
  0
VERTEX
  5
4E8
  8
0
 10
-0.4225030771108129
 20
-4.264465577362389
 30
0.0
 42
-0.0698732165655402
  0
VERTEX
  5
4E9
  8
0
 10
-0.5265545616923369
 20
-3.923413410571476
 30
0.0
 42
-0.0469419051478489
  0
VERTEX
  5
4EA
  8
0
 10
-0.5489506145651514
 20
-3.567172085309178
 30
0.0
 42
-0.0583366550827486
  0
VERTEX
  5
4EB
  8
0
 10
-0.4258689560382951
 20
-2.739185750965544
 30
0.0
 42
-0.0482619676412212
  0
VERTEX
  5
4EC
  8
0
 10
-0.2767312595404734
 20
-2.343641225278886
 30
0.0
 42
-0.0873857126937543
  0
VERTEX
  5
4ED
  8
0
 10
-0.1382038150790061
 20
-2.154180689767011
 30
0.0
 42
-0.0097003609852217
  0
VERTEX
  5
4EE
  8
0
 10
-0.1140487418719818
 20
-2.131869871983559
 30
0.0
 42
-0.1452377015338024
  0
VERTEX
  5
4EF
  8
0
 10
-0.0847992742541389
 20
-2.118175828764519
 30
0.0
 42
0.0570706219514984
  0
VERTEX
  5
4F0
  8
0
 10
-0.01098564340743
 20
-2.098268543106734
 30
0.0
 42
0.0487416444178319
  0
VERTEX
  5
4F1
  8
0
 10
0.068555423831149
 20
-2.057377594608381
 30
0.0
 42
-0.1651918705346734
  0
VERTEX
  5
4F2
  8
0
 10
0.0782786414929764
 20
-2.054948303233028
 30
0.0
 42
-0.0322905456677436
  0
VERTEX
  5
4F3
  8
0
 10
0.127699797948077
 20
-2.062273739002152
 30
0.0
 42
-0.0694854519962255
  0
VERTEX
  5
4F4
  8
0
 10
0.153232521328964
 20
-2.071607217187674
 30
0.0
 42
0.0531947137195781
  0
VERTEX
  5
4F5
  8
0
 10
0.2000604661840932
 20
-2.09046954643316
 30
0.0
 42
-0.0925178423383191
  0
VERTEX
  5
4F6
  8
0
 10
0.2390620114512805
 20
-2.109848203374197
 30
0.0
 42
-0.0586669361721425
  0
VERTEX
  5
4F7
  8
0
 10
0.3570419554492632
 20
-2.222624055955273
 30
0.0
 42
-0.0707095323273436
  0
VERTEX
  5
4F8
  8
0
 10
0.5147620577477763
 20
-2.48012447803863
 30
0.0
 42
-0.054458547900132
  0
VERTEX
  5
4F9
  8
0
 10
0.7019511771618783
 20
-3.086180232096929
 30
0.0
 42
-0.0537118186320498
  0
VERTEX
  5
4FA
  8
0
 10
0.762869897449741
 20
-3.814581494701733
 30
0.0
 42
-0.0633618692691973
  0
VERTEX
  5
4FB
  8
0
 10
0.7064798766761378
 20
-4.186593986491805
 30
0.0
 42
-0.0799036916368146
  0
VERTEX
  5
4FC
  8
0
 10
0.5847947081603588
 20
-4.44746243623336
 30
0.0
 42
-0.1689306049156588
  0
VERTEX
  5
4FD
  8
0
 10
0.3544913590741807
 20
-4.618993373179726
 30
0.0
 42
-0.0666976062366302
  0
VERTEX
  5
4FE
  8
0
 10
0.2242569150523139
 20
-4.641653255581692
 30
0.0
 42
-0.0940691881629679
  0
VERTEX
  5
4FF
  8
0
 10
-0.058398006133931
 20
-4.599363127485134
 30
0.0
 42
-0.0508378972155474
  0
VERTEX
  5
500
  8
0
 10
-0.1724340559807734
 20
-4.545998556293474
 30
0.0
 42
-0.0518721477106239
  0
SEQEND
  5
523
  8
0
  0
ENDSEC
  0
EOF
