0
SECTION
2
HEADER
9
$INSUNITS
70
1
9
$ACADVER
1
AC1014
9
$HANDSEED
5
FFFF
0
ENDSEC
0
SECTION
2
TABLES
0
TABLE
2
VPORT
5
8
100
AcDbSymbolTable
0
ENDTAB
0
TABLE
2
LTYPE
5
5
100
AcDbSymbolTable
0
LTYPE
5
14
100
AcDbSymbolTableRecord
100
AcDbLinetypeTableRecord
2
BYBLOCK
70
0
0
LTYPE
5
15
100
AcDbSymbolTableRecord
100
AcDbLinetypeTableRecord
2
BYLAYER
70
0
0
ENDTAB
0
TABLE
2
LAYER
5
2
100
AcDbSymbolTable
70
2
0
LAYER
5
50
100
AcDbSymbolTableRecord
100
AcDbLayerTableRecord
2
0
70
0
6
CONTINUOUS
0
ENDTAB
0
TABLE
2
STYLE
5
3
100
AcDbSymbolTable
70
1
0
STYLE
5
11
100
AcDbSymbolTableRecord
100
AcDbTextStyleTableRecord
2
STANDARD
70
0
0
ENDTAB
0
TABLE
2
VIEW
5
6
100
AcDbSymbolTable
70
0
0
ENDTAB
0
TABLE
2
UCS
5
7
100
AcDbSymbolTable
70
0
0
ENDTAB
0
TABLE
2
APPID
5
9
100
AcDbSymbolTable
70
2
0
APPID
5
12
100
AcDbSymbolTableRecord
100
AcDbRegAppTableRecord
2
ACAD
70
0
0
ENDTAB
0
TABLE
2
DIMSTYLE
5
A
100
AcDbSymbolTable
70
1
0
ENDTAB
0
TABLE
2
BLOCK_RECORD
5
1
100
AcDbSymbolTable
70
1
0
BLOCK_RECORD
5
1F
100
AcDbSymbolTableRecord
100
AcDbBlockTableRecord
2
*MODEL_SPACE
0
BLOCK_RECORD
5
1B
100
AcDbSymbolTableRecord
100
AcDbBlockTableRecord
2
*PAPER_SPACE
0
ENDTAB
0
ENDSEC
0
SECTION
2
BLOCKS
0
BLOCK
5
20
100
AcDbEntity
100
AcDbBlockBegin
2
*MODEL_SPACE
0
ENDBLK
5
21
100
AcDbEntity
100
AcDbBlockEnd
0
BLOCK
5
1C
100
AcDbEntity
100
AcDbBlockBegin
2
*PAPER_SPACE
0
ENDBLK
5
1D
100
AcDbEntity
100
AcDbBlockEnd
0
ENDSEC
0
SECTION
2
ENTITIES
0
CIRCLE
5
100
100
AcDbEntity
8
0
100
AcDbCircle
10
8.3922370365366157e-15
20
3.4967654318902565e-16
30
0
40
8.5
210
0
220
0
230
1
0
SPLINE
5
101
100
AcDbEntity
8
0
100
AcDbSpline
70
4
71
3
72
8
73
4
74
0
42
0.000000001
43
0.0000000001
44
0.0000000001
40
0
40
0
40
0
40
0
40
1
40
1
40
1
40
1
41
1
41
1
41
1
41
1
10
5.8061186318630371
20
4.7712396198693616
30
0
10
5.6905056171103974
20
4.7712396198693616
30
0
10
5.5711640681207522
20
4.7675102320301912
30
0
10
5.4555510533681151
20
4.7451336204611199
30
0
0
SPLINE
5
102
100
AcDbEntity
8
0
100
AcDbSpline
70
4
71
3
72
8
73
4
74
0
42
0.000000001
43
0.0000000001
44
0.0000000001
40
0
40
0
40
0
40
0
40
1
40
1
40
1
40
1
41
1
41
1
41
1
41
1
10
5.4555510533681151
20
4.7451336204611199
30
0
10
5.3958797098051816
20
4.7339451724095563
30
0
10
5.3399380386154753
20
4.7190276210528772
30
0
10
5.2839963674257682
20
4.6966507249497509
30
0
0
SPLINE
5
103
100
AcDbEntity
8
0
100
AcDbSpline
70
4
71
3
72
8
73
4
74
0
42
0.000000001
43
0.0000000001
44
0.0000000001
40
0
40
0
40
0
40
0
40
1
40
1
40
1
40
1
41
1
41
1
41
1
41
1
10
5.2839963674257682
20
4.6966507249497509
30
0
10
5.1758426974195766
20
4.6593562774899464
30
0
10
5.104983474873193
20
4.581037994731167
30
0
10
5.0639593550401631
20
4.4766134280300927
30
0
0
SPLINE
5
104
100
AcDbEntity
8
0
100
AcDbSpline
70
4
71
3
72
8
73
4
74
0
42
0.000000001
43
0.0000000001
44
0.0000000001
40
0
40
0
40
0
40
0
40
1
40
1
40
1
40
1
41
1
41
1
41
1
41
1
10
5.0639593550401631
20
4.4766134280300927
30
0
10
5.034124252326805
20
4.4057539209496532
30
0
10
5.0192055628339132
20
4.3348944138692129
30
0
10
5.0154770285969024
20
4.2565761311104335
30
0
0
SPLINE
5
105
100
AcDbEntity
8
0
100
AcDbSpline
70
4
71
3
72
8
73
4
74
0
42
0.000000001
43
0.0000000001
44
0.0000000001
40
0
40
0
40
0
40
0
40
1
40
1
40
1
40
1
41
1
41
1
41
1
41
1
10
5.0154770285969024
20
4.2565761311104335
30
0
10
5.0117473562236787
20
4.2043638477598959
30
0
10
5.0117473562236787
20
4.1484221765701896
30
0
10
5.0117473562236787
20
4.096209893219652
30
0
0
SPLINE
5
106
100
AcDbEntity
8
0
100
AcDbSpline
70
4
71
3
72
8
73
4
74
0
42
0.000000001
43
0.0000000001
44
0.0000000001
40
0
40
0
40
0
40
0
40
1
40
1
40
1
40
1
41
1
41
1
41
1
41
1
10
5.0117473562236787
20
4.096209893219652
30
0
10
5.0117473562236787
20
3.6486765237019942
30
0
10
5.0117473562236787
20
3.1974137663451669
30
0
10
5.0117473562236787
20
2.7498803968275096
30
0
0
SPLINE
5
107
100
AcDbEntity
8
0
100
AcDbSpline
70
4
71
3
72
8
73
4
74
0
42
0.000000001
43
0.0000000001
44
0.0000000001
40
0
40
0
40
0
40
0
40
1
40
1
40
1
40
1
41
1
41
1
41
1
41
1
10
5.0117473562236787
20
2.7498803968275096
30
0
10
5.0117473562236787
20
2.7275035007243837
30
0
10
5.0117473562236787
20
2.7051271736893652
30
0
10
5.0117473562236787
20
2.6827502775862393
30
0
0
SPLINE
5
108
100
AcDbEntity
8
0
100
AcDbSpline
70
4
71
3
72
8
73
4
74
0
42
0.000000001
43
0.0000000001
44
0.0000000001
40
0
40
0
40
0
40
0
40
1
40
1
40
1
40
1
41
1
41
1
41
1
41
1
10
5.0117473562236787
20
2.6827502775862393
30
0
10
5.034124252326805
20
2.6827502775862393
30
0
10
5.0527714760567086
20
2.6827502775862393
30
0
10
5.0676890274133859
20
2.6827502775862393
30
0
0
SPLINE
5
109
100
AcDbEntity
8
0
100
AcDbSpline
70
4
71
3
72
8
73
4
74
0
42
0.000000001
43
0.0000000001
44
0.0000000001
40
0
40
0
40
0
40
0
40
1
40
1
40
1
40
1
41
1
41
1
41
1
41
1
10
5.0676890274133859
20
2.6827502775862393
30
0
10
5.3399380386154753
20
2.693938725637802
30
0
10
5.5487871720176258
20
2.5671372628336018
30
0
10
5.6494826354135848
20
2.3135354753614146
30
0
0
SPLINE
5
110
100
AcDbEntity
8
0
100
AcDbSpline
70
4
71
3
72
8
73
4
74
0
42
0.000000001
43
0.0000000001
44
0.0000000001
40
0
40
0
40
0
40
0
40
1
40
1
40
1
40
1
41
1
41
1
41
1
41
1
10
5.6494826354135848
20
2.3135354753614146
30
0
10
5.7278012027064182
20
2.1270632380623913
30
0
10
5.7464484264363191
20
1.9331322250850276
30
0
10
5.7315308750796419
20
1.7354715397344407
30
0
0
SPLINE
5
111
100
AcDbEntity
8
0
100
AcDbSpline
70
4
71
3
72
8
73
4
74
0
42
0.000000001
43
0.0000000001
44
0.0000000001
40
0
40
0
40
0
40
0
40
1
40
1
40
1
40
1
41
1
41
1
41
1
41
1
10
5.7315308750796419
20
1.7354715397344407
30
0
10
5.7240715303331928
20
1.6422354210849279
30
0
10
5.7016957723662811
20
1.5527289748086404
30
0
10
5.6644013249064775
20
1.4706807351425839
30
0
0
SPLINE
5
112
100
AcDbEntity
8
0
100
AcDbSpline
70
4
71
3
72
8
73
4
74
0
42
0.000000001
43
0.0000000001
44
0.0000000001
40
0
40
0
40
0
40
0
40
1
40
1
40
1
40
1
41
1
41
1
41
1
41
1
10
5.6644013249064775
20
1.4706807351425839
30
0
10
5.5898124299868668
20
1.2991260492002386
30
0
10
5.470469742861007
20
1.1723251554641456
30
0
10
5.2914568503084292
20
1.1051950362228755
30
0
0
SPLINE
5
113
100
AcDbEntity
8
0
100
AcDbSpline
70
4
71
3
72
8
73
4
74
0
42
0.000000001
43
0.0000000001
44
0.0000000001
40
0
40
0
40
0
40
0
40
1
40
1
40
1
40
1
41
1
41
1
41
1
41
1
10
5.2914568503084292
20
1.1051950362228755
30
0
10
5.2131382830155957
20
1.0753593644414106
30
0
10
5.131091181485754
20
1.0679005887630704
30
0
10
5.0453132694464742
20
1.0865478124929724
30
0
0
SPLINE
5
114
100
AcDbEntity
8
0
100
AcDbSpline
70
4
71
3
72
8
73
4
74
0
42
0.000000001
43
0.0000000001
44
0.0000000001
40
0
40
0
40
0
40
0
40
1
40
1
40
1
40
1
41
1
41
1
41
1
41
1
10
5.0453132694464742
20
1.0865478124929724
30
0
10
5.0341253904630205
20
1.0902774848661967
30
0
10
5.0266660457165715
20
1.0902774848661967
30
0
10
5.0080188219866706
20
1.0902774848661967
30
0
0
SPLINE
5
115
100
AcDbEntity
8
0
100
AcDbSpline
70
4
71
3
72
8
73
4
74
0
42
0.000000001
43
0.0000000001
44
0.0000000001
40
0
40
0
40
0
40
0
40
1
40
1
40
1
40
1
41
1
41
1
41
1
41
1
10
5.0080188219866706
20
1.0902774848661967
30
0
10
5.0080188219866706
20
0.94855847070531629
30
0
10
5.0080188219866706
20
0.81056912891766042
30
0
10
5.0080188219866706
20
0.66512101145166436
30
0
0
SPLINE
5
116
100
AcDbEntity
8
0
100
AcDbSpline
70
4
71
3
72
8
73
4
74
0
42
0.000000001
43
0.0000000001
44
0.0000000001
40
0
40
0
40
0
40
0
40
1
40
1
40
1
40
1
41
1
41
1
41
1
41
1
10
5.0080188219866706
20
0.66512101145166436
30
0
10
5.0676901655496005
20
0.65766223577332428
30
0
10
5.1273615091125313
20
0.66139133907844128
30
0
10
5.1870317145392493
20
0.66139133907844128
30
0
0
SPLINE
5
117
100
AcDbEntity
8
0
100
AcDbSpline
70
4
71
3
72
8
73
4
74
0
42
0.000000001
43
0.0000000001
44
0.0000000001
40
0
40
0
40
0
40
0
40
1
40
1
40
1
40
1
41
1
41
1
41
1
41
1
10
5.1870317145392493
20
0.66139133907844128
30
0
10
5.2504327304754019
20
0.66139133907844128
30
0
10
5.3101029359021172
20
0.66139133907844128
30
0
10
5.3735039518382708
20
0.66139133907844128
30
0
0
SPLINE
5
118
100
AcDbEntity
8
0
100
AcDbSpline
70
4
71
3
72
8
73
4
74
0
42
0.000000001
43
0.0000000001
44
0.0000000001
40
0
40
0
40
0
40
0
40
1
40
1
40
1
40
1
41
1
41
1
41
1
41
1
10
5.3735039518382708
20
0.66139133907844128
30
0
10
5.4331752954012034
20
0.66139133907844128
30
0
10
5.4928466389641333
20
0.66139133907844128
30
0
10
5.5525168443908486
20
0.66139133907844128
30
0
0
SPLINE
5
119
100
AcDbEntity
8
0
100
AcDbSpline
70
4
71
3
72
8
73
4
74
0
42
0.000000001
43
0.0000000001
44
0.0000000001
40
0
40
0
40
0
40
0
40
1
40
1
40
1
40
1
41
1
41
1
41
1
41
1
10
5.5525168443908486
20
0.66139133907844128
30
0
10
5.6121870498175666
20
0.66139133907844128
30
0
10
5.6718595315167084
20
0.66139133907844128
30
0
10
5.7315297369434264
20
0.66139133907844128
30
0
0
SPLINE
5
120
100
AcDbEntity
8
0
100
AcDbSpline
70
4
71
3
72
8
73
4
74
0
42
0.000000001
43
0.0000000001
44
0.0000000001
40
0
40
0
40
0
40
0
40
1
40
1
40
1
40
1
41
1
41
1
41
1
41
1
10
5.7315297369434264
20
0.66139133907844128
30
0
10
5.7949307528795799
20
0.66139133907844128
30
0
10
5.8546009583062979
20
0.66139133907844128
30
0
10
5.9180019742424506
20
0.66139133907844128
30
0
0
SPLINE
5
121
100
AcDbEntity
8
0
100
AcDbSpline
70
4
71
3
72
8
73
4
74
0
42
0.000000001
43
0.0000000001
44
0.0000000001
40
0
40
0
40
0
40
0
40
1
40
1
40
1
40
1
41
1
41
1
41
1
41
1
10
5.9180019742424506
20
0.66139133907844128
30
0
10
5.9776733178053814
20
0.66139133907844128
30
0
10
6.0373446613683113
20
0.66139133907844128
30
0
10
6.100744539168252
20
0.66139133907844128
30
0
0
SPLINE
5
122
100
AcDbEntity
8
0
100
AcDbSpline
70
4
71
3
72
8
73
4
74
0
42
0.000000001
43
0.0000000001
44
0.0000000001
40
0
40
0
40
0
40
0
40
1
40
1
40
1
40
1
41
1
41
1
41
1
41
1
10
6.100744539168252
20
0.66139133907844128
30
0
10
6.100744539168252
20
0.54950799669902728
30
0
10
6.100744539168252
20
0.43762465431961189
30
0
10
6.100744539168252
20
0.3257413119401979
30
0
0
SPLINE
5
123
100
AcDbEntity
8
0
100
AcDbSpline
70
4
71
3
72
8
73
4
74
0
42
0.000000001
43
0.0000000001
44
0.0000000001
40
0
40
0
40
0
40
0
40
1
40
1
40
1
40
1
41
1
41
1
41
1
41
1
10
-5.9602795417053756
20
0.3257413119401979
30
0
10
-5.9677384596507412
20
0.43389498194638881
30
0
10
-5.9640089295445451
20
0.5420492210206872
30
0
10
-5.9640089295445451
20
0.6576616667052182
30
0
0
SPLINE
5
124
100
AcDbEntity
8
0
100
AcDbSpline
70
4
71
3
72
8
73
4
74
0
42
0.000000001
43
0.0000000001
44
0.0000000001
40
0
40
0
40
0
40
0
40
1
40
1
40
1
40
1
41
1
41
1
41
1
41
1
10
-5.9640089295445451
20
0.6576616667052182
30
0
10
-5.6395473504578648
20
0.6576616667052182
30
0
10
-5.3188151592103541
20
0.6576616667052182
30
0
10
-4.9906239077504502
20
0.6576616667052182
30
0
0
SPLINE
5
125
100
AcDbEntity
8
0
100
AcDbSpline
70
4
71
3
72
8
73
4
74
0
42
0.000000001
43
0.0000000001
44
0.0000000001
40
0
40
0
40
0
40
0
40
1
40
1
40
1
40
1
41
1
41
1
41
1
41
1
10
-4.9906239077504502
20
0.6576616667052182
30
0
10
-4.9868945199112806
20
0.72852088925160396
30
0
10
-4.9906239077504502
20
0.79192190518775851
30
0
10
-4.9906239077504502
20
0.86278112773414428
30
0
0
SPLINE
5
126
100
AcDbEntity
8
0
100
AcDbSpline
70
4
71
3
72
8
73
4
74
0
42
0.000000001
43
0.0000000001
44
0.0000000001
40
0
40
0
40
0
40
0
40
1
40
1
40
1
40
1
41
1
41
1
41
1
41
1
10
-4.9906239077504502
20
0.86278112773414428
30
0
10
-5.0055417436411833
20
0.8590514553609212
30
0
10
-5.0130005193195233
20
0.8553223520558042
30
0
10
-5.0241889673710851
20
0.85159267968258112
30
0
0
SPLINE
5
127
100
AcDbEntity
8
0
100
AcDbSpline
70
4
71
3
72
8
73
4
74
0
42
0.000000001
43
0.0000000001
44
0.0000000001
40
0
40
0
40
0
40
0
40
1
40
1
40
1
40
1
41
1
41
1
41
1
41
1
10
-5.0241889673710851
20
0.85159267968258112
30
0
10
-5.1286135340721604
20
0.79565100849287418
30
0
10
-5.2404968764515747
20
0.78446256044131102
30
0
10
-5.352380218830989
20
0.8180279045960005
30
0
0
SPLINE
5
128
100
AcDbEntity
8
0
100
AcDbSpline
70
4
71
3
72
8
73
4
74
0
42
0.000000001
43
0.0000000001
44
0.0000000001
40
0
40
0
40
0
40
0
40
1
40
1
40
1
40
1
41
1
41
1
41
1
41
1
10
-5.352380218830989
20
0.8180279045960005
30
0
10
-5.5537702920207455
20
0.87769924815893052
30
0
10
-5.6954891639145986
20
0.9970413662166846
30
0
10
-5.7402425293197696
20
1.2096196029239508
30
0
0
SPLINE
5
129
100
AcDbEntity
8
0
100
AcDbSpline
70
4
71
3
72
8
73
4
74
0
42
0.000000001
43
0.0000000001
44
0.0000000001
40
0
40
0
40
0
40
0
40
1
40
1
40
1
40
1
41
1
41
1
41
1
41
1
10
-5.7402425293197696
20
1.2096196029239508
30
0
10
-5.7961842005094768
20
1.4520335114126806
30
0
10
-5.6693830222393293
20
1.6907177475281889
30
0
10
-5.434428173962992
20
1.7802247628725847
30
0
0
SPLINE
5
130
100
AcDbEntity
8
0
100
AcDbSpline
70
4
71
3
72
8
73
4
74
0
42
0.000000001
43
0.0000000001
44
0.0000000001
40
0
40
0
40
0
40
0
40
1
40
1
40
1
40
1
41
1
41
1
41
1
41
1
10
-5.434428173962992
20
1.7802247628725847
30
0
10
-5.3076269956928446
20
1.8287076583839521
30
0
10
-5.1770964295835284
20
1.8398961064355153
30
0
10
-5.0465658634742114
20
1.8175192103323898
30
0
0
SPLINE
5
131
100
AcDbEntity
8
0
100
AcDbSpline
70
4
71
3
72
8
73
4
74
0
42
0.000000001
43
0.0000000001
44
0.0000000001
40
0
40
0
40
0
40
0
40
1
40
1
40
1
40
1
41
1
41
1
41
1
41
1
10
-5.0465658634742114
20
1.8175192103323898
30
0
10
-5.0279186397443096
20
1.8137895379591666
30
0
10
-5.0130008038535756
20
1.8100604346540503
30
0
10
-4.9868948044453347
20
1.8063307622808267
30
0
0
SPLINE
5
132
100
AcDbEntity
8
0
100
AcDbSpline
70
4
71
3
72
8
73
4
74
0
42
0.000000001
43
0.0000000001
44
0.0000000001
40
0
40
0
40
0
40
0
40
1
40
1
40
1
40
1
41
1
41
1
41
1
41
1
10
-4.9868948044453347
20
1.8063307622808267
30
0
10
-4.9868948044453347
20
1.8287076583839521
30
0
10
-4.9868948044453347
20
1.8436252097406318
30
0
10
-4.9868948044453347
20
1.8622724334705343
30
0
0
SPLINE
5
133
100
AcDbEntity
8
0
100
AcDbSpline
70
4
71
3
72
8
73
4
74
0
42
0.000000001
43
0.0000000001
44
0.0000000001
40
0
40
0
40
0
40
0
40
1
40
1
40
1
40
1
41
1
41
1
41
1
41
1
10
-4.9868948044453347
20
1.8622724334705343
30
0
10
-4.9868948044453347
20
2.6603733814831139
30
0
10
-4.9868948044453347
20
3.4547452261905769
30
0
10
-4.9868948044453347
20
4.2528464587372099
30
0
0
SPLINE
5
134
100
AcDbEntity
8
0
100
AcDbSpline
70
4
71
3
72
8
73
4
74
0
42
0.000000001
43
0.0000000001
44
0.0000000001
40
0
40
0
40
0
40
0
40
1
40
1
40
1
40
1
41
1
41
1
41
1
41
1
10
-4.9868948044453347
20
4.2528464587372099
30
0
10
-4.9868948044453347
20
4.3087881299269171
30
0
10
-4.9943535801236738
20
4.3647298011166251
30
0
10
-5.0055420281752365
20
4.4169420844671619
30
0
0
SPLINE
5
135
100
AcDbEntity
8
0
100
AcDbSpline
70
4
71
3
72
8
73
4
74
0
42
0.000000001
43
0.0000000001
44
0.0000000001
40
0
40
0
40
0
40
0
40
1
40
1
40
1
40
1
41
1
41
1
41
1
41
1
10
-5.0055420281752365
20
4.4169420844671619
30
0
10
-5.0391070877958715
20
4.5586610986280416
30
0
10
-5.1286138186062136
20
4.6593559929558932
30
0
10
-5.2666031603938697
20
4.7078388884672604
30
0
0
SPLINE
5
136
100
AcDbEntity
8
0
100
AcDbSpline
70
4
71
3
72
8
73
4
74
0
42
0.000000001
43
0.0000000001
44
0.0000000001
40
0
40
0
40
0
40
0
40
1
40
1
40
1
40
1
41
1
41
1
41
1
41
1
10
-5.2666031603938697
20
4.7078388884672604
30
0
10
-5.3710277270949449
20
4.7451333359270658
30
0
10
-5.4829110694743592
20
4.7637805596569684
30
0
10
-5.5947944118537736
20
4.767509947496138
30
0
0
SPLINE
5
137
100
AcDbEntity
8
0
100
AcDbSpline
70
4
71
3
72
8
73
4
74
0
42
0.000000001
43
0.0000000001
44
0.0000000001
40
0
40
0
40
0
40
0
40
1
40
1
40
1
40
1
41
1
41
1
41
1
41
1
10
-5.5947944118537736
20
4.767509947496138
30
0
10
-5.8894206036930417
20
4.7712393353353075
30
0
10
-6.184046653265284
20
4.7712393353353075
30
0
10
-6.4749433149983568
20
4.7749687231744771
30
0
0
SPLINE
5
138
100
AcDbEntity
8
0
100
AcDbSpline
70
4
71
3
72
8
73
4
74
0
42
0.000000001
43
0.0000000001
44
0.0000000001
40
0
40
0
40
0
40
0
40
1
40
1
40
1
40
1
41
1
41
1
41
1
41
1
10
-3.1072548800984157
20
5.3194675991808165
30
0
10
-3.1072548800984157
20
5.3120088235024774
30
0
10
-3.1072548800984157
20
5.3045497632900842
30
0
10
-3.1035252077251925
20
5.2970909876117442
30
0
0
SPLINE
5
139
100
AcDbEntity
8
0
100
AcDbSpline
70
4
71
3
72
8
73
4
74
0
42
0.000000001
43
0.0000000001
44
0.0000000001
40
0
40
0
40
0
40
0
40
1
40
1
40
1
40
1
41
1
41
1
41
1
41
1
10
-3.1035252077251925
20
5.2970909876117442
30
0
10
-2.9916418653457777
20
4.9987354079333066
30
0
10
-2.8797585229663638
20
4.7003798282548672
30
0
10
-2.767875180586949
20
4.4020242485764296
30
0
0
SPLINE
5
140
100
AcDbEntity
8
0
100
AcDbSpline
70
4
71
3
72
8
73
4
74
0
42
0.000000001
43
0.0000000001
44
0.0000000001
40
0
40
0
40
0
40
0
40
1
40
1
40
1
40
1
41
1
41
1
41
1
41
1
10
-2.767875180586949
20
4.4020242485764296
30
0
10
-2.7566867325353868
20
4.3759182491681869
30
0
10
-2.7417691811787073
20
4.3684591889557938
30
0
10
-2.7193922850755818
20
4.3610004132774547
30
0
0
SPLINE
5
141
100
AcDbEntity
8
0
100
AcDbSpline
70
4
71
3
72
8
73
4
74
0
42
0.000000001
43
0.0000000001
44
0.0000000001
40
0
40
0
40
0
40
0
40
1
40
1
40
1
40
1
41
1
41
1
41
1
41
1
10
-2.7193922850755818
20
4.3610004132774547
30
0
10
-2.644803390155972
20
4.3386238017083825
30
0
10
-2.5702144952363626
20
4.3199765779784807
30
0
10
-2.5030843759950923
20
4.2864115183578448
30
0
0
SPLINE
5
142
100
AcDbEntity
8
0
100
AcDbSpline
70
4
71
3
72
8
73
4
74
0
42
0.000000001
43
0.0000000001
44
0.0000000001
40
0
40
0
40
0
40
0
40
1
40
1
40
1
40
1
41
1
41
1
41
1
41
1
10
-2.5030843759950923
20
4.2864115183578448
30
0
10
-2.2420232437764591
20
4.1596103400876983
30
0
10
-2.0741982302073376
20
3.9582202668979418
30
0
10
-2.02571533469597
20
3.667323747431896
30
0
0
SPLINE
5
143
100
AcDbEntity
8
0
100
AcDbSpline
70
4
71
3
72
8
73
4
74
0
42
0.000000001
43
0.0000000001
44
0.0000000001
40
0
40
0
40
0
40
0
40
1
40
1
40
1
40
1
41
1
41
1
41
1
41
1
10
-2.02571533469597
20
3.667323747431896
30
0
10
-2.0145268866444068
20
3.5927348525122866
30
0
10
-2.01825655901763
20
3.5181459575926772
30
0
10
-2.0406328860526486
20
3.4435570626730674
30
0
0
SPLINE
5
144
100
AcDbEntity
8
0
100
AcDbSpline
70
4
71
3
72
8
73
4
74
0
42
0.000000001
43
0.0000000001
44
0.0000000001
40
0
40
0
40
0
40
0
40
1
40
1
40
1
40
1
41
1
41
1
41
1
41
1
10
-2.0406328860526486
20
3.4435570626730674
30
0
10
-2.0555504374093285
20
3.4062626152132629
30
0
10
-2.0741976611392303
20
3.3950741671616997
30
0
10
-2.1077630052939189
20
3.4137213908916024
30
0
0
SPLINE
5
145
100
AcDbEntity
8
0
100
AcDbSpline
70
4
71
3
72
8
73
4
74
0
42
0.000000001
43
0.0000000001
44
0.0000000001
40
0
40
0
40
0
40
0
40
1
40
1
40
1
40
1
41
1
41
1
41
1
41
1
10
-2.1077630052939189
20
3.4137213908916024
30
0
10
-2.1562459008052866
20
3.4398273902998442
30
0
10
-2.1972694515702074
20
3.4808515101328728
30
0
10
-2.200999123943431
20
3.5405225691617495
30
0
0
SPLINE
5
146
100
AcDbEntity
8
0
100
AcDbSpline
70
4
71
3
72
8
73
4
74
0
42
0.000000001
43
0.0000000001
44
0.0000000001
40
0
40
0
40
0
40
0
40
1
40
1
40
1
40
1
41
1
41
1
41
1
41
1
10
-2.200999123943431
20
3.5405225691617495
30
0
10
-2.2047287963166542
20
3.6039230160297961
30
0
10
-2.1711634521619652
20
3.6486765237019942
30
0
10
-2.1189514533454816
20
3.6785119109494056
30
0
0
SPLINE
5
147
100
AcDbEntity
8
0
100
AcDbSpline
70
4
71
3
72
8
73
4
74
0
42
0.000000001
43
0.0000000001
44
0.0000000001
40
0
40
0
40
0
40
0
40
1
40
1
40
1
40
1
41
1
41
1
41
1
41
1
10
-2.1189514533454816
20
3.6785119109494056
30
0
10
-2.1077630052939189
20
3.6859706866277455
30
0
10
-2.0928454539372394
20
3.6897003590009687
30
0
10
-2.077927333512454
20
3.6971591346793082
30
0
0
SPLINE
5
148
100
AcDbEntity
8
0
100
AcDbSpline
70
4
71
3
72
8
73
4
74
0
42
0.000000001
43
0.0000000001
44
0.0000000001
40
0
40
0
40
0
40
0
40
1
40
1
40
1
40
1
41
1
41
1
41
1
41
1
10
-2.077927333512454
20
3.6971591346793082
30
0
10
-2.077927333512454
20
3.7046179103576478
30
0
10
-2.0816570058856771
20
3.7120769705700405
30
0
10
-2.0816570058856771
20
3.71953574624838
30
0
0
SPLINE
5
149
100
AcDbEntity
8
0
100
AcDbSpline
70
4
71
3
72
8
73
4
74
0
42
0.000000001
43
0.0000000001
44
0.0000000001
40
0
40
0
40
0
40
0
40
1
40
1
40
1
40
1
41
1
41
1
41
1
41
1
10
-2.0816570058856771
20
3.71953574624838
30
0
10
-2.1152217809722584
20
3.8388778643061343
30
0
10
-2.178622796908412
20
3.9433024310072096
30
0
10
-2.2643995708114777
20
4.0328091618175517
30
0
0
SPLINE
5
150
100
AcDbEntity
8
0
100
AcDbSpline
70
4
71
3
72
8
73
4
74
0
42
0.000000001
43
0.0000000001
44
0.0000000001
40
0
40
0
40
0
40
0
40
1
40
1
40
1
40
1
41
1
41
1
41
1
41
1
10
-2.2643995708114777
20
4.0328091618175517
30
0
10
-2.3427181381043107
20
4.1148568324155006
30
0
10
-2.4359542567538224
20
4.1782575638176009
30
0
10
-2.5478375991332367
20
4.2118226234382359
30
0
0
SPLINE
5
151
100
AcDbEntity
8
0
100
AcDbSpline
70
4
71
3
72
8
73
4
74
0
42
0.000000001
43
0.0000000001
44
0.0000000001
40
0
40
0
40
0
40
0
40
1
40
1
40
1
40
1
41
1
41
1
41
1
41
1
10
-2.5478375991332367
20
4.2118226234382359
30
0
10
-2.5963204946446043
20
4.2267404593289681
30
0
10
-2.6410737177827488
20
4.2267404593289681
30
0
10
-2.6895566132941164
20
4.2006341753866732
30
0
0
SPLINE
5
152
100
AcDbEntity
8
0
100
AcDbSpline
70
4
71
3
72
8
73
4
74
0
42
0.000000001
43
0.0000000001
44
0.0000000001
40
0
40
0
40
0
40
0
40
1
40
1
40
1
40
1
41
1
41
1
41
1
41
1
10
-2.6895566132941164
20
4.2006341753866732
30
0
10
-2.659720941512651
20
4.1185865047887233
30
0
10
-2.6261561664260693
20
4.0365385496567212
30
0
10
-2.5963204946446043
20
3.9544908790587718
30
0
0
SPLINE
5
153
100
AcDbEntity
8
0
100
AcDbSpline
70
4
71
3
72
8
73
4
74
0
42
0.000000001
43
0.0000000001
44
0.0000000001
40
0
40
0
40
0
40
0
40
1
40
1
40
1
40
1
41
1
41
1
41
1
41
1
10
-2.5963204946446043
20
3.9544908790587718
30
0
10
-2.3912010336156784
20
3.4099920030524324
30
0
10
-2.1823519002135283
20
2.8617637392069235
30
0
10
-1.9772324391846023
20
2.3172645786665309
30
0
0
SPLINE
5
154
100
AcDbEntity
8
0
100
AcDbSpline
70
4
71
3
72
8
73
4
74
0
42
0.000000001
43
0.0000000001
44
0.0000000001
40
0
40
0
40
0
40
0
40
1
40
1
40
1
40
1
41
1
41
1
41
1
41
1
10
-1.9772324391846023
20
2.3172645786665309
30
0
10
-1.9697736635062624
20
2.2948876825634055
30
0
10
-1.9548555430814767
20
2.2762404588335028
30
0
10
-1.9436676640980204
20
2.2538641317984847
30
0
0
SPLINE
5
155
100
AcDbEntity
8
0
100
AcDbSpline
70
4
71
3
72
8
73
4
74
0
42
0.000000001
43
0.0000000001
44
0.0000000001
40
0
40
0
40
0
40
0
40
1
40
1
40
1
40
1
41
1
41
1
41
1
41
1
10
-1.9436676640980204
20
2.2538641317984847
30
0
10
-1.9399379917247972
20
2.2389465804418052
30
0
10
-1.9399379917247972
20
2.2240284600170188
30
0
10
-1.9362088884196809
20
2.2128400119654565
30
0
0
SPLINE
5
156
100
AcDbEntity
8
0
100
AcDbSpline
70
4
71
3
72
8
73
4
74
0
42
0.000000001
43
0.0000000001
44
0.0000000001
40
0
40
0
40
0
40
0
40
1
40
1
40
1
40
1
41
1
41
1
41
1
41
1
10
-1.9362088884196809
20
2.2128400119654565
30
0
10
-1.7758426505288993
20
1.7914126418560403
30
0
10
-1.6192060850113408
20
1.3699852717466257
30
0
10
-1.4588398471205586
20
0.94855790163721032
30
0
0
SPLINE
5
157
100
AcDbEntity
8
0
100
AcDbSpline
70
4
71
3
72
8
73
4
74
0
42
0.000000001
43
0.0000000001
44
0.0000000001
40
0
40
0
40
0
40
0
40
1
40
1
40
1
40
1
41
1
41
1
41
1
41
1
10
-1.4588398471205586
20
0.94855790163721032
30
0
10
-1.4551101747473356
20
0.93736945358564716
30
0
10
-1.4476513990689954
20
0.92991067790730708
30
0
10
-1.4439222957638798
20
0.91872222985574392
30
0
0
SPLINE
5
158
100
AcDbEntity
8
0
100
AcDbSpline
70
4
71
3
72
8
73
4
74
0
42
0.000000001
43
0.0000000001
44
0.0000000001
40
0
40
0
40
0
40
0
40
1
40
1
40
1
40
1
41
1
41
1
41
1
41
1
10
-1.4439222957638798
20
0.91872222985574392
30
0
10
-1.1642139398153435
20
1.0567115716434012
30
0
10
-0.88823525624003008
20
1.2655607050455504
30
0
10
-0.6868448985162211
20
1.5303509405693005
30
0
0
SPLINE
5
159
100
AcDbEntity
8
0
100
AcDbSpline
70
4
71
3
72
8
73
4
74
0
42
0.000000001
43
0.0000000001
44
0.0000000001
40
0
40
0
40
0
40
0
40
1
40
1
40
1
40
1
41
1
41
1
41
1
41
1
10
-0.6868448985162211
20
1.5303509405693005
30
0
10
-0.5936087798667089
20
1.6496930586270546
30
0
10
-0.51901988494709872
20
1.7802236247363712
30
0
10
-0.4705369894357318
20
1.9219426388972503
30
0
0
SPLINE
5
160
100
AcDbEntity
8
0
100
AcDbSpline
70
4
71
3
72
8
73
4
74
0
42
0.000000001
43
0.0000000001
44
0.0000000001
40
0
40
0
40
0
40
0
40
1
40
1
40
1
40
1
41
1
41
1
41
1
41
1
10
-0.4705369894357318
20
1.9219426388972503
30
0
10
-0.42578376629758657
20
2.0524732050065673
30
0
10
-0.40713654256768467
20
2.186733443489107
30
0
10
-0.44070131765426673
20
2.3247227852767636
30
0
0
SPLINE
5
161
100
AcDbEntity
8
0
100
AcDbSpline
70
4
71
3
72
8
73
4
74
0
42
0.000000001
43
0.0000000001
44
0.0000000001
40
0
40
0
40
0
40
0
40
1
40
1
40
1
40
1
41
1
41
1
41
1
41
1
10
-0.44070131765426673
20
2.3247227852767636
30
0
10
-0.49291331647075071
20
2.5447597976623695
30
0
10
-0.62344388258006656
20
2.705126035553151
30
0
10
-0.82483424030387698
20
2.8058209298810022
30
0
0
SPLINE
5
162
100
AcDbEntity
8
0
100
AcDbSpline
70
4
71
3
72
8
73
4
74
0
42
0.000000001
43
0.0000000001
44
0.0000000001
40
0
40
0
40
0
40
0
40
1
40
1
40
1
40
1
41
1
41
1
41
1
41
1
10
-0.82483424030387698
20
2.8058209298810022
30
0
10
-0.94044725505651405
20
2.865492273443933
30
0
10
-1.0672481487926082
20
2.880409824800612
30
0
10
-1.1940490425287009
20
2.8580329286974862
30
0
0
SPLINE
5
163
100
AcDbEntity
8
0
100
AcDbSpline
70
4
71
3
72
8
73
4
74
0
42
0.000000001
43
0.0000000001
44
0.0000000001
40
0
40
0
40
0
40
0
40
1
40
1
40
1
40
1
41
1
41
1
41
1
41
1
10
-1.1940490425287009
20
2.8580329286974862
30
0
10
-1.2984736092297764
20
2.8393857049675839
30
0
10
-1.3879800555060653
20
2.7909028094562163
30
0
10
-1.4737573984772374
20
2.7312320349613928
30
0
0
SPLINE
5
164
100
AcDbEntity
8
0
100
AcDbSpline
70
4
71
3
72
8
73
4
74
0
42
0.000000001
43
0.0000000001
44
0.0000000001
40
0
40
0
40
0
40
0
40
1
40
1
40
1
40
1
41
1
41
1
41
1
41
1
10
-1.4737573984772374
20
2.7312320349613928
30
0
10
-1.6080176369597776
20
2.6342662439386575
30
0
10
-1.7087125312876286
20
2.5111950225757873
30
0
10
-1.7907602018855782
20
2.369476008414908
30
0
0
SPLINE
5
165
100
AcDbEntity
8
0
100
AcDbSpline
70
4
71
3
72
8
73
4
74
0
42
0.000000001
43
0.0000000001
44
0.0000000001
40
0
40
0
40
0
40
0
40
1
40
1
40
1
40
1
41
1
41
1
41
1
41
1
10
-1.7907602018855782
20
2.369476008414908
30
0
10
-1.8131370979887038
20
2.3321815609551031
30
0
10
-1.8317843217186063
20
2.2986167858685218
30
0
10
-1.8578903211268483
20
2.2650514417138328
30
0
0
SPLINE
5
166
100
AcDbEntity
8
0
100
AcDbSpline
70
4
71
3
72
8
73
4
74
0
42
0.000000001
43
0.0000000001
44
0.0000000001
40
0
40
0
40
0
40
0
40
1
40
1
40
1
40
1
41
1
41
1
41
1
41
1
10
-1.8578903211268483
20
2.2650514417138328
30
0
10
-1.8877259929083134
20
2.2202982185756892
30
0
10
-1.9063732166382159
20
2.2202982185756892
30
0
10
-1.9436676640980204
20
2.2575926660354937
30
0
0
SPLINE
5
167
100
AcDbEntity
8
0
100
AcDbSpline
70
4
71
3
72
8
73
4
74
0
42
0.000000001
43
0.0000000001
44
0.0000000001
40
0
40
0
40
0
40
0
40
1
40
1
40
1
40
1
41
1
41
1
41
1
41
1
10
-1.9436676640980204
20
2.2575926660354937
30
0
10
-1.9697736635062624
20
2.3545584570582285
30
0
10
-1.9548561121495835
20
2.4440649033345179
30
0
10
-1.9175616646897784
20
2.5373010219840291
30
0
0
SPLINE
5
168
100
AcDbEntity
8
0
100
AcDbSpline
70
4
71
3
72
8
73
4
74
0
42
0.000000001
43
0.0000000001
44
0.0000000001
40
0
40
0
40
0
40
0
40
1
40
1
40
1
40
1
41
1
41
1
41
1
41
1
10
-1.9175616646897784
20
2.5373010219840291
30
0
10
-1.8094079946835875
20
2.8095506022542263
30
0
10
-1.5222402939886057
20
2.9997519428583659
30
0
10
-1.2201556110050504
20
2.9997519428583659
30
0
0
SPLINE
5
169
100
AcDbEntity
8
0
100
AcDbSpline
70
4
71
3
72
8
73
4
74
0
42
0.000000001
43
0.0000000001
44
0.0000000001
40
0
40
0
40
0
40
0
40
1
40
1
40
1
40
1
41
1
41
1
41
1
41
1
10
-1.2201556110050504
20
2.9997519428583659
30
0
10
-1.0150361499761242
20
2.9997519428583659
30
0
10
-0.82856391267710006
20
2.932621823617096
30
0
10
-0.66819767478631775
20
2.8058209298810022
30
0
0
SPLINE
5
170
100
AcDbEntity
8
0
100
AcDbSpline
70
4
71
3
72
8
73
4
74
0
42
0.000000001
43
0.0000000001
44
0.0000000001
40
0
40
0
40
0
40
0
40
1
40
1
40
1
40
1
41
1
41
1
41
1
41
1
10
-0.66819767478631775
20
2.8058209298810022
30
0
10
-0.39594809451612151
20
2.589513020800513
30
0
10
-0.27660597645836743
20
2.3098046648519777
30
0
10
-0.34000642332641451
20
1.9629661896621717
30
0
0
SPLINE
5
171
100
AcDbEntity
8
0
100
AcDbSpline
70
4
71
3
72
8
73
4
74
0
42
0.000000001
43
0.0000000001
44
0.0000000001
40
0
40
0
40
0
40
0
40
1
40
1
40
1
40
1
41
1
41
1
41
1
41
1
10
-0.34000642332641451
20
1.9629661896621717
30
0
10
-0.36984209510787958
20
1.79514117609305
30
0
10
-0.43697221434914973
20
1.6422337138806071
30
0
10
-0.51901988494709872
20
1.5005152687878356
30
0
0
SPLINE
5
172
100
AcDbEntity
8
0
100
AcDbSpline
70
4
71
3
72
8
73
4
74
0
42
0.000000001
43
0.0000000001
44
0.0000000001
40
0
40
0
40
0
40
0
40
1
40
1
40
1
40
1
41
1
41
1
41
1
41
1
10
-0.51901988494709872
20
1.5005152687878356
30
0
10
-0.5264786606254388
20
1.4855977174311552
30
0
10
-0.53393743630377888
20
1.4706795970063691
30
0
10
-0.5451258843553406
20
1.4557620456496903
30
0
0
SPLINE
5
173
100
AcDbEntity
8
0
100
AcDbSpline
70
0
71
2
72
6
73
3
74
0
42
0.000000001
43
0.0000000001
44
0.0000000001
40
0
40
0
40
0
40
1
40
1
40
1
10
-0.5451258843553406
20
1.4557620456496903
30
0
10
-0.54139621198211763
20
1.4557620456496903
30
0
10
-0.53766710867700196
20
1.4520323732764673
30
0
0
SPLINE
5
174
100
AcDbEntity
8
0
100
AcDbSpline
70
4
71
3
72
8
73
4
74
0
42
0.000000001
43
0.0000000001
44
0.0000000001
40
0
40
0
40
0
40
0
40
1
40
1
40
1
40
1
41
1
41
1
41
1
41
1
10
-0.53766710867700196
20
1.4520323732764673
30
0
10
-0.53393743630377888
20
1.4520323732764673
30
0
10
-0.5264786606254388
20
1.4557620456496903
30
0
10
-0.52274955732032169
20
1.4557620456496903
30
0
0
SPLINE
5
175
100
AcDbEntity
8
0
100
AcDbSpline
70
4
71
3
72
8
73
4
74
0
42
0.000000001
43
0.0000000001
44
0.0000000001
40
0
40
0
40
0
40
0
40
1
40
1
40
1
40
1
41
1
41
1
41
1
41
1
10
-0.52274955732032169
20
1.4557620456496903
30
0
10
-0.31763009629139566
20
1.5154333892126217
30
0
10
-0.11251063526246953
20
1.5228921648909604
30
0
10
0.096338498139679637
20
1.4893268207362724
30
0
0
SPLINE
5
176
100
AcDbEntity
8
0
100
AcDbSpline
70
4
71
3
72
8
73
4
74
0
42
0.000000001
43
0.0000000001
44
0.0000000001
40
0
40
0
40
0
40
0
40
1
40
1
40
1
40
1
41
1
41
1
41
1
41
1
10
0.096338498139679637
20
1.4893268207362724
30
0
10
0.18211584111085166
20
1.4744092693795936
30
0
10
0.26416351170880203
20
1.4520323732764673
30
0
10
0.34248207900163391
20
1.4072791501383235
30
0
0
SPLINE
5
177
100
AcDbEntity
8
0
100
AcDbSpline
70
4
71
3
72
8
73
4
74
0
42
0.000000001
43
0.0000000001
44
0.0000000001
40
0
40
0
40
0
40
0
40
1
40
1
40
1
40
1
41
1
41
1
41
1
41
1
10
0.34248207900163391
20
1.4072791501383235
30
0
10
0.4170709739212442
20
1.3625259270001782
30
0
10
0.4730126451109512
20
1.302854583437248
30
0
10
0.49538954121407613
20
1.2170772404660761
30
0
0
SPLINE
5
178
100
AcDbEntity
8
0
100
AcDbSpline
70
4
71
3
72
8
73
4
74
0
42
0.000000001
43
0.0000000001
44
0.0000000001
40
0
40
0
40
0
40
0
40
1
40
1
40
1
40
1
41
1
41
1
41
1
41
1
10
0.49538954121407613
20
1.2170772404660761
30
0
10
0.51403676494397932
20
1.153676793598029
30
0
10
0.51030709257075635
20
1.0865466743567589
30
0
10
0.4730126451109512
20
1.0306050031670519
30
0
0
SPLINE
5
179
100
AcDbEntity
8
0
100
AcDbSpline
70
4
71
3
72
8
73
4
74
0
42
0.000000001
43
0.0000000001
44
0.0000000001
40
0
40
0
40
0
40
0
40
1
40
1
40
1
40
1
41
1
41
1
41
1
41
1
10
0.4730126451109512
20
1.0306050031670519
30
0
10
0.45436542138104929
20
1.0007693313855868
30
0
10
0.4245297495995829
20
0.98212210765568353
30
0
10
0.40215342256456538
20
0.99331055570724669
30
0
0
SPLINE
5
180
100
AcDbEntity
8
0
100
AcDbSpline
70
4
71
3
72
8
73
4
74
0
42
0.000000001
43
0.0000000001
44
0.0000000001
40
0
40
0
40
0
40
0
40
1
40
1
40
1
40
1
41
1
41
1
41
1
41
1
10
0.40215342256456538
20
0.99331055570724669
30
0
10
0.37604742315632345
20
1.00449900375881
30
0
10
0.37604742315632345
20
1.0343346755402749
30
0
10
0.37231775078309898
20
1.0567110025752937
30
0
0
SPLINE
5
181
100
AcDbEntity
8
0
100
AcDbSpline
70
4
71
3
72
8
73
4
74
0
42
0.000000001
43
0.0000000001
44
0.0000000001
40
0
40
0
40
0
40
0
40
1
40
1
40
1
40
1
41
1
41
1
41
1
41
1
10
0.37231775078309898
20
1.0567110025752937
30
0
10
0.3685880784098759
20
1.0902757776618759
30
0
10
0.36485897510476029
20
1.1275702251216797
30
0
10
0.36112930273153721
20
1.1611355692763692
30
0
0
SPLINE
5
182
100
AcDbEntity
8
0
100
AcDbSpline
70
4
71
3
72
8
73
4
74
0
42
0.000000001
43
0.0000000001
44
0.0000000001
40
0
40
0
40
0
40
0
40
1
40
1
40
1
40
1
41
1
41
1
41
1
41
1
10
0.36112930273153721
20
1.1611355692763692
30
0
10
0.33129363095007219
20
1.32150180716715
30
0
10
0.24551628797889874
20
1.4110082534434389
30
0
10
0.085150619156223906
20
1.4445735975981271
30
0
0
SPLINE
5
183
100
AcDbEntity
8
0
100
AcDbSpline
70
4
71
3
72
8
73
4
74
0
42
0.000000001
43
0.0000000001
44
0.0000000001
40
0
40
0
40
0
40
0
40
1
40
1
40
1
40
1
41
1
41
1
41
1
41
1
10
0.085150619156223906
20
1.4445735975981271
30
0
10
0.0068320518633905826
20
1.4594911489548072
30
0
10
-0.071485946361335317
20
1.4557620456496903
30
0
10
-0.14980451365416722
20
1.4483032699713516
30
0
0
SPLINE
5
184
100
AcDbEntity
8
0
100
AcDbSpline
70
4
71
3
72
8
73
4
74
0
42
0.000000001
43
0.0000000001
44
0.0000000001
40
0
40
0
40
0
40
0
40
1
40
1
40
1
40
1
41
1
41
1
41
1
41
1
10
-0.14980451365416722
20
1.4483032699713516
30
0
10
-0.35119430230987025
20
1.4221972705631096
30
0
10
-0.53020776393055447
20
1.3438787032702764
30
0
10
-0.69430367419455974
20
1.2245365852125223
30
0
0
SPLINE
5
185
100
AcDbEntity
8
0
100
AcDbSpline
70
4
71
3
72
8
73
4
74
0
42
0.000000001
43
0.0000000001
44
0.0000000001
40
0
40
0
40
0
40
0
40
1
40
1
40
1
40
1
41
1
41
1
41
1
41
1
10
-0.69430367419455974
20
1.2245365852125223
30
0
10
-0.72413934597602481
20
1.2021596891093973
30
0
10
-0.75397501775749121
20
1.1760536897011553
30
0
10
-0.78008101716573319
20
1.1499476902929133
30
0
0
SPLINE
5
186
100
AcDbEntity
8
0
100
AcDbSpline
70
4
71
3
72
8
73
4
74
0
42
0.000000001
43
0.0000000001
44
0.0000000001
40
0
40
0
40
0
40
0
40
1
40
1
40
1
40
1
41
1
41
1
41
1
41
1
10
-0.78008101716573319
20
1.1499476902929133
30
0
10
-0.94044725505651405
20
0.97839300435056786
30
0
10
-1.1194607166771995
20
0.83294488688457191
30
0
10
-1.3245801777061257
20
0.72479121687838099
30
0
0
SPLINE
5
187
100
AcDbEntity
8
0
100
AcDbSpline
70
4
71
3
72
8
73
4
74
0
42
0.000000001
43
0.0000000001
44
0.0000000001
40
0
40
0
40
0
40
0
40
1
40
1
40
1
40
1
41
1
41
1
41
1
41
1
10
-1.3245801777061257
20
0.72479121687838099
30
0
10
-1.3357686257576888
20
0.72106154450515791
30
0
10
-1.3432274014360275
20
0.71360276882681783
30
0
10
-1.3618746251659308
20
0.70241432077525456
30
0
0
SPLINE
5
188
100
AcDbEntity
8
0
100
AcDbSpline
70
4
71
3
72
8
73
4
74
0
42
0.000000001
43
0.0000000001
44
0.0000000001
40
0
40
0
40
0
40
0
40
1
40
1
40
1
40
1
41
1
41
1
41
1
41
1
10
-1.3618746251659308
20
0.70241432077525456
30
0
10
-1.3469570738092507
20
0.69122587272369285
30
0
10
-1.3394977290628045
20
0.68003742467212969
30
0
10
-1.3283098500793487
20
0.68003742467212969
30
0
0
SPLINE
5
189
100
AcDbEntity
8
0
100
AcDbSpline
70
4
71
3
72
8
73
4
74
0
42
0.000000001
43
0.0000000001
44
0.0000000001
40
0
40
0
40
0
40
0
40
1
40
1
40
1
40
1
41
1
41
1
41
1
41
1
10
-1.3283098500793487
20
0.68003742467212969
30
0
10
-1.31339229872267
20
0.67630775229890661
30
0
10
-1.2984741782978837
20
0.68003742467212969
30
0
10
-1.2835566269412049
20
0.68003742467212969
30
0
0
SPLINE
5
190
100
AcDbEntity
8
0
100
AcDbSpline
70
4
71
3
72
8
73
4
74
0
42
0.000000001
43
0.0000000001
44
0.0000000001
40
0
40
0
40
0
40
0
40
1
40
1
40
1
40
1
41
1
41
1
41
1
41
1
10
-1.2835566269412049
20
0.68003742467212969
30
0
10
-0.64209224444618329
20
0.68003742467212969
30
0
10
-0.00062729288305554177
20
0.68003742467212969
30
0
10
0.64083652054385876
20
0.68003742467212969
30
0
0
SPLINE
5
191
100
AcDbEntity
8
0
100
AcDbSpline
70
4
71
3
72
8
73
4
74
0
42
0.000000001
43
0.0000000001
44
0.0000000001
40
0
40
0
40
0
40
0
40
1
40
1
40
1
40
1
41
1
41
1
41
1
41
1
10
0.64083652054385876
20
0.68003742467212969
30
0
10
0.65948374427376055
20
0.68003742467212969
30
0
10
0.68186064037688687
20
0.68003742467212969
30
0
10
0.70050786410678878
20
0.68003742467212969
30
0
0
SPLINE
5
192
100
AcDbEntity
8
0
100
AcDbSpline
70
4
71
3
72
8
73
4
74
0
42
0.000000001
43
0.0000000001
44
0.0000000001
40
0
40
0
40
0
40
0
40
1
40
1
40
1
40
1
41
1
41
1
41
1
41
1
10
0.70050786410678878
20
0.68003742467212969
30
0
10
0.88325042903258999
20
0.69122587272369285
30
0
10
1.062263890653274
20
0.70241432077525456
30
0
10
1.2450070246471814
20
0.71360219975871175
30
0
0
SPLINE
5
193
100
AcDbEntity
8
0
100
AcDbSpline
70
4
71
3
72
8
73
4
74
0
42
0.000000001
43
0.0000000001
44
0.0000000001
40
0
40
0
40
0
40
0
40
1
40
1
40
1
40
1
41
1
41
1
41
1
41
1
10
1.2450070246471814
20
0.71360219975871175
30
0
10
1.3158662471935685
20
0.71733187213193483
30
0
10
1.3829963664348386
20
0.72851975111539058
30
0
10
1.4501264856761087
20
0.73597909586183663
30
0
0
SPLINE
5
194
100
AcDbEntity
8
0
100
AcDbSpline
70
4
71
3
72
8
73
4
74
0
42
0.000000001
43
0.0000000001
44
0.0000000001
40
0
40
0
40
0
40
0
40
1
40
1
40
1
40
1
41
1
41
1
41
1
41
1
10
1.4501264856761087
20
0.73597909586183663
30
0
10
1.4538561580493319
20
0.75089664721851546
30
0
10
1.4613149337276705
20
0.75835599196496306
30
0
10
1.4613149337276705
20
0.7695438709484187
30
0
0
SPLINE
5
195
100
AcDbEntity
8
0
100
AcDbSpline
70
4
71
3
72
8
73
4
74
0
42
0.000000001
43
0.0000000001
44
0.0000000001
40
0
40
0
40
0
40
0
40
1
40
1
40
1
40
1
41
1
41
1
41
1
41
1
10
1.4613149337276705
20
0.7695438709484187
30
0
10
1.6701634980617137
20
1.3737138059836338
30
0
10
1.8827423038370859
20
1.9778837410188506
30
0
10
2.095319971476246
20
2.5820542451221735
30
0
0
SPLINE
5
196
100
AcDbEntity
8
0
100
AcDbSpline
70
4
71
3
72
8
73
4
74
0
42
0.000000001
43
0.0000000001
44
0.0000000001
40
0
40
0
40
0
40
0
40
1
40
1
40
1
40
1
41
1
41
1
41
1
41
1
10
2.095319971476246
20
2.5820542451221735
30
0
10
2.1027793162226924
20
2.6081602445304157
30
0
10
2.1027793162226924
20
2.6305371406335412
30
0
10
2.095319971476246
20
2.6566431400417834
30
0
0
SPLINE
5
197
100
AcDbEntity
8
0
100
AcDbSpline
70
4
71
3
72
8
73
4
74
0
42
0.000000001
43
0.0000000001
44
0.0000000001
40
0
40
0
40
0
40
0
40
1
40
1
40
1
40
1
41
1
41
1
41
1
41
1
10
2.095319971476246
20
2.6566431400417834
30
0
10
2.0281904213030821
20
2.9997519428583659
30
0
10
2.1214265399525942
20
3.2906487468584649
30
0
10
2.38994587878146
20
3.5181448194564635
30
0
0
SPLINE
5
198
100
AcDbEntity
8
0
100
AcDbSpline
70
4
71
3
72
8
73
4
74
0
42
0.000000001
43
0.0000000001
44
0.0000000001
40
0
40
0
40
0
40
0
40
1
40
1
40
1
40
1
41
1
41
1
41
1
41
1
10
2.38994587878146
20
3.5181448194564635
30
0
10
2.4160524472578091
20
3.5405214310255353
30
0
10
2.4346996709877113
20
3.5666277149678312
30
0
10
2.4458875499711681
20
3.5964631022152425
30
0
0
SPLINE
5
199
100
AcDbEntity
8
0
100
AcDbSpline
70
4
71
3
72
8
73
4
74
0
42
0.000000001
43
0.0000000001
44
0.0000000001
40
0
40
0
40
0
40
0
40
1
40
1
40
1
40
1
41
1
41
1
41
1
41
1
10
2.4458875499711681
20
3.5964631022152425
30
0
10
2.6099828911670664
20
4.0738321435143652
30
0
10
2.777807904736187
20
4.5474715124402652
30
0
10
2.9419032459320853
20
5.024840553739387
30
0
0
SPLINE
5
200
100
AcDbEntity
8
0
100
AcDbSpline
70
4
71
3
72
8
73
4
74
0
42
0.000000001
43
0.0000000001
44
0.0000000001
40
0
40
0
40
0
40
0
40
1
40
1
40
1
40
1
41
1
41
1
41
1
41
1
10
2.9419032459320853
20
5.024840553739387
30
0
10
2.9791976933918902
20
5.1255354480672395
30
0
10
3.0127624684784724
20
5.2299600147683138
30
0
10
3.0463272435650528
20
5.3343845814693882
30
0
0
SPLINE
5
201
100
AcDbEntity
8
0
100
AcDbSpline
70
4
71
3
72
8
73
4
74
0
42
0.000000001
43
0.0000000001
44
0.0000000001
40
0
40
0
40
0
40
0
40
1
40
1
40
1
40
1
41
1
41
1
41
1
41
1
10
3.4752156656252366
20
3.5703585254772685
30
0
10
3.4640277866417808
20
3.5740879133164376
30
0
10
3.4491090971488871
20
3.5815469735288308
30
0
10
3.4379212181654317
20
3.5852763613680008
30
0
0
SPLINE
5
202
100
AcDbEntity
8
0
100
AcDbSpline
70
4
71
3
72
8
73
4
74
0
42
0.000000001
43
0.0000000001
44
0.0000000001
40
0
40
0
40
0
40
0
40
1
40
1
40
1
40
1
41
1
41
1
41
1
41
1
10
3.4379212181654317
20
3.5852763613680008
30
0
10
3.3372257547694733
20
3.6151120331494657
30
0
10
3.2328017571365053
20
3.6225708088278052
30
0
10
3.1246480871303146
20
3.6151120331494657
30
0
0
SPLINE
5
203
100
AcDbEntity
8
0
100
AcDbSpline
70
4
71
3
72
8
73
4
74
0
42
0.000000001
43
0.0000000001
44
0.0000000001
40
0
40
0
40
0
40
0
40
1
40
1
40
1
40
1
41
1
41
1
41
1
41
1
10
3.1246480871303146
20
3.6151120331494657
30
0
10
3.0836239672972865
20
3.6113826453102966
30
0
10
3.0687064159406074
20
3.5964648094195635
30
0
10
3.0537888645839288
20
3.559170361959759
30
0
0
SPLINE
5
204
100
AcDbEntity
8
0
100
AcDbSpline
70
4
71
3
72
8
73
4
74
0
42
0.000000001
43
0.0000000001
44
0.0000000001
40
0
40
0
40
0
40
0
40
1
40
1
40
1
40
1
41
1
41
1
41
1
41
1
10
3.0537888645839288
20
3.559170361959759
30
0
10
2.9605527459344168
20
3.2906504540627859
30
0
10
2.8673166272849047
20
3.0221305461658123
30
0
10
2.7740805086353926
20
2.7573397415739556
30
0
0
SPLINE
5
205
100
AcDbEntity
8
0
100
AcDbSpline
70
4
71
3
72
8
73
4
74
0
42
0.000000001
43
0.0000000001
44
0.0000000001
40
0
40
0
40
0
40
0
40
1
40
1
40
1
40
1
41
1
41
1
41
1
41
1
10
2.7740805086353926
20
2.7573397415739556
30
0
10
2.5577731686230107
20
2.130792910435614
30
0
10
2.3377350181011907
20
1.507975751670495
30
0
10
2.1214276780888088
20
0.8814289205321536
30
0
0
SPLINE
5
206
100
AcDbEntity
8
0
100
AcDbSpline
70
4
71
3
72
8
73
4
74
0
42
0.000000001
43
0.0000000001
44
0.0000000001
40
0
40
0
40
0
40
0
40
1
40
1
40
1
40
1
41
1
41
1
41
1
41
1
10
2.1214276780888088
20
0.8814289205321536
30
0
10
2.1139683333423616
20
0.8627816968022517
30
0
10
2.1065101267321289
20
0.84040480069912538
30
0
10
2.0990507819856825
20
0.8142988012908835
30
0
0
SPLINE
5
207
100
AcDbEntity
8
0
100
AcDbSpline
70
4
71
3
72
8
73
4
74
0
42
0.000000001
43
0.0000000001
44
0.0000000001
40
0
40
0
40
0
40
0
40
1
40
1
40
1
40
1
41
1
41
1
41
1
41
1
10
2.0990507819856825
20
0.8142988012908835
30
0
10
2.125157350462032
20
0.81802847366410647
30
0
10
2.1438045741919338
20
0.81802847366410647
30
0
10
2.1587221255486129
20
0.82175757696922358
30
0
0
SPLINE
5
208
100
AcDbEntity
8
0
100
AcDbSpline
70
4
71
3
72
8
73
4
74
0
42
0.000000001
43
0.0000000001
44
0.0000000001
40
0
40
0
40
0
40
0
40
1
40
1
40
1
40
1
41
1
41
1
41
1
41
1
10
2.1587221255486129
20
0.82175757696922358
30
0
10
2.3116295877610562
20
0.85159324875068854
30
0
10
2.4645370499734982
20
0.8814289205321536
30
0
10
2.6137148398127175
20
0.91126402324551126
30
0
0
SPLINE
5
209
100
AcDbEntity
8
0
100
AcDbSpline
70
4
71
3
72
8
73
4
74
0
42
0.000000001
43
0.0000000001
44
0.0000000001
40
0
40
0
40
0
40
0
40
1
40
1
40
1
40
1
41
1
41
1
41
1
41
1
10
2.6137148398127175
20
0.91126402324551126
30
0
10
2.7479750782952577
20
0.93737002265375313
30
0
10
2.8859638510148065
20
0.96347602206199512
30
0
10
3.0164944171241235
20
1.0082298142682478
30
0
0
SPLINE
5
210
100
AcDbEntity
8
0
100
AcDbSpline
70
4
71
3
72
8
73
4
74
0
42
0.000000001
43
0.0000000001
44
0.0000000001
40
0
40
0
40
0
40
0
40
1
40
1
40
1
40
1
41
1
41
1
41
1
41
1
10
3.0164944171241235
20
1.0082298142682478
30
0
10
3.1768600859467986
20
1.0641714854579547
30
0
10
3.3223093415490079
20
1.1424900527507866
30
0
10
3.4416508905386545
20
1.2618321708085407
30
0
0
SPLINE
5
211
100
AcDbEntity
8
0
100
AcDbSpline
70
4
71
3
72
8
73
4
74
0
42
0.000000001
43
0.0000000001
44
0.0000000001
40
0
40
0
40
0
40
0
40
1
40
1
40
1
40
1
41
1
41
1
41
1
41
1
10
3.4416508905386545
20
1.2618321708085407
30
0
10
3.460298114268558
20
1.2804793945384441
30
0
10
3.4714859932520135
20
1.302856290641569
30
0
10
3.4714859932520135
20
1.332691393354928
30
0
0
SPLINE
5
212
100
AcDbEntity
8
0
100
AcDbSpline
70
4
71
3
72
8
73
4
74
0
42
0.000000001
43
0.0000000001
44
0.0000000001
40
0
40
0
40
0
40
0
40
1
40
1
40
1
40
1
41
1
41
1
41
1
41
1
10
3.4714859932520135
20
1.332691393354928
30
0
10
3.4714859932520135
20
1.590022853200338
30
0
10
3.4714859932520135
20
1.8473548821138548
30
0
10
3.4714859932520135
20
2.104686341959265
30
0
0
SPLINE
5
213
100
AcDbEntity
8
0
100
AcDbSpline
70
4
71
3
72
8
73
4
74
0
42
0.000000001
43
0.0000000001
44
0.0000000001
40
0
40
0
40
0
40
0
40
1
40
1
40
1
40
1
41
1
41
1
41
1
41
1
10
3.4714859932520135
20
2.104686341959265
30
0
10
3.4714859932520135
20
2.1345220137407304
30
0
10
3.460298114268558
20
2.1494395650974094
30
0
10
3.4379212181654317
20
2.1643576855221958
30
0
0
SPLINE
5
214
100
AcDbEntity
8
0
100
AcDbSpline
70
4
71
3
72
8
73
4
74
0
42
0.000000001
43
0.0000000001
44
0.0000000001
40
0
40
0
40
0
40
0
40
1
40
1
40
1
40
1
41
1
41
1
41
1
41
1
10
3.4379212181654317
20
2.1643576855221958
30
0
10
3.2700962045963107
20
2.2762410279016101
30
0
10
3.0314119684808025
20
2.2501350284933683
30
0
10
2.8896923852518159
20
2.104686341959265
30
0
0
SPLINE
5
215
100
AcDbEntity
8
0
100
AcDbSpline
70
4
71
3
72
8
73
4
74
0
42
0.000000001
43
0.0000000001
44
0.0000000001
40
0
40
0
40
0
40
0
40
1
40
1
40
1
40
1
41
1
41
1
41
1
41
1
10
2.8896923852518159
20
2.104686341959265
30
0
10
2.8039156113487498
20
2.0151798956829765
30
0
10
2.7628914915157217
20
1.9107553289819019
30
0
10
2.7517024743960525
20
1.7914132109241478
30
0
0
SPLINE
5
216
100
AcDbEntity
8
0
100
AcDbSpline
70
4
71
3
72
8
73
4
74
0
42
0.000000001
43
0.0000000001
44
0.0000000001
40
0
40
0
40
0
40
0
40
1
40
1
40
1
40
1
41
1
41
1
41
1
41
1
10
2.7517024743960525
20
1.7914132109241478
30
0
10
2.7479728020228293
20
1.7242830916828775
30
0
10
2.7554321467692757
20
1.6534238691364911
30
0
10
2.7554321467692757
20
1.586293749895221
30
0
0
SPLINE
5
217
100
AcDbEntity
8
0
100
AcDbSpline
70
4
71
3
72
8
73
4
74
0
42
0.000000001
43
0.0000000001
44
0.0000000001
40
0
40
0
40
0
40
0
40
1
40
1
40
1
40
1
41
1
41
1
41
1
41
1
10
2.7554321467692757
20
1.586293749895221
30
0
10
2.7554321467692757
20
1.563916853792096
30
0
10
2.7666200257527316
20
1.537810854383854
30
0
10
2.7405145954125967
20
1.5154345273488352
30
0
0
SPLINE
5
218
100
AcDbEntity
8
0
100
AcDbSpline
70
4
71
3
72
8
73
4
74
0
42
0.000000001
43
0.0000000001
44
0.0000000001
40
0
40
0
40
0
40
0
40
1
40
1
40
1
40
1
41
1
41
1
41
1
41
1
10
2.7405145954125967
20
1.5154345273488352
30
0
10
2.7144080269362476
20
1.5154345273488352
30
0
10
2.6957608032063458
20
1.530352078705514
30
0
10
2.68457292422289
20
1.5489993024354172
30
0
0
SPLINE
5
219
100
AcDbEntity
8
0
100
AcDbSpline
70
4
71
3
72
8
73
4
74
0
42
0.000000001
43
0.0000000001
44
0.0000000001
40
0
40
0
40
0
40
0
40
1
40
1
40
1
40
1
41
1
41
1
41
1
41
1
10
2.68457292422289
20
1.5489993024354172
30
0
10
2.6621960281197636
20
1.582564077521998
30
0
10
2.6435488043898618
20
1.6161294216766859
30
0
10
2.6286312530331828
20
1.6534238691364911
30
0
0
SPLINE
5
220
100
AcDbEntity
8
0
100
AcDbSpline
70
4
71
3
72
8
73
4
74
0
42
0.000000001
43
0.0000000001
44
0.0000000001
40
0
40
0
40
0
40
0
40
1
40
1
40
1
40
1
41
1
41
1
41
1
41
1
10
2.6286312530331828
20
1.6534238691364911
30
0
10
2.5577720304867957
20
1.8771905538953197
30
0
10
2.6696553728662096
20
2.1345220137407304
30
0
10
2.88223304050537
20
2.2352174771366888
30
0
0
SPLINE
5
221
100
AcDbEntity
8
0
100
AcDbSpline
70
4
71
3
72
8
73
4
74
0
42
0.000000001
43
0.0000000001
44
0.0000000001
40
0
40
0
40
0
40
0
40
1
40
1
40
1
40
1
41
1
41
1
41
1
41
1
10
2.88223304050537
20
2.2352174771366888
30
0
10
3.057517398820937
20
2.3209948201078614
30
0
10
3.232800619000292
20
2.3135360444295214
30
0
10
3.408084977315859
20
2.2314878047634656
30
0
0
SPLINE
5
222
100
AcDbEntity
8
0
100
AcDbSpline
70
4
71
3
72
8
73
4
74
0
42
0.000000001
43
0.0000000001
44
0.0000000001
40
0
40
0
40
0
40
0
40
1
40
1
40
1
40
1
41
1
41
1
41
1
41
1
10
3.408084977315859
20
2.2314878047634656
30
0
10
3.4267322010457626
20
2.2240290290851261
30
0
10
3.4416497524024412
20
2.212840581033563
30
0
10
3.4640266485055662
20
2.2053818053552239
30
0
0
SPLINE
5
223
100
AcDbEntity
8
0
100
AcDbSpline
70
4
71
3
72
8
73
4
74
0
42
0.000000001
43
0.0000000001
44
0.0000000001
40
0
40
0
40
0
40
0
40
1
40
1
40
1
40
1
41
1
41
1
41
1
41
1
10
3.4640266485055662
20
2.2053818053552239
30
0
10
3.4752156656252366
20
2.6678327262295598
30
0
10
3.4752156656252366
20
3.1190957681204412
30
0
10
3.4752156656252366
20
3.5703585254772685
30
0
0
SPLINE
5
224
100
AcDbEntity
8
0
100
AcDbSpline
70
4
71
3
72
8
73
4
74
0
42
0.000000001
43
0.0000000001
44
0.0000000001
40
0
40
0
40
0
40
0
40
1
40
1
40
1
40
1
41
1
41
1
41
1
41
1
10
-3.2265969981561695
20
1.6496941967632681
30
0
10
-3.3981513995644606
20
2.104686341959265
30
0
10
-3.5659764131335825
20
2.5484906081718064
30
0
10
-3.730072038863534
20
2.9885646329430169
30
0
0
SPLINE
5
225
100
AcDbEntity
8
0
100
AcDbSpline
70
4
71
3
72
8
73
4
74
0
42
0.000000001
43
0.0000000001
44
0.0000000001
40
0
40
0
40
0
40
0
40
1
40
1
40
1
40
1
41
1
41
1
41
1
41
1
10
-3.730072038863534
20
2.9885646329430169
30
0
10
-3.7412604869150972
20
2.9885646329430169
30
0
10
-3.7487192625934367
20
2.992294305316241
30
0
10
-3.7599077106449998
20
2.9885646329430169
30
0
0
SPLINE
5
226
100
AcDbEntity
8
0
100
AcDbSpline
70
4
71
3
72
8
73
4
74
0
42
0.000000001
43
0.0000000001
44
0.0000000001
40
0
40
0
40
0
40
0
40
1
40
1
40
1
40
1
41
1
41
1
41
1
41
1
10
-3.7599077106449998
20
2.9885646329430169
30
0
10
-4.0246982307028025
20
2.9736470815863383
30
0
10
-4.226088303892559
20
2.8468456187821372
30
0
10
-4.3715367058926091
20
2.6268086063965326
30
0
0
SPLINE
5
227
100
AcDbEntity
8
0
100
AcDbSpline
70
4
71
3
72
8
73
4
74
0
42
0.000000001
43
0.0000000001
44
0.0000000001
40
0
40
0
40
0
40
0
40
1
40
1
40
1
40
1
41
1
41
1
41
1
41
1
10
-4.3715367058926091
20
2.6268086063965326
30
0
10
-4.3789954815709482
20
2.6118910550398531
30
0
10
-4.3827251539441709
20
2.5932438313099504
30
0
10
-4.3827251539441709
20
2.5745966075800486
30
0
0
SPLINE
5
228
100
AcDbEntity
8
0
100
AcDbSpline
70
4
71
3
72
8
73
4
74
0
42
0.000000001
43
0.0000000001
44
0.0000000001
40
0
40
0
40
0
40
0
40
1
40
1
40
1
40
1
41
1
41
1
41
1
41
1
10
-4.3827251539441709
20
2.5745966075800486
30
0
10
-4.3827251539441709
20
2.2240290290851261
30
0
10
-4.3827251539441709
20
1.8734608815220968
30
0
10
-4.3827251539441709
20
1.5228933030271752
30
0
0
SPLINE
5
229
100
AcDbEntity
8
0
100
AcDbSpline
70
4
71
3
72
8
73
4
74
0
42
0.000000001
43
0.0000000001
44
0.0000000001
40
0
40
0
40
0
40
0
40
1
40
1
40
1
40
1
41
1
41
1
41
1
41
1
10
-4.3827251539441709
20
1.5228933030271752
30
0
10
-4.3827251539441709
20
1.5005164069240489
30
0
10
-4.3789957661050023
20
1.4818691831941471
30
0
10
-4.3640779302142692
20
1.4632219594642439
30
0
0
SPLINE
5
230
100
AcDbEntity
8
0
100
AcDbSpline
70
4
71
3
72
8
73
4
74
0
42
0.000000001
43
0.0000000001
44
0.0000000001
40
0
40
0
40
0
40
0
40
1
40
1
40
1
40
1
41
1
41
1
41
1
41
1
10
-4.3640779302142692
20
1.4632219594642439
30
0
10
-4.2111707525358799
20
1.2431849470786389
30
0
10
-4.0135100671852939
20
1.0716302611362936
30
0
10
-3.7785552189089553
20
0.94482936740020074
30
0
0
SPLINE
5
231
100
AcDbEntity
8
0
100
AcDbSpline
70
4
71
3
72
8
73
4
74
0
42
0.000000001
43
0.0000000001
44
0.0000000001
40
0
40
0
40
0
40
0
40
1
40
1
40
1
40
1
41
1
41
1
41
1
41
1
10
-3.7785552189089553
20
0.94482936740020074
30
0
10
-3.5808945335583688
20
0.83667569739400982
30
0
10
-3.3645869090119329
20
0.77327468145785527
30
0
10
-3.1445498966263274
20
0.73970990637127454
30
0
0
SPLINE
5
232
100
AcDbEntity
8
0
100
AcDbSpline
70
4
71
3
72
8
73
4
74
0
42
0.000000001
43
0.0000000001
44
0.0000000001
40
0
40
0
40
0
40
0
40
1
40
1
40
1
40
1
41
1
41
1
41
1
41
1
10
-3.1445498966263274
20
0.73970990637127454
30
0
10
-3.0550434503500385
20
0.72479235501459438
30
0
10
-2.9655364350056432
20
0.71733301026814822
30
0
10
-2.8685712130510148
20
0.70614513128469247
30
0
0
SPLINE
5
233
100
AcDbEntity
8
0
100
AcDbSpline
70
4
71
3
72
8
73
4
74
0
42
0.000000001
43
0.0000000001
44
0.0000000001
40
0
40
0
40
0
40
0
40
1
40
1
40
1
40
1
41
1
41
1
41
1
41
1
10
-2.8685712130510148
20
0.70614513128469247
30
0
10
-2.9058656605108193
20
0.80684002561254475
30
0
10
-2.9394304355974015
20
0.90007614426205551
30
0
10
-2.976724883057206
20
0.9933122629115676
30
0
0
SPLINE
5
234
100
AcDbEntity
8
0
100
AcDbSpline
70
4
71
3
72
8
73
4
74
0
42
0.000000001
43
0.0000000001
44
0.0000000001
40
0
40
0
40
0
40
0
40
1
40
1
40
1
40
1
41
1
41
1
41
1
41
1
10
-2.976724883057206
20
0.9933122629115676
30
0
10
-2.9953721067871082
20
0.98958259053834452
30
0
10
-3.0102896581437872
20
0.98958259053834452
30
0
10
-3.0214781061953504
20
0.98585348723322885
30
0
0
SPLINE
5
235
100
AcDbEntity
8
0
100
AcDbSpline
70
4
71
3
72
8
73
4
74
0
42
0.000000001
43
0.0000000001
44
0.0000000001
40
0
40
0
40
0
40
0
40
1
40
1
40
1
40
1
41
1
41
1
41
1
41
1
10
-3.0214781061953504
20
0.98585348723322885
30
0
10
-3.2004915678160346
20
0.95974748782498687
30
0
10
-3.3720459692243261
20
1.0902780539343027
30
0
10
-3.3944225807933983
20
1.2692915155549882
30
0
0
SPLINE
5
236
100
AcDbEntity
8
0
100
AcDbSpline
70
4
71
3
72
8
73
4
74
0
42
0.000000001
43
0.0000000001
44
0.0000000001
40
0
40
0
40
0
40
0
40
1
40
1
40
1
40
1
41
1
41
1
41
1
41
1
10
-3.3944225807933983
20
1.2692915155549882
30
0
10
-3.4093404166841306
20
1.4072808573426443
30
0
10
-3.3608575211727629
20
1.5191641997220582
30
0
10
-3.2676214025232508
20
1.6198590940499105
30
0
0
SPLINE
5
237
100
AcDbEntity
8
0
100
AcDbSpline
70
4
71
3
72
8
73
4
74
0
42
0.000000001
43
0.0000000001
44
0.0000000001
40
0
40
0
40
0
40
0
40
1
40
1
40
1
40
1
41
1
41
1
41
1
41
1
10
-3.2676214025232508
20
1.6198590940499105
30
0
10
-3.2564321008695281
20
1.6310469730333661
30
0
10
-3.2415145495128486
20
1.6422354210849279
30
0
10
-3.2265969981561695
20
1.6496941967632681
30
0
0
SPLINE
5
238
100
AcDbEntity
8
0
100
AcDbSpline
70
4
71
3
72
8
73
4
74
0
42
0.000000001
43
0.0000000001
44
0.0000000001
40
0
40
0
40
0
40
0
40
1
40
1
40
1
40
1
41
1
41
1
41
1
41
1
10
5.1721130250463538
20
1.2208080509755126
30
0
10
5.1795723697928002
20
1.2170783786022896
30
0
10
5.183300904029811
20
1.2170783786022896
30
0
10
5.1870305764030338
20
1.213349275297174
30
0
0
SPLINE
5
239
100
AcDbEntity
8
0
100
AcDbSpline
70
4
71
3
72
8
73
4
74
0
42
0.000000001
43
0.0000000001
44
0.0000000001
40
0
40
0
40
0
40
0
40
1
40
1
40
1
40
1
41
1
41
1
41
1
41
1
10
5.1870305764030338
20
1.213349275297174
30
0
10
5.2616194713226445
20
1.1648663797858057
30
0
10
5.3287490214958053
20
1.1723251554641456
30
0
10
5.3996093821784079
20
1.2208080509755126
30
0
0
SPLINE
5
240
100
AcDbEntity
8
0
100
AcDbSpline
70
4
71
3
72
8
73
4
74
0
42
0.000000001
43
0.0000000001
44
0.0000000001
40
0
40
0
40
0
40
0
40
1
40
1
40
1
40
1
41
1
41
1
41
1
41
1
10
5.3996093821784079
20
1.2208080509755126
30
0
10
5.5189520693042677
20
1.306585393946686
30
0
10
5.5972694984608866
20
1.4221978396312156
30
0
10
5.6420232906671393
20
1.560187750486979
30
0
0
SPLINE
5
241
100
AcDbEntity
8
0
100
AcDbSpline
70
4
71
3
72
8
73
4
74
0
42
0.000000001
43
0.0000000001
44
0.0000000001
40
0
40
0
40
0
40
0
40
1
40
1
40
1
40
1
41
1
41
1
41
1
41
1
10
5.6420232906671393
20
1.560187750486979
30
0
10
5.6942352894836228
20
1.7242830916828775
30
0
10
5.6979649618568464
20
1.8883790019468829
30
0
10
5.6681298591434857
20
2.0562040155160046
30
0
0
SPLINE
5
242
100
AcDbEntity
8
0
100
AcDbSpline
70
4
71
3
72
8
73
4
74
0
42
0.000000001
43
0.0000000001
44
0.0000000001
40
0
40
0
40
0
40
0
40
1
40
1
40
1
40
1
41
1
41
1
41
1
41
1
10
5.6681298591434857
20
2.0562040155160046
30
0
10
5.6494826354135848
20
2.1606285822170794
30
0
10
5.6159178603270012
20
2.2650531489181538
30
0
10
5.559976189137295
20
2.3545595951944427
30
0
0
SPLINE
5
243
100
AcDbEntity
8
0
100
AcDbSpline
70
4
71
3
72
8
73
4
74
0
42
0.000000001
43
0.0000000001
44
0.0000000001
40
0
40
0
40
0
40
0
40
1
40
1
40
1
40
1
41
1
41
1
41
1
41
1
10
5.559976189137295
20
2.3545595951944427
30
0
10
5.4891169665909105
20
2.4701726099470807
30
0
10
5.3884215031949507
20
2.5484906081718064
30
0
10
5.2504327304754019
20
2.5745966075800486
30
0
0
SPLINE
5
244
100
AcDbEntity
8
0
100
AcDbSpline
70
4
71
3
72
8
73
4
74
0
42
0.000000001
43
0.0000000001
44
0.0000000001
40
0
40
0
40
0
40
0
40
1
40
1
40
1
40
1
41
1
41
1
41
1
41
1
10
5.2504327304754019
20
2.5745966075800486
30
0
10
5.1683844908093457
20
2.5895141589367272
30
0
10
5.0900670616527268
20
2.5932438313099504
30
0
10
5.0117484943598942
20
2.5671378319017082
30
0
0
SPLINE
5
245
100
AcDbEntity
8
0
100
AcDbSpline
70
4
71
3
72
8
73
4
74
0
42
0.000000001
43
0.0000000001
44
0.0000000001
40
0
40
0
40
0
40
0
40
1
40
1
40
1
40
1
41
1
41
1
41
1
41
1
10
5.0117484943598942
20
2.5671378319017082
30
0
10
5.000560615376437
20
2.4888192646088756
30
0
10
5.0042891496134478
20
1.1760548278373688
30
0
10
5.015478166733117
20
1.1387603803775637
30
0
0
SPLINE
5
246
100
AcDbEntity
8
0
100
AcDbSpline
70
4
71
3
72
8
73
4
74
0
42
0.000000001
43
0.0000000001
44
0.0000000001
40
0
40
0
40
0
40
0
40
1
40
1
40
1
40
1
41
1
41
1
41
1
41
1
10
5.015478166733117
20
1.1387603803775637
30
0
10
5.0900647853802976
20
1.1238428290208848
30
0
10
5.1273592328401039
20
1.1797845002105918
30
0
10
5.1721130250463538
20
1.2208080509755126
30
0
0
SPLINE
5
247
100
AcDbEntity
8
0
100
AcDbSpline
70
4
71
3
72
8
73
4
74
0
42
0.000000001
43
0.0000000001
44
0.0000000001
40
0
40
0
40
0
40
0
40
1
40
1
40
1
40
1
41
1
41
1
41
1
41
1
10
-4.9868948044453347
20
1.6608826448148313
30
0
10
-5.0913193711464082
20
1.7056358679529751
30
0
10
-5.1957436533134302
20
1.7205539883777612
30
0
10
-5.303897607853675
20
1.7093655403261989
30
0
0
SPLINE
5
248
100
AcDbEntity
8
0
100
AcDbSpline
70
4
71
3
72
8
73
4
74
0
42
0.000000001
43
0.0000000001
44
0.0000000001
40
0
40
0
40
0
40
0
40
1
40
1
40
1
40
1
41
1
41
1
41
1
41
1
10
-5.303897607853675
20
1.7093655403261989
30
0
10
-5.4940992329918688
20
1.6944479889695194
30
0
10
-5.6358182471527485
20
1.5788349742168823
30
0
10
-5.6805714702908929
20
1.4035511849694211
30
0
0
SPLINE
5
249
100
AcDbEntity
8
0
100
AcDbSpline
70
4
71
3
72
8
73
4
74
0
42
0.000000001
43
0.0000000001
44
0.0000000001
40
0
40
0
40
0
40
0
40
1
40
1
40
1
40
1
41
1
41
1
41
1
41
1
10
-5.6805714702908929
20
1.4035511849694211
30
0
10
-5.7402425293197696
20
1.183514172583815
30
0
10
-5.6209004112620153
20
0.96720626350332561
30
0
10
-5.4008631143423562
20
0.91872336799195875
30
0
0
SPLINE
5
250
100
AcDbEntity
8
0
100
AcDbSpline
70
4
71
3
72
8
73
4
74
0
42
0.000000001
43
0.0000000001
44
0.0000000001
40
0
40
0
40
0
40
0
40
1
40
1
40
1
40
1
41
1
41
1
41
1
41
1
10
-5.4008631143423562
20
0.91872336799195875
30
0
10
-5.2404968764515747
20
0.8814289205321536
30
0
10
-5.1136959827154813
20
0.94110026409508363
30
0
10
-5.001812640336067
20
1.0529836064744991
30
0
0
SPLINE
5
251
100
AcDbEntity
8
0
100
AcDbSpline
70
4
71
3
72
8
73
4
74
0
42
0.000000001
43
0.0000000001
44
0.0000000001
40
0
40
0
40
0
40
0
40
1
40
1
40
1
40
1
41
1
41
1
41
1
41
1
10
-5.001812640336067
20
1.0529836064744991
30
0
10
-4.9906241922845043
20
1.0641720545260609
30
0
10
-4.9868948044453347
20
1.082819278255964
30
0
10
-4.9868948044453347
20
1.0977368296126429
30
0
0
SPLINE
5
252
100
AcDbEntity
8
0
100
AcDbSpline
70
4
71
3
72
8
73
4
74
0
42
0.000000001
43
0.0000000001
44
0.0000000001
40
0
40
0
40
0
40
0
40
1
40
1
40
1
40
1
41
1
41
1
41
1
41
1
10
-4.9868948044453347
20
1.0977368296126429
30
0
10
-4.9831654166061643
20
1.1462197251240098
30
0
10
-4.9868948044453347
20
1.1947026206353781
30
0
10
-4.9868948044453347
20
1.2431849470786389
30
0
0
SPLINE
5
253
100
AcDbEntity
8
0
100
AcDbSpline
70
4
71
3
72
8
73
4
74
0
42
0.000000001
43
0.0000000001
44
0.0000000001
40
0
40
0
40
0
40
0
40
1
40
1
40
1
40
1
41
1
41
1
41
1
41
1
10
-4.9868948044453347
20
1.2431849470786389
30
0
10
-4.9868948044453347
20
1.3774451855611793
30
0
10
-4.9868948044453347
20
1.5154345273488352
30
0
10
-4.9868948044453347
20
1.6608826448148313
30
0
0
SPLINE
5
254
100
AcDbEntity
8
0
100
AcDbSpline
70
4
71
3
72
8
73
4
74
0
42
0.000000001
43
0.0000000001
44
0.0000000001
40
0
40
0
40
0
40
0
40
1
40
1
40
1
40
1
41
1
41
1
41
1
41
1
10
-4.0470745577378215
20
3.8351490455350716
30
0
10
-4.0619923936285547
20
3.8202312096443389
30
0
10
-4.0769102295192869
20
3.8127724339659994
30
0
10
-4.0880983930367965
20
3.8015839859144362
30
0
0
SPLINE
5
255
100
AcDbEntity
8
0
100
AcDbSpline
70
4
71
3
72
8
73
4
74
0
42
0.000000001
43
0.0000000001
44
0.0000000001
40
0
40
0
40
0
40
0
40
1
40
1
40
1
40
1
41
1
41
1
41
1
41
1
10
-4.0880983930367965
20
3.8015839859144362
30
0
10
-4.1887932873646481
20
3.7120772551040946
30
0
10
-4.2783000181749902
20
3.615111748615413
30
0
10
-4.3603479733069923
20
3.5069577940751682
30
0
0
SPLINE
5
256
100
AcDbEntity
8
0
100
AcDbSpline
70
4
71
3
72
8
73
4
74
0
42
0.000000001
43
0.0000000001
44
0.0000000001
40
0
40
0
40
0
40
0
40
1
40
1
40
1
40
1
41
1
41
1
41
1
41
1
10
-4.3603479733069923
20
3.5069577940751682
30
0
10
-4.3789951970368941
20
3.4845811825060955
30
0
10
-4.386453972715235
20
3.4622045709370237
30
0
10
-4.386453972715235
20
3.4323688991555588
30
0
0
SPLINE
5
257
100
AcDbEntity
8
0
100
AcDbSpline
70
4
71
3
72
8
73
4
74
0
42
0.000000001
43
0.0000000001
44
0.0000000001
40
0
40
0
40
0
40
0
40
1
40
1
40
1
40
1
41
1
41
1
41
1
41
1
10
-4.386453972715235
20
3.4323688991555588
30
0
10
-4.386453972715235
20
3.2496260496957046
30
0
10
-4.386453972715235
20
3.0668832002358504
30
0
10
-4.386453972715235
20
2.8804109629368262
30
0
0
SPLINE
5
258
100
AcDbEntity
8
0
100
AcDbSpline
70
4
71
3
72
8
73
4
74
0
42
0.000000001
43
0.0000000001
44
0.0000000001
40
0
40
0
40
0
40
0
40
1
40
1
40
1
40
1
41
1
41
1
41
1
41
1
10
-4.386453972715235
20
2.8804109629368262
30
0
10
-4.386453972715235
20
2.8692225148852635
30
0
10
-4.386453972715235
20
2.854304963528584
30
0
10
-4.3827245848760645
20
2.8319280674254586
30
0
0
SPLINE
5
259
100
AcDbEntity
8
0
100
AcDbSpline
70
4
71
3
72
8
73
4
74
0
42
0.000000001
43
0.0000000001
44
0.0000000001
40
0
40
0
40
0
40
0
40
1
40
1
40
1
40
1
41
1
41
1
41
1
41
1
10
-4.3827245848760645
20
2.8319280674254586
30
0
10
-4.2074407956286031
20
2.99975308099458
30
0
10
-4.0060507224388466
20
3.081800751592529
30
0
10
-3.7673662017892853
20
3.0855304239657522
30
0
0
SPLINE
5
260
100
AcDbEntity
8
0
100
AcDbSpline
70
4
71
3
72
8
73
4
74
0
42
0.000000001
43
0.0000000001
44
0.0000000001
40
0
40
0
40
0
40
0
40
1
40
1
40
1
40
1
41
1
41
1
41
1
41
1
10
-3.7673662017892853
20
3.0855304239657522
30
0
10
-3.8606023204387978
20
3.3391327805060467
30
0
10
-3.9538384390883099
20
3.5852763613680008
30
0
10
-4.0470745577378215
20
3.8351490455350716
30
0
0
SPLINE
5
261
100
AcDbEntity
8
0
100
AcDbSpline
70
4
71
3
72
8
73
4
74
0
42
0.000000001
43
0.0000000001
44
0.0000000001
40
0
40
0
40
0
40
0
40
1
40
1
40
1
40
1
41
1
41
1
41
1
41
1
10
3.4752156656252366
20
3.6822418678566824
30
0
10
3.4752156656252366
20
4.0402685065639981
30
0
10
3.4752156656252366
20
4.3908363695929733
30
0
10
3.4752156656252366
20
4.7376745602487267
30
0
0
SPLINE
5
262
100
AcDbEntity
8
0
100
AcDbSpline
70
4
71
3
72
8
73
4
74
0
42
0.000000001
43
0.0000000001
44
0.0000000001
40
0
40
0
40
0
40
0
40
1
40
1
40
1
40
1
41
1
41
1
41
1
41
1
10
3.4752156656252366
20
4.7376745602487267
30
0
10
3.4714859932520135
20
4.7376745602487267
30
0
10
3.4677563208787907
20
4.7376745602487267
30
0
10
3.4677563208787907
20
4.7414039480878953
30
0
0
SPLINE
5
263
100
AcDbEntity
8
0
100
AcDbSpline
70
4
71
3
72
8
73
4
74
0
42
0.000000001
43
0.0000000001
44
0.0000000001
40
0
40
0
40
0
40
0
40
1
40
1
40
1
40
1
41
1
41
1
41
1
41
1
10
3.4677563208787907
20
4.7414039480878953
30
0
10
3.3521433061261523
20
4.4094833087888228
30
0
10
3.2365302913735152
20
4.0812920573289189
30
0
10
3.1209184147570914
20
3.7456420301906759
30
0
0
SPLINE
5
264
100
AcDbEntity
8
0
100
AcDbSpline
70
4
71
3
72
8
73
4
74
0
42
0.000000001
43
0.0000000001
44
0.0000000001
40
0
40
0
40
0
40
0
40
1
40
1
40
1
40
1
41
1
41
1
41
1
41
1
10
3.1209184147570914
20
3.7456420301906759
30
0
10
3.2439896361199612
20
3.7419129268855595
30
0
10
3.355872978499375
20
3.7158069274773173
30
0
10
3.4752156656252366
20
3.6822418678566824
30
0
0
SPLINE
5
265
100
AcDbEntity
8
0
100
AcDbSpline
70
4
71
3
72
8
73
4
74
0
42
0.000000001
43
0.0000000001
44
0.0000000001
40
0
40
0
40
0
40
0
40
1
40
1
40
1
40
1
41
1
41
1
41
1
41
1
10
-4.371536421358555
20
4.6966507249497509
30
0
10
-4.3752658091977255
20
4.6966507249497509
30
0
10
-4.3789951970368941
20
4.6966507249497509
30
0
10
-4.3827248694101186
20
4.6929213371105813
30
0
0
SPLINE
5
266
100
AcDbEntity
8
0
100
AcDbSpline
70
4
71
3
72
8
73
4
74
0
42
0.000000001
43
0.0000000001
44
0.0000000001
40
0
40
0
40
0
40
0
40
1
40
1
40
1
40
1
41
1
41
1
41
1
41
1
10
-4.3827248694101186
20
4.6929213371105813
30
0
10
-4.3827248694101186
20
4.6518975018116073
30
0
10
-4.3827248694101186
20
4.6071439941394088
30
0
10
-4.3827248694101186
20
4.5661201588404348
30
0
0
SPLINE
5
267
100
AcDbEntity
8
0
100
AcDbSpline
70
4
71
3
72
8
73
4
74
0
42
0.000000001
43
0.0000000001
44
0.0000000001
40
0
40
0
40
0
40
0
40
1
40
1
40
1
40
1
41
1
41
1
41
1
41
1
10
-4.3827248694101186
20
4.5661201588404348
30
0
10
-4.3827248694101186
20
4.5213669357022903
30
0
10
-4.3827248694101186
20
4.4803428158692622
30
0
10
-4.3827248694101186
20
4.4355895927311177
30
0
0
SPLINE
5
268
100
AcDbEntity
8
0
100
AcDbSpline
70
4
71
3
72
8
73
4
74
0
42
0.000000001
43
0.0000000001
44
0.0000000001
40
0
40
0
40
0
40
0
40
1
40
1
40
1
40
1
41
1
41
1
41
1
41
1
10
-4.3827248694101186
20
4.4355895927311177
30
0
10
-4.3827248694101186
20
4.3908363695929733
30
0
10
-4.3827248694101186
20
4.3460828619207756
30
0
10
-4.3827248694101186
20
4.3013296387826312
30
0
0
SPLINE
5
269
100
AcDbEntity
8
0
100
AcDbSpline
70
4
71
3
72
8
73
4
74
0
42
0.000000001
43
0.0000000001
44
0.0000000001
40
0
40
0
40
0
40
0
40
1
40
1
40
1
40
1
41
1
41
1
41
1
41
1
10
-4.3827248694101186
20
4.3013296387826312
30
0
10
-4.3827248694101186
20
4.2565764156444867
30
0
10
-4.3827248694101186
20
4.2155522958114586
30
0
10
-4.3827248694101186
20
4.1707990726733151
30
0
0
SPLINE
5
270
100
AcDbEntity
8
0
100
AcDbSpline
70
4
71
3
72
8
73
4
74
0
42
0.000000001
43
0.0000000001
44
0.0000000001
40
0
40
0
40
0
40
0
40
1
40
1
40
1
40
1
41
1
41
1
41
1
41
1
10
-4.3827248694101186
20
4.1707990726733151
30
0
10
-4.3827248694101186
20
4.1260458495351706
30
0
10
-4.3827248694101186
20
4.0850217297021425
30
0
10
-4.3827248694101186
20
4.0402685065639981
30
0
0
SPLINE
5
271
100
AcDbEntity
8
0
100
AcDbSpline
70
4
71
3
72
8
73
4
74
0
42
0.000000001
43
0.0000000001
44
0.0000000001
40
0
40
0
40
0
40
0
40
1
40
1
40
1
40
1
41
1
41
1
41
1
41
1
10
-4.3827248694101186
20
4.0402685065639981
30
0
10
-4.3827248694101186
20
3.9955152834258536
30
0
10
-4.3827248694101186
20
3.9544911635928255
30
0
10
-4.3827248694101186
20
3.909737940454681
30
0
0
SPLINE
5
272
100
AcDbEntity
8
0
100
AcDbSpline
70
4
71
3
72
8
73
4
74
0
42
0.000000001
43
0.0000000001
44
0.0000000001
40
0
40
0
40
0
40
0
40
1
40
1
40
1
40
1
41
1
41
1
41
1
41
1
10
-4.3827248694101186
20
3.909737940454681
30
0
10
-4.3827248694101186
20
3.8649847173165366
30
0
10
-4.3827248694101186
20
3.8202312096443389
30
0
10
-4.3827248694101186
20
3.7754779865061945
30
0
0
SPLINE
5
273
100
AcDbEntity
8
0
100
AcDbSpline
70
4
71
3
72
8
73
4
74
0
42
0.000000001
43
0.0000000001
44
0.0000000001
40
0
40
0
40
0
40
0
40
1
40
1
40
1
40
1
41
1
41
1
41
1
41
1
10
-4.3827248694101186
20
3.7754779865061945
30
0
10
-4.3827248694101186
20
3.73445415120722
30
0
10
-4.3864542572492873
20
3.6934303159082456
30
0
10
-4.3789954815709482
20
3.6486768082360475
30
0
0
SPLINE
5
274
100
AcDbEntity
8
0
100
AcDbSpline
70
4
71
3
72
8
73
4
74
0
42
0.000000001
43
0.0000000001
44
0.0000000001
40
0
40
0
40
0
40
0
40
1
40
1
40
1
40
1
41
1
41
1
41
1
41
1
10
-4.3789954815709482
20
3.6486768082360475
30
0
10
-4.2783005872430966
20
3.7493717025638986
30
0
10
-4.1850644685935849
20
3.8463374935866348
30
0
10
-4.0880986775708497
20
3.9470323879144864
30
0
0
SPLINE
5
275
100
AcDbEntity
8
0
100
AcDbSpline
70
4
71
3
72
8
73
4
74
0
42
0.000000001
43
0.0000000001
44
0.0000000001
40
0
40
0
40
0
40
0
40
1
40
1
40
1
40
1
41
1
41
1
41
1
41
1
10
-4.0880986775708497
20
3.9470323879144864
30
0
10
-4.1850641840595317
20
4.1931756842423864
30
0
10
-4.2783003027090425
20
4.4430486529435109
30
0
10
-4.371536421358555
20
4.6966507249497509
30
0
0
SPLINE
5
276
100
AcDbEntity
8
0
100
AcDbSpline
70
4
71
3
72
8
73
4
74
0
42
0.000000001
43
0.0000000001
44
0.0000000001
40
0
40
0
40
0
40
0
40
1
40
1
40
1
40
1
41
1
41
1
41
1
41
1
10
-4.3827245848760645
20
1.1462191560559036
30
0
10
-4.3827245848760645
20
0.97839414248678136
30
0
10
-4.3827245848760645
20
0.82548668027433914
30
0
10
-4.3827245848760645
20
0.67257978713000444
30
0
0
SPLINE
5
277
100
AcDbEntity
8
0
100
AcDbSpline
70
4
71
3
72
8
73
4
74
0
42
0.000000001
43
0.0000000001
44
0.0000000001
40
0
40
0
40
0
40
0
40
1
40
1
40
1
40
1
41
1
41
1
41
1
41
1
10
-4.3827245848760645
20
0.67257978713000444
30
0
10
-4.3342416893646973
20
0.66139133907844128
30
0
10
-3.8643317082779669
20
0.66139133907844128
30
0
10
-3.8233078729789924
20
0.67630945950322752
30
0
0
SPLINE
5
278
100
AcDbEntity
8
0
100
AcDbSpline
70
4
71
3
72
8
73
4
74
0
42
0.000000001
43
0.0000000001
44
0.0000000001
40
0
40
0
40
0
40
0
40
1
40
1
40
1
40
1
41
1
41
1
41
1
41
1
10
-3.8233078729789924
20
0.67630945950322752
30
0
10
-4.035886394220312
20
0.79192190518775851
30
0
10
-4.2186289591461126
20
0.94855903977342371
30
0
10
-4.3827245848760645
20
1.1462191560559036
30
0
0
SPLINE
5
279
100
AcDbEntity
8
0
100
AcDbSpline
70
4
71
3
72
8
73
4
74
0
42
0.000000001
43
0.0000000001
44
0.0000000001
40
0
40
0
40
0
40
0
40
1
40
1
40
1
40
1
41
1
41
1
41
1
41
1
10
-5.7439719171589401
20
-4.6940915437767696
30
0
10
-5.7253246934290365
20
-4.6866321990303232
30
0
10
-5.7029480818599652
20
-4.6791739924200888
30
0
10
-5.6843008581300616
20
-4.6679849753004197
30
0
0
SPLINE
5
280
100
AcDbEntity
8
0
100
AcDbSpline
70
4
71
3
72
8
73
4
74
0
42
0.000000001
43
0.0000000001
44
0.0000000001
40
0
40
0
40
0
40
0
40
1
40
1
40
1
40
1
41
1
41
1
41
1
41
1
10
-5.6843008581300616
20
-4.6679849753004197
30
0
10
-5.3561096066701586
20
-4.5337247368178799
30
0
10
-5.1696373693711344
20
-4.2838526217189168
30
0
10
-5.0801309230948464
20
-3.9519311288176833
30
0
0
SPLINE
5
281
100
AcDbEntity
8
0
100
AcDbSpline
70
4
71
3
72
8
73
4
74
0
42
0.000000001
43
0.0000000001
44
0.0000000001
40
0
40
0
40
0
40
0
40
1
40
1
40
1
40
1
41
1
41
1
41
1
41
1
10
-5.0801309230948464
20
-3.9519311288176833
30
0
10
-5.0279186397443096
20
-3.7617292191454363
30
0
10
-5.001812640336067
20
-3.5677987752361791
30
0
10
-4.9943535801236738
20
-3.3738671931907089
30
0
0
SPLINE
5
282
100
AcDbEntity
8
0
100
AcDbSpline
70
4
71
3
72
8
73
4
74
0
42
0.000000001
43
0.0000000001
44
0.0000000001
40
0
40
0
40
0
40
0
40
1
40
1
40
1
40
1
41
1
41
1
41
1
41
1
10
-4.9943535801236738
20
-3.3738671931907089
30
0
10
-4.9943535801236738
20
-3.3477606247143594
30
0
10
-5.0055420281752365
20
-3.3328430733576808
30
0
10
-5.0204595795319156
20
-3.3179255220010018
30
0
0
SPLINE
5
283
100
AcDbEntity
8
0
100
AcDbSpline
70
4
71
3
72
8
73
4
74
0
42
0.000000001
43
0.0000000001
44
0.0000000001
40
0
40
0
40
0
40
0
40
1
40
1
40
1
40
1
41
1
41
1
41
1
41
1
10
-5.1659079815319648
20
-2.7958032575637342
30
0
10
-5.188284593101038
20
-2.80699113654719
30
0
10
-5.2032024289917702
20
-2.814450481293636
30
0
10
-5.2181202648825025
20
-2.8256383602770931
30
0
0
SPLINE
5
284
100
AcDbEntity
8
0
100
AcDbSpline
70
4
71
3
72
8
73
4
74
0
42
0.000000001
43
0.0000000001
44
0.0000000001
40
0
40
0
40
0
40
0
40
1
40
1
40
1
40
1
41
1
41
1
41
1
41
1
10
-5.2181202648825025
20
-2.8256383602770931
30
0
10
-5.4045925021815266
20
-2.9226041512998284
30
0
10
-5.5985235151588899
20
-2.9375217026565075
30
0
10
-5.7924548126703064
20
-2.8554734629904508
30
0
0
SPLINE
5
285
100
AcDbEntity
8
0
100
AcDbSpline
70
4
71
3
72
8
73
4
74
0
42
0.000000001
43
0.0000000001
44
0.0000000001
40
0
40
0
40
0
40
0
40
1
40
1
40
1
40
1
41
1
41
1
41
1
41
1
10
-5.7924548126703064
20
-2.8554734629904508
30
0
10
-6.0162214974291359
20
-2.7585076719677155
30
0
10
-6.1206459218631837
20
-2.5459300043285569
30
0
10
-6.0945397801879153
20
-2.3296215261799604
30
0
0
SPLINE
5
286
100
AcDbEntity
8
0
100
AcDbSpline
70
4
71
3
72
8
73
4
74
0
42
0.000000001
43
0.0000000001
44
0.0000000001
40
0
40
0
40
0
40
0
40
1
40
1
40
1
40
1
41
1
41
1
41
1
41
1
10
-6.0945397801879153
20
-2.3296215261799604
30
0
10
-6.0684336385126461
20
-2.1095845137943554
30
0
10
-5.8856909313198189
20
-1.9268419488685542
30
0
10
-5.6619242465609902
20
-1.8970057080189817
30
0
0
SPLINE
5
287
100
AcDbEntity
8
0
100
AcDbSpline
70
4
71
3
72
8
73
4
74
0
42
0.000000001
43
0.0000000001
44
0.0000000001
40
0
40
0
40
0
40
0
40
1
40
1
40
1
40
1
41
1
41
1
41
1
41
1
10
-5.6619242465609902
20
-1.8970057080189817
30
0
10
-5.5574996798599159
20
-1.8820881566623029
30
0
10
-5.4568047855320643
20
-1.8970057080189817
30
0
10
-5.3635686668825517
20
-1.9529473792086887
30
0
0
SPLINE
5
288
100
AcDbEntity
8
0
100
AcDbSpline
70
4
71
3
72
8
73
4
74
0
42
0.000000001
43
0.0000000001
44
0.0000000001
40
0
40
0
40
0
40
0
40
1
40
1
40
1
40
1
41
1
41
1
41
1
41
1
10
-5.3635686668825517
20
-1.9529473792086887
30
0
10
-5.2293087129340652
20
-2.0349956188747451
30
0
10
-5.1621785936927962
20
-2.1879019429509738
30
0
10
-5.1957436533134302
20
-2.3333511985531832
30
0
0
SPLINE
5
289
100
AcDbEntity
8
0
100
AcDbSpline
70
4
71
3
72
8
73
4
74
0
42
0.000000001
43
0.0000000001
44
0.0000000001
40
0
40
0
40
0
40
0
40
1
40
1
40
1
40
1
41
1
41
1
41
1
41
1
10
-5.1957436533134302
20
-2.3333511985531832
30
0
10
-5.2255793250948956
20
-2.4638817646625006
30
0
10
-5.3486508309918195
20
-2.5608475556852359
30
0
10
-5.4717226214227965
20
-2.5533882109387895
30
0
0
SPLINE
5
290
100
AcDbEntity
8
0
100
AcDbSpline
70
4
71
3
72
8
73
4
74
0
42
0.000000001
43
0.0000000001
44
0.0000000001
40
0
40
0
40
0
40
0
40
1
40
1
40
1
40
1
41
1
41
1
41
1
41
1
10
-5.4717226214227965
20
-2.5533882109387895
30
0
10
-5.4940992329918688
20
-2.5533882109387895
30
0
10
-5.516475844560941
20
-2.5422003319553337
30
0
10
-5.5351230682908428
20
-2.5310113148356632
30
0
0
SPLINE
5
291
100
AcDbEntity
8
0
100
AcDbSpline
70
4
71
3
72
8
73
4
74
0
42
0.000000001
43
0.0000000001
44
0.0000000001
40
0
40
0
40
0
40
0
40
1
40
1
40
1
40
1
41
1
41
1
41
1
41
1
10
-5.5351230682908428
20
-2.5310113148356632
30
0
10
-5.550040904181575
20
-2.5235519700892173
30
0
10
-5.550040904181575
20
-2.5049047463593155
30
0
10
-5.5351230682908428
20
-2.4937168673758583
30
0
0
SPLINE
5
292
100
AcDbEntity
8
0
100
AcDbSpline
70
4
71
3
72
8
73
4
74
0
42
0.000000001
43
0.0000000001
44
0.0000000001
40
0
40
0
40
0
40
0
40
1
40
1
40
1
40
1
41
1
41
1
41
1
41
1
10
-5.5351230682908428
20
-2.4937168673758583
30
0
10
-5.5276642926125037
20
-2.4862575226294119
30
0
10
-5.516475844560941
20
-2.4787993160191792
30
0
10
-5.5052873965093783
20
-2.4750696436459561
30
0
0
SPLINE
5
293
100
AcDbEntity
8
0
100
AcDbSpline
70
4
71
3
72
8
73
4
74
0
42
0.000000001
43
0.0000000001
44
0.0000000001
40
0
40
0
40
0
40
0
40
1
40
1
40
1
40
1
41
1
41
1
41
1
41
1
10
-5.5052873965093783
20
-2.4750696436459561
30
0
10
-5.4866401727794765
20
-2.4638817646625006
30
0
10
-5.4717223368887433
20
-2.4564224199160543
30
0
10
-5.4530751131588406
20
-2.4452345409325988
30
0
0
SPLINE
5
294
100
AcDbEntity
8
0
100
AcDbSpline
70
4
71
3
72
8
73
4
74
0
42
0.000000001
43
0.0000000001
44
0.0000000001
40
0
40
0
40
0
40
0
40
1
40
1
40
1
40
1
41
1
41
1
41
1
41
1
10
-5.4530751131588406
20
-2.4452345409325988
30
0
10
-5.2889794874288887
20
-2.3408105432996309
30
0
10
-5.2852500995897191
20
-2.1207723927778113
30
0
10
-5.4418866651072779
20
-2.0088890503983969
30
0
0
SPLINE
5
295
100
AcDbEntity
8
0
100
AcDbSpline
70
4
71
3
72
8
73
4
74
0
42
0.000000001
43
0.0000000001
44
0.0000000001
40
0
40
0
40
0
40
0
40
1
40
1
40
1
40
1
41
1
41
1
41
1
41
1
10
-5.4418866651072779
20
-2.0088890503983969
30
0
10
-5.5463112318083523
20
-1.9343001554787869
30
0
10
-5.661923962026937
20
-1.9305704831055637
30
0
10
-5.7812660800846905
20
-1.9827824819220476
30
0
0
SPLINE
5
296
100
AcDbEntity
8
0
100
AcDbSpline
70
4
71
3
72
8
73
4
74
0
42
0.000000001
43
0.0000000001
44
0.0000000001
40
0
40
0
40
0
40
0
40
1
40
1
40
1
40
1
41
1
41
1
41
1
41
1
10
-5.7812660800846905
20
-1.9827824819220476
30
0
10
-5.9490910936538119
20
-2.0536417044684336
30
0
10
-6.0497861302486902
20
-2.2363842693942346
30
0
10
-6.0236799885734218
20
-2.4153983000830261
30
0
0
SPLINE
5
297
100
AcDbEntity
8
0
100
AcDbSpline
70
4
71
3
72
8
73
4
74
0
42
0.000000001
43
0.0000000001
44
0.0000000001
40
0
40
0
40
0
40
0
40
1
40
1
40
1
40
1
41
1
41
1
41
1
41
1
10
-6.0236799885734218
20
-2.4153983000830261
30
0
10
-5.9975738468981525
20
-2.6018705373820503
30
0
10
-5.8558549750043003
20
-2.7398604482378137
30
0
10
-5.6731121255444465
20
-2.7696955509511714
30
0
0
SPLINE
5
298
100
AcDbEntity
8
0
100
AcDbSpline
70
4
71
3
72
8
73
4
74
0
42
0.000000001
43
0.0000000001
44
0.0000000001
40
0
40
0
40
0
40
0
40
1
40
1
40
1
40
1
41
1
41
1
41
1
41
1
10
-5.6731121255444465
20
-2.7696955509511714
30
0
10
-5.5425815594351295
20
-2.7883427746810732
30
0
10
-5.4232394413773752
20
-2.7659658785779482
30
0
10
-5.3113560989979609
20
-2.7025660007780088
30
0
0
SPLINE
5
299
100
AcDbEntity
8
0
100
AcDbSpline
70
4
71
3
72
8
73
4
74
0
42
0.000000001
43
0.0000000001
44
0.0000000001
40
0
40
0
40
0
40
0
40
1
40
1
40
1
40
1
41
1
41
1
41
1
41
1
10
-5.3113560989979609
20
-2.7025660007780088
30
0
10
-5.2330378162391815
20
-2.6578122085717575
30
0
10
-5.1621783091587421
20
-2.6018705373820503
30
0
10
-5.098777862290695
20
-2.5384706595821109
30
0
0
SPLINE
5
300
100
AcDbEntity
8
0
100
AcDbSpline
70
4
71
3
72
8
73
4
74
0
42
0.000000001
43
0.0000000001
44
0.0000000001
40
0
40
0
40
0
40
0
40
1
40
1
40
1
40
1
41
1
41
1
41
1
41
1
10
-5.098777862290695
20
-2.5384706595821109
30
0
10
-5.0764012507216227
20
-2.5160937634789846
30
0
10
-5.0577540269917209
20
-2.4899883331388497
30
0
10
-5.0353774154226478
20
-2.4750696436459561
30
0
0
SPLINE
5
301
100
AcDbEntity
8
0
100
AcDbSpline
70
4
71
3
72
8
73
4
74
0
42
0.000000001
43
0.0000000001
44
0.0000000001
40
0
40
0
40
0
40
0
40
1
40
1
40
1
40
1
41
1
41
1
41
1
41
1
10
-5.0353774154226478
20
-2.4750696436459561
30
0
10
-4.9906241922845043
20
-2.448963075169607
30
0
10
-4.9868945199112806
20
-2.4079400934727935
30
0
10
-4.9906241922845043
20
-2.3631863012665422
30
0
0
SPLINE
5
302
100
AcDbEntity
8
0
100
AcDbSpline
70
4
71
3
72
8
73
4
74
0
42
0.000000001
43
0.0000000001
44
0.0000000001
40
0
40
0
40
0
40
0
40
1
40
1
40
1
40
1
41
1
41
1
41
1
41
1
10
-4.9906241922845043
20
-2.3631863012665422
30
0
10
-4.9906241922845043
20
-2.1655261849840621
30
0
10
-4.9906241922845043
20
-1.9678649305653688
30
0
10
-4.9906241922845043
20
-1.773934486656112
30
0
0
SPLINE
5
303
100
AcDbEntity
8
0
100
AcDbSpline
70
4
71
3
72
8
73
4
74
0
42
0.000000001
43
0.0000000001
44
0.0000000001
40
0
40
0
40
0
40
0
40
1
40
1
40
1
40
1
41
1
41
1
41
1
41
1
10
-4.9906241922845043
20
-1.773934486656112
30
0
10
-4.9906241922845043
20
-1.7552872629262102
30
0
10
-4.9906241922845043
20
-1.7366400391963068
30
0
10
-4.9906241922845043
20
-1.7142631430931818
30
0
0
SPLINE
5
304
100
AcDbEntity
8
0
100
AcDbSpline
70
4
71
3
72
8
73
4
74
0
42
0.000000001
43
0.0000000001
44
0.0000000001
40
0
40
0
40
0
40
0
40
1
40
1
40
1
40
1
41
1
41
1
41
1
41
1
10
-4.9906241922845043
20
-1.7142631430931818
30
0
10
-5.3188154437444073
20
-1.7142631430931818
30
0
10
-5.639547634991918
20
-1.7142631430931818
30
0
10
-5.9640092140785983
20
-1.7142631430931818
30
0
0
SPLINE
5
305
100
AcDbEntity
8
0
100
AcDbSpline
70
4
71
3
72
8
73
4
74
0
42
0.000000001
43
0.0000000001
44
0.0000000001
40
0
40
0
40
0
40
0
40
1
40
1
40
1
40
1
41
1
41
1
41
1
41
1
10
-5.9640092140785983
20
-1.7142631430931818
30
0
10
-5.9640092140785983
20
-1.5986501283405434
30
0
10
-5.9640092140785983
20
-1.4904964583343525
30
0
10
-5.9640092140785983
20
-1.3786131159549386
30
0
0
SPLINE
5
306
100
AcDbEntity
8
0
100
AcDbSpline
70
4
71
3
72
8
73
4
74
0
42
0.000000001
43
0.0000000001
44
0.0000000001
40
0
40
0
40
0
40
0
40
1
40
1
40
1
40
1
41
1
41
1
41
1
41
1
10
6.0932851944218029
20
-1.3786131159549386
30
0
10
6.1044730734052601
20
-1.4121778910415206
30
0
10
6.1044730734052601
20
-1.6247566968168929
30
0
10
6.0970148667950292
20
-1.7142631430931818
30
0
0
SPLINE
5
307
100
AcDbEntity
8
0
100
AcDbSpline
70
4
71
3
72
8
73
4
74
0
42
0.000000001
43
0.0000000001
44
0.0000000001
40
0
40
0
40
0
40
0
40
1
40
1
40
1
40
1
41
1
41
1
41
1
41
1
10
6.0970148667950292
20
-1.7142631430931818
30
0
10
6.0485325403517685
20
-1.717992815466405
30
0
10
5.9963194033990694
20
-1.7142631430931818
30
0
10
5.944107404582585
20
-1.717992815466405
30
0
0
SPLINE
5
308
100
AcDbEntity
8
0
100
AcDbSpline
70
4
71
3
72
8
73
4
74
0
42
0.000000001
43
0.0000000001
44
0.0000000001
40
0
40
0
40
0
40
0
40
1
40
1
40
1
40
1
41
1
41
1
41
1
41
1
10
5.944107404582585
20
-1.717992815466405
30
0
10
5.8918954057661015
20
-1.717992815466405
30
0
10
5.839683406949618
20
-1.717992815466405
30
0
10
5.7874702699969189
20
-1.717992815466405
30
0
0
SPLINE
5
309
100
AcDbEntity
8
0
100
AcDbSpline
70
4
71
3
72
8
73
4
74
0
42
0.000000001
43
0.0000000001
44
0.0000000001
40
0
40
0
40
0
40
0
40
1
40
1
40
1
40
1
41
1
41
1
41
1
41
1
10
5.7874702699969189
20
-1.717992815466405
30
0
10
5.7352582711804345
20
-1.717992815466405
30
0
10
5.683046272363951
20
-1.717992815466405
30
0
10
5.6308331354112546
20
-1.717992815466405
30
0
0
SPLINE
5
310
100
AcDbEntity
8
0
100
AcDbSpline
70
4
71
3
72
8
73
4
74
0
42
0.000000001
43
0.0000000001
44
0.0000000001
40
0
40
0
40
0
40
0
40
1
40
1
40
1
40
1
41
1
41
1
41
1
41
1
10
5.6308331354112546
20
-1.717992815466405
30
0
10
5.5786211365947711
20
-1.717992815466405
30
0
10
5.5226794654050639
20
-1.717992815466405
30
0
10
5.4704674665885804
20
-1.717992815466405
30
0
0
SPLINE
5
311
100
AcDbEntity
8
0
100
AcDbSpline
70
4
71
3
72
8
73
4
74
0
42
0.000000001
43
0.0000000001
44
0.0000000001
40
0
40
0
40
0
40
0
40
1
40
1
40
1
40
1
41
1
41
1
41
1
41
1
10
5.4704674665885804
20
-1.717992815466405
30
0
10
5.418255467772096
20
-1.717992815466405
30
0
10
5.3660434689556125
20
-1.717992815466405
30
0
10
5.3138303320029134
20
-1.717992815466405
30
0
0
SPLINE
5
312
100
AcDbEntity
8
0
100
AcDbSpline
70
4
71
3
72
8
73
4
74
0
42
0.000000001
43
0.0000000001
44
0.0000000001
40
0
40
0
40
0
40
0
40
1
40
1
40
1
40
1
41
1
41
1
41
1
41
1
10
5.3138303320029134
20
-1.717992815466405
30
0
10
5.2616183331864299
20
-1.717992815466405
30
0
10
5.2094063343699455
20
-1.717992815466405
30
0
10
5.1571931974172465
20
-1.717992815466405
30
0
0
SPLINE
5
313
100
AcDbEntity
8
0
100
AcDbSpline
70
4
71
3
72
8
73
4
74
0
42
0.000000001
43
0.0000000001
44
0.0000000001
40
0
40
0
40
0
40
0
40
1
40
1
40
1
40
1
41
1
41
1
41
1
41
1
10
5.1571931974172465
20
-1.717992815466405
30
0
10
5.1049811986007629
20
-1.717992815466405
30
0
10
5.0527691997842794
20
-1.717992815466405
30
0
10
5.000556062831583
20
-1.717992815466405
30
0
0
SPLINE
5
314
100
AcDbEntity
8
0
100
AcDbSpline
70
4
71
3
72
8
73
4
74
0
42
0.000000001
43
0.0000000001
44
0.0000000001
40
0
40
0
40
0
40
0
40
1
40
1
40
1
40
1
41
1
41
1
41
1
41
1
10
5.000556062831583
20
-1.717992815466405
30
0
10
5.000556062831583
20
-1.7366400391963068
30
0
10
4.9968263904583567
20
-1.7478279181797625
30
0
10
4.9968263904583567
20
-1.7590169352994331
30
0
0
SPLINE
5
315
100
AcDbEntity
8
0
100
AcDbSpline
70
4
71
3
72
8
73
4
74
0
42
0.000000001
43
0.0000000001
44
0.0000000001
40
0
40
0
40
0
40
0
40
1
40
1
40
1
40
1
41
1
41
1
41
1
41
1
10
4.9968263904583567
20
-1.7590169352994331
30
0
10
4.9968263904583567
20
-2.0312659465015219
30
0
10
4.9968263904583567
20
-2.2997864234666028
30
0
10
4.9968263904583567
20
-2.5720354346686913
30
0
0
SPLINE
5
316
100
AcDbEntity
8
0
100
AcDbSpline
70
4
71
3
72
8
73
4
74
0
42
0.000000001
43
0.0000000001
44
0.0000000001
40
0
40
0
40
0
40
0
40
1
40
1
40
1
40
1
41
1
41
1
41
1
41
1
10
4.9968263904583567
20
-2.5720354346686913
30
0
10
4.9968263904583567
20
-2.6018705373820503
30
0
10
5.0042857352048058
20
-2.6279771058583985
30
0
10
5.0229329589347067
20
-2.6503540019615248
30
0
0
SPLINE
5
317
100
AcDbEntity
8
0
100
AcDbSpline
70
4
71
3
72
8
73
4
74
0
42
0.000000001
43
0.0000000001
44
0.0000000001
40
0
40
0
40
0
40
0
40
1
40
1
40
1
40
1
41
1
41
1
41
1
41
1
10
5.0229329589347067
20
-2.6503540019615248
30
0
10
5.0714152853779675
20
-2.7100253455244547
30
0
10
5.1273569565676747
20
-2.7622373443409387
30
0
10
5.1944876448770536
20
-2.7995317918007441
30
0
0
SPLINE
5
318
100
AcDbEntity
8
0
100
AcDbSpline
70
4
71
3
72
8
73
4
74
0
42
0.000000001
43
0.0000000001
44
0.0000000001
40
0
40
0
40
0
40
0
40
1
40
1
40
1
40
1
41
1
41
1
41
1
41
1
10
5.1944876448770536
20
-2.7995317918007441
30
0
10
5.3287478833595907
20
-2.8741206867203526
30
0
10
5.4667366560791422
20
-2.889038238077033
30
0
10
5.6084562393081283
20
-2.8330965668873245
30
0
0
SPLINE
5
319
100
AcDbEntity
8
0
100
AcDbSpline
70
4
71
3
72
8
73
4
74
0
42
0.000000001
43
0.0000000001
44
0.0000000001
40
0
40
0
40
0
40
0
40
1
40
1
40
1
40
1
41
1
41
1
41
1
41
1
10
5.6084562393081283
20
-2.8330965668873245
30
0
10
5.787469131860707
20
-2.7622373443409387
30
0
10
5.9068118189865668
20
-2.6391649848418544
30
0
10
5.9441062664463704
20
-2.4489642133058216
30
0
0
SPLINE
5
320
100
AcDbEntity
8
0
100
AcDbSpline
70
4
71
3
72
8
73
4
74
0
42
0.000000001
43
0.0000000001
44
0.0000000001
40
0
40
0
40
0
40
0
40
1
40
1
40
1
40
1
41
1
41
1
41
1
41
1
10
5.9441062664463704
20
-2.4489642133058216
30
0
10
5.9590238178030512
20
-2.3743753183862113
30
0
10
5.9515656111928168
20
-2.3035160958398255
30
0
10
5.9217293703432441
20
-2.2326568732934398
30
0
0
SPLINE
5
321
100
AcDbEntity
8
0
100
AcDbSpline
70
4
71
3
72
8
73
4
74
0
42
0.000000001
43
0.0000000001
44
0.0000000001
40
0
40
0
40
0
40
0
40
1
40
1
40
1
40
1
41
1
41
1
41
1
41
1
10
5.9217293703432441
20
-2.2326568732934398
30
0
10
5.8434108030504142
20
-2.0685615320975406
30
0
10
5.6494803591411555
20
-2.0275374122645125
30
0
10
5.5114904482853921
20
-2.1468800993903741
30
0
0
SPLINE
5
322
100
AcDbEntity
8
0
100
AcDbSpline
70
4
71
3
72
8
73
4
74
0
42
0.000000001
43
0.0000000001
44
0.0000000001
40
0
40
0
40
0
40
0
40
1
40
1
40
1
40
1
41
1
41
1
41
1
41
1
10
5.5114904482853921
20
-2.1468800993903741
30
0
10
5.4965728969287149
20
-2.1617976507470527
30
0
10
5.481655345572034
20
-2.1767152021037317
30
0
10
5.4667366560791422
20
-2.1879042192234022
30
0
0
SPLINE
5
323
100
AcDbEntity
8
0
100
AcDbSpline
70
4
71
3
72
8
73
4
74
0
42
0.000000001
43
0.0000000001
44
0.0000000001
40
0
40
0
40
0
40
0
40
1
40
1
40
1
40
1
41
1
41
1
41
1
41
1
10
5.4667366560791422
20
-2.1879042192234022
30
0
10
5.4480894323492386
20
-2.2028217705800808
30
0
10
5.4331718809925587
20
-2.1953635639698481
30
0
10
5.4294422086193359
20
-2.1692569954935004
30
0
0
SPLINE
5
324
100
AcDbEntity
8
0
100
AcDbSpline
70
4
71
3
72
8
73
4
74
0
42
0.000000001
43
0.0000000001
44
0.0000000001
40
0
40
0
40
0
40
0
40
1
40
1
40
1
40
1
41
1
41
1
41
1
41
1
10
5.4294422086193359
20
-2.1692569954935004
30
0
10
5.4219828638728895
20
-2.131962548033695
30
0
10
5.436901553365785
20
-2.0983977729471128
30
0
10
5.455548777095685
20
-2.0685615320975406
30
0
0
SPLINE
5
325
100
AcDbEntity
8
0
100
AcDbSpline
70
4
71
3
72
8
73
4
74
0
42
0.000000001
43
0.0000000001
44
0.0000000001
40
0
40
0
40
0
40
0
40
1
40
1
40
1
40
1
41
1
41
1
41
1
41
1
10
5.455548777095685
20
-2.0685615320975406
30
0
10
5.5189497930318385
20
-1.9715957410748053
30
0
10
5.6569385657513891
20
-1.9305716212417772
30
0
10
5.7725515805040262
20
-1.979055085821253
30
0
0
SPLINE
5
326
100
AcDbEntity
8
0
100
AcDbSpline
70
4
71
3
72
8
73
4
74
0
42
0.000000001
43
0.0000000001
44
0.0000000001
40
0
40
0
40
0
40
0
40
1
40
1
40
1
40
1
41
1
41
1
41
1
41
1
10
5.7725515805040262
20
-1.979055085821253
30
0
10
5.8918942676298869
20
-2.0275374122645125
30
0
10
5.9590238178030512
20
-2.1207735309140245
30
0
10
5.9814007139061776
20
-2.2438458904131089
30
0
0
SPLINE
5
327
100
AcDbEntity
8
0
100
AcDbSpline
70
4
71
3
72
8
73
4
74
0
42
0.000000001
43
0.0000000001
44
0.0000000001
40
0
40
0
40
0
40
0
40
1
40
1
40
1
40
1
41
1
41
1
41
1
41
1
10
5.9814007139061776
20
-2.2438458904131089
30
0
10
6.0261545061124266
20
-2.4713422475451616
30
0
10
5.947835938819594
20
-2.661544157217409
30
0
10
5.7762812528772498
20
-2.8107219470566278
30
0
0
SPLINE
5
328
100
AcDbEntity
8
0
100
AcDbSpline
70
4
71
3
72
8
73
4
74
0
42
0.000000001
43
0.0000000001
44
0.0000000001
40
0
40
0
40
0
40
0
40
1
40
1
40
1
40
1
41
1
41
1
41
1
41
1
10
5.7762812528772498
20
-2.8107219470566278
30
0
10
5.5599739128648675
20
-2.9971941843556507
30
0
10
5.2690765397966608
20
-3.0046535291020984
30
0
10
5.0378516484276012
20
-2.836828515532976
30
0
0
SPLINE
5
329
100
AcDbEntity
8
0
100
AcDbSpline
70
4
71
3
72
8
73
4
74
0
42
0.000000001
43
0.0000000001
44
0.0000000001
40
0
40
0
40
0
40
0
40
1
40
1
40
1
40
1
41
1
41
1
41
1
41
1
10
5.0378516484276012
20
-2.836828515532976
30
0
10
5.0266637694441441
20
-2.8293691707865296
30
0
10
5.0154747523244749
20
-2.8219109641762969
30
0
10
5.000557200967795
20
-2.8107219470566278
30
0
0
SPLINE
5
330
100
AcDbEntity
8
0
100
AcDbSpline
70
4
71
3
72
8
73
4
74
0
42
0.000000001
43
0.0000000001
44
0.0000000001
40
0
40
0
40
0
40
0
40
1
40
1
40
1
40
1
41
1
41
1
41
1
41
1
10
5.000557200967795
20
-2.8107219470566278
30
0
10
5.000557200967795
20
-2.8480163945164318
30
0
10
5.000557200967795
20
-2.8741229629927809
30
0
10
5.000557200967795
20
-2.9039580657061399
30
0
0
SPLINE
5
331
100
AcDbEntity
8
0
100
AcDbSpline
70
4
71
3
72
8
73
4
74
0
42
0.000000001
43
0.0000000001
44
0.0000000001
40
0
40
0
40
0
40
0
40
1
40
1
40
1
40
1
41
1
41
1
41
1
41
1
10
5.000557200967795
20
-2.9039580657061399
30
0
10
5.0676867511409593
20
-2.9226052894360417
30
0
10
5.1348174394503356
20
-2.9412525131659439
30
0
10
5.1982173172502764
20
-2.9636294092690703
30
0
0
SPLINE
5
332
100
AcDbEntity
8
0
100
AcDbSpline
70
4
71
3
72
8
73
4
74
0
42
0.000000001
43
0.0000000001
44
0.0000000001
40
0
40
0
40
0
40
0
40
1
40
1
40
1
40
1
41
1
41
1
41
1
41
1
10
5.1982173172502764
20
-2.9636294092690703
30
0
10
5.2243238857266254
20
-2.9710887540155162
30
0
10
5.2504293160667608
20
-2.9822766329989721
30
0
10
5.2765358845431098
20
-2.9934645119824279
30
0
0
SPLINE
5
333
100
AcDbEntity
8
0
100
AcDbSpline
70
4
71
3
72
8
73
4
74
0
42
0.000000001
43
0.0000000001
44
0.0000000001
40
0
40
0
40
0
40
0
40
1
40
1
40
1
40
1
41
1
41
1
41
1
41
1
10
5.2765358845431098
20
-2.9934645119824279
30
0
10
5.3063709872564671
20
-3.0083820633391078
30
0
10
5.3287478833595907
20
-3.0307589594422328
30
0
10
5.3362072281060398
20
-3.064323734528815
30
0
0
SPLINE
5
334
100
AcDbEntity
8
0
100
AcDbSpline
70
4
71
3
72
8
73
4
74
0
42
0.000000001
43
0.0000000001
44
0.0000000001
40
0
40
0
40
0
40
0
40
1
40
1
40
1
40
1
41
1
41
1
41
1
41
1
10
5.3362072281060398
20
-3.064323734528815
30
0
10
5.351124779462717
20
-3.1053478543618431
30
0
10
5.3287478833595907
20
-3.1389126294484235
30
0
10
5.287724901662779
20
-3.1426423018216467
30
0
0
SPLINE
5
335
100
AcDbEntity
8
0
100
AcDbSpline
70
4
71
3
72
8
73
4
74
0
42
0.000000001
43
0.0000000001
44
0.0000000001
40
0
40
0
40
0
40
0
40
1
40
1
40
1
40
1
41
1
41
1
41
1
41
1
10
5.287724901662779
20
-3.1426423018216467
30
0
10
5.2429711094565263
20
-3.1501016465680944
30
0
10
5.2056766619967227
20
-3.1351829570752008
30
0
10
5.1721118869101419
20
-3.1053478543618431
30
0
0
SPLINE
5
336
100
AcDbEntity
8
0
100
AcDbSpline
70
4
71
3
72
8
73
4
74
0
42
0.000000001
43
0.0000000001
44
0.0000000001
40
0
40
0
40
0
40
0
40
1
40
1
40
1
40
1
41
1
41
1
41
1
41
1
10
5.1721118869101419
20
-3.1053478543618431
30
0
10
5.1273580947038893
20
-3.0680534069020378
30
0
10
5.0863351130070749
20
-3.0270292870690096
30
0
10
5.0453109931740476
20
-2.9860051672359815
30
0
0
SPLINE
5
337
100
AcDbEntity
8
0
100
AcDbSpline
70
4
71
3
72
8
73
4
74
0
42
0.000000001
43
0.0000000001
44
0.0000000001
40
0
40
0
40
0
40
0
40
1
40
1
40
1
40
1
41
1
41
1
41
1
41
1
10
5.0453109931740476
20
-2.9860051672359815
30
0
10
5.0341231141905904
20
-2.9748172882525257
30
0
10
5.0229340970709213
20
-2.959898598759632
30
0
10
5.0117462180874641
20
-2.9449810474029534
30
0
0
SPLINE
5
338
100
AcDbEntity
8
0
100
AcDbSpline
70
4
71
3
72
8
73
4
74
0
42
0.000000001
43
0.0000000001
44
0.0000000001
40
0
40
0
40
0
40
0
40
1
40
1
40
1
40
1
41
1
41
1
41
1
41
1
10
5.0117462180874641
20
-2.9449810474029534
30
0
10
4.9893693219843405
20
-2.9934633738462142
30
0
10
4.9968286667307868
20
-3.0083820633391078
30
0
10
5.0192055628339132
20
-3.0419468384256887
30
0
0
SPLINE
5
339
100
AcDbEntity
8
0
100
AcDbSpline
70
4
71
3
72
8
73
4
74
0
42
0.000000001
43
0.0000000001
44
0.0000000001
40
0
40
0
40
0
40
0
40
1
40
1
40
1
40
1
41
1
41
1
41
1
41
1
10
5.0192055628339132
20
-3.0419468384256887
30
0
10
5.0826065787700667
20
-3.1239950780917449
30
0
10
5.1422767841967811
20
-3.2097718519948111
30
0
10
5.1982184553864883
20
-3.2955486258978754
30
0
0
SPLINE
5
340
100
AcDbEntity
8
0
100
AcDbSpline
70
4
71
3
72
8
73
4
74
0
42
0.000000001
43
0.0000000001
44
0.0000000001
40
0
40
0
40
0
40
0
40
1
40
1
40
1
40
1
41
1
41
1
41
1
41
1
10
5.1982184553864883
20
-3.2955486258978754
30
0
10
5.2168656791163919
20
-3.321655194374225
30
0
10
5.2168656791163919
20
-3.3589496418340299
30
0
10
5.2205953514896146
20
-3.3925144169206107
30
0
0
SPLINE
5
341
100
AcDbEntity
8
0
100
AcDbSpline
70
4
71
3
72
8
73
4
74
0
42
0.000000001
43
0.0000000001
44
0.0000000001
40
0
40
0
40
0
40
0
40
1
40
1
40
1
40
1
41
1
41
1
41
1
41
1
10
5.2205953514896146
20
-3.3925144169206107
30
0
10
5.2243250238628383
20
-3.4186209853969602
30
0
10
5.2094074725061601
20
-3.4409967433638715
30
0
10
5.183300904029811
20
-3.4521857604835406
30
0
0
SPLINE
5
342
100
AcDbEntity
8
0
100
AcDbSpline
70
4
71
3
72
8
73
4
74
0
42
0.000000001
43
0.0000000001
44
0.0000000001
40
0
40
0
40
0
40
0
40
1
40
1
40
1
40
1
41
1
41
1
41
1
41
1
10
5.183300904029811
20
-3.4521857604835406
30
0
10
5.157194335553462
20
-3.4633736394669978
30
0
10
5.1273592328401039
20
-3.4596451052299884
30
0
10
5.1087120091102012
20
-3.437268209126862
30
0
0
SPLINE
5
343
100
AcDbEntity
8
0
100
AcDbSpline
70
4
71
3
72
8
73
4
74
0
42
0.000000001
43
0.0000000001
44
0.0000000001
40
0
40
0
40
0
40
0
40
1
40
1
40
1
40
1
41
1
41
1
41
1
41
1
10
5.1087120091102012
20
-3.437268209126862
30
0
10
5.0863351130070749
20
-3.4111616406505139
30
0
10
5.0639582169039485
20
-3.3813265379371549
30
0
10
5.0565000102937168
20
-3.3477617628505745
30
0
0
SPLINE
5
344
100
AcDbEntity
8
0
100
AcDbSpline
70
4
71
3
72
8
73
4
74
0
42
0.000000001
43
0.0000000001
44
0.0000000001
40
0
40
0
40
0
40
0
40
1
40
1
40
1
40
1
41
1
41
1
41
1
41
1
10
4.993100132493776
20
-4.3360634823991866
30
0
10
4.993100132493776
20
-4.3882754812156701
30
0
10
5.0005594772402251
20
-4.4404874800321545
30
0
10
5.0117473562236787
20
-4.4889709446116282
30
0
0
SPLINE
5
345
100
AcDbEntity
8
0
100
AcDbSpline
70
4
71
3
72
8
73
4
74
0
42
0.000000001
43
0.0000000001
44
0.0000000001
40
0
40
0
40
0
40
0
40
1
40
1
40
1
40
1
41
1
41
1
41
1
41
1
10
5.0117473562236787
20
-4.4889709446116282
30
0
10
5.0453121313102596
20
-4.6195015107209469
30
0
10
5.1310900433495394
20
-4.709007956997235
30
0
10
5.2504315923391873
20
-4.7686793005601649
30
0
0
SPLINE
5
346
100
AcDbEntity
8
0
100
AcDbSpline
70
4
71
3
72
8
73
4
74
0
42
0.000000001
43
0.0000000001
44
0.0000000001
40
0
40
0
40
0
40
0
40
1
40
1
40
1
40
1
41
1
41
1
41
1
41
1
10
5.2504315923391873
20
-4.7686793005601649
30
0
10
5.3399380386154753
20
-4.8134330927664175
30
0
10
5.4369038296382115
20
-4.839538523106552
30
0
10
5.533869620660945
20
-4.8469978678529984
30
0
0
SPLINE
5
347
100
AcDbEntity
8
0
100
AcDbSpline
70
4
71
3
72
8
73
4
74
0
42
0.000000001
43
0.0000000001
44
0.0000000001
40
0
40
0
40
0
40
0
40
1
40
1
40
1
40
1
41
1
41
1
41
1
41
1
10
5.533869620660945
20
-4.8469978678529984
30
0
10
5.645752963040362
20
-4.8581857468364529
30
0
10
5.7613659777929991
20
-4.865645091582901
30
0
10
5.8732493201724134
20
-4.8693747639561247
30
0
0
SPLINE
5
348
100
AcDbEntity
8
0
100
AcDbSpline
70
4
71
3
72
8
73
4
74
0
42
0.000000001
43
0.0000000001
44
0.0000000001
40
0
40
0
40
0
40
0
40
1
40
1
40
1
40
1
41
1
41
1
41
1
41
1
10
1.7708600995938868
20
-5.4213321311067482
30
0
10
1.7634007548474393
20
-5.2609664622840731
30
0
10
1.7671304272206623
20
-4.9103977456529364
30
0
10
1.778319444340333
20
-4.8693747639561247
30
0
0
SPLINE
5
349
100
AcDbEntity
8
0
100
AcDbSpline
70
4
71
3
72
8
73
4
74
0
42
0.000000001
43
0.0000000001
44
0.0000000001
40
0
40
0
40
0
40
0
40
1
40
1
40
1
40
1
41
1
41
1
41
1
41
1
10
1.778319444340333
20
-4.8693747639561247
30
0
10
1.7969666680702348
20
-4.8693747639561247
30
0
10
1.8156138918001381
20
-4.8693747639561247
30
0
10
1.8305314431568169
20
-4.8693747639561247
30
0
0
SPLINE
5
350
100
AcDbEntity
8
0
100
AcDbSpline
70
4
71
3
72
8
73
4
74
0
42
0.000000001
43
0.0000000001
44
0.0000000001
40
0
40
0
40
0
40
0
40
1
40
1
40
1
40
1
41
1
41
1
41
1
41
1
10
1.8305314431568169
20
-4.8693747639561247
30
0
10
2.1027804543589057
20
-4.8693747639561247
30
0
10
2.3787602760704325
20
-4.8693747639561247
30
0
10
2.6510092872725211
20
-4.8693747639561247
30
0
0
SPLINE
5
351
100
AcDbEntity
8
0
100
AcDbSpline
70
4
71
3
72
8
73
4
74
0
42
0.000000001
43
0.0000000001
44
0.0000000001
40
0
40
0
40
0
40
0
40
1
40
1
40
1
40
1
41
1
41
1
41
1
41
1
10
2.6510092872725211
20
-4.8693747639561247
30
0
10
2.7293278545653545
20
-4.8693747639561247
30
0
10
2.8039167494849648
20
-4.865645091582901
30
0
10
2.8822353167777965
20
-4.8581868849726675
30
0
0
SPLINE
5
352
100
AcDbEntity
8
0
100
AcDbSpline
70
4
71
3
72
8
73
4
74
0
42
0.000000001
43
0.0000000001
44
0.0000000001
40
0
40
0
40
0
40
0
40
1
40
1
40
1
40
1
41
1
41
1
41
1
41
1
10
2.8822353167777965
20
-4.8581868849726675
30
0
10
2.9903889867839877
20
-4.846999005989213
30
0
10
3.0948141225531702
20
-4.8246221098860866
30
0
10
3.1917787754396909
20
-4.7686804386963795
30
0
0
SPLINE
5
353
100
AcDbEntity
8
0
100
AcDbSpline
70
4
71
3
72
8
73
4
74
0
42
0.000000001
43
0.0000000001
44
0.0000000001
40
0
40
0
40
0
40
0
40
1
40
1
40
1
40
1
41
1
41
1
41
1
41
1
10
3.1917787754396909
20
-4.7686804386963795
30
0
10
3.3223093415490079
20
-4.6978212161499924
30
0
10
3.41554546019852
20
-4.5933960803808107
30
0
10
3.4453805629118777
20
-4.4442182905415919
30
0
0
SPLINE
5
354
100
AcDbEntity
8
0
100
AcDbSpline
70
4
71
3
72
8
73
4
74
0
42
0.000000001
43
0.0000000001
44
0.0000000001
40
0
40
0
40
0
40
0
40
1
40
1
40
1
40
1
41
1
41
1
41
1
41
1
10
3.4453805629118777
20
-4.4442182905415919
30
0
10
3.4565684418953349
20
-4.3957359640983311
30
0
10
3.4565684418953349
20
-4.3472524995188566
30
0
10
3.4565684418953349
20
-4.2987701730755958
30
0
0
SPLINE
5
355
100
AcDbEntity
8
0
100
AcDbSpline
70
4
71
3
72
8
73
4
74
0
42
0.000000001
43
0.0000000001
44
0.0000000001
40
0
40
0
40
0
40
0
40
1
40
1
40
1
40
1
41
1
41
1
41
1
41
1
10
3.4565684418953349
20
-4.2987701730755958
30
0
10
3.4565684418953349
20
-3.8997191300011993
30
0
10
3.4565684418953349
20
-3.5006692250630165
30
0
10
3.4565684418953349
20
-3.1016181819886186
30
0
0
SPLINE
5
356
100
AcDbEntity
8
0
100
AcDbSpline
70
4
71
3
72
8
73
4
74
0
42
0.000000001
43
0.0000000001
44
0.0000000001
40
0
40
0
40
0
40
0
40
1
40
1
40
1
40
1
41
1
41
1
41
1
41
1
10
3.4565684418953349
20
-3.1016181819886186
30
0
10
3.4565684418953349
20
-2.6578144848441858
30
0
10
3.4565684418953349
20
-2.2140107876997517
30
0
10
3.4565684418953349
20
-1.7702059524191023
30
0
0
SPLINE
5
357
100
AcDbEntity
8
0
100
AcDbSpline
70
4
71
3
72
8
73
4
74
0
42
0.000000001
43
0.0000000001
44
0.0000000001
40
0
40
0
40
0
40
0
40
1
40
1
40
1
40
1
41
1
41
1
41
1
41
1
10
3.4565684418953349
20
-1.7702059524191023
30
0
10
3.4565684418953349
20
-1.7515587286892005
30
0
10
3.4565684418953349
20
-1.7329115049592971
30
0
10
3.4565684418953349
20
-1.7105346088561724
30
0
0
SPLINE
5
358
100
AcDbEntity
8
0
100
AcDbSpline
70
4
71
3
72
8
73
4
74
0
42
0.000000001
43
0.0000000001
44
0.0000000001
40
0
40
0
40
0
40
0
40
1
40
1
40
1
40
1
41
1
41
1
41
1
41
1
10
3.4565684418953349
20
-1.7105346088561724
30
0
10
2.6994916137157823
20
-1.7105346088561724
30
0
10
1.9536026645196867
20
-1.7105346088561724
30
0
10
1.2039840429503679
20
-1.7105346088561724
30
0
0
SPLINE
5
359
100
AcDbEntity
8
0
100
AcDbSpline
70
4
71
3
72
8
73
4
74
0
42
0.000000001
43
0.0000000001
44
0.0000000001
40
0
40
0
40
0
40
0
40
1
40
1
40
1
40
1
41
1
41
1
41
1
41
1
10
1.2039840429503679
20
-1.7105346088561724
30
0
10
1.2002543705771449
20
-1.7179939536026183
30
0
10
1.1965252672720279
20
-1.721722487839628
30
0
10
1.1965252672720279
20
-1.7254521602128512
30
0
0
SPLINE
5
360
100
AcDbEntity
8
0
100
AcDbSpline
70
4
71
3
72
8
73
4
74
0
42
0.000000001
43
0.0000000001
44
0.0000000001
40
0
40
0
40
0
40
0
40
1
40
1
40
1
40
1
41
1
41
1
41
1
41
1
10
1.1965252672720279
20
-1.7254521602128512
30
0
10
1.1853368192204647
20
-1.7627466076726561
30
0
10
1.1704192678637859
20
-1.7963113827592383
30
0
10
1.1592308198122228
20
-1.8336058302190421
30
0
0
SPLINE
5
361
100
AcDbEntity
8
0
100
AcDbSpline
70
4
71
3
72
8
73
4
74
0
42
0.000000001
43
0.0000000001
44
0.0000000001
40
0
40
0
40
0
40
0
40
1
40
1
40
1
40
1
41
1
41
1
41
1
41
1
10
1.1592308198122228
20
-1.8336058302190421
30
0
10
1.1368539237090978
20
-1.9007353803922062
30
0
10
1.140583596082321
20
-1.9119243975118754
30
0
10
1.1927955948988047
20
-1.9566770515819132
30
0
0
SPLINE
5
362
100
AcDbEntity
8
0
100
AcDbSpline
70
4
71
3
72
8
73
4
74
0
42
0.000000001
43
0.0000000001
44
0.0000000001
40
0
40
0
40
0
40
0
40
1
40
1
40
1
40
1
41
1
41
1
41
1
41
1
10
0.3387529756965183
20
-4.1980758478158515
30
0
10
0.33502330332329522
20
-4.2092637267993069
30
0
10
0.33129420001817822
20
-4.2204527439189778
30
0
10
0.32756452764495514
20
-4.2279109505292087
30
0
0
SPLINE
5
363
100
AcDbEntity
8
0
100
AcDbSpline
70
4
71
3
72
8
73
4
74
0
42
0.000000001
43
0.0000000001
44
0.0000000001
40
0
40
0
40
0
40
0
40
1
40
1
40
1
40
1
41
1
41
1
41
1
41
1
10
0.32756452764495514
20
-4.2279109505292087
30
0
10
0.19330428916241482
20
-4.6120433041107134
30
0
10
0.059044619747981933
20
-4.9961767958284309
30
0
10
-0.07521561873455837
20
-5.3803091494099338
30
0
0
SPLINE
5
364
100
AcDbEntity
8
0
100
AcDbSpline
70
4
71
3
72
8
73
4
74
0
42
0.000000001
43
0.0000000001
44
0.0000000001
40
0
40
0
40
0
40
0
40
1
40
1
40
1
40
1
41
1
41
1
41
1
41
1
10
-0.07521561873455837
20
-5.3803091494099338
30
0
10
-0.078945291107781437
20
-5.3952267007666137
30
0
10
-0.078945291107781437
20
-5.4101442521232936
30
0
10
-0.082674394412897076
20
-5.4250629416161864
30
0
0
SPLINE
5
365
100
AcDbEntity
8
0
100
AcDbSpline
70
4
71
3
72
8
73
4
74
0
42
0.000000001
43
0.0000000001
44
0.0000000001
40
0
40
0
40
0
40
0
40
1
40
1
40
1
40
1
41
1
41
1
41
1
41
1
10
-0.082674394412897076
20
-5.4250629416161864
30
0
10
-0.25049940798201947
20
-5.4250629416161864
30
0
10
-0.41832442155114041
20
-5.4250629416161864
30
0
10
-0.58241976274703833
20
-5.4250629416161864
30
0
0
SPLINE
5
366
100
AcDbEntity
8
0
100
AcDbSpline
70
4
71
3
72
8
73
4
74
0
42
0.000000001
43
0.0000000001
44
0.0000000001
40
0
40
0
40
0
40
0
40
1
40
1
40
1
40
1
41
1
41
1
41
1
41
1
10
-0.58241976274703833
20
-5.4250629416161864
30
0
10
-0.58614943512026285
20
-5.4101453902595056
30
0
10
-0.58614943512026285
20
-5.3914981665296056
30
0
10
-0.59360821079860149
20
-5.3765806151729256
30
0
0
SPLINE
5
367
100
AcDbEntity
8
0
100
AcDbSpline
70
4
71
3
72
8
73
4
74
0
42
0.000000001
43
0.0000000001
44
0.0000000001
40
0
40
0
40
0
40
0
40
1
40
1
40
1
40
1
41
1
41
1
41
1
41
1
10
-1.1306485956606553
20
-4.026522300009721
30
0
10
-1.2201550419369429
20
-3.9892278525499156
30
0
10
-1.3022032816029994
20
-3.9332861813602085
30
0
10
-1.3693328317761622
20
-3.8661566311870459
30
0
0
SPLINE
5
368
100
AcDbEntity
8
0
100
AcDbSpline
70
4
71
3
72
8
73
4
74
0
42
0.000000001
43
0.0000000001
44
0.0000000001
40
0
40
0
40
0
40
0
40
1
40
1
40
1
40
1
41
1
41
1
41
1
41
1
10
-1.3693328317761622
20
-3.8661566311870459
30
0
10
-1.5334281729720614
20
-3.7057909623643708
30
0
10
-1.6229351883164564
20
-3.5118593803189007
30
0
10
-1.6192055159432335
20
-3.2806333508136252
30
0
0
SPLINE
5
369
100
AcDbEntity
8
0
100
AcDbSpline
70
4
71
3
72
8
73
4
74
0
42
0.000000001
43
0.0000000001
44
0.0000000001
40
0
40
0
40
0
40
0
40
1
40
1
40
1
40
1
41
1
41
1
41
1
41
1
10
-1.6192055159432335
20
-3.2806333508136252
30
0
10
-1.6192055159432335
20
-3.1612906636877636
30
0
10
-1.5893698441617683
20
-3.0494073213083497
30
0
10
-1.5371578453452845
20
-2.9449833236753817
30
0
0
SPLINE
5
370
100
AcDbEntity
8
0
100
AcDbSpline
70
4
71
3
72
8
73
4
74
0
42
0.000000001
43
0.0000000001
44
0.0000000001
40
0
40
0
40
0
40
0
40
1
40
1
40
1
40
1
41
1
41
1
41
1
41
1
10
-2.3203406729330776
20
-2.5944157451804597
30
0
10
-2.4769772384506363
20
-2.5049092989041704
30
0
10
-2.5739430294733716
20
-2.3743787327948533
30
0
10
-2.5888605808300511
20
-2.1916361678690532
30
0
0
SPLINE
5
371
100
AcDbEntity
8
0
100
AcDbSpline
70
4
71
3
72
8
73
4
74
0
42
0.000000001
43
0.0000000001
44
0.0000000001
40
0
40
0
40
0
40
0
40
1
40
1
40
1
40
1
41
1
41
1
41
1
41
1
10
-2.5888605808300511
20
-2.1916361678690532
30
0
10
-2.6037781321867297
20
-2.0349990332833867
30
0
10
-2.5590249090485857
20
-1.8895509158173922
30
0
10
-2.4657887903990736
20
-1.7627500220812979
30
0
0
SPLINE
5
372
100
AcDbEntity
8
0
100
AcDbSpline
70
4
71
3
72
8
73
4
74
0
42
0.000000001
43
0.0000000001
44
0.0000000001
40
0
40
0
40
0
40
0
40
1
40
1
40
1
40
1
41
1
41
1
41
1
41
1
10
-2.4657887903990736
20
-1.7627500220812979
30
0
10
-2.4546003423475105
20
-1.7515621430978423
30
0
10
-2.4471415666691714
20
-1.7366434536049487
30
0
10
-2.4322240153124923
20
-1.7179962298750466
30
0
0
SPLINE
5
373
100
AcDbEntity
8
0
100
AcDbSpline
70
4
71
3
72
8
73
4
74
0
42
0.000000001
43
0.0000000001
44
0.0000000001
40
0
40
0
40
0
40
0
40
1
40
1
40
1
40
1
41
1
41
1
41
1
41
1
10
-2.4322240153124923
20
-1.7179962298750466
30
0
10
-2.4508712390423941
20
-1.7179962298750466
30
0
10
-2.4620596870939573
20
-1.7142665575018237
30
0
10
-2.47324813514552
20
-1.7142665575018237
30
0
0
SPLINE
5
374
100
AcDbEntity
8
0
100
AcDbSpline
70
4
71
3
72
8
73
4
74
0
42
0.000000001
43
0.0000000001
44
0.0000000001
40
0
40
0
40
0
40
0
40
1
40
1
40
1
40
1
41
1
41
1
41
1
41
1
10
-2.47324813514552
20
-1.7142665575018237
30
0
10
-2.5180013582836644
20
-1.7142665575018237
30
0
10
-2.5590254781166926
20
-1.7142665575018237
30
0
10
-2.603778701254837
20
-1.7142665575018237
30
0
0
SPLINE
5
375
100
AcDbEntity
8
0
100
AcDbSpline
70
4
71
3
72
8
73
4
74
0
42
0.000000001
43
0.0000000001
44
0.0000000001
40
0
40
0
40
0
40
0
40
1
40
1
40
1
40
1
41
1
41
1
41
1
41
1
10
-2.603778701254837
20
-1.7142665575018237
30
0
10
-2.8275453860136657
20
-1.7142665575018237
30
0
10
-3.0475823983992716
20
-1.7142665575018237
30
0
10
-3.271349367692153
20
-1.7142665575018237
30
0
0
SPLINE
5
376
100
AcDbEntity
8
0
100
AcDbSpline
70
4
71
3
72
8
73
4
74
0
42
0.000000001
43
0.0000000001
44
0.0000000001
40
0
40
0
40
0
40
0
40
1
40
1
40
1
40
1
41
1
41
1
41
1
41
1
10
-3.271349367692153
20
-1.7142665575018237
30
0
10
-3.2937259792612257
20
-1.7142665575018237
30
0
10
-3.3161025908302975
20
-1.7105368851286005
30
0
10
-3.3310204267210302
20
-1.7366434536049487
30
0
0
SPLINE
5
377
100
AcDbEntity
8
0
100
AcDbSpline
70
4
71
3
72
8
73
4
74
0
42
0.000000001
43
0.0000000001
44
0.0000000001
40
0
40
0
40
0
40
0
40
1
40
1
40
1
40
1
41
1
41
1
41
1
41
1
10
-3.3310204267210302
20
-1.7366434536049487
30
0
10
-3.3832327100715678
20
-1.8149620208977819
30
0
10
-3.4578216049911772
20
-1.8746333644607118
30
0
10
-3.532410499910787
20
-1.9268453632771958
30
0
0
SPLINE
5
378
100
AcDbEntity
8
0
100
AcDbSpline
70
4
71
3
72
8
73
4
74
0
42
0.000000001
43
0.0000000001
44
0.0000000001
40
0
40
0
40
0
40
0
40
1
40
1
40
1
40
1
41
1
41
1
41
1
41
1
10
-3.532410499910787
20
-1.9268453632771958
30
0
10
-3.6405644544510314
20
-2.0014342581968063
30
0
10
-3.7636359603479548
20
-2.057375929386513
30
0
10
-3.8867077507789323
20
-2.0984000492195412
30
0
0
SPLINE
5
379
100
AcDbEntity
8
0
100
AcDbSpline
70
4
71
3
72
8
73
4
74
0
42
0.000000001
43
0.0000000001
44
0.0000000001
40
0
40
0
40
0
40
0
40
1
40
1
40
1
40
1
41
1
41
1
41
1
41
1
10
-3.8867077507789323
20
-2.0984000492195412
30
0
10
-4.0358855406181515
20
-2.1468823756628024
30
0
10
-4.1850633304573712
20
-2.1916361678690532
30
0
10
-4.33424112029659
20
-2.2363899600753046
30
0
0
SPLINE
5
380
100
AcDbEntity
8
0
100
AcDbSpline
70
4
71
3
72
8
73
4
74
0
42
0.000000001
43
0.0000000001
44
0.0000000001
40
0
40
0
40
0
40
0
40
1
40
1
40
1
40
1
41
1
41
1
41
1
41
1
10
-4.33424112029659
20
-2.2363899600753046
30
0
10
-4.3528883440264918
20
-2.2438493048217509
30
0
10
-4.3715355677563945
20
-2.2475778390587604
30
0
10
-4.3864534036471268
20
-2.2550371838052063
30
0
0
SPLINE
5
381
100
AcDbEntity
8
0
100
AcDbSpline
70
4
71
3
72
8
73
4
74
0
42
0.000000001
43
0.0000000001
44
0.0000000001
40
0
40
0
40
0
40
0
40
1
40
1
40
1
40
1
41
1
41
1
41
1
41
1
10
-4.3864534036471268
20
-2.2550371838052063
30
0
10
-4.3939121793254676
20
-2.3818380775413006
30
0
10
-4.3901827914862972
20
-2.572039987213548
30
0
10
-4.3789946279687877
20
-2.6093344346733516
30
0
0
SPLINE
5
382
100
AcDbEntity
8
0
100
AcDbSpline
70
4
71
3
72
8
73
4
74
0
42
0.000000001
43
0.0000000001
44
0.0000000001
40
0
40
0
40
0
40
0
40
1
40
1
40
1
40
1
41
1
41
1
41
1
41
1
10
-4.3789946279687877
20
-2.6093344346733516
30
0
10
-4.367806179917225
20
-2.6093344346733516
30
0
10
-4.3566180163997155
20
-2.6093344346733516
30
0
10
-4.3454295683481527
20
-2.6093344346733516
30
0
0
SPLINE
5
383
100
AcDbEntity
8
0
100
AcDbSpline
70
4
71
3
72
8
73
4
74
0
42
0.000000001
43
0.0000000001
44
0.0000000001
40
0
40
0
40
0
40
0
40
1
40
1
40
1
40
1
41
1
41
1
41
1
41
1
10
-4.3454295683481527
20
-2.6093344346733516
30
0
10
-4.1962517785089339
20
-2.6167937794197993
30
0
10
-4.0769096604511796
20
-2.7063002256960869
30
0
10
-4.032156152778982
20
-2.8480186707888597
30
0
0
SPLINE
5
384
100
AcDbEntity
8
0
100
AcDbSpline
70
4
71
3
72
8
73
4
74
0
42
0.000000001
43
0.0000000001
44
0.0000000001
40
0
40
0
40
0
40
0
40
1
40
1
40
1
40
1
41
1
41
1
41
1
41
1
10
-4.032156152778982
20
-2.8480186707888597
30
0
10
-4.0060501533707402
20
-2.9300669104549164
30
0
10
-4.0023204809975166
20
-3.012114011984758
30
0
10
-4.0246973771006429
20
-3.0941622516508143
30
0
0
SPLINE
5
385
100
AcDbEntity
8
0
100
AcDbSpline
70
4
71
3
72
8
73
4
74
0
42
0.000000001
43
0.0000000001
44
0.0000000001
40
0
40
0
40
0
40
0
40
1
40
1
40
1
40
1
41
1
41
1
41
1
41
1
10
-4.0246973771006429
20
-3.0941622516508143
30
0
10
-4.0694506002387865
20
-3.2582575928467135
30
0
10
-4.1738751669398617
20
-3.3664112628529046
30
0
10
-4.3230529567790805
20
-3.4372716235355036
30
0
0
SPLINE
5
386
100
AcDbEntity
8
0
100
AcDbSpline
70
4
71
3
72
8
73
4
74
0
42
0.000000001
43
0.0000000001
44
0.0000000001
40
0
40
0
40
0
40
0
40
1
40
1
40
1
40
1
41
1
41
1
41
1
41
1
10
-4.3230529567790805
20
-3.4372716235355036
30
0
10
-4.3379707926698137
20
-3.4447309682819514
30
0
10
-4.3528886285605459
20
-3.452189174892184
30
0
10
-4.367806179917225
20
-3.45964851963863
30
0
0
SPLINE
5
387
100
AcDbEntity
8
0
100
AcDbSpline
70
4
71
3
72
8
73
4
74
0
42
0.000000001
43
0.0000000001
44
0.0000000001
40
0
40
0
40
0
40
0
40
1
40
1
40
1
40
1
41
1
41
1
41
1
41
1
10
-4.367806179917225
20
-3.45964851963863
30
0
10
-4.367806179917225
20
-3.474566070995309
30
0
10
-4.367806179917225
20
-3.4894836223519876
30
0
10
-4.367806179917225
20
-3.5006726394716581
30
0
0
SPLINE
5
388
100
AcDbEntity
8
0
100
AcDbSpline
70
4
71
3
72
8
73
4
74
0
42
0.000000001
43
0.0000000001
44
0.0000000001
40
0
40
0
40
0
40
0
40
1
40
1
40
1
40
1
41
1
41
1
41
1
41
1
10
-4.367806179917225
20
-3.5006726394716581
30
0
10
-4.3491589561873223
20
-3.6200153265975183
30
0
10
-4.3379705081357596
20
-3.7393568755871662
30
0
10
-4.3044057330491778
20
-3.8549698903398033
30
0
0
SPLINE
5
389
100
AcDbEntity
8
0
100
AcDbSpline
70
4
71
3
72
8
73
4
74
0
42
0.000000001
43
0.0000000001
44
0.0000000001
40
0
40
0
40
0
40
0
40
1
40
1
40
1
40
1
41
1
41
1
41
1
41
1
10
-4.3044057330491778
20
-3.8549698903398033
30
0
10
-4.1813339426182008
20
-4.3136911388409169
30
0
10
-3.8978961988304954
20
-4.6195060632658009
30
0
10
-3.4391746657953286
20
-4.7537663017483416
30
0
0
SPLINE
5
390
100
AcDbEntity
8
0
100
AcDbSpline
70
4
71
3
72
8
73
4
74
0
42
0.000000001
43
0.0000000001
44
0.0000000001
40
0
40
0
40
0
40
0
40
1
40
1
40
1
40
1
41
1
41
1
41
1
41
1
10
-3.4391746657953286
20
-4.7537663017483416
30
0
10
-3.2265964290880622
20
-4.8171673176844942
30
0
10
-3.0065588476343499
20
-4.8432727480246314
30
0
10
-2.7827921628755212
20
-4.8619199717545323
30
0
0
SPLINE
5
391
100
AcDbEntity
8
0
100
AcDbSpline
70
4
71
3
72
8
73
4
74
0
42
0.000000001
43
0.0000000001
44
0.0000000001
40
0
40
0
40
0
40
0
40
1
40
1
40
1
40
1
41
1
41
1
41
1
41
1
10
-2.7827921628755212
20
-4.8619199717545323
30
0
10
-2.7380389397373768
20
-4.865649644127755
30
0
10
-2.6932857165992328
20
-4.8693793165009787
30
0
10
-2.6448028210878656
20
-4.8731078507379895
30
0
0
SPLINE
5
392
100
AcDbEntity
8
0
100
AcDbSpline
70
4
71
3
72
8
73
4
74
0
42
0.000000001
43
0.0000000001
44
0.0000000001
40
0
40
0
40
0
40
0
40
1
40
1
40
1
40
1
41
1
41
1
41
1
41
1
10
-2.6448028210878656
20
-4.8731078507379895
30
0
10
-2.6448028210878656
20
-5.0595800880370136
30
0
10
-2.6448028210878656
20
-5.2423226529628151
30
0
10
-2.6448028210878656
20
-5.4213366836516048
30
0
0
SPLINE
5
393
100
AcDbEntity
8
0
100
AcDbSpline
70
4
71
3
72
8
73
4
74
0
42
0.000000001
43
0.0000000001
44
0.0000000001
40
0
40
0
40
0
40
0
40
1
40
1
40
1
40
1
41
1
41
1
41
1
41
1
10
-4.386453972715235
20
-2.0238088780275043
30
0
10
-4.1477694520656723
20
-1.926843087004769
30
0
10
-3.9128146037893354
20
-1.8447959854749261
30
0
10
-3.6965066947088459
20
-1.7179939536026183
30
0
0
SPLINE
5
394
100
AcDbEntity
8
0
100
AcDbSpline
70
4
71
3
72
8
73
4
74
0
42
0.000000001
43
0.0000000001
44
0.0000000001
40
0
40
0
40
0
40
0
40
1
40
1
40
1
40
1
41
1
41
1
41
1
41
1
10
-3.6965066947088459
20
-1.7179939536026183
30
0
10
-3.9240027673068441
20
-1.7179939536026183
30
0
10
-4.1514988399048427
20
-1.7179939536026183
30
0
10
-4.3827245848760645
20
-1.7179939536026183
30
0
0
SPLINE
5
395
100
AcDbEntity
8
0
100
AcDbSpline
70
4
71
3
72
8
73
4
74
0
42
0.000000001
43
0.0000000001
44
0.0000000001
40
0
40
0
40
0
40
0
40
1
40
1
40
1
40
1
41
1
41
1
41
1
41
1
10
-4.3827245848760645
20
-1.7179939536026183
30
0
10
-4.3827245848760645
20
-1.7291818325860742
30
0
10
-4.386453972715235
20
-1.7366411773325217
30
0
10
-4.386453972715235
20
-1.7441005220789678
30
0
0
SPLINE
5
396
100
AcDbEntity
8
0
100
AcDbSpline
70
4
71
3
72
8
73
4
74
0
42
0.000000001
43
0.0000000001
44
0.0000000001
40
0
40
0
40
0
40
0
40
1
40
1
40
1
40
1
41
1
41
1
41
1
41
1
10
-4.386453972715235
20
-1.7441005220789678
30
0
10
-4.386453972715235
20
-1.8336069683552569
30
0
10
-4.386453972715235
20
-1.9231134146315445
30
0
10
-4.386453972715235
20
-2.0238088780275043
30
0
0
SPLINE
5
397
100
AcDbEntity
8
0
100
AcDbSpline
70
4
71
3
72
8
73
4
74
0
42
0.000000001
43
0.0000000001
44
0.0000000001
40
0
40
0
40
0
40
0
40
1
40
1
40
1
40
1
41
1
41
1
41
1
41
1
10
-4.3789951970368941
20
-2.8256394984133069
30
0
10
-4.3901836450884577
20
-2.9114162723163726
30
0
10
-4.386453972715235
20
-3.2433377652176065
30
0
10
-4.3678067489853323
20
-3.291820091660866
30
0
0
SPLINE
5
398
100
AcDbEntity
8
0
100
AcDbSpline
70
4
71
3
72
8
73
4
74
0
42
0.000000001
43
0.0000000001
44
0.0000000001
40
0
40
0
40
0
40
0
40
1
40
1
40
1
40
1
41
1
41
1
41
1
41
1
10
-4.3678067489853323
20
-3.291820091660866
30
0
10
-4.3193238534739642
20
-3.2545256442010624
30
0
10
-4.289488466226552
20
-3.2060433177578012
30
0
10
-4.2671118546574807
20
-3.1501016465680944
30
0
0
SPLINE
5
399
100
AcDbEntity
8
0
100
AcDbSpline
70
4
71
3
72
8
73
4
74
0
42
0.000000001
43
0.0000000001
44
0.0000000001
40
0
40
0
40
0
40
0
40
1
40
1
40
1
40
1
41
1
41
1
41
1
41
1
10
-4.2671118546574807
20
-3.1501016465680944
30
0
10
-4.2372761828760153
20
-3.071783079275261
30
0
10
-4.2298174071976753
20
-2.9934645119824279
30
0
10
-4.2633824668183102
20
-2.915147082825809
30
0
0
SPLINE
5
400
100
AcDbEntity
8
0
100
AcDbSpline
70
4
71
3
72
8
73
4
74
0
42
0.000000001
43
0.0000000001
44
0.0000000001
40
0
40
0
40
0
40
0
40
1
40
1
40
1
40
1
41
1
41
1
41
1
41
1
10
-4.2633824668183102
20
-2.915147082825809
30
0
10
-4.2857590783873833
20
-2.866663618246335
30
0
10
-4.3230535258471878
20
-2.8368273773967623
30
0
10
-4.3789951970368941
20
-2.8256394984133069
30
0
0
SPLINE
5
401
100
AcDbEntity
8
0
100
AcDbSpline
70
4
71
3
72
8
73
4
74
0
42
0.000000001
43
0.0000000001
44
0.0000000001
40
0
40
0
40
0
40
0
40
1
40
1
40
1
40
1
41
1
41
1
41
1
41
1
10
-4.9906241922845043
20
-3.2060421796215866
30
0
10
-4.9906241922845043
20
-3.0382171660524655
30
0
10
-4.9906241922845043
20
-2.8703921524833445
30
0
10
-4.9906241922845043
20
-2.6913792599307662
30
0
0
SPLINE
5
402
100
AcDbEntity
8
0
100
AcDbSpline
70
4
71
3
72
8
73
4
74
0
42
0.000000001
43
0.0000000001
44
0.0000000001
40
0
40
0
40
0
40
0
40
1
40
1
40
1
40
1
41
1
41
1
41
1
41
1
10
-5.2330378162391815
20
-2.9561700645226239
30
0
10
-5.2330378162391815
20
-3.064323734528815
30
0
10
-5.2143905925092797
20
-3.1687488702979962
30
0
10
-5.1770961450494744
20
-3.269443195557741
30
0
0
SPLINE
5
403
100
AcDbEntity
8
0
100
AcDbSpline
70
4
71
3
72
8
73
4
74
0
42
0.000000001
43
0.0000000001
44
0.0000000001
40
0
40
0
40
0
40
0
40
1
40
1
40
1
40
1
41
1
41
1
41
1
41
1
10
-5.1770961450494744
20
-3.269443195557741
30
0
10
-5.1696373693711344
20
-3.2880904192876428
30
0
10
-5.1659076969979116
20
-3.3067376430175459
30
0
10
-5.1621783091587421
20
-3.3253848667474482
30
0
0
SPLINE
5
404
100
AcDbEntity
8
0
100
AcDbSpline
70
4
71
3
72
8
73
4
74
0
42
0.000000001
43
0.0000000001
44
0.0000000001
40
0
40
0
40
0
40
0
40
1
40
1
40
1
40
1
41
1
41
1
41
1
41
1
10
-5.1621783091587421
20
-3.3253848667474482
30
0
10
-5.1584489213195717
20
-3.3514914352237972
30
0
10
-5.1547195334804021
20
-3.3738671931907089
30
0
10
-5.1547195334804021
20
-3.3999737616670584
30
0
0
SPLINE
5
405
100
AcDbEntity
8
0
100
AcDbSpline
70
4
71
3
72
8
73
4
74
0
42
0.000000001
43
0.0000000001
44
0.0000000001
40
0
40
0
40
0
40
0
40
1
40
1
40
1
40
1
41
1
41
1
41
1
41
1
10
-5.1547195334804021
20
-3.3999737616670584
30
0
10
-5.1547195334804021
20
-3.4260803301434062
30
0
10
-5.1621783091587421
20
-3.4521857604835406
30
0
10
-5.188284593101038
20
-3.4633747776032116
30
0
0
SPLINE
5
406
100
AcDbEntity
8
0
100
AcDbSpline
70
4
71
3
72
8
73
4
74
0
42
0.000000001
43
0.0000000001
44
0.0000000001
40
0
40
0
40
0
40
0
40
1
40
1
40
1
40
1
41
1
41
1
41
1
41
1
10
-5.188284593101038
20
-3.4633747776032116
30
0
10
-5.2181202648825025
20
-3.474562656586667
30
0
10
-5.2404968764515747
20
-3.4596451052299884
30
0
10
-5.2591441001814774
20
-3.4409978815000852
30
0
0
SPLINE
5
407
100
AcDbEntity
8
0
100
AcDbSpline
70
4
71
3
72
8
73
4
74
0
42
0.000000001
43
0.0000000001
44
0.0000000001
40
0
40
0
40
0
40
0
40
1
40
1
40
1
40
1
41
1
41
1
41
1
41
1
10
-5.2591441001814774
20
-3.4409978815000852
30
0
10
-5.2927091598021114
20
-3.4074331064135044
30
0
10
-5.3076269956928446
20
-3.3664089865804763
30
0
10
-5.3150857713711845
20
-3.321655194374225
30
0
0
SPLINE
5
408
100
AcDbEntity
8
0
100
AcDbSpline
70
4
71
3
72
8
73
4
74
0
42
0.000000001
43
0.0000000001
44
0.0000000001
40
0
40
0
40
0
40
0
40
1
40
1
40
1
40
1
41
1
41
1
41
1
41
1
10
-5.5276640080784505
20
-3.1426423018216467
30
0
10
-5.564958455538255
20
-3.1538301808051026
30
0
10
-5.605982290837229
20
-3.1575598531783271
30
0
10
-5.6432767382970335
20
-3.1612895255515499
30
0
0
SPLINE
5
409
100
AcDbEntity
8
0
100
AcDbSpline
70
4
71
3
72
8
73
4
74
0
42
0.000000001
43
0.0000000001
44
0.0000000001
40
0
40
0
40
0
40
0
40
1
40
1
40
1
40
1
41
1
41
1
41
1
41
1
10
-5.6432767382970335
20
-3.1612895255515499
30
0
10
-5.6544650440815705
20
-3.1612895255515499
30
0
10
-5.6656533498661066
20
-3.1612895255515499
30
0
10
-5.6768417979176693
20
-3.1538301808051026
30
0
0
SPLINE
5
410
100
AcDbEntity
8
0
100
AcDbSpline
70
4
71
3
72
8
73
4
74
0
42
0.000000001
43
0.0000000001
44
0.0000000001
40
0
40
0
40
0
40
0
40
1
40
1
40
1
40
1
41
1
41
1
41
1
41
1
10
-5.6768417979176693
20
-3.1538301808051026
30
0
10
-5.7029479395929377
20
-3.1463708360586566
30
0
10
-5.7253245511620108
20
-3.1314532847019776
30
0
10
-5.7290540812682069
20
-3.1016181819886186
30
0
0
SPLINE
5
411
100
AcDbEntity
8
0
100
AcDbSpline
70
4
71
3
72
8
73
4
74
0
42
0.000000001
43
0.0000000001
44
0.0000000001
40
0
40
0
40
0
40
0
40
1
40
1
40
1
40
1
41
1
41
1
41
1
41
1
10
-5.7290540812682069
20
-3.1016181819886186
30
0
10
-5.7327834691073765
20
-3.0755116135122704
30
0
10
-5.7141362453774738
20
-3.0531358555453592
30
0
10
-5.688030245969232
20
-3.0419468384256887
30
0
0
SPLINE
5
412
100
AcDbEntity
8
0
100
AcDbSpline
70
4
71
3
72
8
73
4
74
0
42
0.000000001
43
0.0000000001
44
0.0000000001
40
0
40
0
40
0
40
0
40
1
40
1
40
1
40
1
41
1
41
1
41
1
41
1
10
-5.688030245969232
20
-3.0419468384256887
30
0
10
-5.6656536344001598
20
-3.0307589594422328
30
0
10
-5.6395473504578648
20
-3.0195699423225637
30
0
10
-5.6134413510496222
20
-3.012111735712331
30
0
0
SPLINE
5
413
100
AcDbEntity
8
0
100
AcDbSpline
70
4
71
3
72
8
73
4
74
0
42
0.000000001
43
0.0000000001
44
0.0000000001
40
0
40
0
40
0
40
0
40
1
40
1
40
1
40
1
41
1
41
1
41
1
41
1
10
-5.6134413510496222
20
-3.012111735712331
30
0
10
-5.550040904181575
20
-2.9971941843556507
30
0
10
-5.4866401727794765
20
-2.9934645119824279
30
0
10
-5.4232397259114293
20
-2.9748172882525257
30
0
0
SPLINE
5
414
100
AcDbEntity
8
0
100
AcDbSpline
70
4
71
3
72
8
73
4
74
0
42
0.000000001
43
0.0000000001
44
0.0000000001
40
0
40
0
40
0
40
0
40
1
40
1
40
1
40
1
41
1
41
1
41
1
41
1
10
-5.4232397259114293
20
-2.9748172882525257
30
0
10
-5.3710274425608917
20
-2.9598997368958471
30
0
10
-5.311356383532015
20
-2.9337931684194976
30
0
10
-5.2442262642907451
20
-2.9114162723163726
30
0
0
SPLINE
5
415
100
AcDbEntity
8
0
100
AcDbSpline
70
4
71
3
72
8
73
4
74
0
42
0.000000001
43
0.0000000001
44
0.0000000001
40
0
40
0
40
0
40
0
40
1
40
1
40
1
40
1
41
1
41
1
41
1
41
1
10
-5.4195103380722598
20
-3.3328442114938941
30
0
10
-5.4306987861238216
20
-3.3626793142072531
30
0
10
-5.4493460098537243
20
-3.3813265379371549
30
0
10
-5.482910784940306
20
-3.3813265379371549
30
0
0
SPLINE
5
416
100
AcDbEntity
8
0
100
AcDbSpline
70
4
71
3
72
8
73
4
74
0
42
0.000000001
43
0.0000000001
44
0.0000000001
40
0
40
0
40
0
40
0
40
1
40
1
40
1
40
1
41
1
41
1
41
1
41
1
10
-5.482910784940306
20
-3.3813265379371549
30
0
10
-5.516475844560941
20
-3.3813265379371549
30
0
10
-5.5463112318083523
20
-3.3664089865804763
30
0
10
-5.5612290676990845
20
-3.3365727457309036
30
0
0
SPLINE
5
417
100
AcDbEntity
8
0
100
AcDbSpline
70
4
71
3
72
8
73
4
74
0
42
0.000000001
43
0.0000000001
44
0.0000000001
40
0
40
0
40
0
40
0
40
1
40
1
40
1
40
1
41
1
41
1
41
1
41
1
10
-5.5612290676990845
20
-3.3365727457309036
30
0
10
-5.5761469035898177
20
-3.3067376430175459
30
0
10
-5.5686878433774254
20
-3.2806310745411968
30
0
10
-5.5500406196475227
20
-3.2582541784380705
30
0
0
SPLINE
5
418
100
AcDbEntity
8
0
100
AcDbSpline
70
4
71
3
72
8
73
4
74
0
42
0.000000001
43
0.0000000001
44
0.0000000001
40
0.19109349245181495
40
0.19109349245181495
40
0.19109349245181495
40
0.19109349245181495
40
1
40
1
40
1
40
1
41
1
41
1
41
1
41
1
10
-6.5128324218904732
20
-4.8578430332877405
30
0
10
-6.2509240685779721
20
-4.8323249552663396
30
0
10
-5.9913473694423844
20
-4.7876107431950654
30
0
10
-5.7439719171589401
20
-4.6940915437767696
30
0
0
SPLINE
5
419
100
AcDbEntity
8
0
100
AcDbSpline
70
4
71
3
72
8
73
4
74
0
42
0.000000001
43
0.0000000001
44
0.0000000001
40
0
40
0
40
0
40
0
40
0.83974398718601084
40
0.83974398718601084
40
0.83974398718601084
40
0.83974398718601084
41
1
41
1
41
1
41
1
10
-2.6448028210878656
20
-5.4213366836516048
30
0
10
-3.781638621417752
20
-5.4213366836516048
30
0
10
-4.915844368814426
20
-5.4213366836516048
30
0
10
-6.0518372055511795
20
-5.4213366836516048
30
0
0
SPLINE
5
420
100
AcDbEntity
8
0
100
AcDbSpline
70
4
71
3
72
8
73
4
74
0
42
0.000000001
43
0.0000000001
44
0.0000000001
40
0.12765006783444316
40
0.12765006783444316
40
0.12765006783444316
40
0.12765006783444316
40
1
40
1
40
1
40
1
41
1
41
1
41
1
41
1
10
6.0518412837912559
20
-5.4213321311094669
30
0
10
4.6236600743780949
20
-5.4213321311085592
30
0
10
3.1958405240256802
20
-5.4213321311076523
30
0
10
1.7708600995938868
20
-5.4213321311067482
30
0
0
SPLINE
5
421
100
AcDbEntity
8
0
100
AcDbSpline
70
4
71
3
72
8
73
4
74
0
42
0.000000001
43
0.0000000001
44
0.0000000001
40
0
40
0
40
0
40
0
40
0.78287963392386428
40
0.78287963392386428
40
0.78287963392386428
40
0.78287963392386428
41
1
41
1
41
1
41
1
10
5.8732493201724134
20
-4.8693747639561247
30
0
10
6.0834685328798983
20
-4.8722946484982659
30
0
10
6.2936870480231013
20
-4.8706426967574057
30
0
10
6.5039059578197609
20
-4.8697877050069369
30
0
0
ARC
5
422
100
AcDbEntity
8
0
100
AcDbCircle
10
0
20
0
30
0
40
8.1250000000000053
210
0
220
0
230
1
100
AcDbArc
50
221.85451302303997
51
318.14553007814624
0
SPLINE
5
423
100
AcDbEntity
8
0
100
AcDbSpline
70
4
71
3
72
8
73
4
74
0
42
0.000000001
43
0.0000000001
44
0.0000000001
40
0
40
0
40
0
40
0
40
0.84248174734220393
40
0.84248174734220393
40
0.84248174734220393
40
0.84248174734220393
41
1
41
1
41
1
41
1
10
3.0463272435650524
20
5.3343845814693882
30
0
10
4.0737580713792632
20
5.3343845642045222
30
0
10
5.1011880913722791
20
5.3343845469396696
30
0
10
6.1286186646933238
20
5.334384529674808
30
0
0
SPLINE
5
424
100
AcDbEntity
8
0
100
AcDbSpline
70
4
71
3
72
8
73
4
74
0
42
0.000000001
43
0.0000000001
44
0.0000000001
40
0.073900399669244082
40
0.073900399669244082
40
0.073900399669244082
40
0.073900399669244082
40
1
40
1
40
1
40
1
41
1
41
1
41
1
41
1
10
6.5765414541965415
20
4.7712396228083449
30
0
10
6.3204849215404124
20
4.7712396218315485
30
0
10
6.0617023804219414
20
4.7712396208443533
30
0
10
5.8061186318630371
20
4.7712396198693616
30
0
0
ARC
5
425
100
AcDbEntity
8
0
100
AcDbCircle
10
-9.3736949715609007e-09
20
1.9906316795670527e-09
30
0
40
8.125000008696686
210
0
220
0
230
1
100
AcDbArc
50
-36.823966419613335
51
35.960649989670756
0
SPLINE
5
426
100
AcDbEntity
8
0
100
AcDbSpline
70
4
71
3
72
8
73
4
74
0
42
0.000000001
43
0.0000000001
44
0.0000000001
40
0
40
0
40
0
40
0
40
0.44383501695478411
40
0.44383501695478411
40
0.44383501695478411
40
0.44383501695478411
41
1
41
1
41
1
41
1
10
-6.4749433149983551
20
4.7749687231744788
30
0
10
-6.5080484784396386
20
4.7749687231732709
30
0
10
-6.5404189915521327
20
4.7757033735009076
30
0
10
-6.5727069814181025
20
4.7765205470750711
30
0
0
ARC
5
427
100
AcDbEntity
8
0
100
AcDbCircle
10
-2.1536113613188712e-08
20
-4.9088219879340147e-09
30
0
40
8.1250000224003482
210
0
220
-0
230
1
100
AcDbArc
50
41.036496451360151
51
139.10281303217988
0
ARC
5
428
100
AcDbEntity
8
0
100
AcDbCircle
10
4.5940143258569067e-09
20
2.6419637451977132e-08
30
0
40
8.1250000251209187
210
0
220
0
230
1
100
AcDbArc
50
143.9933287179779
51
216.71881285071674
0
SPLINE
5
429
100
AcDbEntity
8
0
100
AcDbSpline
70
4
71
3
72
8
73
4
74
0
42
0.000000001
43
0.0000000001
44
0.0000000001
40
0.15415715855307197
40
0.15415715855307197
40
0.15415715855307197
40
0.15415715855307197
40
1
40
1
40
1
40
1
41
1
41
1
41
1
41
1
10
-6.1415706510205936
20
5.3194675969343574
30
0
10
-5.1297910913771245
20
5.3194675976834294
30
0
10
-4.1198570812121798
20
5.3194675984311353
30
0
10
-3.1072548800984157
20
5.3194675991808165
30
0
0
SPLINE
5
430
100
AcDbEntity
8
0
100
AcDbSpline
70
0
71
3
72
9
73
5
74
0
42
0.000000001
43
0.0000000001
44
0.0000000001
40
0
40
0
40
0
40
0
40
0.092588646363792437
40
0.206412273164643
40
0.206412273164643
40
0.206412273164643
40
0.206412273164643
10
-1.7171360907683761
20
0.30895537465554584
30
0
10
-1.7202492443567554
20
0.29627663996492998
30
0
10
-1.7271895457233315
20
0.2680113336760927
30
0
10
-1.7559897829081357
20
0.26097674842399099
30
0
10
-1.7718713358741478
20
0.25709760890308025
30
0
0
SPLINE
5
431
100
AcDbEntity
8
0
100
AcDbSpline
70
0
71
3
72
9
73
5
74
0
42
0.000000001
43
0.0000000001
44
0.0000000001
40
0
40
0
40
0
40
0
40
0.12271973632435591
40
0.22018419878727957
40
0.22018419878727957
40
0.22018419878727957
40
0.22018419878727957
10
-1.7718713358741478
20
0.25709760890308025
30
0
10
-1.7875230261244042
20
0.2530199657387619
30
0
10
-1.8156053458933346
20
0.24570384349170279
30
0
10
-1.8412157531739892
20
0.23212025452477417
30
0
10
-1.8525521914507292
20
0.22610748338011061
30
0
0
SPLINE
5
432
100
AcDbEntity
8
0
100
AcDbSpline
70
0
71
3
72
9
73
5
74
0
42
0.000000001
43
0.0000000001
44
0.0000000001
40
0
40
0
40
0
40
0
40
0.081720379039106922
40
0.17992360595052204
40
0.17992360595052204
40
0.17992360595052204
40
0.17992360595052204
10
-1.8525521914507292
20
0.22610748338011061
30
0
10
-1.8611797185329679
20
0.21915832355887657
30
0
10
-1.8801749288015031
20
0.2038583713552217
30
0
10
-1.884271710771724
20
0.17962329537347874
30
0
10
-1.8865077553824503
20
0.16639566660693991
30
0
0
LINE
5
433
100
AcDbEntity
8
0
100
AcDbLine
10
-1.8865077553824503
20
0.16639566660693988
30
0
11
-2.0875848794599481
21
-1.1694856408983747
31
0
0
SPLINE
5
434
100
AcDbEntity
8
0
100
AcDbSpline
70
0
71
3
72
9
73
5
74
0
42
0.000000001
43
0.0000000001
44
0.0000000001
40
0
40
0
40
0
40
0
40
0.10901589554692741
40
0.19968560697441648
40
0.19968560697441648
40
0.19968560697441648
40
0.19968560697441648
10
-2.0875848794599476
20
-1.1694856408983747
30
0
10
-2.0892054088496645
20
-1.1844138380929614
30
0
10
-2.092173750238616
20
-1.2117579799988683
30
0
10
-2.0748434071899537
20
-1.2327897032129489
30
0
10
-2.0669743512926857
20
-1.2423394164022818
30
0
0
SPLINE
5
435
100
AcDbEntity
8
0
100
AcDbSpline
70
0
71
3
72
9
73
5
74
0
42
0.000000001
43
0.0000000001
44
0.0000000001
40
0
40
0
40
0
40
0
40
0.098963574469923085
40
0.22074639784765526
40
0.22074639784765526
40
0.22074639784765526
40
0.22074639784765526
10
-2.0669743512926857
20
-1.2423394164022818
30
0
10
-2.0557364172865173
20
-1.2490058851058159
30
0
10
-2.0306692805708253
20
-1.2638759922189793
30
0
10
-2.0021755120843214
20
-1.2702387779545901
30
0
10
-1.986455882641704
20
-1.2737490414016286
30
0
0
SPLINE
5
436
100
AcDbEntity
8
0
100
AcDbSpline
70
0
71
3
72
9
73
5
74
0
42
0.000000001
43
0.0000000001
44
0.0000000001
40
0
40
0
40
0
40
0
40
0.066472198779628733
40
0.11963835720522742
40
0.11963835720522742
40
0.11963835720522742
40
0.11963835720522742
10
-1.986455882641704
20
-1.2737490414016286
30
0
10
-1.977845275501698
20
-1.2754864516468252
30
0
10
-1.9623476853560011
20
-1.2786134868787422
30
0
10
-1.9484656751796601
20
-1.2861257278991642
30
0
10
-1.9422966406865241
20
-1.2894640970104845
30
0
0
SPLINE
5
437
100
AcDbEntity
8
0
100
AcDbSpline
70
0
71
3
72
9
73
5
74
0
42
0.000000001
43
0.0000000001
44
0.0000000001
40
0
40
0
40
0
40
0
40
0.045664534149733385
40
0.097795173021267334
40
0.097795173021267334
40
0.097795173021267334
40
0.097795173021267334
10
-1.9422966406865241
20
-1.2894640970104845
30
0
10
-1.9377629476979192
20
-1.2937145410895701
30
0
10
-1.9280535901296996
20
-1.3028172927516883
30
0
10
-1.9272258194528795
20
-1.3161808690315844
30
0
10
-1.9267845684903975
20
-1.3233044493429356
30
0
0
SPLINE
5
438
100
AcDbEntity
8
0
100
AcDbSpline
70
0
71
3
72
9
73
5
74
0
42
0.000000001
43
0.0000000001
44
0.0000000001
40
0
40
0
40
0
40
0
40
0.031757848582029305
40
0.059872990091146883
40
0.059872990091146883
40
0.059872990091146883
40
0.059872990091146883
10
-2.5924363494173681
20
-1.3423723007399082
30
0
10
-2.5931831750540169
20
-1.3382652686088139
30
0
10
-2.5945911635022063
20
-1.3305222915159594
30
0
10
-2.5948526429562704
20
-1.3226583993653662
30
0
10
-2.59497542840329
20
-1.3189656751454835
30
0
0
SPLINE
5
439
100
AcDbEntity
8
0
100
AcDbSpline
70
0
71
3
72
9
73
5
74
0
42
0.000000001
43
0.0000000001
44
0.0000000001
40
0
40
0
40
0
40
0
40
0.087175739559269341
40
0.20312228843241814
40
0.20312228843241814
40
0.20312228843241814
40
0.20312228843241814
10
-2.59497542840329
20
-1.3189656751454835
30
0
10
-2.5914623697488874
20
-1.3071819503017146
30
0
10
-2.5832768296331721
20
-1.2797254908713129
30
0
10
-2.5542327929942603
20
-1.2750076612543932
30
0
10
-2.5376538353642735
20
-1.2723146231517062
30
0
0
SPLINE
5
440
100
AcDbEntity
8
0
100
AcDbSpline
70
0
71
3
72
9
73
5
74
0
42
0.000000001
43
0.0000000001
44
0.0000000001
40
0
40
0
40
0
40
0
40
0.15639247537258374
40
0.27159629879316172
40
0.27159629879316172
40
0.27159629879316172
40
0.27159629879316172
10
-2.5376538353642735
20
-1.2723146231517062
30
0
10
-2.5170311005575008
20
-1.2698859646803449
30
0
10
-2.4812169833426645
20
-1.265668276775074
30
0
10
-2.449588815832684
20
-1.2486130105991566
30
0
10
-2.4361730003700766
20
-1.2413786267667843
30
0
0
SPLINE
5
441
100
AcDbEntity
8
0
100
AcDbSpline
70
0
71
3
72
9
73
5
74
0
42
0.000000001
43
0.0000000001
44
0.0000000001
40
0
40
0
40
0
40
0
40
0.10655039003766929
40
0.2229778221269075
40
0.2229778221269075
40
0.2229778221269075
40
0.2229778221269075
10
-2.4361730003700766
20
-1.2413786267667843
30
0
10
-2.4259151236004426
20
-1.2314261444110024
30
0
10
-2.4044484821275147
20
-1.2105986013145944
30
0
10
-2.3978318035527271
20
-1.1813560903171039
30
0
10
-2.3943769178242986
20
-1.1660871706065987
30
0
0
LINE
5
442
100
AcDbEntity
8
0
100
AcDbLine
10
-2.3943769178242982
20
-1.1660871706065989
30
0
11
-2.2278034141631018
21
-0.10051707255043386
31
0
0
LINE
5
443
100
AcDbEntity
8
0
100
AcDbLine
10
-2.2278034141631018
20
-0.10051707255043386
30
0
11
-2.8939880311033481
21
-1.3233875183566504
31
0
0
SPLINE
5
444
100
AcDbEntity
8
0
100
AcDbSpline
70
0
71
3
72
9
73
5
74
0
42
0.000000001
43
0.0000000001
44
0.0000000001
40
0
40
0
40
0
40
0
40
0.075098181111049628
40
0.13698295958738937
40
0.13698295958738937
40
0.13698295958738937
40
0.13698295958738937
10
-2.8939880311033481
20
-1.3233875183566501
30
0
10
-2.8989659411076976
20
-1.3319909951098217
30
0
10
-2.9080459059599368
20
-1.3476841808961457
30
0
10
-2.9217190318385371
20
-1.3595423525709904
30
0
10
-2.9278961386014877
20
-1.3648995176478924
30
0
0
SPLINE
5
445
100
AcDbEntity
8
0
100
AcDbSpline
70
0
71
3
72
9
73
5
74
0
42
0.000000001
43
0.0000000001
44
0.0000000001
40
0
40
0
40
0
40
0
40
0.040776918832840167
40
0.079916180712482826
40
0.079916180712482826
40
0.079916180712482826
40
0.079916180712482826
10
-3.0163228807879428
20
-1.3750693652654111
30
0
10
-3.0213634924001544
20
-1.3732421974096198
30
0
10
-3.031242277753071
20
-1.3696612432636222
30
0
10
-3.0404026320937425
20
-1.3645152463279708
30
0
10
-3.0448889514380033
20
-1.3619949742141055
30
0
0
LINE
5
446
100
AcDbEntity
8
0
100
AcDbLine
10
-3.0448889514380033
20
-1.3619949742141055
30
0
11
-3.34824398581635
21
-0.037801095699483193
31
0
0
LINE
5
447
100
AcDbEntity
8
0
100
AcDbLine
10
-3.34824398581635
20
-0.037801095699483193
30
0
11
-3.6111390202140039
21
-1.1499206598113891
31
0
0
SPLINE
5
448
100
AcDbEntity
8
0
100
AcDbSpline
70
0
71
3
72
9
73
5
74
0
42
0.000000001
43
0.0000000001
44
0.0000000001
40
0
40
0
40
0
40
0
40
0.11732547402080856
40
0.21869738342699815
40
0.21869738342699815
40
0.21869738342699815
40
0.21869738342699815
10
-3.6111390202140039
20
-1.1499206598113891
30
0
10
-3.6140900609943287
20
-1.1658577134036558
30
0
10
-3.6195908689171592
20
-1.1955647480374676
30
0
10
-3.601523519806364
20
-1.2194816024604862
30
0
10
-3.5931488348944116
20
-1.2305676847988267
30
0
0
SPLINE
5
449
100
AcDbEntity
8
0
100
AcDbSpline
70
0
71
3
72
9
73
5
74
0
42
0.000000001
43
0.0000000001
44
0.0000000001
40
0
40
0
40
0
40
0
40
0.13069003969943685
40
0.32821752235827606
40
0.32821752235827606
40
0.32821752235827606
40
0.32821752235827606
10
-3.5931488348944116
20
-1.2305676847988267
30
0
10
-3.5780638824109396
20
-1.2389865720304143
30
0
10
-3.5401792376407313
20
-1.2601299301204423
30
0
10
-3.4970229784372524
20
-1.2662202903452162
30
0
10
-3.4710507293623518
20
-1.2698855837611229
30
0
0
SPLINE
5
450
100
AcDbEntity
8
0
100
AcDbSpline
70
0
71
3
72
9
73
5
74
0
42
0.000000001
43
0.0000000001
44
0.0000000001
40
0
40
0
40
0
40
0
40
0.08452411457604421
40
0.14145377799002681
40
0.14145377799002681
40
0.14145377799002681
40
0.14145377799002681
10
-3.4710507293623518
20
-1.2698855837611229
30
0
10
-3.4598678731052512
20
-1.2713761776369856
30
0
10
-3.4411530096107255
20
-1.2738707336136699
30
0
10
-3.4254272473382583
20
-1.2841028055546013
30
0
10
-3.4190982374961671
20
-1.288220817953436
30
0
0
SPLINE
5
451
100
AcDbEntity
8
0
100
AcDbSpline
70
0
71
3
72
9
73
5
74
0
42
0.000000001
43
0.0000000001
44
0.0000000001
40
0
40
0
40
0
40
0
40
0.044423829082655103
40
0.091701218938755449
40
0.091701218938755449
40
0.091701218938755449
40
0.091701218938755449
10
-3.4190982374961671
20
-1.288220817953436
30
0
10
-3.4145599031278344
20
-1.2922348256850198
30
0
10
-3.4051917148801829
20
-1.3005206805835472
30
0
10
-3.4041279347576094
20
-1.3130181216001211
30
0
10
-3.4035794933283881
20
-1.3194612899459943
30
0
0
SPLINE
5
452
100
AcDbEntity
8
0
100
AcDbSpline
70
0
71
3
72
9
73
5
74
0
42
0.000000001
43
0.0000000001
44
0.0000000001
40
0
40
0
40
0
40
0
40
0.031757825341618896
40
0.059873454239891932
40
0.059873454239891932
40
0.059873454239891932
40
0.059873454239891932
10
-3.9522385523508188
20
-1.3414336845401154
30
0
10
-3.9529853458877504
20
-1.3373266512047342
30
0
10
-3.9543932857633295
20
-1.3295836061497754
30
0
10
-3.9546548309549308
20
-1.3217196573696082
30
0
10
-3.9547776484479336
20
-1.318026871169361
30
0
0
SPLINE
5
453
100
AcDbEntity
8
0
100
AcDbSpline
70
0
71
3
72
9
73
5
74
0
42
0.000000001
43
0.0000000001
44
0.0000000001
40
0
40
0
40
0
40
0
40
0.042091961943871083
40
0.082058606642267717
40
0.082058606642267717
40
0.082058606642267717
40
0.082058606642267717
10
-3.9547776484479336
20
-1.318026871169361
30
0
10
-3.9542795212688997
20
-1.3123342917941079
30
0
10
-3.9533084184655491
20
-1.3012365641007135
30
0
10
-3.9455042737093344
20
-1.2933177518865508
30
0
10
-3.9417032649741235
20
-1.2894608943654813
30
0
0
SPLINE
5
454
100
AcDbEntity
8
0
100
AcDbSpline
70
0
71
3
72
9
73
5
74
0
42
0.000000001
43
0.0000000001
44
0.0000000001
40
0
40
0
40
0
40
0
40
0.045872713560937764
40
0.11394530811911037
40
0.11394530811911037
40
0.11394530811911037
40
0.11394530811911037
10
-3.9417032649741235
20
-1.2894608943654813
30
0
10
-3.9366234494156398
20
-1.2861241348096275
30
0
10
-3.9240054657807546
20
-1.2778358068212223
30
0
10
-3.9090170852807091
20
-1.2754152167949062
30
0
10
-3.9000628074284207
20
-1.2739691208900117
30
0
0
SPLINE
5
455
100
AcDbEntity
8
0
100
AcDbSpline
70
0
71
3
72
9
73
5
74
0
42
0.000000001
43
0.0000000001
44
0.0000000001
40
0
40
0
40
0
40
0
40
0.26611835514575655
40
0.48912562758405964
40
0.48912562758405964
40
0.48912562758405964
40
0.48912562758405964
10
-3.9000628074284207
20
-1.2739691208900117
30
0
10
-3.8639049704417809
20
-1.2657502531470108
30
0
10
-3.7974468537196726
20
-1.2506439714302775
30
0
10
-3.7677239474364108
20
-1.1901359407920229
30
0
10
-3.7541723690987361
20
-1.1625484865424882
30
0
0
LINE
5
456
100
AcDbEntity
8
0
100
AcDbLine
10
-3.754172369098737
20
-1.1625484865424882
30
0
11
-3.4334888673956705
21
0.17562145921695332
31
0
0
SPLINE
5
457
100
AcDbEntity
8
0
100
AcDbSpline
70
0
71
3
72
9
73
5
74
0
42
0.000000001
43
0.0000000001
44
0.0000000001
40
0
40
0
40
0
40
0
40
0.069518686839774635
40
0.13696748465468078
40
0.13696748465468078
40
0.13696748465468078
40
0.13696748465468078
10
-3.4334888673956705
20
0.17562145921695332
30
0
10
-3.4317997356466665
20
0.18487292338353548
30
0
10
-3.4284717653205763
20
0.20310039334697394
30
0
10
-3.4369690688460777
20
0.21954397664657435
30
0
10
-3.4411535138543834
20
0.22764151839616223
30
0
0
SPLINE
5
458
100
AcDbEntity
8
0
100
AcDbSpline
70
0
71
3
72
9
73
5
74
0
42
0.000000001
43
0.0000000001
44
0.0000000001
40
0
40
0
40
0
40
0
40
0.084572648997602196
40
0.22246820530315703
40
0.22246820530315703
40
0.22246820530315703
40
0.22246820530315703
10
-3.4411535138543834
20
0.22764151839616223
30
0
10
-3.4494269449086632
20
0.23530812089205658
30
0
10
-3.4711901908298972
20
0.25547510535156753
30
0
10
-3.5007413917123946
20
0.26088884171660898
30
0
10
-3.5190585228261919
20
0.26424451308875729
30
0
0
SPLINE
5
459
100
AcDbEntity
8
0
100
AcDbSpline
70
0
71
3
72
9
73
5
74
0
42
0.000000001
43
0.0000000001
44
0.0000000001
40
0
40
0
40
0
40
0
40
0.069675331171599894
40
0.11988846757095561
40
0.11988846757095561
40
0.11988846757095561
40
0.11988846757095561
10
-3.5190585228261919
20
0.26424451308875729
30
0
10
-3.5281603006021256
20
0.26584138331569124
30
0
10
-3.5438214847167817
20
0.26858907494768774
30
0
10
-3.5574920975220437
20
0.27660292396487562
30
0
10
-3.5632177887362309
20
0.27995938102815193
30
0
0
SPLINE
5
460
100
AcDbEntity
8
0
100
AcDbSpline
70
0
71
3
72
9
73
5
74
0
42
0.000000001
43
0.0000000001
44
0.0000000001
40
0
40
0
40
0
40
0
40
0.038507719045388807
40
0.085204867762083511
40
0.085204867762083511
40
0.085204867762083511
40
0.085204867762083511
10
-3.5632177887362309
20
0.27995938102815193
30
0
10
-3.5662329219527944
20
0.28414933612713045
30
0
10
-3.5729044162238397
20
0.29342032332106743
30
0
10
-3.5733127637037052
20
0.30489664116693266
30
0
10
-3.5735365615159225
20
0.3111863207972661
30
0
0
SPLINE
5
461
100
AcDbEntity
8
0
100
AcDbSpline
70
0
71
3
72
9
73
5
74
0
42
0.000000001
43
0.0000000001
44
0.0000000001
40
0
40
0
40
0
40
0
40
0.072531373800268265
40
0.14772017083309116
40
0.14772017083309116
40
0.14772017083309116
40
0.14772017083309116
10
-3.1367109614506181
20
0.3204496951593207
30
0
10
-3.129672197493726
20
0.3137324380290854
30
0
10
-3.1153367815256083
20
0.3000518151645491
30
0
10
-3.1106335415489781
20
0.28078301304429032
30
0
10
-3.1082396169142776
20
0.2709752931945566
30
0
0
LINE
5
462
100
AcDbEntity
8
0
100
AcDbLine
10
-3.1082396169142781
20
0.27097529319455654
30
0
11
-2.8436341268311511
21
-0.95691739975980483
31
0
0
LINE
5
463
100
AcDbEntity
8
0
100
AcDbLine
10
-2.8436341268311511
20
-0.95691739975980483
30
0
11
-2.1982901799051842
21
0.25040723779815194
31
0
0
SPLINE
5
464
100
AcDbEntity
8
0
100
AcDbSpline
70
0
71
3
72
9
73
5
74
0
42
0.000000001
43
0.0000000001
44
0.0000000001
40
0
40
0
40
0
40
0
40
0.067992423351454473
40
0.12480232942340469
40
0.12480232942340469
40
0.12480232942340469
40
0.12480232942340469
10
-2.1982901799051842
20
0.2504072377981521
30
0
10
-2.1941685289097155
20
0.25834341393549737
30
0
10
-2.1866031029409148
20
0.27291052626705026
30
0
10
-2.1766930440308947
20
0.28598709377676051
30
0
10
-2.1721819942897018
20
0.2919395353329583
30
0
0
SPLINE
5
465
100
AcDbEntity
8
0
100
AcDbSpline
70
0
71
3
72
9
73
5
74
0
42
0.000000001
43
0.0000000001
44
0.0000000001
40
0
40
0
40
0
40
0
40
0.054981032840965158
40
0.10814711352655276
40
0.10814711352655276
40
0.10814711352655276
40
0.10814711352655276
10
-2.1721819942897018
20
0.2919395353329583
30
0
10
-2.1676696413580685
20
0.29763919960273449
30
0
10
-2.1587938905845103
20
0.30885037929500547
30
0
10
-2.1468026782717731
20
0.31663242605943837
30
0
10
-2.1409076918912033
20
0.32045814930516603
30
0
0
SPLINE
5
466
100
AcDbEntity
8
0
100
AcDbSpline
70
0
71
3
72
9
73
5
74
0
42
0.000000001
43
0.0000000001
44
0.0000000001
40
0
40
0
40
0
40
0
40
0.10587020078357097
40
0.19172238361205163
40
0.19172238361205163
40
0.19172238361205163
40
0.19172238361205163
10
-1.2001371887449355
20
0.15420941973944177
30
0
10
-1.1975189545728036
20
0.16835693525275297
30
0
10
-1.192777543933921
20
0.19397694330341689
30
0
10
-1.2049133075609102
20
0.21681124771976923
30
0
10
-1.2103476328495828
20
0.22703631816058242
30
0
0
SPLINE
5
467
100
AcDbEntity
8
0
100
AcDbSpline
70
0
71
3
72
9
73
5
74
0
42
0.000000001
43
0.0000000001
44
0.0000000001
40
0
40
0
40
0
40
0
40
0.098908150547302467
40
0.25724090996938415
40
0.25724090996938415
40
0.25724090996938415
40
0.25724090996938415
10
-1.2103476328495828
20
0.22703631816058242
30
0
10
-1.2207967236875599
20
0.23509371663981968
30
0
10
-1.2479727816831905
20
0.25604944683309266
30
0
10
-1.2825666448516542
20
0.25916315479876534
30
0
10
-1.3038592993333409
20
0.26107965390576254
30
0
0
SPLINE
5
468
100
AcDbEntity
8
0
100
AcDbSpline
70
0
71
3
72
9
73
5
74
0
42
0.000000001
43
0.0000000001
44
0.0000000001
40
0
40
0
40
0
40
0
40
0.11486016632314466
40
0.19313933373544359
40
0.19313933373544359
40
0.19313933373544359
40
0.19313933373544359
10
-1.3038592993333409
20
0.26107965390576254
30
0
10
-1.3203258382380851
20
0.26333617128027581
30
0
10
-1.3480146049776669
20
0.26713054383106777
30
0
10
-1.3572199336828079
20
0.29253291384201158
30
0
10
-1.36095084365779
20
0.30282846750421699
30
0
0
SPLINE
5
469
100
AcDbEntity
8
0
100
AcDbSpline
70
0
71
3
72
9
73
5
74
0
42
0.000000001
43
0.0000000001
44
0.0000000001
40
0
40
0
40
0
40
0
40
0.046959086222356693
40
0.088234206003912796
40
0.088234206003912796
40
0.088234206003912796
40
0.088234206003912796
10
-0.68754622255349906
20
0.30367592060281628
30
0
10
-0.68795047253951047
20
0.29730786813022075
30
0
10
-0.68871004176055106
20
0.28534255749682891
30
0
10
-0.69682927829548258
20
0.27659970089848057
30
0
10
-0.70062737968599287
20
0.27250987599187015
30
0
0
SPLINE
5
470
100
AcDbEntity
8
0
100
AcDbSpline
70
0
71
3
72
9
73
5
74
0
42
0.000000001
43
0.0000000001
44
0.0000000001
40
0
40
0
40
0
40
0
40
0.048754067207284292
40
0.12647375103562356
40
0.12647375103562356
40
0.12647375103562356
40
0.12647375103562356
10
-0.70062737968599287
20
0.27250987599187015
30
0
10
-0.70615027943951114
20
0.26916824039323395
30
0
10
-0.72047732717998836
20
0.26049964692067645
30
0
10
-0.73719490957196865
20
0.2583517390800128
30
0
10
-0.74746807066065246
20
0.25703182315357087
30
0
0
SPLINE
5
471
100
AcDbEntity
8
0
100
AcDbSpline
70
0
71
3
72
9
73
5
74
0
42
0.000000001
43
0.0000000001
44
0.0000000001
40
0
40
0
40
0
40
0
40
0.16224377494488426
40
0.2796508656593375
40
0.2796508656593375
40
0.2796508656593375
40
0.2796508656593375
10
-0.74746807066065246
20
0.25703182315357087
30
0
10
-0.76875132981837091
20
0.25390974967814239
30
0
10
-0.80543613852384954
20
0.24852839960568351
30
0
10
-0.83791851600932521
20
0.23090249056625298
30
0
10
-0.85155573980645871
20
0.22350252526795852
30
0
0
SPLINE
5
472
100
AcDbEntity
8
0
100
AcDbSpline
70
0
71
3
72
9
73
5
74
0
42
0.000000001
43
0.0000000001
44
0.0000000001
40
0
40
0
40
0
40
0
40
0.09875665653502258
40
0.21883770866588664
40
0.21883770866588664
40
0.21883770866588664
40
0.21883770866588664
10
-0.85155573980645871
20
0.22350252526795852
30
0
10
-0.86048170244415845
20
0.21381888521170953
30
0
10
-0.88026099914988221
20
0.19236062937552473
30
0
10
-0.887034753196564
20
0.16384916732042834
30
0
10
-0.89075166066082212
20
0.14820430253804157
30
0
0
LINE
5
473
100
AcDbEntity
8
0
100
AcDbLine
10
-0.89075166066082212
20
0.14820430253804159
30
0
11
-1.1437948085226095
21
-1.1745416248314673
31
0
0
SPLINE
5
474
100
AcDbEntity
8
0
100
AcDbSpline
70
0
71
3
72
9
73
5
74
0
42
0.000000001
43
0.0000000001
44
0.0000000001
40
0
40
0
40
0
40
0
40
0.11231652223910507
40
0.19669574307440535
40
0.19669574307440535
40
0.19669574307440535
40
0.19669574307440535
10
-1.1437948085226095
20
-1.1745416248314673
30
0
10
-1.1465326244015341
20
-1.1898513298915565
30
0
10
-1.1513272594024238
20
-1.2166626462768131
30
0
10
-1.1352717687365015
20
-1.2381600326654298
30
0
10
-1.1283842287656622
20
-1.2473820559035274
30
0
0
SPLINE
5
475
100
AcDbEntity
8
0
100
AcDbSpline
70
0
71
3
72
9
73
5
74
0
42
0.000000001
43
0.0000000001
44
0.0000000001
40
0
40
0
40
0
40
0
40
0.10343468637892263
40
0.25800372922049919
40
0.25800372922049919
40
0.25800372922049919
40
0.25800372922049919
10
-1.1283842287656622
20
-1.2473820559035274
30
0
10
-1.116219439988561
20
-1.2535369408934067
30
0
10
-1.0858760321865226
20
-1.2688894627205118
30
0
10
-1.0523507713197
20
-1.275107234317157
30
0
10
-1.0322659163493662
20
-1.2788322773900023
30
0
0
SPLINE
5
476
100
AcDbEntity
8
0
100
AcDbSpline
70
0
71
3
72
9
73
5
74
0
42
0.000000001
43
0.0000000001
44
0.0000000001
40
0
40
0
40
0
40
0
40
0.10343492232393392
40
0.18560426003360811
40
0.18560426003360811
40
0.18560426003360811
40
0.18560426003360811
10
-1.0322659163493662
20
-1.2788322773900023
30
0
10
-1.0179282972596029
20
-1.282576726263241
30
0
10
-0.99220078548688528
20
-1.2892957883240659
30
0
10
-0.98581486080207892
20
-1.3145709302928763
30
0
10
-0.98298773171614284
20
-1.3257605531804069
30
0
0
SPLINE
5
477
100
AcDbEntity
8
0
100
AcDbSpline
70
0
71
3
72
9
73
5
74
0
42
0.000000001
43
0.0000000001
44
0.0000000001
40
0
40
0
40
0
40
0
40
0.046492504644591572
40
0.082701665498253918
40
0.082701665498253918
40
0.082701665498253918
40
0.082701665498253918
10
-1.6511854513312163
20
-1.3240216588343046
30
0
10
-1.6510403746026683
20
-1.3178140667108029
30
0
10
-1.6507823096270855
20
-1.3067718952624818
30
0
10
-1.6455814954468377
20
-1.2970838052240061
30
0
10
-1.6433044298510229
20
-1.2928420815724391
30
0
0
SPLINE
5
478
100
AcDbEntity
8
0
100
AcDbSpline
70
0
71
3
72
9
73
5
74
0
42
0.000000001
43
0.0000000001
44
0.0000000001
40
0
40
0
40
0
40
0
40
0.044454738872724685
40
0.10773316964015248
40
0.10773316964015248
40
0.10773316964015248
40
0.10773316964015248
10
-1.6433044298510229
20
-1.2928420815724391
30
0
10
-1.6384461521392075
20
-1.2895096356701252
30
0
10
-1.6266724319429295
20
-1.2814336696693245
30
0
10
-1.6125556258056717
20
-1.2788571065048349
30
0
10
-1.6042639423548146
20
-1.2773437297577601
30
0
0
SPLINE
5
479
100
AcDbEntity
8
0
100
AcDbSpline
70
0
71
3
72
9
73
5
74
0
42
0.000000001
43
0.0000000001
44
0.0000000001
40
0
40
0
40
0
40
0
40
0.15418958127467466
40
0.27308449783905903
40
0.27308449783905903
40
0.27308449783905903
40
0.27308449783905903
10
-1.6042639423548146
20
-1.2773437297577601
30
0
10
-1.5841284913164364
20
-1.2740206281225468
30
0
10
-1.5484666814190273
20
-1.2681350972467356
30
0
10
-1.516635102511207
20
-1.2511866447887603
30
0
10
-1.5027763410351587
20
-1.2438076655466879
30
0
0
SPLINE
5
480
100
AcDbEntity
8
0
100
AcDbSpline
70
0
71
3
72
9
73
5
74
0
42
0.000000001
43
0.0000000001
44
0.0000000001
40
0
40
0
40
0
40
0
40
0.10763217583199215
40
0.22569859108493076
40
0.22569859108493076
40
0.22569859108493076
40
0.22569859108493076
10
-1.5027763410351587
20
-1.2438076655466879
30
0
10
-1.4923896462242494
20
-1.2338419685270114
30
0
10
-1.4706093340942539
20
-1.2129444649772245
30
0
10
-1.4625803631216041
20
-1.1837795778847269
30
0
10
-1.4583802845284946
20
-1.1685229754676907
30
0
0
LINE
5
481
100
AcDbEntity
8
0
100
AcDbLine
10
-1.4583802845284943
20
-1.1685229754676907
30
0
11
-1.2001371887449355
21
0.15420941973944177
31
0
0
SPLINE
5
482
100
AcDbEntity
8
0
100
AcDbSpline
70
0
71
3
72
9
73
5
74
0
42
0.000000001
43
0.0000000001
44
0.0000000001
40
0
40
0
40
0
40
0
40
0.033389484974352179
40
0.066450744241026066
40
0.066450744241026066
40
0.066450744241026066
40
0.066450744241026066
10
-0.70224974982922628
20
-1.3498913415893741
30
0
10
-0.70299689596414172
20
-1.3455668549604844
30
0
10
-0.70448384362925487
20
-1.3369603923219979
30
0
10
-0.7046830467599372
20
-1.3282288532504318
30
0
10
-0.70478215635495278
20
-1.3238846479245274
30
0
0
SPLINE
5
483
100
AcDbEntity
8
0
100
AcDbSpline
70
0
71
3
72
9
73
5
74
0
42
0.000000001
43
0.0000000001
44
0.0000000001
40
0
40
0
40
0
40
0
40
0.036917162949113791
40
0.072633880814720719
40
0.072633880814720719
40
0.072633880814720719
40
0.072633880814720719
10
-0.70478215635495278
20
-1.3238846479245274
30
0
10
-0.70436525828822527
20
-1.318932186336923
30
0
10
-0.70354501853869822
20
-1.3091883036558678
30
0
10
-0.69735731689713198
20
-1.3016289793090166
30
0
10
-0.69431459921098582
20
-1.2979117849098931
30
0
0
SPLINE
5
484
100
AcDbEntity
8
0
100
AcDbSpline
70
0
71
3
72
9
73
5
74
0
42
0.000000001
43
0.0000000001
44
0.0000000001
40
0
40
0
40
0
40
0
40
0.047220145916350438
40
0.11094921904051838
40
0.11094921904051838
40
0.11094921904051838
40
0.11094921904051838
10
-0.69431459921098582
20
-1.2979117849098931
30
0
10
-0.68952413432161486
20
-1.2938328588051335
30
0
10
-0.67826838049022775
20
-1.2842489480173787
30
0
10
-0.66365896995647067
20
-1.2814316291861922
30
0
10
-0.65526734538931775
20
-1.279813365269064
30
0
0
SPLINE
5
485
100
AcDbEntity
8
0
100
AcDbSpline
70
0
71
3
72
9
73
5
74
0
42
0.000000001
43
0.0000000001
44
0.0000000001
40
0
40
0
40
0
40
0
40
0.15097433827654347
40
0.27285759843219881
40
0.27285759843219881
40
0.27285759843219881
40
0.27285759843219881
10
-0.65526734538931775
20
-1.279813365269064
30
0
10
-0.63561473422012904
20
-1.2763573685469192
30
0
10
-0.60009635177340881
20
-1.2701113072853896
30
0
10
-0.56808082039218422
20
-1.2536364743443802
30
0
10
-0.55377974406966124
20
-1.2462773010579922
30
0
0
SPLINE
5
486
100
AcDbEntity
8
0
100
AcDbSpline
70
0
71
3
72
9
73
5
74
0
42
0.000000001
43
0.0000000001
44
0.0000000001
40
0
40
0
40
0
40
0
40
0.10857789809527289
40
0.2303162431266369
40
0.2303162431266369
40
0.2303162431266369
40
0.2303162431266369
10
-0.55377974406966124
20
-1.2462773010579922
30
0
10
-0.54262343327908624
20
-1.2368656510905707
30
0
10
-0.51895858404629036
20
-1.2169015893418591
30
0
10
-0.51099352586592794
20
-1.1868720846265475
30
0
10
-0.50678343200631837
20
-1.1709993777929977
30
0
0
LINE
5
487
100
AcDbEntity
8
0
100
AcDbLine
10
-0.50678343200631837
20
-1.1709993777929979
30
0
11
-0.24853357014157143
21
0.15433299137502055
31
0
0
SPLINE
5
488
100
AcDbEntity
8
0
100
AcDbSpline
70
0
71
3
72
9
73
5
74
0
42
0.000000001
43
0.0000000001
44
0.0000000001
40
0
40
0
40
0
40
0
40
0.10401308536529541
40
0.1951780745659687
40
0.1951780745659687
40
0.1951780745659687
40
0.1951780745659687
10
-0.24853357014157124
20
0.15433299137502046
30
0
10
-0.24638848180473266
20
0.16865051126313665
30
0
10
-0.24236327468884517
20
0.19551699594156222
30
0
10
-0.26062244484960756
20
0.21533177218755856
30
0
10
-0.26915105163200687
20
0.22458698113711434
30
0
0
SPLINE
5
489
100
AcDbEntity
8
0
100
AcDbSpline
70
0
71
3
72
9
73
5
74
0
42
0.000000001
43
0.0000000001
44
0.0000000001
40
0
40
0
40
0
40
0
40
0.11444383635376092
40
0.26702522662298245
40
0.26702522662298245
40
0.26702522662298245
40
0.26702522662298245
10
-0.26915105163200687
20
0.22458698113711434
30
0
10
-0.28230938521955973
20
0.23204590721597274
30
0
10
-0.31301096880974955
20
0.24944939079384398
30
0
10
-0.34791696479090461
20
0.25530047178080867
30
0
10
-0.36786266603753653
20
0.25864384904467053
30
0
0
SPLINE
5
490
100
AcDbEntity
8
0
100
AcDbSpline
70
0
71
3
72
9
73
5
74
0
42
0.000000001
43
0.0000000001
44
0.0000000001
40
0
40
0
40
0
40
0
40
0.10087389055479642
40
0.17698104750149302
40
0.17698104750149302
40
0.17698104750149302
40
0.17698104750149302
10
-0.36786266603753653
20
0.25864384904467053
30
0
10
-0.38217036421618616
20
0.26136890615588887
30
0
10
-0.40727290955339729
20
0.26614995960185267
30
0
10
-0.41418275422399559
20
0.29008120925883513
30
0
10
-0.41715419461406444
20
0.30037236415528912
30
0
0
SPLINE
5
491
100
AcDbEntity
8
0
100
AcDbSpline
70
0
71
3
72
9
73
5
74
0
42
0.000000001
43
0.0000000001
44
0.0000000001
40
0
40
0
40
0
40
0
40
0.028115379516362327
40
0.059873029783852658
40
0.059873029783852658
40
0.059873029783852658
40
0.059873029783852658
10
-0.41715419461406444
20
0.30037236415528912
30
0
10
-0.41701220039157133
20
0.30406443194413268
30
0
10
-0.41670981698225268
20
0.31192686483630805
30
0
10
-0.41526146289620036
20
0.31966240059091378
30
0
10
-0.41449323181294984
20
0.32376545734306567
30
0
0
SPLINE
5
492
100
AcDbEntity
8
0
100
AcDbSpline
70
0
71
3
72
9
73
5
74
0
42
0.000000001
43
0.0000000001
44
0.0000000001
40
0
40
0
40
0
40
0
40
0.028500973369756669
40
0.059913470674454405
40
0.059913470674454405
40
0.059913470674454405
40
0.059913470674454405
10
0.32909724842668847
20
0.31923046581407305
30
0
10
0.3298456056714823
20
0.31555745173446781
30
0
10
0.33141876877922444
20
0.30783620591979682
30
0
10
0.33156155716256519
20
0.2999554924901438
30
0
10
0.33163642078933037
20
0.2958236522448478
30
0
0
SPLINE
5
493
100
AcDbEntity
8
0
100
AcDbSpline
70
0
71
3
72
9
73
5
74
0
42
0.000000001
43
0.0000000001
44
0.0000000001
40
0
40
0
40
0
40
0
40
0.087876147072042707
40
0.20848883565686466
40
0.20848883565686466
40
0.20848883565686466
40
0.20848883565686466
10
0.33163642078933037
20
0.2958236522448478
30
0
10
0.32786761727331859
20
0.28404010483089254
30
0
10
0.31892601613292509
20
0.25608327966161271
30
0
10
0.28901737132197436
20
0.25170970598692965
30
0
10
0.27171494814323621
20
0.24917955381851567
30
0
0
SPLINE
5
494
100
AcDbEntity
8
0
100
AcDbSpline
70
0
71
3
72
9
73
5
74
0
42
0.000000001
43
0.0000000001
44
0.0000000001
40
0
40
0
40
0
40
0
40
0.23509234473275833
40
0.41171092103762341
40
0.41171092103762341
40
0.41171092103762341
40
0.41171092103762341
10
0.27171494814323621
20
0.24917955381851567
30
0
10
0.24094462155574245
20
0.24514684121581634
30
0
10
0.18705737348577064
20
0.23808445974259254
30
0
10
0.13705674050159472
20
0.21702135710323692
30
0
10
0.11560712583082002
20
0.20798556278582966
30
0
0
SPLINE
5
495
100
AcDbEntity
8
0
100
AcDbSpline
70
0
71
3
72
9
73
5
74
0
42
0.000000001
43
0.0000000001
44
0.0000000001
40
0
40
0
40
0
40
0
40
0.14382666649886952
40
0.30942950917780676
40
0.30942950917780676
40
0.30942950917780676
40
0.30942950917780676
10
0.11560712583082002
20
0.20798556278582966
30
0
10
0.099751840256482122
20
0.19665047750063766
30
0
10
0.065640688600333147
20
0.17226411048216042
30
0
10
0.055680672175974666
20
0.13128601687170735
30
0
10
0.050350194687305172
20
0.10935504846637915
30
0
0
LINE
5
496
100
AcDbEntity
8
0
100
AcDbLine
10
0.050350194687305186
20
0.10935504846637917
30
0
11
-0.20001827023619087
21
-1.1847977444168603
31
0
0
SPLINE
5
497
100
AcDbEntity
8
0
100
AcDbSpline
70
0
71
3
72
9
73
5
74
0
42
0.000000001
43
0.0000000001
44
0.0000000001
40
0
40
0
40
0
40
0
40
0.069518831227048009
40
0.12037922241709142
40
0.12037922241709142
40
0.12037922241709142
40
0.12037922241709142
10
-0.20001827023619112
20
-1.18479774441686
30
0
10
-0.20147843744580063
20
-1.1939562040817449
30
0
10
-0.2040068716871318
20
-1.209815047412933
30
0
10
-0.1994610038709721
20
-1.2251326906561284
30
0
10
-0.19754036830957056
20
-1.2316044165222348
30
0
0
SPLINE
5
498
100
AcDbEntity
8
0
100
AcDbSpline
70
0
71
3
72
9
73
5
74
0
42
0.000000001
43
0.0000000001
44
0.0000000001
40
0
40
0
40
0
40
0
40
0.052443986613941181
40
0.13869161979416494
40
0.13869161979416494
40
0.13869161979416494
40
0.13869161979416494
10
-0.19754036830957056
20
-1.2316044165222348
30
0
10
-0.1916316471266177
20
-1.2353597304983468
30
0
10
-0.17600563993901705
20
-1.2452909087288773
30
0
10
-0.15724250441938023
20
-1.2449510496642318
30
0
10
-0.1455743442810094
20
-1.2447397027927765
30
0
0
LINE
5
499
100
AcDbEntity
8
0
100
AcDbLine
10
-0.14557434428100938
20
-1.2447397027927765
30
0
11
0.11442492911285718
21
-1.2454163157970168
31
0
0
SPLINE
5
500
100
AcDbEntity
8
0
100
AcDbSpline
70
0
71
3
72
9
73
5
74
0
42
0.000000001
43
0.0000000001
44
0.0000000001
40
0
40
0
40
0
40
0
40
0.26828113254540942
40
0.53431737060652074
40
0.53431737060652074
40
0.53431737060652074
40
0.53431737060652074
10
0.11442492911285752
20
-1.2454163157970166
30
0
10
0.15000828895905483
20
-1.2431658591145081
30
0
10
0.22087725797665078
20
-1.2386837768828829
30
0
10
0.28356220744354521
20
-1.2053395643045632
30
0
10
0.31477299911272438
20
-1.1887375046234849
30
0
0
SPLINE
5
501
100
AcDbEntity
8
0
100
AcDbSpline
70
0
71
3
72
9
73
5
74
0
42
0.000000001
43
0.0000000001
44
0.0000000001
40
0
40
0
40
0
40
0
40
0.31518534909008539
40
0.70840442879123733
40
0.70840442879123733
40
0.70840442879123733
40
0.70840442879123733
10
0.31477299911272438
20
-1.1887375046234849
30
0
10
0.34771437295984342
20
-1.1633919786054887
30
0
10
0.42175276081999019
20
-1.1064258698284586
30
0
10
0.47701729859482378
20
-1.0309395326263753
30
0
10
0.50769337824752991
20
-0.98903879508403425
30
0
0
SPLINE
5
502
100
AcDbEntity
8
0
100
AcDbSpline
70
0
71
3
72
9
73
5
74
0
42
0.000000001
43
0.0000000001
44
0.0000000001
40
0
40
0
40
0
40
0
40
0.055866349319234711
40
0.09920291237478561
40
0.09920291237478561
40
0.09920291237478561
40
0.09920291237478561
10
0.50769337824752991
20
-0.98903879508403425
30
0
10
0.51164837492107684
20
-0.98284712940738905
30
0
10
0.51867133584888803
20
-0.97185247385786944
30
0
10
0.52737309001995558
20
-0.96214186976066407
30
0
10
0.53117443122356678
20
-0.95789981479784003
30
0
0
SPLINE
5
503
100
AcDbEntity
8
0
100
AcDbSpline
70
0
71
3
72
9
73
5
74
0
42
0.000000001
43
0.0000000001
44
0.0000000001
40
0
40
0
40
0
40
0
40
0.038507432827548399
40
0.085205196888407109
40
0.085205196888407109
40
0.085205196888407109
40
0.085205196888407109
10
0.53117443122356678
20
-0.95789981479784003
30
0
10
0.53536437740979814
20
-0.95488474495287712
30
0
10
0.54463544960379395
20
-0.94821331554539456
30
0
10
0.55611180160496732
20
-0.94780493236729191
30
0
10
0.56240155854000606
20
-0.94758111290564051
30
0
0
SPLINE
5
504
100
AcDbEntity
8
0
100
AcDbSpline
70
0
71
3
72
9
73
5
74
0
42
0.000000001
43
0.0000000001
44
0.0000000001
40
0
40
0
40
0
40
0
40
0.058627939998166893
40
0.12068834082322337
40
0.12068834082322337
40
0.12068834082322337
40
0.12068834082322337
10
0.56240155854000606
20
-0.94758111290564051
30
0
10
0.57018431568819472
20
-0.94832221955921692
30
0
10
0.58620548319424037
20
-0.94984782206880558
30
0
10
0.59964813046994625
20
-0.95872906463638763
30
0
10
0.60656061325320054
20
-0.96329598029542385
30
0
0
SPLINE
5
505
100
AcDbEntity
8
0
100
AcDbSpline
70
0
71
3
72
9
73
5
74
0
42
0.000000001
43
0.0000000001
44
0.0000000001
40
0
40
0
40
0
40
0
40
0.064579476655868009
40
0.12313731526320598
40
0.12313731526320598
40
0.12313731526320598
40
0.12313731526320598
10
0.60656061325320054
20
-0.96329598029542385
30
0
10
0.61388262155221518
20
-0.96761701611007722
30
0
10
0.62784390601848616
20
-0.97585617778999989
30
0
10
0.63980024904242039
20
-0.98679522547462883
30
0
10
0.64548607712494022
20
-0.99199727968106799
30
0
0
SPLINE
5
506
100
AcDbEntity
8
0
100
AcDbSpline
70
0
71
3
72
9
73
5
74
0
42
0.000000001
43
0.0000000001
44
0.0000000001
40
0
40
0
40
0
40
0
40
0.081986706190581515
40
0.16837665532302429
40
0.16837665532302429
40
0.16837665532302429
40
0.16837665532302429
10
0.64548607712494022
20
-0.99199727968106799
30
0
10
0.6409543377217769
20
-1.001756388330465
30
0
10
0.63164747373182462
20
-1.021798736043517
30
0
10
0.62178898572687358
20
-1.0415756645216852
30
0
10
0.61673083633177694
20
-1.0517227234589659
30
0
0
SPLINE
5
507
100
AcDbEntity
8
0
100
AcDbSpline
70
0
71
3
72
9
73
5
74
0
42
0.000000001
43
0.0000000001
44
0.0000000001
40
0
40
0
40
0
40
0
40
0.085677172373911606
40
0.1831424304579706
40
0.1831424304579706
40
0.1831424304579706
40
0.1831424304579706
10
0.61673083633177694
20
-1.0517227234589659
30
0
10
0.61198106173289557
20
-1.0619145420725771
30
0
10
0.6018280041556664
20
-1.0837004434972599
30
0
10
0.59108099428403038
20
-1.1051997734589758
30
0
10
0.58536162008902948
20
-1.1166413478560893
30
0
0
SPLINE
5
508
100
AcDbEntity
8
0
100
AcDbSpline
70
0
71
3
72
9
73
5
74
0
42
0.000000001
43
0.0000000001
44
0.0000000001
40
0
40
0
40
0
40
0
40
0.1005890905019316
40
0.2134386042822693
40
0.2134386042822693
40
0.2134386042822693
40
0.2134386042822693
10
0.58536162008902948
20
-1.1166413478560893
30
0
10
0.5799970490165467
20
-1.1287072887301703
30
0
10
0.56861403962089374
20
-1.1543098423139186
30
0
10
0.55902729059247902
20
-1.1806390995763127
30
0
10
0.55395857319607089
20
-1.1945599359229058
30
0
0
SPLINE
5
509
100
AcDbEntity
8
0
100
AcDbSpline
70
0
71
3
72
9
73
5
74
0
42
0.000000001
43
0.0000000001
44
0.0000000001
40
0
40
0
40
0
40
0
40
0.1337209579985866
40
0.25074365641288537
40
0.25074365641288537
40
0.25074365641288537
40
0.25074365641288537
10
0.55395857319607089
20
-1.1945599359229058
30
0
10
0.54755211001012838
20
-1.2109116721016371
30
0
10
0.53553918377955956
20
-1.2415732391403451
30
0
10
0.52665948373757665
20
-1.2732805067648592
30
0
10
0.5225153052770406
20
-1.2880783687321231
30
0
0
SPLINE
5
510
100
AcDbEntity
8
0
100
AcDbSpline
70
0
71
3
72
9
73
5
74
0
42
0.000000001
43
0.0000000001
44
0.0000000001
40
0
40
0
40
0
40
0
40
0.09009686268755826
40
0.15908438865185681
40
0.15908438865185681
40
0.15908438865185681
40
0.15908438865185681
10
0.5225153052770406
20
-1.2880783687321231
30
0
10
0.52007268030274278
20
-1.2996821534312355
30
0
10
0.51575972767430844
20
-1.3201710022084396
30
0
10
0.50766841301164189
20
-1.3394642768629879
30
0
10
0.50415958486636248
20
-1.3478308758576871
30
0
0
SPLINE
5
511
100
AcDbEntity
8
0
100
AcDbSpline
70
0
71
3
72
9
73
5
74
0
42
0.000000001
43
0.0000000001
44
0.0000000001
40
0
40
0
40
0
40
0
40
0.042189246549495373
40
0.071952825434660597
40
0.071952825434660597
40
0.071952825434660597
40
0.071952825434660597
10
0.50415958486636248
20
-1.3478308758576871
30
0
10
0.50185414412368845
20
-1.3530886697575579
30
0
10
0.49792226600604816
20
-1.3620557207857147
30
0
10
0.48942193064874834
20
-1.3666732468033054
30
0
10
0.48590573235592227
20
-1.3685833052207286
30
0
0
SPLINE
5
512
100
AcDbEntity
8
0
100
AcDbSpline
70
0
71
3
72
9
73
5
74
0
42
0.000000001
43
0.0000000001
44
0.0000000001
40
0
40
0
40
0
40
0
40
0.10241526866739969
40
0.18396858022873852
40
0.18396858022873852
40
0.18396858022873852
40
0.18396858022873852
10
1.1970617140984225
20
0.15057102483019988
30
0
10
1.1996211506486529
20
0.16455597661846963
30
0
10
1.204218667351564
20
0.18967715003852542
30
0
10
1.1885732284133177
20
0.20944730162441569
30
0
10
1.1816376019348267
20
0.21821141411522416
30
0
0
SPLINE
5
513
100
AcDbEntity
8
0
100
AcDbSpline
70
0
71
3
72
9
73
5
74
0
42
0.000000001
43
0.0000000001
44
0.0000000001
40
0
40
0
40
0
40
0
40
0.10198868134188477
40
0.25352050239935109
40
0.25352050239935109
40
0.25352050239935109
40
0.25352050239935109
10
1.1816376019348267
20
0.21821141411522416
30
0
10
1.1702430612133876
20
0.22552053300186534
30
0
10
1.1419188427775615
20
0.2436893284785539
30
0
10
1.1082459768639197
20
0.24742313473648606
30
0
10
1.0881193573446817
20
0.24965486927623945
30
0
0
SPLINE
5
514
100
AcDbEntity
8
0
100
AcDbSpline
70
0
71
3
72
9
73
5
74
0
42
0.000000001
43
0.0000000001
44
0.0000000001
40
0
40
0
40
0
40
0
40
0.11711710900456672
40
0.21338599364507077
40
0.21338599364507077
40
0.21338599364507077
40
0.21338599364507077
10
1.0881193573446817
20
0.24965486927623945
30
0
10
1.071494872041955
20
0.25297130679173374
30
0
10
1.0412052555605411
20
0.25901381689653757
30
0
10
1.0342104082245085
20
0.28850063137516124
30
0
10
1.0310546896144561
20
0.30180357920678036
30
0
0
SPLINE
5
515
100
AcDbEntity
8
0
100
AcDbSpline
70
0
71
3
72
9
73
5
74
0
42
0.000000001
43
0.0000000001
44
0.0000000001
40
0
40
0
40
0
40
0
40
0.20983941825898522
40
0.41769513013641646
40
0.41769513013641646
40
0.41769513013641646
40
0.41769513013641646
10
2.1646373136194335
20
0.29365360034527682
30
0
10
2.1650968928242298
20
0.26609172920704116
30
0
10
2.1660117066249347
20
0.2112285416924832
30
0
10
2.1734897478738753
20
0.15687031754702657
30
0
10
2.1772110112430187
20
0.12982028377608748
30
0
0
SPLINE
5
516
100
AcDbEntity
8
0
100
AcDbSpline
70
0
71
3
72
9
73
5
74
0
42
0.000000001
43
0.0000000001
44
0.0000000001
40
0
40
0
40
0
40
0
40
0.20792132417308884
40
0.41709702996729026
40
0.41709702996729026
40
0.41709702996729026
40
0.41709702996729026
10
2.1772110112430187
20
0.12982028377608748
30
0
10
2.18170014900564
20
0.10290166895530492
30
0
10
2.1907055073321606
20
0.048902040310985793
30
0
10
2.2022180111818086
20
-0.0046192186253626276
30
0
10
2.2079915745140575
20
-0.03146032826808301
30
0
0
SPLINE
5
517
100
AcDbEntity
8
0
100
AcDbSpline
70
0
71
3
72
9
73
5
74
0
42
0.000000001
43
0.0000000001
44
0.0000000001
40
0
40
0
40
0
40
0
40
0.046726697928642882
40
0.10375169484317383
40
0.10375169484317383
40
0.10375169484317383
40
0.10375169484317383
10
2.2079915745140575
20
-0.03146032826808301
30
0
10
2.2028909036609212
20
-0.034909189885223665
30
0
10
2.1915654030518663
20
-0.042567022642941328
30
0
10
2.1786455314402118
20
-0.047083318473503555
30
0
10
2.1715443882742678
20
-0.04956560809963597
30
0
0
SPLINE
5
518
100
AcDbEntity
8
0
100
AcDbSpline
70
0
71
3
72
9
73
5
74
0
42
0.000000001
43
0.0000000001
44
0.0000000001
40
0
40
0
40
0
40
0
40
0.052130638871533956
40
0.10012359110462685
40
0.10012359110462685
40
0.10012359110462685
40
0.10012359110462685
10
2.1715443882742678
20
-0.04956560809963597
30
0
10
2.1648520490670289
20
-0.051064057842955493
30
0
10
2.1519985516071141
20
-0.053942023136277231
30
0
10
2.1388388826935172
20
-0.054430107246647319
30
0
10
2.132530965102811
20
-0.054664064070771498
30
0
0
SPLINE
5
519
100
AcDbEntity
8
0
100
AcDbSpline
70
0
71
3
72
9
73
5
74
0
42
0.000000001
43
0.0000000001
44
0.0000000001
40
0
40
0
40
0
40
0
40
0.063085033118765219
40
0.11036237301948429
40
0.11036237301948429
40
0.11036237301948429
40
0.11036237301948429
10
2.132530965102811
20
-0.054664064070771498
30
0
10
2.1240931380582779
20
-0.05451931739461062
30
0
10
2.109331814021091
20
-0.054266094310178925
30
0
10
2.0964684951179602
20
-0.04718796484614661
30
0
10
2.0909580708366051
20
-0.044155816085868133
30
0
0
SPLINE
5
520
100
AcDbEntity
8
0
100
AcDbSpline
70
0
71
3
72
9
73
5
74
0
42
0.000000001
43
0.0000000001
44
0.0000000001
40
0
40
0
40
0
40
0
40
0.045903003322087153
40
0.092512101426711582
40
0.092512101426711582
40
0.092512101426711582
40
0.092512101426711582
10
2.0909580708366051
20
-0.044155816085868133
30
0
10
2.0869550414826112
20
-0.039572532706861528
30
0
10
2.078887406887715
20
-0.030335464407628417
30
0
10
2.0748657276881928
20
-0.0187470232354147
30
0
10
2.0728395404384701
20
-0.012908578500665057
30
0
0
SPLINE
5
521
100
AcDbEntity
8
0
100
AcDbSpline
70
0
71
3
72
9
73
5
74
0
42
0.000000001
43
0.0000000001
44
0.0000000001
40
0
40
0
40
0
40
0
40
0.29186785531248549
40
0.5198014867672438
40
0.5198014867672438
40
0.5198014867672438
40
0.5198014867672438
10
2.0728395404384701
20
-0.012908578500665057
30
0
10
2.0613199077733055
20
0.02421854143680326
30
0
10
2.0408040404813987
20
0.090340013163177232
30
0
10
1.9947113797216938
20
0.14164888387170627
30
0
10
1.9744996877242145
20
0.16414789075060437
30
0
0
SPLINE
5
522
100
AcDbEntity
8
0
100
AcDbSpline
70
0
71
3
72
9
73
5
74
0
42
0.000000001
43
0.0000000001
44
0.0000000001
40
0
40
0
40
0
40
0
40
0.21359851910936811
40
0.45875928533444282
40
0.45875928533444282
40
0.45875928533444282
40
0.45875928533444282
10
1.9744996877242145
20
0.16414789075060437
30
0
10
1.9508182805036922
20
0.18011445325927558
30
0
10
1.8999561982313053
20
0.21440686706564294
30
0
10
1.8384900876555719
20
0.21752257678653802
30
0
10
1.805642624405567
20
0.21918761073119739
30
0
0
LINE
5
523
100
AcDbEntity
8
0
100
AcDbLine
10
1.8056426244055674
20
0.21918761073119739
30
0
11
1.5170433558461636
21
0.21993865136132157
31
0
0
LINE
5
524
100
AcDbEntity
8
0
100
AcDbLine
10
1.5170433558461636
20
0.21993865136132157
30
0
11
1.3905252586989925
21
-0.44013437251989379
31
0
0
LINE
5
525
100
AcDbEntity
8
0
100
AcDbLine
10
1.3905252586989925
20
-0.44013437251989379
30
0
11
1.692124115467031
21
-0.44091924282314326
31
0
0
SPLINE
5
526
100
AcDbEntity
8
0
100
AcDbSpline
70
0
71
3
72
9
73
5
74
0
42
0.000000001
43
0.0000000001
44
0.0000000001
40
0
40
0
40
0
40
0
40
0.13246150136653145
40
0.24410893590903404
40
0.24410893590903404
40
0.24410893590903404
40
0.24410893590903404
10
1.6921241154670312
20
-0.44091924282314332
30
0
10
1.7101907412787991
20
-0.44003919334743413
30
0
10
1.7434851306438564
20
-0.43841737916862433
30
0
10
1.7671810767190628
20
-0.41531086536575351
30
0
10
1.7780188265888179
20
-0.40474270251786493
30
0
0
SPLINE
5
527
100
AcDbEntity
8
0
100
AcDbSpline
70
0
71
3
72
9
73
5
74
0
42
0.000000001
43
0.0000000001
44
0.0000000001
40
0
40
0
40
0
40
0
40
0.12492074676428126
40
0.27584944588321958
40
0.27584944588321958
40
0.27584944588321958
40
0.27584944588321958
10
1.7780188265888179
20
-0.40474270251786493
30
0
10
1.7866283948943491
20
-0.39071919439212083
30
0
10
1.8056400059188651
20
-0.35975254516831517
30
0
10
1.8165217409735646
20
-0.32504693864164691
30
0
10
1.8224755905841887
20
-0.30605805857182311
30
0
0
SPLINE
5
528
100
AcDbEntity
8
0
100
AcDbSpline
70
0
71
3
72
9
73
5
74
0
42
0.000000001
43
0.0000000001
44
0.0000000001
40
0
40
0
40
0
40
0
40
0.040776696807619757
40
0.079916169886342148
40
0.079916169886342148
40
0.079916169886342148
40
0.079916169886342148
10
1.8224755905841887
20
-0.30605805857182311
30
0
10
1.8243027659388089
20
-0.30101748178494991
30
0
10
1.8278837537942207
20
-0.29113871223366866
30
0
10
1.8330297137108829
20
-0.28197834056760318
30
0
10
1.8355499816354943
20
-0.27749198792176272
30
0
0
SPLINE
5
529
100
AcDbEntity
8
0
100
AcDbSpline
70
0
71
3
72
9
73
5
74
0
42
0.000000001
43
0.0000000001
44
0.0000000001
40
0
40
0
40
0
40
0
40
0.0412750244140625
40
0.088234697401011364
40
0.088234697401011364
40
0.088234697401011364
40
0.088234697401011364
10
1.8355499816354943
20
-0.27749198792176272
30
0
10
1.8396595040258048
20
-0.2737152251630155
30
0
10
1.8484445373412088
20
-0.26564154080051899
30
0
10
1.8604137186665151
20
-0.2649442993339417
30
0
10
1.8667838752773933
20
-0.26457321820341284
30
0
0
SPLINE
5
530
100
AcDbEntity
8
0
100
AcDbSpline
70
0
71
3
72
9
73
5
74
0
42
0.000000001
43
0.0000000001
44
0.0000000001
40
0
40
0
40
0
40
0
40
0.05306330664240326
40
0.10794474197016843
40
0.10794474197016843
40
0.10794474197016843
40
0.10794474197016843
10
1.8667838752773933
20
-0.26457321820341284
30
0
10
1.8737726925266582
20
-0.26493774498020672
30
0
10
1.8879897875850638
20
-0.26567928845632988
30
0
10
1.9014962059566631
20
-0.27018871013134338
30
0
10
1.9083631604080022
20
-0.27248139738507932
30
0
0
SPLINE
5
531
100
AcDbEntity
8
0
100
AcDbSpline
70
0
71
3
72
9
73
5
74
0
42
0.000000001
43
0.0000000001
44
0.0000000001
40
0
40
0
40
0
40
0
40
0.051261752069638088
40
0.096172782524395151
40
0.096172782524395151
40
0.096172782524395151
40
0.096172782524395151
10
1.9083631604080022
20
-0.27248139738507932
30
0
10
1.9148776813952446
20
-0.27416634636016757
30
0
10
1.9270996516725323
20
-0.27732749916520127
30
0
10
1.93912178850395
20
-0.28117799676240057
30
0
10
1.9447359190219078
20
-0.28297611271906314
30
0
0
SPLINE
5
532
100
AcDbEntity
8
0
100
AcDbSpline
70
0
71
3
72
9
73
5
74
0
42
0.000000001
43
0.0000000001
44
0.0000000001
40
0
40
0
40
0
40
0
40
0.15176599026994345
40
0.29311722561572229
40
0.29311722561572229
40
0.29311722561572229
40
0.29311722561572229
10
1.9447359190219078
20
-0.28297611271906314
30
0
10
1.939677320661775
20
-0.30223987897011945
30
0
10
1.9299072640490307
20
-0.33944545914243618
30
0
10
1.9204202980618017
20
-0.37672421537110762
30
0
10
1.915845355872168
20
-0.39470131731047009
30
0
0
SPLINE
5
533
100
AcDbEntity
8
0
100
AcDbSpline
70
0
71
3
72
9
73
5
74
0
42
0.000000001
43
0.0000000001
44
0.0000000001
40
0
40
0
40
0
40
0
40
0.12984284225559908
40
0.26291956807610722
40
0.26291956807610722
40
0.26291956807610722
40
0.26291956807610722
10
1.915845355872168
20
-0.39470131731047009
30
0
10
1.9123143312971866
20
-0.4113712603236826
30
0
10
1.9051643379668453
20
-0.44512633022780157
30
0
10
1.8982708326628828
20
-0.47893471698102924
30
0
10
1.8947816853088462
20
-0.4960468301923619
30
0
0
SPLINE
5
534
100
AcDbEntity
8
0
100
AcDbSpline
70
0
71
3
72
9
73
5
74
0
42
0.000000001
43
0.0000000001
44
0.0000000001
40
0
40
0
40
0
40
0
40
0.13845799160213687
40
0.28672636947525021
40
0.28672636947525021
40
0.28672636947525021
40
0.28672636947525021
10
1.8947816853088462
20
-0.4960468301923619
30
0
10
1.8920931122629709
20
-0.51401741461828099
30
0
10
1.8865254683906887
20
-0.55123188212694318
30
0
10
1.8814927776567583
20
-0.58852250566964559
30
0
10
1.8788903351509556
20
-0.6078057696145428
30
0
0
SPLINE
5
535
100
AcDbEntity
8
0
100
AcDbSpline
70
0
71
3
72
9
73
5
74
0
42
0.000000001
43
0.0000000001
44
0.0000000001
40
0
40
0
40
0
40
0
40
0.16233616130722731
40
0.34442588499618804
40
0.34442588499618804
40
0.34442588499618804
40
0.34442588499618804
10
1.8788903351509556
20
-0.6078057696145428
30
0
10
1.8770575229577302
20
-0.62903098551487091
30
0
10
1.8731688763579823
20
-0.6740641667348598
30
0
10
1.8698785126577386
20
-0.71914508704911984
30
0
10
1.8681389761039739
20
-0.7429782908855822
30
0
0
SPLINE
5
536
100
AcDbEntity
8
0
100
AcDbSpline
70
0
71
3
72
9
73
5
74
0
42
0.000000001
43
0.0000000001
44
0.0000000001
40
0
40
0
40
0
40
0
40
0.079881654456653364
40
0.17599525169944358
40
0.17599525169944358
40
0.17599525169944358
40
0.17599525169944358
10
1.8681389761039739
20
-0.7429782908855822
30
0
10
1.8582709434409741
20
-0.74673585539184495
30
0
10
1.8365296950389951
20
-0.75501452106990075
30
0
10
1.8132297190788909
20
-0.75552406534867067
30
0
10
1.8005052592791451
20
-0.7558023349787556
30
0
0
SPLINE
5
537
100
AcDbEntity
8
0
100
AcDbSpline
70
0
71
3
72
9
73
5
74
0
42
0.000000001
43
0.0000000001
44
0.0000000001
40
0
40
0
40
0
40
0
40
0.074952509818663984
40
0.12317245017583073
40
0.12317245017583073
40
0.12317245017583073
40
0.12317245017583073
10
1.8005052592791451
20
-0.7558023349787556
30
0
10
1.7901452009801784
20
-0.75592434459653146
30
0
10
1.773120103785494
20
-0.75612484786990797
30
0
10
1.7610651435522424
20
-0.74459932645649662
30
0
10
1.7563458295934362
20
-0.74008727888135661
30
0
0
SPLINE
5
538
100
AcDbEntity
8
0
100
AcDbSpline
70
0
71
3
72
9
73
5
74
0
42
0.000000001
43
0.0000000001
44
0.0000000001
40
0
40
0
40
0
40
0
40
0.043336635722198702
40
0.087913280619659639
40
0.087913280619659639
40
0.087913280619659639
40
0.087913280619659639
10
1.7563458295934362
20
-0.74008727888135661
30
0
10
1.754199297262564
20
-0.73473168897016872
30
0
10
1.749844812978808
20
-0.72386726742706076
30
0
10
1.7507666227785317
20
-0.71219330379003087
30
0
10
1.7512340287019104
20
-0.70627399185074413
30
0
0
SPLINE
5
539
100
AcDbEntity
8
0
100
AcDbSpline
70
0
71
3
72
9
73
5
74
0
42
0.000000001
43
0.0000000001
44
0.0000000001
40
0
40
0
40
0
40
0
40
0.15027740951295232
40
0.27441028576647897
40
0.27441028576647897
40
0.27441028576647897
40
0.27441028576647897
10
1.7512340287019104
20
-0.70627399185074413
30
0
10
1.7531304899620404
20
-0.68640643864297113
30
0
10
1.7565934753703216
20
-0.65012779256506026
30
0
10
1.7459333898186618
20
-0.61537024736382673
30
0
10
1.7411111686801939
20
-0.59964724323047269
30
0
0
SPLINE
5
540
100
AcDbEntity
8
0
100
AcDbSpline
70
0
71
3
72
9
73
5
74
0
42
0.000000001
43
0.0000000001
44
0.0000000001
40
0
40
0
40
0
40
0
40
0.10907818487981769
40
0.2408797551543399
40
0.2408797551543399
40
0.2408797551543399
40
0.2408797551543399
10
1.7411111686801939
20
-0.59964724323047269
30
0
10
1.7331510788724649
20
-0.58676479610510679
30
0
10
1.7155726374452929
20
-0.55831620473217636
30
0
10
1.6817390498646088
20
-0.55633078016772375
30
0
10
1.6632264107750463
20
-0.55524442039834909
30
0
0
LINE
5
541
100
AcDbEntity
8
0
100
AcDbLine
10
1.6632264107750463
20
-0.55524442039834909
30
0
11
1.3694277574854581
21
-0.55447984907147885
31
0
0
LINE
5
542
100
AcDbEntity
8
0
100
AcDbLine
10
1.3694277574854581
20
-0.55447984907147885
30
0
11
1.2455770140038029
21
-1.1885597109616806
31
0
0
SPLINE
5
543
100
AcDbEntity
8
0
100
AcDbSpline
70
0
71
3
72
9
73
5
74
0
42
0.000000001
43
0.0000000001
44
0.0000000001
40
0
40
0
40
0
40
0
40
0.077754542636098531
40
0.12700873237858093
40
0.12700873237858093
40
0.12700873237858093
40
0.12700873237858093
10
1.2455770140038027
20
-1.1885597109616808
30
0
10
1.2439685817912696
20
-1.1988197005667092
30
0
10
1.2413412763052507
20
-1.2155789564220341
30
0
10
1.2461742792683892
20
-1.231710446473272
30
0
10
1.248048525554565
20
-1.2379662641397635
30
0
0
SPLINE
5
544
100
AcDbEntity
8
0
100
AcDbSpline
70
0
71
3
72
9
73
5
74
0
42
0.000000001
43
0.0000000001
44
0.0000000001
40
0
40
0
40
0
40
0
40
0.047277339900719063
40
0.12350980119544938
40
0.12350980119544938
40
0.12350980119544938
40
0.12350980119544938
10
1.248048525554565
20
-1.2379662641397635
30
0
10
1.2535691929967319
20
-1.240975401960744
30
0
10
1.2679916740347963
20
-1.2488366313535038
30
0
10
1.2845815878464069
20
-1.2486211417230118
30
0
10
1.294821179767742
20
-1.2484881376637642
30
0
0
LINE
5
545
100
AcDbEntity
8
0
100
AcDbLine
10
1.294821179767742
20
-1.2484881376637642
30
0
11
1.5756202448486949
21
-1.249218879317509
31
0
0
SPLINE
5
546
100
AcDbEntity
8
0
100
AcDbSpline
70
0
71
3
72
9
73
5
74
0
42
0.000000001
43
0.0000000001
44
0.0000000001
40
0
40
0
40
0
40
0
40
0.23675569520050674
40
0.48519740806073425
40
0.48519740806073425
40
0.48519740806073425
40
0.48519740806073425
10
1.5756202448486945
20
-1.249218879317509
30
0
10
1.6069474959161043
20
-1.2469323546505633
30
0
10
1.6711482789498642
20
-1.2422464448103407
30
0
10
1.7284262837859101
20
-1.2127804807834432
30
0
10
1.7577550588252497
20
-1.1976926537417039
30
0
0
SPLINE
5
547
100
AcDbEntity
8
0
100
AcDbSpline
70
0
71
3
72
9
73
5
74
0
42
0.000000001
43
0.0000000001
44
0.0000000001
40
0
40
0
40
0
40
0
40
0.30090772499588109
40
0.68542466783201483
40
0.68542466783201483
40
0.68542466783201483
40
0.68542466783201483
10
1.7577550588252497
20
-1.1976926537417039
30
0
10
1.7900540642336902
20
-1.1745811276536777
30
0
10
1.8636265690727993
20
-1.121936383846607
30
0
10
1.9177087173726335
20
-1.0491945656017301
30
0
10
1.9480483058091533
20
-1.0083870737203366
30
0
0
SPLINE
5
548
100
AcDbEntity
8
0
100
AcDbSpline
70
0
71
3
72
9
73
5
74
0
42
0.000000001
43
0.0000000001
44
0.0000000001
40
0
40
0
40
0
40
0
40
0.055866349319234711
40
0.09920291237478561
40
0.09920291237478561
40
0.09920291237478561
40
0.09920291237478561
10
1.9480483058091533
20
-1.0083870737203366
30
0
10
1.9520033024826997
20
-1.0021954080436921
30
0
10
1.9590262634105122
20
-0.9912007524941725
30
0
10
1.9677280175815797
20
-0.98149014839696613
30
0
10
1.9715293587851903
20
-0.97724809343414232
30
0
0
SPLINE
5
549
100
AcDbEntity
8
0
100
AcDbSpline
70
0
71
3
72
9
73
5
74
0
42
0.000000001
43
0.0000000001
44
0.0000000001
40
0
40
0
40
0
40
0
40
0.038507432827548399
40
0.085205196888407109
40
0.085205196888407109
40
0.085205196888407109
40
0.085205196888407109
10
1.9715293587851903
20
-0.97724809343414232
30
0
10
1.975719304971421
20
-0.97423302358917951
30
0
10
1.9849903771654176
20
-0.96756159418169663
30
0
10
1.9964667291665907
20
-0.96715321100359386
30
0
10
2.0027564861016294
20
-0.96692939154194291
30
0
0
SPLINE
5
550
100
AcDbEntity
8
0
100
AcDbSpline
70
0
71
3
72
9
73
5
74
0
42
0.000000001
43
0.0000000001
44
0.0000000001
40
0
40
0
40
0
40
0
40
0.058627000035241551
40
0.12068823808703844
40
0.12068823808703844
40
0.12068823808703844
40
0.12068823808703844
10
2.0027564861016294
20
-0.96692939154194291
30
0
10
2.010539104268108
20
-0.96767053304474926
30
0
10
2.0265602288975764
20
-0.96919623045538106
30
0
10
2.0400029308024412
20
-0.97807734408068869
30
0
10
2.0469155408148234
20
-0.98264425893172613
30
0
0
SPLINE
5
551
100
AcDbEntity
8
0
100
AcDbSpline
70
0
71
3
72
9
73
5
74
0
42
0.000000001
43
0.0000000001
44
0.0000000001
40
0
40
0
40
0
40
0
40
0.064579476655868009
40
0.12313762447831628
40
0.12313762447831628
40
0.12313762447831628
40
0.12313762447831628
10
2.0469155408148234
20
-0.98264425893172613
30
0
10
2.0542375576127454
20
-0.98696528490453428
30
0
10
2.0681988933431472
20
-0.99520444850810308
30
0
10
2.0801551848624462
20
-1.0061436190230786
30
0
10
2.0858410041980195
20
-1.0113457460478994
30
0
0
LINE
5
552
100
AcDbEntity
8
0
100
AcDbLine
10
2.0858410041980195
20
-1.0113457460478994
30
0
11
2.0597057542577848
21
-1.0632779394262486
31
0
0
SPLINE
5
553
100
AcDbEntity
8
0
100
AcDbSpline
70
0
71
3
72
9
73
5
74
0
42
0.000000001
43
0.0000000001
44
0.0000000001
40
0
40
0
40
0
40
0
40
0.079006321134197768
40
0.16837403934746609
40
0.16837403934746609
40
0.16837403934746609
40
0.16837403934746609
10
2.0597057542577848
20
-1.0632779394262488
30
0
10
2.0550978718834658
20
-1.0725664341331054
30
0
10
2.0452777998048739
20
-1.0923615764812038
30
0
10
2.0359182648402312
20
-1.1123787177109605
30
0
10
2.0309505139531652
20
-1.1230031954736179
30
0
0
SPLINE
5
554
100
AcDbEntity
8
0
100
AcDbSpline
70
0
71
3
72
9
73
5
74
0
42
0.000000001
43
0.0000000001
44
0.0000000001
40
0
40
0
40
0
40
0
40
0.09605690592239427
40
0.20736178217383142
40
0.20736178217383142
40
0.20736178217383142
40
0.20736178217383142
10
2.0309505139531652
20
-1.1230031954736179
30
0
10
2.0255558029484657
20
-1.1344038753277212
30
0
10
2.0139100302941686
20
-1.159014966741077
30
0
10
2.0045684702216842
20
-1.1845926549967565
30
0
10
1.9995542328971225
20
-1.1983219034448129
30
0
0
SPLINE
5
555
100
AcDbEntity
8
0
100
AcDbSpline
70
0
71
3
72
9
73
5
74
0
42
0.000000001
43
0.0000000001
44
0.0000000001
40
0
40
0
40
0
40
0
40
0.1337212876876476
40
0.25074398610194637
40
0.25074398610194637
40
0.25074398610194637
40
0.25074398610194637
10
1.9995542328971225
20
-1.1983219034448129
30
0
10
1.9931476141277327
20
-1.2146736280373305
30
0
10
1.9811344099816226
20
-1.2453351380696467
30
0
10
1.9722547457949038
20
-1.2770424650602719
30
0
10
1.9681105895170343
20
-1.2918403352769439
30
0
0
SPLINE
5
556
100
AcDbEntity
8
0
100
AcDbSpline
70
0
71
3
72
9
73
5
74
0
42
0.000000001
43
0.0000000001
44
0.0000000001
40
0
40
0
40
0
40
0
40
0.09009686268755826
40
0.15908404630935447
40
0.15908404630935447
40
0.15908404630935447
40
0.15908404630935447
10
1.9681105895170343
20
-1.2918403352769439
30
0
10
1.9656679251320628
20
-1.3034441046387202
30
0
10
1.9613549121974747
20
-1.3239328822437018
30
0
10
1.9532639221020074
20
-1.3432262343231622
30
0
10
1.9497552445674149
20
-1.3515928433795943
30
0
0
SPLINE
5
557
100
AcDbEntity
8
0
100
AcDbSpline
70
0
71
3
72
9
73
5
74
0
42
0.000000001
43
0.0000000001
44
0.0000000001
40
0
40
0
40
0
40
0
40
0.042189731709032341
40
0.071953310594197573
40
0.071953310594197573
40
0.071953310594197573
40
0.071953310594197573
10
1.9497552445674149
20
-1.3515928433795943
30
0
10
1.947449660027863
20
-1.3568506289158837
30
0
10
1.9435175553721671
20
-1.3658176230257164
30
0
10
1.9350171996174801
20
-1.3704352036421812
30
0
10
1.9315010165959161
20
-1.3723452717655489
30
0
0
SPLINE
5
558
100
AcDbEntity
8
0
100
AcDbSpline
70
0
71
3
72
9
73
5
74
0
42
0.000000001
43
0.0000000001
44
0.0000000001
40
0
40
0
40
0
40
0
40
0.048892730846828179
40
0.097112295693641715
40
0.097112295693641715
40
0.097112295693641715
40
0.097112295693641715
10
0.73300653403073224
20
-1.3302261965656768
30
0
10
0.73365543411208123
20
-1.3236348295744131
30
0
10
0.73494430007404099
20
-1.3105428469996179
30
0
10
0.74413234657003169
20
-1.3011372417683158
30
0
10
0.74869452482629184
20
-1.2964670381845691
30
0
0
SPLINE
5
559
100
AcDbEntity
8
0
100
AcDbSpline
70
0
71
3
72
9
73
5
74
0
42
0.000000001
43
0.0000000001
44
0.0000000001
40
0
40
0
40
0
40
0
40
0.055499390912095256
40
0.13519291457494004
40
0.13519291457494004
40
0.13519291457494004
40
0.13519291457494004
10
0.74869452482629184
20
-1.2964670381845691
30
0
10
0.75482260330028272
20
-1.2923842624244384
30
0
10
0.76975020477531508
20
-1.2824388856284619
30
0
10
0.78761231637004636
20
-1.2798951589520824
30
0
10
0.79814167449150297
20
-1.2783956828684921
30
0
0
SPLINE
5
560
100
AcDbEntity
8
0
100
AcDbSpline
70
0
71
3
72
9
73
5
74
0
42
0.000000001
43
0.0000000001
44
0.0000000001
40
0
40
0
40
0
40
0
40
0.16481030303330196
40
0.28076956722470775
40
0.28076956722470775
40
0.28076956722470775
40
0.28076956722470775
10
0.79814167449150297
20
-1.2783956828684921
30
0
10
0.82000924411405041
20
-1.276110313183054
30
0
10
0.8572626678756603
20
-1.2722169749285932
30
0
10
0.88908610265872545
20
-1.2528606471442287
30
0
10
0.90222934363730922
20
-1.24486638498288
30
0
0
SPLINE
5
561
100
AcDbEntity
8
0
100
AcDbSpline
70
0
71
3
72
9
73
5
74
0
42
0.000000001
43
0.0000000001
44
0.0000000001
40
0
40
0
40
0
40
0
40
0.097744817256490021
40
0.20373037198757388
40
0.20373037198757388
40
0.20373037198757388
40
0.20373037198757388
10
0.90222934363730922
20
-1.24486638498288
30
0
10
0.91096715611085055
20
-1.2351868719310068
30
0
10
0.9291794545790224
20
-1.2150117787642563
30
0
10
0.9355156219763725
20
-1.1885351423663852
30
0
10
0.93881185223367536
20
-1.1747613443378184
30
0
0
LINE
5
562
100
AcDbEntity
8
0
100
AcDbLine
10
0.93881185223367536
20
-1.1747613443378186
30
0
11
1.1970617140984225
21
0.15057102483019988
31
0
0
SPLINE
5
563
100
AcDbEntity
8
0
100
AcDbSpline
70
0
71
3
72
9
73
5
74
0
42
0.000000001
43
0.0000000001
44
0.0000000001
40
0
40
0
40
0
40
0
40
0.26582658142479237
40
0.51973689914459376
40
0.51973689914459376
40
0.51973689914459376
40
0.51973689914459376
10
2.4963532775998614
20
-0.12321111263188707
30
0
10
2.4982097809552832
20
-0.088037044758180916
30
0
10
2.5018395658023325
20
-0.019265664300301973
30
0
10
2.529939423165303
20
0.04356928285982313
30
0
10
2.5436672222164307
20
0.074266432559205509
30
0
0
SPLINE
5
564
100
AcDbEntity
8
0
100
AcDbSpline
70
0
71
3
72
9
73
5
74
0
42
0.000000001
43
0.0000000001
44
0.0000000001
40
0
40
0
40
0
40
0
40
0.24910431221821849
40
0.49543551422997434
40
0.49543551422997434
40
0.49543551422997434
40
0.49543551422997434
10
2.5436672222164307
20
0.074266432559205509
30
0
10
2.5604615585509785
20
0.10254721289996116
30
0
10
2.5938632712068768
20
0.15879394273847619
30
0
10
2.6422176193244833
20
0.20284540589148187
30
0
10
2.6662594660475945
20
0.22474785244039727
30
0
0
SPLINE
5
565
100
AcDbEntity
8
0
100
AcDbSpline
70
0
71
3
72
9
73
5
74
0
42
0.000000001
43
0.0000000001
44
0.0000000001
40
0
40
0
40
0
40
0
40
0.2536803236911373
40
0.51318097101844862
40
0.51318097101844862
40
0.51318097101844862
40
0.51318097101844862
10
2.6662594660475945
20
0.22474785244039727
30
0
10
2.6933601244343164
20
0.24434791972021122
30
0
10
2.7481832261387629
20
0.28399774912885034
30
0
10
2.8113616715723788
20
0.3082325949881411
30
0
10
2.8433091684848613
20
0.32048744959797343
30
0
0
SPLINE
5
566
100
AcDbEntity
8
0
100
AcDbSpline
70
0
71
3
72
9
73
5
74
0
42
0.000000001
43
0.0000000001
44
0.0000000001
40
0
40
0
40
0
40
0
40
0.29709297212043601
40
0.56699497714600133
40
0.56699497714600133
40
0.56699497714600133
40
0.56699497714600133
10
3.3087074173066129
20
0.31927631349288721
30
0
10
3.3457867217108332
20
0.30710875968626761
30
0
10
3.4165517054908556
20
0.28388726830171118
30
0
10
3.484264375157009
20
0.25289050023907761
30
0
10
3.5164970862835183
20
0.23813536097571356
30
0
0
SPLINE
5
567
100
AcDbEntity
8
0
100
AcDbSpline
70
0
71
3
72
9
73
5
74
0
42
0.000000001
43
0.0000000001
44
0.0000000001
40
0
40
0
40
0
40
0
40
0.15461339358511775
40
0.29901678187958902
40
0.29901678187958902
40
0.29901678187958902
40
0.29901678187958902
10
3.5164970862835183
20
0.23813536097571356
30
0
10
3.5139848037774848
20
0.21800030527781952
30
0
10
3.5091261391255593
20
0.17905982659001388
30
0
10
3.5051249370193345
20
0.14002203197751145
30
0
10
3.5031926470061889
20
0.12116961246395012
30
0
0
SPLINE
5
568
100
AcDbEntity
8
0
100
AcDbSpline
70
0
71
3
72
9
73
5
74
0
42
0.000000001
43
0.0000000001
44
0.0000000001
40
0
40
0
40
0
40
0
40
0.13739062280373104
40
0.27116249940369719
40
0.27116249940369719
40
0.27116249940369719
40
0.27116249940369719
10
3.5031926470061889
20
0.12116961246395012
30
0
10
3.5016291525716357
20
0.10320078759486462
30
0
10
3.4985433447484744
20
0.067736420643060138
30
0
10
3.4979887143931134
20
0.032142778745337511
30
0
10
3.4977151000710043
20
0.014583461796437342
30
0
0
SPLINE
5
569
100
AcDbEntity
8
0
100
AcDbSpline
70
0
71
3
72
9
73
5
74
0
42
0.000000001
43
0.0000000001
44
0.0000000001
40
0
40
0
40
0
40
0
40
0.052831888198852539
40
0.10566401481628418
40
0.10566401481628418
40
0.10566401481628418
40
0.10566401481628418
10
3.4977151000710043
20
0.014583461796437342
30
0
10
3.497697057106413
20
0.007650166612320256
30
0
10
3.4976609710958071
20
-0.0062164550443351164
30
0
10
3.4976248850851968
20
-0.020083076700990313
30
0
10
3.4976068420391795
20
-0.027016403173528422
30
0
0
SPLINE
5
570
100
AcDbEntity
8
0
100
AcDbSpline
70
0
71
3
72
9
73
5
74
0
42
0.000000001
43
0.0000000001
44
0.0000000001
40
0
40
0
40
0
40
0
40
0.047907464040938874
40
0.099327681444841054
40
0.099327681444841054
40
0.099327681444841054
40
0.099327681444841054
10
3.4976068420391795
20
-0.027016403173528422
30
0
10
3.4977134603551878
20
-0.033306182563722454
30
0
10
3.4979345146385006
20
-0.046346931351711668
30
0
10
3.4993651686269729
20
-0.059311519255672088
30
0
10
3.5001057933757513
20
-0.066023061485154938
30
0
0
SPLINE
5
571
100
AcDbEntity
8
0
100
AcDbSpline
70
0
71
3
72
9
73
5
74
0
42
0.000000001
43
0.0000000001
44
0.0000000001
40
0
40
0
40
0
40
0
40
0.077528038197810428
40
0.16742729121248481
40
0.16742729121248481
40
0.16742729121248481
40
0.16742729121248481
10
3.5001057933757513
20
-0.066023061485154938
30
0
10
3.4912209557962988
20
-0.07130055013263327
30
0
10
3.4720335195684489
20
-0.082697660767593814
30
0
10
3.4496675831366552
20
-0.083584435749032446
30
0
10
3.4376583045797897
20
-0.084060585173932903
30
0
0
SPLINE
5
572
100
AcDbEntity
8
0
100
AcDbSpline
70
0
71
3
72
9
73
5
74
0
42
0.000000001
43
0.0000000001
44
0.0000000001
40
0
40
0
40
0
40
0
40
0.063085033118765219
40
0.1226120321838009
40
0.1226120321838009
40
0.1226120321838009
40
0.1226120321838009
10
3.4376583045797897
20
-0.084060585173932903
30
0
10
3.4293162152198602
20
-0.083658106259089107
30
0
10
3.4131025353894309
20
-0.082875848483823011
30
0
10
3.398146611704568
20
-0.076590354347167183
30
0
10
3.3908856501223412
20
-0.073538805515196648
30
0
0
SPLINE
5
573
100
AcDbEntity
8
0
100
AcDbSpline
70
0
71
3
72
9
73
5
74
0
42
0.000000001
43
0.0000000001
44
0.0000000001
40
0
40
0
40
0
40
0
40
0.058558510809483766
40
0.12957068137627914
40
0.12957068137627914
40
0.12957068137627914
40
0.12957068137627914
10
3.3908856501223412
20
-0.073538805515196648
30
0
10
3.3853154092616093
20
-0.068007672875603289
30
0
10
3.3729903023936547
20
-0.055769099609518355
30
0
10
3.3695086077629792
20
-0.038656666309827073
30
0
10
3.3676004392610581
20
-0.029278070632294099
30
0
0
SPLINE
5
574
100
AcDbEntity
8
0
100
AcDbSpline
70
0
71
3
72
9
73
5
74
0
42
0.000000001
43
0.0000000001
44
0.0000000001
40
0
40
0
40
0
40
0
40
0.32160999822185932
40
0.60509255020722774
40
0.60509255020722774
40
0.60509255020722774
40
0.60509255020722774
10
3.3676004392610581
20
-0.029278070632294099
30
0
10
3.3582323852650942
20
0.012924583391494502
30
0
10
3.3406068769965778
20
0.092326690570859515
30
0
10
3.2832205882778007
20
0.14958631061566482
30
0
10
3.2563354257197799
20
0.17641212959237301
30
0
0
SPLINE
5
575
100
AcDbEntity
8
0
100
AcDbSpline
70
0
71
3
72
9
73
5
74
0
42
0.000000001
43
0.0000000001
44
0.0000000001
40
0
40
0
40
0
40
0
40
0.28000028019718909
40
0.58540272849313535
40
0.58540272849313535
40
0.58540272849313535
40
0.58540272849313535
10
3.2563354257197799
20
0.17641212959237301
30
0
10
3.2250782515036769
20
0.196958001586581
30
0
10
3.1597281916458635
20
0.23991370690305278
30
0
10
3.0815198621954702
20
0.24468461364655744
30
0
10
3.0407188646450027
20
0.24717357813056065
30
0
0
SPLINE
5
576
100
AcDbEntity
8
0
100
AcDbSpline
70
0
71
3
72
9
73
5
74
0
42
0.000000001
43
0.0000000001
44
0.0000000001
40
0
40
0
40
0
40
0
40
0.13080395653112384
40
0.26135802704899846
40
0.26135802704899846
40
0.26135802704899846
40
0.26135802704899846
10
3.0407188646450027
20
0.24717357813056065
30
0
10
3.0235002275307217
20
0.24657087106087111
30
0
10
2.9890958475409604
20
0.2453666083244832
30
0
10
2.955874029051484
20
0.23634427702863559
30
0
10
2.9392790015989911
20
0.23183742453386674
30
0
0
SPLINE
5
577
100
AcDbEntity
8
0
100
AcDbSpline
70
0
71
3
72
9
73
5
74
0
42
0.000000001
43
0.0000000001
44
0.0000000001
40
0
40
0
40
0
40
0
40
0.12695506119283465
40
0.25244292183861139
40
0.25244292183861139
40
0.25244292183861139
40
0.25244292183861139
10
2.9392790015989911
20
0.23183742453386674
30
0
10
2.9232708921281652
20
0.2268179224824268
30
0
10
2.8914396764999042
20
0.21683692800977875
30
0
10
2.8642698712240366
20
0.19748657773702338
30
0
10
2.8507639241632186
20
0.18786763480612628
30
0
0
SPLINE
5
578
100
AcDbEntity
8
0
100
AcDbSpline
70
0
71
3
72
9
73
5
74
0
42
0.000000001
43
0.0000000001
44
0.0000000001
40
0
40
0
40
0
40
0
40
0.12263137412940414
40
0.25039873497663345
40
0.25039873497663345
40
0.25039873497663345
40
0.25039873497663345
10
2.8507639241632186
20
0.18786763480612628
30
0
10
2.8383102752324749
20
0.17745416184465401
30
0
10
2.8128813997897928
20
0.15619108398405304
30
0
10
2.796517899468256
20
0.12734776968016226
30
0
10
2.7881683315261467
20
0.1126303065626303
30
0
0
SPLINE
5
579
100
AcDbEntity
8
0
100
AcDbSpline
70
0
71
3
72
9
73
5
74
0
42
0.000000001
43
0.0000000001
44
0.0000000001
40
0
40
0
40
0
40
0
40
0.13160507620829376
40
0.27929342618778535
40
0.27929342618778535
40
0.27929342618778535
40
0.27929342618778535
10
2.7881683315261467
20
0.1126303065626303
30
0
10
2.7813074803953404
20
0.096618002842590561
30
0
10
2.7667473230359501
20
0.062636553980761248
30
0
10
2.7652712317159338
20
0.025649831407648618
30
0
10
2.7644906852689686
20
0.0060915191962488298
30
0
0
SPLINE
5
580
100
AcDbEntity
8
0
100
AcDbSpline
70
0
71
3
72
9
73
5
74
0
42
0.000000001
43
0.0000000001
44
0.0000000001
40
0
40
0
40
0
40
0
40
0.13455377353710302
40
0.26615884974539677
40
0.26615884974539677
40
0.26615884974539677
40
0.26615884974539677
10
2.7644906852689686
20
0.0060915191962488298
30
0
10
2.7653752855135147
20
-0.011697391456769375
30
0
10
2.7671251003078807
20
-0.046885375213504103
30
0
10
2.780843722570487
20
-0.079327609991384163
30
0
10
2.7876270413670272
20
-0.095369018287198529
30
0
0
SPLINE
5
581
100
AcDbEntity
8
0
100
AcDbSpline
70
0
71
3
72
9
73
5
74
0
42
0.000000001
43
0.0000000001
44
0.0000000001
40
0
40
0
40
0
40
0
40
0.13878216000208274
40
0.28446366476040619
40
0.28446366476040619
40
0.28446366476040619
40
0.28446366476040619
10
2.7876270413670272
20
-0.095369018287198529
30
0
10
2.7969453973111751
20
-0.11105505141260458
30
0
10
2.8160453571430044
20
-0.14320692502762292
30
0
10
2.8400808315622172
20
-0.17186252088383278
30
0
10
2.8523900454082809
20
-0.18653782336084757
30
0
0
SPLINE
5
582
100
AcDbEntity
8
0
100
AcDbSpline
70
0
71
3
72
9
73
5
74
0
42
0.000000001
43
0.0000000001
44
0.0000000001
40
0
40
0
40
0
40
0
40
0.15417104311010882
40
0.31821149637042645
40
0.31821149637042645
40
0.31821149637042645
40
0.31821149637042645
10
2.8523900454082809
20
-0.18653782336084757
30
0
10
2.8669065564392926
20
-0.20064446426304394
30
0
10
2.8968688671564644
20
-0.2297607964853168
30
0
10
2.9291379889885047
20
-0.25629998111796376
30
0
10
2.9457729673975788
20
-0.26998113320063621
30
0
0
SPLINE
5
583
100
AcDbEntity
8
0
100
AcDbSpline
70
0
71
3
72
9
73
5
74
0
42
0.000000001
43
0.0000000001
44
0.0000000001
40
0
40
0
40
0
40
0
40
0.17043793475273947
40
0.34347703767745152
40
0.34347703767745152
40
0.34347703767745152
40
0.34347703767745152
10
2.9457729673975788
20
-0.26998113320063621
30
0
10
2.9632464295613805
20
-0.28394503845170693
30
0
10
2.998460028169573
20
-0.3120859615214715
30
0
10
3.0341671076159775
20
-0.33959805283611055
30
0
10
3.0521558530565693
20
-0.35345827369063698
30
0
0
SPLINE
5
584
100
AcDbEntity
8
0
100
AcDbSpline
70
0
71
3
72
9
73
5
74
0
42
0.000000001
43
0.0000000001
44
0.0000000001
40
0
40
0
40
0
40
0
40
0.2031809795645847
40
0.40844271660697268
40
0.40844271660697268
40
0.40844271660697268
40
0.40844271660697268
10
3.0521558530565693
20
-0.35345827369063698
30
0
10
3.0729651533636115
20
-0.37013118050506272
30
0
10
3.1147968600829787
20
-0.4036477398188949
30
0
10
3.1559899858646276
20
-0.43794612978246383
30
0
10
3.1766914752249646
20
-0.45518268907323406
30
0
0
SPLINE
5
585
100
AcDbEntity
8
0
100
AcDbSpline
70
0
71
3
72
9
73
5
74
0
42
0.000000001
43
0.0000000001
44
0.0000000001
40
0
40
0
40
0
40
0
40
0.20446485130016015
40
0.40683791999576446
40
0.40683791999576446
40
0.40683791999576446
40
0.40683791999576446
10
3.1766914752249646
20
-0.45518268907323406
30
0
10
3.1968610222513267
20
-0.47294790972888284
30
0
10
3.2369937712655554
20
-0.50829660352075456
30
0
10
3.271185391922673
20
-0.54941816919084474
30
0
10
3.2881933030734558
20
-0.56987323747531238
30
0
0
SPLINE
5
586
100
AcDbEntity
8
0
100
AcDbSpline
70
0
71
3
72
9
73
5
74
0
42
0.000000001
43
0.0000000001
44
0.0000000001
40
0
40
0
40
0
40
0
40
0.20058877561029093
40
0.40068701209861707
40
0.40068701209861707
40
0.40068701209861707
40
0.40068701209861707
10
3.2881933030734558
20
-0.56987323747531238
30
0
10
3.3038401783554394
20
-0.59113248794021411
30
0
10
3.3350956645427532
20
-0.63359899945024545
30
0
10
3.3573354236293635
20
-0.6814075584804441
30
0
10
3.3684416897143286
20
-0.7052825732978355
30
0
0
SPLINE
5
587
100
AcDbEntity
8
0
100
AcDbSpline
70
0
71
3
72
9
73
5
74
0
42
0.000000001
43
0.0000000001
44
0.0000000001
40
0
40
0
40
0
40
0
40
0.20526259808384001
40
0.42573756205958707
40
0.42573756205958707
40
0.42573756205958707
40
0.42573756205958707
10
3.3684416897143286
20
-0.7052825732978355
30
0
10
3.3774721529845166
20
-0.73083754109525423
30
0
10
3.3962023427648655
20
-0.78384139951928278
30
0
10
3.398187461573805
20
-0.84005305828078614
30
0
10
3.3992154869041786
20
-0.86916315930289212
30
0
0
SPLINE
5
588
100
AcDbEntity
8
0
100
AcDbSpline
70
0
71
3
72
9
73
5
74
0
42
0.000000001
43
0.0000000001
44
0.0000000001
40
0
40
0
40
0
40
0
40
0.31724135321919122
40
0.60883836338614816
40
0.60883836338614816
40
0.60883836338614816
40
0.60883836338614816
10
3.3992154869041786
20
-0.86916315930289212
30
0
10
3.3972395726498963
20
-0.91119002849811048
30
0
10
3.3934474680312507
20
-0.99184650660038787
30
0
10
3.3600218615661479
20
-1.0652597926831515
30
0
10
3.3440130035598412
20
-1.1004203476278271
30
0
0
SPLINE
5
589
100
AcDbEntity
8
0
100
AcDbSpline
70
0
71
3
72
9
73
5
74
0
42
0.000000001
43
0.0000000001
44
0.0000000001
40
0
40
0
40
0
40
0
40
0.28214122771594591
40
0.56490178699174443
40
0.56490178699174443
40
0.56490178699174443
40
0.56490178699174443
10
3.3440130035598412
20
-1.1004203476278271
30
0
10
3.3241977188770311
20
-1.132014490328876
30
0
10
3.284523652744662
20
-1.1952721284088486
30
0
10
3.2268494141421922
20
-1.2427005215727263
30
0
10
3.1979806791893681
20
-1.266440717276456
30
0
0
SPLINE
5
590
100
AcDbEntity
8
0
100
AcDbSpline
70
0
71
3
72
9
73
5
74
0
42
0.000000001
43
0.0000000001
44
0.0000000001
40
0
40
0
40
0
40
0
40
0.2828609526435425
40
0.58121678570517488
40
0.58121678570517488
40
0.58121678570517488
40
0.58121678570517488
10
3.1979806791893681
20
-1.266440717276456
30
0
10
3.1667745954879192
20
-1.286866816305974
30
0
10
3.1026529855806655
20
-1.3288379385534232
30
0
10
3.0297485844391492
20
-1.352539328454891
30
0
10
2.9923245907221636
20
-1.3647059556113852
30
0
0
SPLINE
5
591
100
AcDbEntity
8
0
100
AcDbSpline
70
0
71
3
72
9
73
5
74
0
42
0.000000001
43
0.0000000001
44
0.0000000001
40
0
40
0
40
0
40
0
40
0.15378249178548573
40
0.28851824753287991
40
0.28851824753287991
40
0.28851824753287991
40
0.28851824753287991
10
2.4619393047922058
20
-1.3581257163792939
30
0
10
2.442396138679868
20
-1.3530707978003547
30
0
10
2.4057303259952856
20
-1.3435870377644512
30
0
10
2.36966380893052
20
-1.3320359373981896
30
0
10
2.3528210287062166
20
-1.3266416642426067
30
0
0
SPLINE
5
592
100
AcDbEntity
8
0
100
AcDbSpline
70
0
71
3
72
9
73
5
74
0
42
0.000000001
43
0.0000000001
44
0.0000000001
40
0
40
0
40
0
40
0
40
0.1086270042373553
40
0.19217908912789511
40
0.19217908912789511
40
0.19217908912789511
40
0.19217908912789511
10
2.3528210287062166
20
-1.3266416642426067
30
0
10
2.3396644722175424
20
-1.3210943462736158
30
0
10
2.3163883535414889
20
-1.3112802257253391
30
0
10
2.2947267397910229
20
-1.2983063460403128
30
0
10
2.2853091023198586
20
-1.2926658015787782
30
0
0
SPLINE
5
593
100
AcDbEntity
8
0
100
AcDbSpline
70
0
71
3
72
9
73
5
74
0
42
0.000000001
43
0.0000000001
44
0.0000000001
40
0
40
0
40
0
40
0
40
0.19730649058640162
40
0.40421579071393049
40
0.40421579071393049
40
0.40421579071393049
40
0.40421579071393049
10
2.2853091023198586
20
-1.2926658015787782
30
0
10
2.287887493916716
20
-1.2668996274686233
30
0
10
2.2931697661572117
20
-1.2141132522680151
30
0
10
2.2968420414957738
20
-1.1611903000181258
30
0
10
2.2987217996290128
20
-1.1341001880970494
30
0
0
SPLINE
5
594
100
AcDbEntity
8
0
100
AcDbSpline
70
0
71
3
72
9
73
5
74
0
42
0.000000001
43
0.0000000001
44
0.0000000001
40
0
40
0
40
0
40
0
40
0.21349703781869586
40
0.41662998869748025
40
0.41662998869748025
40
0.41662998869748025
40
0.41662998869748025
10
2.2987217996290128
20
-1.1341001880970494
30
0
10
2.3010690949602854
20
-1.1061714339490734
30
0
10
2.3056497375646492
20
-1.051669710440913
30
0
10
2.3065226634285541
20
-0.99698384499264792
30
0
10
2.3069482689093008
20
-0.97032109501971575
30
0
0
SPLINE
5
595
100
AcDbEntity
8
0
100
AcDbSpline
70
0
71
3
72
9
73
5
74
0
42
0.000000001
43
0.0000000001
44
0.0000000001
40
0
40
0
40
0
40
0
40
0.077614699040126092
40
0.1520746854210292
40
0.1520746854210292
40
0.1520746854210292
40
0.1520746854210292
10
2.3069482689093008
20
-0.97032109501971575
30
0
10
2.306875769673645
20
-0.96013235018452381
30
0
10
2.3067337179928162
20
-0.94016899034664125
30
0
10
2.30523676963255
20
-0.9202616463565918
30
0
10
2.3045038221718341
20
-0.91051445826756094
30
0
0
SPLINE
5
596
100
AcDbEntity
8
0
100
AcDbSpline
70
0
71
3
72
9
73
5
74
0
42
0.000000001
43
0.0000000001
44
0.0000000001
40
0
40
0
40
0
40
0
40
0.071012614015375813
40
0.13888445719450399
40
0.13888445719450399
40
0.13888445719450399
40
0.13888445719450399
10
2.3045038221718341
20
-0.91051445826756094
30
0
10
2.3044299338437342
20
-0.90119180262030962
30
0
10
2.3042854251464622
20
-0.88295881701440793
30
0
10
2.3027810302989224
20
-0.86478781060484733
30
0
10
2.3020458432719919
20
-0.85590776943717739
30
0
0
SPLINE
5
597
100
AcDbEntity
8
0
100
AcDbSpline
70
0
71
3
72
9
73
5
74
0
42
0.000000001
43
0.0000000001
44
0.0000000001
40
0
40
0
40
0
40
0
40
0.043337689351290148
40
0.089829906135080129
40
0.089829906135080129
40
0.089829906135080129
40
0.089829906135080129
10
2.3020458432719919
20
-0.85590776943717739
30
0
10
2.3074584638481341
20
-0.85416015797849054
30
0
10
2.3186776867826646
20
-0.85053772734953104
30
0
10
2.3300086196494751
20
-0.84728125057341186
30
0
10
2.3358730384145816
20
-0.84559583387043769
30
0
0
SPLINE
5
598
100
AcDbEntity
8
0
100
AcDbSpline
70
0
71
3
72
9
73
5
74
0
42
0.000000001
43
0.0000000001
44
0.0000000001
40
0
40
0
40
0
40
0
40
0.050510879772879637
40
0.10674119079112723
40
0.10674119079112723
40
0.10674119079112723
40
0.10674119079112723
10
2.3358730384145816
20
-0.84559583387043769
30
0
10
2.3423492149194103
20
-0.8440972290154295
30
0
10
2.3560348762067833
20
-0.84093032977573601
30
0
10
2.3700847861910521
20
-0.84065119104903074
30
0
10
2.3774861539511298
20
-0.8405041432476752
30
0
0
SPLINE
5
599
100
AcDbEntity
8
0
100
AcDbSpline
70
0
71
3
72
9
73
5
74
0
42
0.000000001
43
0.0000000001
44
0.0000000001
40
0
40
0
40
0
40
0
40
0.076821118422375309
40
0.13199911987599872
40
0.13199911987599872
40
0.13199911987599872
40
0.13199911987599872
10
2.3774861539511298
20
-0.8405041432476752
30
0
10
2.3880706616851781
20
-0.84064637694605371
30
0
10
2.4062576620036786
20
-0.84089077228145503
30
0
10
2.4189379303776146
20
-0.85353875922077893
30
0
10
2.424238510165015
20
-0.85882584478906887
30
0
0
SPLINE
5
600
100
AcDbEntity
8
0
100
AcDbSpline
70
0
71
3
72
9
73
5
74
0
42
0.000000001
43
0.0000000001
44
0.0000000001
40
0
40
0
40
0
40
0
40
0.056857578970710719
40
0.13419082436956714
40
0.13419082436956714
40
0.13419082436956714
40
0.13419082436956714
10
2.424238510165015
20
-0.85882584478906887
30
0
10
2.4277210605554287
20
-0.86545585328273544
30
0
10
2.4359403044321146
20
-0.88110348234904978
30
0
10
2.4399812716879192
20
-0.89833981529531592
30
0
10
2.4423100532116191
20
-0.90827299494282321
30
0
0
SPLINE
5
601
100
AcDbEntity
8
0
100
AcDbSpline
70
0
71
3
72
9
73
5
74
0
42
0.000000001
43
0.0000000001
44
0.0000000001
40
0
40
0
40
0
40
0
40
0.41043897789976852
40
0.74501032906916809
40
0.74501032906916809
40
0.74501032906916809
40
0.74501032906916809
10
2.4423100532116191
20
-0.90827299494282321
30
0
10
2.452072696375307
20
-0.9617930367806744
30
0
10
2.4697934061216897
20
-1.0589402039075511
30
0
10
2.5203124093330733
20
-1.1435426192669758
30
0
10
2.5429996265496229
20
-1.1815361118597065
30
0
0
SPLINE
5
602
100
AcDbEntity
8
0
100
AcDbSpline
70
0
71
3
72
9
73
5
74
0
42
0.000000001
43
0.0000000001
44
0.0000000001
40
0
40
0
40
0
40
0
40
0.29982734633211611
40
0.64508864830369173
40
0.64508864830369173
40
0.64508864830369173
40
0.64508864830369173
10
2.5429996265496229
20
-1.1815361118597065
30
0
10
2.5729055606599744
20
-1.2088778902421475
30
0
10
2.63724918657506
20
-1.2677046486239885
30
0
10
2.7247327282500793
20
-1.2729329108573373
30
0
10
2.7715552565634014
20
-1.2757311566960778
30
0
0
SPLINE
5
603
100
AcDbEntity
8
0
100
AcDbSpline
70
0
71
3
72
9
73
5
74
0
42
0.000000001
43
0.0000000001
44
0.0000000001
40
0
40
0
40
0
40
0
40
0.16221070811383842
40
0.32122968735528845
40
0.32122968735528845
40
0.32122968735528845
40
0.32122968735528845
10
2.7715552565634014
20
-1.2757311566960778
30
0
10
2.7929061199286798
20
-1.2750589538971735
30
0
10
2.8351877377290329
20
-1.2737277748557772
30
0
10
2.8761329362925458
20
-1.2631114430673833
30
0
10
2.8964021204206216
20
-1.2578560189558134
30
0
0
SPLINE
5
604
100
AcDbEntity
8
0
100
AcDbSpline
70
0
71
3
72
9
73
5
74
0
42
0.000000001
43
0.0000000001
44
0.0000000001
40
0
40
0
40
0
40
0
40
0.15740843043443728
40
0.31173939649182097
40
0.31173939649182097
40
0.31173939649182097
40
0.31173939649182097
10
2.8964021204206216
20
-1.2578560189558134
30
0
10
2.9157348866839161
20
-1.250279990485291
30
0
10
2.9540224477173544
20
-1.2352760511366334
30
0
10
2.9868870569208847
20
-1.2105664126264688
30
0
10
3.0031571432319444
20
-1.1983335590791879
30
0
0
SPLINE
5
605
100
AcDbEntity
8
0
100
AcDbSpline
70
0
71
3
72
9
73
5
74
0
42
0.000000001
43
0.0000000001
44
0.0000000001
40
0
40
0
40
0
40
0
40
0.15411904201556131
40
0.31215035464931085
40
0.31215035464931085
40
0.31215035464931085
40
0.31215035464931085
10
3.0031571432319444
20
-1.1983335590791879
30
0
10
3.0180928798959568
20
-1.1844972558283977
30
0
10
3.0483434929003468
20
-1.1564734184732879
30
0
10
3.0685683892089606
20
-1.1205280334726708
30
0
10
3.0788075795988732
20
-1.1023300840224621
30
0
0
SPLINE
5
606
100
AcDbEntity
8
0
100
AcDbSpline
70
0
71
3
72
9
73
5
74
0
42
0.000000001
43
0.0000000001
44
0.0000000001
40
0
40
0
40
0
40
0
40
0.16603862651536597
40
0.34691139330042731
40
0.34691139330042731
40
0.34691139330042731
40
0.34691139330042731
10
3.0788075795988732
20
-1.1023300840224621
30
0
10
3.0871980212450665
20
-1.0820308832581733
30
0
10
3.1047285191959024
20
-1.0396189206455286
30
0
10
3.1067160251756896
20
-0.99373037673293763
30
0
10
3.1077522716423873
20
-0.96980499387870456
30
0
0
SPLINE
5
607
100
AcDbEntity
8
0
100
AcDbSpline
70
0
71
3
72
9
73
5
74
0
42
0.000000001
43
0.0000000001
44
0.0000000001
40
0
40
0
40
0
40
0
40
0.15935395460654245
40
0.31285211566666671
40
0.31285211566666671
40
0.31285211566666671
40
0.31285211566666671
10
3.1077522716423873
20
-0.96980499387870456
30
0
10
3.1068071666467749
20
-0.94874618639336183
30
0
10
3.1049516865105273
20
-0.90740242124191872
30
0
10
3.0895971536020754
20
-0.86898630951246059
30
0
10
3.0820635859918268
20
-0.85013777945541924
30
0
0
SPLINE
5
608
100
AcDbEntity
8
0
100
AcDbSpline
70
0
71
3
72
9
73
5
74
0
42
0.000000001
43
0.0000000001
44
0.0000000001
40
0
40
0
40
0
40
0
40
0.15140589771672977
40
0.30693426774439608
40
0.30693426774439608
40
0.30693426774439608
40
0.30693426774439608
10
3.0820635859918268
20
-0.85013777945541924
30
0
10
3.0734614326016683
20
-0.83213848301179305
30
0
10
3.0560229068133768
20
-0.79564980616926495
30
0
10
3.0303410453755157
20
-0.76440248737960192
30
0
10
3.0173276465195946
20
-0.74856898467296262
30
0
0
SPLINE
5
609
100
AcDbEntity
8
0
100
AcDbSpline
70
0
71
3
72
9
73
5
74
0
42
0.000000001
43
0.0000000001
44
0.0000000001
40
0
40
0
40
0
40
0
40
0.16110683419648589
40
0.32793082010968716
40
0.32793082010968716
40
0.32793082010968716
40
0.32793082010968716
10
3.0173276465195946
20
-0.74856898467296262
30
0
10
3.0028056422642915
20
-0.7331468544183134
30
0
10
2.9732462955808932
20
-0.70175531322473805
30
0
10
2.9388493558577942
20
-0.67574879689972911
30
0
10
2.9213510475685509
20
-0.66251883970447745
30
0
0
SPLINE
5
610
100
AcDbEntity
8
0
100
AcDbSpline
70
0
71
3
72
9
73
5
74
0
42
0.000000001
43
0.0000000001
44
0.0000000001
40
0
40
0
40
0
40
0
40
0.17043778694382114
40
0.34347703545575414
40
0.34347703545575414
40
0.34347703545575414
40
0.34347703545575414
10
2.9213510475685509
20
-0.66251883970447745
30
0
10
2.9038775777548014
20
-0.64855497538588436
30
0
10
2.8686639334194046
20
-0.62041411058318907
30
0
10
2.8329568996100591
20
-0.59290196111633853
30
0
10
2.8149681619095603
20
-0.57904169921447668
30
0
0
SPLINE
5
611
100
AcDbEntity
8
0
100
AcDbSpline
70
0
71
3
72
9
73
5
74
0
42
0.000000001
43
0.0000000001
44
0.0000000001
40
0
40
0
40
0
40
0
40
0.18755441296322009
40
0.37247322859224208
40
0.37247322859224208
40
0.37247322859224208
40
0.37247322859224208
10
2.8149681619095603
20
-0.57904169921447668
30
0
10
2.7952496995569183
20
-0.56430991350078552
30
0
10
2.7560898673816894
20
-0.535053359623892
30
0
10
2.7174044017225509
20
-0.50517240085185622
30
0
10
2.6981985368640715
20
-0.4903376393661299
30
0
0
SPLINE
5
612
100
AcDbEntity
8
0
100
AcDbSpline
70
0
71
3
72
9
73
5
74
0
42
0.000000001
43
0.0000000001
44
0.0000000001
40
0
40
0
40
0
40
0
40
0.1859185621656704
40
0.36929900596100207
40
0.36929900596100207
40
0.36929900596100207
40
0.36929900596100207
10
2.6981985368640715
20
-0.4903376393661299
30
0
10
2.6796610749979708
20
-0.4744277058465397
30
0
10
2.6428392205233697
20
-0.44282503763929171
30
0
10
2.6105141565249501
20
-0.40663700993756208
30
0
10
2.5944627063827626
20
-0.38866735263303737
30
0
0
SPLINE
5
613
100
AcDbEntity
8
0
100
AcDbSpline
70
0
71
3
72
9
73
5
74
0
42
0.000000001
43
0.0000000001
44
0.0000000001
40
0
40
0
40
0
40
0
40
0.17772614558964245
40
0.35643110308693587
40
0.35643110308693587
40
0.35643110308693587
40
0.35643110308693587
10
2.5944627063827626
20
-0.38866735263303737
30
0
10
2.5804150341852359
20
-0.3699677647480909
30
0
10
2.5522423234084548
20
-0.33246560255923774
30
0
10
2.5320820967458797
20
-0.29011280610600365
30
0
10
2.5219743019499994
20
-0.26887825439455898
30
0
0
SPLINE
5
614
100
AcDbEntity
8
0
100
AcDbSpline
70
0
71
3
72
9
73
5
74
0
42
0.000000001
43
0.0000000001
44
0.0000000001
40
0
40
0
40
0
40
0
40
0.18187988704190708
40
0.37739623236203057
40
0.37739623236203057
40
0.37739623236203057
40
0.37739623236203057
10
2.5219743019499994
20
-0.26887825439455898
30
0
10
2.5144529751291049
20
-0.24608878116835059
30
0
10
2.4988464094404215
20
-0.19880119223827392
30
0
10
2.4972041020447326
20
-0.14900753722233673
30
0
10
2.4963532775998614
20
-0.12321111263188707
30
0
0
SPLINE
5
615
100
AcDbEntity
8
0
100
AcDbSpline
70
4
71
3
72
8
73
4
74
0
42
0.000000001
43
0.0000000001
44
0.0000000001
40
0.8021326199687786
40
0.8021326199687786
40
0.8021326199687786
40
0.8021326199687786
40
1
40
1
40
1
40
1
41
1
41
1
41
1
41
1
10
-3.5723719284599009
20
0.32574131126853223
30
0
10
-4.3681069072297447
20
0.32574131149235491
30
0
10
-5.1640472244792104
20
0.32574131171623533
30
0
10
-5.9602795417053764
20
0.3257413119401979
30
0
0
SPLINE
5
616
100
AcDbEntity
8
0
100
AcDbSpline
70
0
71
3
72
8
73
4
74
0
42
0.000000001
43
0.0000000001
44
0.0000000001
40
0.17731972494411682
40
0.17731972494411682
40
0.17731972494411682
40
0.17731972494411682
40
0.20216366894637328
40
0.20216366894637328
40
0.20216366894637328
40
0.20216366894637328
10
-3.1451205201737067
20
0.32574131193347267
30
0
10
-3.1423040590821416
20
0.32401980077359865
30
0
10
-3.1395075102663794
20
0.32223474796645968
30
0
10
-3.1367109614506181
20
0.3204496951593207
30
0
0
SPLINE
5
617
100
AcDbEntity
8
0
100
AcDbSpline
70
0
71
3
72
8
73
4
74
0
42
0.000000001
43
0.0000000001
44
0.0000000001
40
0
40
0
40
0
40
0
40
0.037055692433949475
40
0.037055692433949475
40
0.037055692433949475
40
0.037055692433949475
10
-3.5735365615159225
20
0.3111863207972661
30
0
10
-3.5732031636616686
20
0.31604632982664177
30
0
10
-3.5728697658074142
20
0.32090633885601733
30
0
10
-3.5723719284599009
20
0.32574131126853217
30
0
0
SPLINE
5
618
100
AcDbEntity
8
0
100
AcDbSpline
70
0
71
3
72
8
73
4
74
0
42
0.000000001
43
0.0000000001
44
0.0000000001
40
0
40
0
40
0
40
0
40
0.03228160418518939
40
0.03228160418518939
40
0.03228160418518939
40
0.03228160418518939
10
-2.1409076918912033
20
0.32045814930516603
30
0
10
-2.1370564332824373
20
0.32228714029302874
30
0
10
-2.1332051746736718
20
0.32411613128089151
30
0
10
-2.1292932213581404
20
0.32574130478247515
30
0
0
SPLINE
5
619
100
AcDbEntity
8
0
100
AcDbSpline
70
0
71
3
72
8
73
4
74
0
42
0.000000001
43
0.0000000001
44
0.0000000001
40
0.078007138788080646
40
0.078007138788080646
40
0.078007138788080646
40
0.078007138788080646
40
0.12075486091862314
40
0.12075486091862314
40
0.12075486091862314
40
0.12075486091862314
10
-1.7184995143439912
20
0.3257413116297706
30
0
10
-1.7178430938812759
20
0.32017751132561056
30
0
10
-1.7174895923248263
20
0.31456644299057823
30
0
10
-1.7171360907683761
20
0.30895537465554584
30
0
0
SPLINE
5
620
100
AcDbEntity
8
0
100
AcDbSpline
70
4
71
3
72
8
73
4
74
0
42
0.000000001
43
0.0000000001
44
0.0000000001
40
0.68250365038495919
40
0.68250365038495919
40
0.68250365038495919
40
0.68250365038495919
40
0.7667175946769107
40
0.7667175946769107
40
0.7667175946769107
40
0.7667175946769107
41
1
41
1
41
1
41
1
10
-2.1292937320247152
20
0.3257413119401979
30
0
10
-2.4678727297854253
20
0.3257413119401979
30
0
10
-2.8064794320955269
20
0.3257413119401979
30
0
10
-3.1451205201724188
20
0.3257413119401979
30
0
0
SPLINE
5
621
100
AcDbEntity
8
0
100
AcDbSpline
70
0
71
3
72
8
73
4
74
0
42
0.000000001
43
0.0000000001
44
0.0000000001
40
0.071075621709078843
40
0.071075621709078843
40
0.071075621709078843
40
0.071075621709078843
40
0.12729999285287769
40
0.12729999285287769
40
0.12729999285287769
40
0.12729999285287769
10
-0.68934019441555927
20
0.32574131192813666
30
0
10
-0.68833449429314519
20
0.31844704908385374
30
0
10
-0.68794035842332257
20
0.31106148484333518
30
0
10
-0.68754622255349906
20
0.30367592060281628
30
0
0
SPLINE
5
622
100
AcDbEntity
8
0
100
AcDbSpline
70
0
71
3
72
9
73
5
74
0
42
0.000000001
43
0.0000000001
44
0.0000000001
40
0
40
0
40
0
40
0
40
0.056737724980020991
40
0.058884479420431235
40
0.058884479420431235
40
0.058884479420431235
40
0.058884479420431235
10
-1.36095084365779
20
0.30282846750421699
30
0
10
-1.3601025653468837
20
0.31025267566165804
30
0
10
-1.3592221911909068
20
0.31795778954512394
30
0
10
-1.357520343848406
20
0.32546777230035212
30
0
10
-1.3574572370223457
20
0.32574131173882498
30
0
0
SPLINE
5
623
100
AcDbEntity
8
0
100
AcDbSpline
70
4
71
3
72
8
73
4
74
0
42
0.000000001
43
0.0000000001
44
0.0000000001
40
0.61850756588291855
40
0.61850756588291855
40
0.61850756588291855
40
0.61850756588291855
40
0.64844393879006845
40
0.64844393879006845
40
0.64844393879006845
40
0.64844393879006845
41
1
41
1
41
1
41
1
10
-1.3574572395475619
20
0.3257413119401979
30
0
10
-1.4778017051110353
20
0.3257413119401979
30
0
10
-1.5981490300017545
20
0.3257413119401979
30
0
10
-1.7184995143439903
20
0.3257413119401979
30
0
0
SPLINE
5
624
100
AcDbEntity
8
0
100
AcDbSpline
70
0
71
3
72
8
73
4
74
0
42
0.000000001
43
0.0000000001
44
0.0000000001
40
0
40
0
40
0
40
0
40
0.0051422247893919458
40
0.0051422247893919458
40
0.0051422247893919458
40
0.0051422247893919458
10
-0.41449323181294984
20
0.32376545734306567
30
0
10
-0.41434471549980356
20
0.3244241293058388
30
0
10
-0.41419619918665734
20
0.32508280126861194
30
0
10
-0.41404708980781746
20
0.32574131088898034
30
0
0
SPLINE
5
625
100
AcDbEntity
8
0
100
AcDbSpline
70
4
71
3
72
8
73
4
74
0
42
0.000000001
43
0.0000000001
44
0.0000000001
40
0.54027693235859509
40
0.54027693235859509
40
0.54027693235859509
40
0.54027693235859509
40
0.56310597772259707
40
0.56310597772259707
40
0.56310597772259707
40
0.56310597772259707
41
1
41
1
41
1
41
1
10
-0.4140470898198767
20
0.3257413119401979
30
0
10
-0.50581020689163936
20
0.3257413119401979
30
0
10
-0.59757453067154165
20
0.3257413119401979
30
0
10
-0.68934019425614368
20
0.3257413119401979
30
0
0
SPLINE
5
626
100
AcDbEntity
8
0
100
AcDbSpline
70
4
71
3
72
8
73
4
74
0
42
0.000000001
43
0.0000000001
44
0.0000000001
40
0.42022211351749317
40
0.42022211351749317
40
0.42022211351749317
40
0.42022211351749317
40
0.47876508928796802
40
0.47876508928796802
40
0.47876508928796802
40
0.47876508928796802
41
1
41
1
41
1
41
1
10
1.0335810959474299
20
0.3257413119401979
30
0
10
0.79828617556883874
20
0.3257413119401979
30
0
10
0.56298792256607078
20
0.3257413119401979
30
0
10
0.32768409239597268
20
0.3257413119401979
30
0
0
SPLINE
5
627
100
AcDbEntity
8
0
100
AcDbSpline
70
0
71
3
72
8
73
4
74
0
42
0.000000001
43
0.0000000001
44
0.0000000001
40
0
40
0
40
0
40
0
40
0.044273563925835466
40
0.044273563925835466
40
0.044273563925835466
40
0.044273563925835466
10
2.8433091684848613
20
0.32048744959797343
30
0
10
2.8488767549222214
20
0.32224580187123486
30
0
10
2.8544443413595819
20
0.32400415414449624
30
0
10
2.8600156332530711
20
0.32574131095633241
30
0
0
SPLINE
5
628
100
AcDbEntity
8
0
100
AcDbSpline
70
0
71
3
72
8
73
4
74
0
42
0.000000001
43
0.0000000001
44
0.0000000001
40
0.60447885052068429
40
0.60447885052068429
40
0.60447885052068429
40
0.60447885052068429
40
0.66881228784301461
40
0.66881228784301461
40
0.66881228784301461
40
0.66881228784301461
10
3.2841317828701571
20
0.32574130832380344
30
0
10
3.2923273211744695
20
0.3236112929060318
30
0
10
3.3005173692405414
20
0.32144380319945948
30
0
10
3.3087074173066129
20
0.31927631349288721
30
0
0
SPLINE
5
629
100
AcDbEntity
8
0
100
AcDbSpline
70
4
71
3
72
8
73
4
74
0
42
0.000000001
43
0.0000000001
44
0.0000000001
40
0
40
0
40
0
40
0
40
0.23356894768635506
40
0.23356894768635506
40
0.23356894768635506
40
0.23356894768635506
41
1
41
1
41
1
41
1
10
6.100744539168252
20
0.3257413119401979
30
0
10
5.1617177269161987
20
0.32574131073453294
30
0
10
4.2228943228111415
20
0.32574130952912911
30
0
10
3.2841317828701571
20
0.32574130832380344
30
0
0
SPLINE
5
630
100
AcDbEntity
8
0
100
AcDbSpline
70
4
71
3
72
8
73
4
74
0
42
0.000000001
43
0.0000000001
44
0.0000000001
40
0.26874334378466502
40
0.26874334378466502
40
0.26874334378466502
40
0.26874334378466502
40
0.32692839087651648
40
0.32692839087651648
40
0.32692839087651648
40
0.32692839087651648
41
1
41
1
41
1
41
1
10
2.8600156332410132
20
0.3257413119401979
30
0
10
2.6261614989424409
20
0.3257413119401979
30
0
10
2.3923098095572857
20
0.3257413119401979
30
0
10
2.1584583614602577
20
0.3257413119401979
30
0
0
SPLINE
5
631
100
AcDbEntity
8
0
100
AcDbSpline
70
0
71
3
72
9
73
5
74
0
42
0.000000001
43
0.0000000001
44
0.0000000001
40
0.094572775201047662
40
0.094572775201047662
40
0.094572775201047662
40
0.094572775201047662
40
0.18076808279189169
40
0.34981631194398011
40
0.34981631194398011
40
0.34981631194398011
40
0.34981631194398011
10
2.5602916723691367
20
-1.3786131159255632
30
0
10
2.5491335756850653
20
-1.376750796968246
30
0
10
2.5161559552943631
20
-1.3709093941277644
30
0
10
2.4835405459537307
20
-1.3632190466278111
30
0
10
2.4619393047922058
20
-1.3581257163792939
30
0
0
LINE
5
632
100
AcDbEntity
8
0
100
AcDbLine
10
1.9315010165959161
20
-1.3723452717655489
30
0
11
1.9013035986246469
21
-1.3786131159549386
31
0
0
SPLINE
5
633
100
AcDbEntity
8
0
100
AcDbSpline
70
0
71
3
72
8
73
4
74
0
42
0.000000001
43
0.0000000001
44
0.0000000001
40
0.068459236982834626
40
0.068459236982834626
40
0.068459236982834626
40
0.068459236982834626
40
0.11330695358272383
40
0.11330695358272383
40
0.11330695358272383
40
0.11330695358272383
10
-2.9990148528509195
20
-1.3786131149243035
30
0
10
-3.0048184969705054
20
-1.3777044172788078
30
0
10
-3.0105706888792247
20
-1.3763868912721093
30
0
10
-3.0163228807879428
20
-1.3750693652654111
30
0
0
LINE
5
634
100
AcDbEntity
8
0
100
AcDbLine
10
-3.4059519572856209
20
-1.3413135747047553
30
0
11
-3.4115012525700887
21
-1.3786131159549386
31
0
0
LINE
5
635
100
AcDbEntity
8
0
100
AcDbLine
10
-2.5924363494173681
20
-1.3423723007399082
30
0
11
-2.5827935033518314
21
-1.3786131159549386
31
0
0
LINE
5
636
100
AcDbEntity
8
0
100
AcDbLine
10
-1.9313667805128854
20
-1.3554533184743565
30
0
11
-1.9313667780455812
21
-1.3786131159549386
31
0
0
LINE
5
637
100
AcDbEntity
8
0
100
AcDbLine
10
0.50415958486636248
20
-1.3478308758576871
30
0
11
0.50415958486636248
21
-1.3478308758576871
31
0
0
SPLINE
5
638
100
AcDbEntity
8
0
100
AcDbSpline
70
4
71
3
72
8
73
4
74
0
42
0.000000001
43
0.0000000001
44
0.0000000001
40
0.24956987730759769
40
0.24956987730759769
40
0.24956987730759769
40
0.24956987730759769
40
0.28034914129003341
40
0.28034914129003341
40
0.28034914129003341
40
0.28034914129003341
41
1
41
1
41
1
41
1
10
-2.9539987566920094
20
-1.3786131159549386
30
0
10
-2.8302627540351493
20
-1.3786131159549386
30
0
10
-2.7065276333315476
20
-1.3786131159549386
30
0
10
-2.5827935033518314
20
-1.3786131159549386
30
0
0
LINE
5
639
100
AcDbEntity
8
0
100
AcDbLine
10
-1.6480096925867231
20
-1.3530921533916398
30
0
11
-1.6387821331573
21
-1.3786131159549386
31
0
0
LINE
5
640
100
AcDbEntity
8
0
100
AcDbLine
10
-0.98905413759205851
20
-1.3658526346734816
30
0
11
-0.99841249677229504
21
-1.3786131159549386
31
0
0
LINE
5
641
100
AcDbEntity
8
0
100
AcDbLine
10
0.48590573235592227
20
-1.3685833052207286
30
0
11
0.46744200211800241
21
-1.3786131159549386
31
0
0
LINE
5
642
100
AcDbEntity
8
0
100
AcDbLine
10
0.73300653403073235
20
-1.3302261965656768
30
0
11
0.73300653403073246
21
-1.3786131159549386
31
0
0
SPLINE
5
643
100
AcDbEntity
8
0
100
AcDbSpline
70
4
71
3
72
8
73
4
74
0
42
0.000000001
43
0.0000000001
44
0.0000000001
40
0.65221222522880506
40
0.65221222522880506
40
0.65221222522880506
40
0.65221222522880506
40
0.70687347621035557
40
0.70687347621035557
40
0.70687347621035557
40
0.70687347621035557
41
1
41
1
41
1
41
1
10
1.9013035986246469
20
-1.3786131159549386
30
0
10
2.1209737621203533
20
-1.3786131159549386
30
0
10
2.3406366564429528
20
-1.3786131159549386
30
0
10
2.5602916723703544
20
-1.3786131159549386
30
0
0
SPLINE
5
644
100
AcDbEntity
8
0
100
AcDbSpline
70
4
71
3
72
8
73
4
74
0
42
0.000000001
43
0.0000000001
44
0.0000000001
40
0.53328943059020995
40
0.53328943059020995
40
0.53328943059020995
40
0.53328943059020995
40
0.55531389117697283
40
0.55531389117697283
40
0.55531389117697283
40
0.55531389117697283
41
1
41
1
41
1
41
1
10
0.46744200211800241
20
-1.3786131159549386
30
0
10
0.55596449100225831
20
-1.3786131159549386
30
0
10
0.64448601492391644
20
-1.3786131159549386
30
0
10
0.73300653403073235
20
-1.3786131159549386
30
0
0
SPLINE
5
645
100
AcDbEntity
8
0
100
AcDbSpline
70
4
71
3
72
8
73
4
74
0
42
0.000000001
43
0.0000000001
44
0.0000000001
40
0.33436478215250776
40
0.33436478215250776
40
0.33436478215250776
40
0.33436478215250776
40
0.35862617478338543
40
0.35862617478338543
40
0.35862617478338543
40
0.35862617478338543
41
1
41
1
41
1
41
1
10
-1.9313667780455812
20
-1.3786131159549386
30
0
10
-1.8338378111691314
20
-1.3786131159549386
30
0
10
-1.7363095784496463
20
-1.3786131159549386
30
0
10
-1.6387821331573
20
-1.3786131159549386
30
0
0
SPLINE
5
646
100
AcDbEntity
8
0
100
AcDbSpline
70
4
71
3
72
8
73
4
74
0
42
0.000000001
43
0.0000000001
44
0.0000000001
40
0.4117276282128064
40
0.4117276282128064
40
0.4117276282128064
40
0.4117276282128064
40
0.43707411858695999
40
0.43707411858695999
40
0.43707411858695999
40
0.43707411858695999
41
1
41
1
41
1
41
1
10
-0.99841249677229504
20
-1.3786131159549386
30
0
10
-0.89652697620744926
20
-1.3786131159549386
30
0
10
-0.79464244233690207
20
-1.3786131159549386
30
0
10
-0.69275895590284298
20
-1.3786131159549386
30
0
0
SPLINE
5
647
100
AcDbEntity
8
0
100
AcDbSpline
70
4
71
3
72
8
73
4
74
0
42
0.000000001
43
0.0000000001
44
0.0000000001
40
0
40
0
40
0
40
0
40
0.1676467951447998
40
0.1676467951447998
40
0.1676467951447998
40
0.1676467951447998
41
1
41
1
41
1
41
1
10
-5.9640092140785983
20
-1.3786131159549386
30
0
10
-5.290011837836877
20
-1.3786131159549386
30
0
10
-4.6160144615951566
20
-1.3786131159549386
30
0
10
-3.9420346614613044
20
-1.3786131159549386
30
0
0
SPLINE
5
648
100
AcDbEntity
8
0
100
AcDbSpline
70
4
71
3
72
8
73
4
74
0
42
0.000000001
43
0.0000000001
44
0.0000000001
40
0.21163569388970102
40
0.21163569388970102
40
0.21163569388970102
40
0.21163569388970102
40
0.2458373039614952
40
0.2458373039614952
40
0.2458373039614952
40
0.2458373039614952
41
1
41
1
41
1
41
1
10
-3.4115012525700887
20
-1.3786131159549386
30
0
10
-3.2740048127997179
20
-1.3786131159549386
30
0
10
-3.1365092964912042
20
-1.3786131159549386
30
0
10
-2.9990148528815763
20
-1.3786131159549386
30
0
0
SPLINE
5
649
100
AcDbEntity
8
0
100
AcDbSpline
70
0
71
3
72
11
73
7
74
0
42
0.000000001
43
0.0000000001
44
0.0000000001
40
0.60477901735807504
40
0.60477901735807504
40
0.60477901735807504
40
0.60477901735807504
40
0.90603725867037754
40
0.90603725867037754
40
0.90603725867037754
40
1
40
1
40
1
40
1
10
0.8567025756309099
20
-2.8503631445926065
30
0
10
0.85960872637993768
20
-2.8508262648265621
30
0
10
0.86185544816813098
20
-2.8511011957054437
30
0
10
0.86338163197810636
20
-2.851187823556506
30
0
10
0.86385765020729566
20
-2.851214842868329
30
0
10
0.86426432262511355
20
-2.8512256472305149
30
0
10
0.86460377437079405
20
-2.8512256472305149
30
0
0
SPLINE
5
650
100
AcDbEntity
8
0
100
AcDbSpline
70
0
71
3
72
14
73
10
74
0
42
0.000000001
43
0.0000000001
44
0.0000000001
40
0
40
0
40
0
40
0
40
0.78828199611343508
40
0.78828199611343508
40
0.78828199611343508
40
1
40
1
40
1
40
1.0001332633846223
40
1.0001332633846223
40
1.0001332633846223
40
1.0001332633846223
10
0.86460377437079405
20
-2.8512256472305149
30
0
10
1.0225185875956775
20
-2.8512256472305149
30
0
10
1.1511796292644834
20
-2.8057442366432666
30
0
10
1.2526336129519398
20
-2.7058864563880092
30
0
10
1.2798822815991397
20
-2.6790664985398998
30
0
10
1.3051830895890533
20
-2.6481977869974944
30
0
10
1.3284369858193417
20
-2.6129419130400864
30
0
10
1.3284523927251581
20
-2.6129185542048972
30
0
10
1.3284677996309753
20
-2.6128951953697075
30
0
10
1.3284832065368184
20
-2.6128718365344783
30
0
0
SPLINE
5
651
100
AcDbEntity
8
0
100
AcDbSpline
70
0
71
3
72
14
73
10
74
0
42
0.000000001
43
0.0000000001
44
0.0000000001
40
-0.00013872832113726252
40
-0.00013872832113726252
40
-0.00013872832113726252
40
-0.00013872832113726252
40
0
40
0
40
0
40
1
40
1
40
1
40
1.0007452900674341
40
1.0007452900674341
40
1.0007452900674341
40
1.0007452900674341
10
1.3284832065410628
20
-2.6128718365374124
30
0
10
1.3284987279293528
20
-2.6128485544549775
30
0
10
1.3285142493176074
20
-2.6128252723725955
30
0
10
1.3285297707058634
20
-2.6128019902902118
30
0
10
1.4307171925824151
20
-2.4595208574753844
30
0
10
1.4031518858119105
20
-2.2419624672571308
30
0
10
1.2700303692442212
20
-2.1156670808046107
30
0
10
1.2699219682069471
20
-2.1155642382946445
30
0
10
1.2698135671696731
20
-2.1154613957846777
30
0
10
1.2697051661324157
20
-2.115358553274727
30
0
0
SPLINE
5
652
100
AcDbEntity
8
0
100
AcDbSpline
70
0
71
3
72
11
73
7
74
0
42
0.000000001
43
0.0000000001
44
0.0000000001
40
-0.002179303745749415
40
-0.002179303745749415
40
-0.002179303745749415
40
-0.002179303745749415
40
0
40
0
40
0
40
0.85290870961769172
40
0.85290870961769172
40
0.85290870961769172
40
0.85290870961769172
10
1.269705166132298
20
-2.1153585532748096
30
0
10
1.2695995071765076
20
-2.115252895559192
30
0
10
1.2694938482207143
20
-2.1151472378435709
30
0
10
1.269388189264921
20
-2.1150415801279498
30
0
10
1.231726235932652
20
-2.077380068852952
30
0
10
1.191081221403917
20
-2.0532016802839004
30
0
10
1.1370384830299185
20
-2.0380928304070984
30
0
0
LINE
5
653
100
AcDbEntity
8
0
100
AcDbLine
10
1.1370384830299185
20
-2.0380928304070984
30
0
11
1.1041755403927922
21
-2.0289052627223469
31
0
0
LINE
5
654
100
AcDbEntity
8
0
100
AcDbLine
10
0.8567025756309099
20
-2.8503631445926065
30
0
11
0.82381401063960769
21
-2.8411684145314053
31
0
0
SPLINE
5
655
100
AcDbEntity
8
0
100
AcDbSpline
70
4
71
3
72
8
73
4
74
0
42
0.000000001
43
0.0000000001
44
0.0000000001
40
0.035316784180481266
40
0.035316784180481266
40
0.035316784180481266
40
0.035316784180481266
40
0.96223945073504913
40
0.96223945073504913
40
0.96223945073504913
40
0.96223945073504913
41
1
41
1
41
1
41
1
10
1.1041755403927922
20
-2.0289052627223469
30
0
10
1.0138208370865203
20
-2.3017599078845103
30
0
10
0.91739668784837447
20
-2.5715250962352942
30
0
10
0.82381401063960769
20
-2.8411684145314049
30
0
0
SPLINE
5
656
100
AcDbEntity
8
0
100
AcDbSpline
70
4
71
5
72
21
73
15
74
0
42
0.000000001
43
0.0000000001
44
0.0000000001
40
0
40
0
40
0
40
0
40
0
40
0
40
0.10000000000000001
40
0.20000000000000001
40
0.30000000000000004
40
0.40000000000000002
40
0.5
40
0.59999999999999998
40
0.69999999999999996
40
0.79999999999999993
40
0.89999999999999991
40
1
40
1
40
1
40
1
40
1
40
1
41
1
41
1
41
1
41
1
41
1
41
1
41
1
41
1
41
1
41
1
41
1
41
1
41
1
41
1
41
1
10
5.0565000102937177
20
-3.3477617628505745
30
0
10
5.0553735301412566
20
-3.3398542788482053
30
0
10
5.053109349309306
20
-3.3244771533815056
30
0
10
5.0496794173449508
20
-3.3027249590543599
30
0
10
5.0450377384269016
20
-3.2763925248575281
30
0
10
5.0391128024420286
20
-3.2482702874686153
30
0
10
5.0330510150944328
20
-3.2254882047451661
30
0
10
5.0268351087472363
20
-3.2087200870217476
30
0
10
5.0204482757996765
20
-3.1986217932951564
30
0
10
5.0138794439818097
20
-3.1956253809417405
30
0
10
5.0071320126036092
20
-3.1995982035640353
30
0
10
5.0015988961323918
20
-3.2080510604756425
30
0
10
4.9973770562352193
20
-3.2172003553427553
30
0
10
4.9945310200499504
20
-3.2245281380431243
30
0
10
4.993100132493776
20
-3.22849910820264
30
0
0
SPLINE
5
657
100
AcDbEntity
8
0
100
AcDbSpline
70
4
71
3
72
8
73
4
74
0
42
0.000000001
43
0.0000000001
44
0.0000000001
40
0.1000655840264023
40
0.1000655840264023
40
0.1000655840264023
40
0.1000655840264023
40
1
40
1
40
1
40
1
41
1
41
1
41
1
41
1
10
4.993100132493776
20
-3.2284991082038701
30
0
10
4.993100132493776
20
-3.5976872329356429
30
0
10
4.993100132493776
20
-3.9668753576674147
30
0
10
4.993100132493776
20
-4.3360634823991866
30
0
0
LINE
5
658
100
AcDbEntity
8
0
100
AcDbLine
10
-4.9906241922845043
20
-2.6913792599307662
30
0
11
-5.1659079815319648
21
-2.7958032575637342
31
0
0
SPLINE
5
659
100
AcDbEntity
8
0
100
AcDbSpline
70
4
71
5
72
26
73
20
74
0
42
0.000000001
43
0.0000000001
44
0.0000000001
40
0
40
0
40
0
40
0
40
0
40
0
40
0.066666666666666666
40
0.13333333333333333
40
0.20000000000000001
40
0.26666666666666666
40
0.33333333333333331
40
0.39999999999999997
40
0.46666666666666662
40
0.53333333333333333
40
0.59999999999999998
40
0.66666666666666663
40
0.73333333333333328
40
0.79999999999999993
40
0.86666666666666659
40
0.93333333333333324
40
1
40
1
40
1
40
1
40
1
40
1
41
1
41
1
41
1
41
1
41
1
41
1
41
1
41
1
41
1
41
1
41
1
41
1
41
1
41
1
41
1
41
1
41
1
41
1
41
1
41
1
10
-5.0717396577340432
20
-2.9470320242555239
30
0
10
-5.0720431228383269
20
-2.9412440478198754
30
0
10
-5.0727888024497485
20
-2.9300597816665537
30
0
10
-5.0743235638078676
20
-2.914458423231709
30
0
10
-5.0772085018966164
20
-2.8960239448013465
30
0
10
-5.0822474918215867
20
-2.8770194148593582
30
0
10
-5.0887617083917229
20
-2.8621545147560776
30
0
10
-5.0967829715909092
20
-2.8514808955545123
30
0
10
-5.1063147096837476
20
-2.8449448062435647
30
0
10
-5.1173001429299658
20
-2.842286809928356
30
0
10
-5.1296333601616304
20
-2.8430842156708609
30
0
10
-5.143187327717456
20
-2.8468526138453782
30
0
10
-5.1578306251554675
20
-2.8531102879815529
30
0
10
-5.1734455903207959
20
-2.8614566064796145
30
0
10
-5.1899362689103778
20
-2.8715955156633073
30
0
10
-5.207229474100326
20
-2.8833191567445784
30
0
10
-5.2216662914185257
20
-2.8938631840981284
30
0
10
-5.232820274016829
20
-2.9023978046170269
30
0
10
-5.2404002667259881
20
-2.9083640358788694
30
0
10
-5.2442262642907451
20
-2.9114162723163726
30
0
0
SPLINE
5
660
100
AcDbEntity
8
0
100
AcDbSpline
70
4
71
3
72
8
73
4
74
0
42
0.000000001
43
0.0000000001
44
0.0000000001
40
0.43229864582225652
40
0.43229864582225652
40
0.43229864582225652
40
0.43229864582225652
40
1
40
1
40
1
40
1
41
1
41
1
41
1
41
1
10
-5.0717396577340432
20
-2.9470320242555239
30
0
10
-5.0760517318311873
20
-3.0587978559736286
30
0
10
-5.0435544631001088
20
-3.1594639289767366
30
0
10
-4.9906241922845043
20
-3.2060421796215866
30
0
0
SPLINE
5
661
100
AcDbEntity
8
0
100
AcDbSpline
70
4
71
3
72
8
73
4
74
0
42
0.000000001
43
0.0000000001
44
0.0000000001
40
0.90119337099927388
40
0.90119337099927388
40
0.90119337099927388
40
0.90119337099927388
40
1
40
1
40
1
40
1
41
1
41
1
41
1
41
1
10
-5.233245486133403
20
-2.9517479005050635
30
0
10
-5.2331106371787817
20
-2.9532219447981602
30
0
10
-5.2330378162391815
20
-2.9546959991047226
30
0
10
-5.2330378162391815
20
-2.9561700645226239
30
0
0
SPLINE
5
662
100
AcDbEntity
8
0
100
AcDbSpline
70
4
71
5
72
21
73
15
74
0
42
0.000000001
43
0.0000000001
44
0.0000000001
40
0
40
0
40
0
40
0
40
0
40
0
40
0.10000000000000001
40
0.20000000000000001
40
0.30000000000000004
40
0.40000000000000002
40
0.5
40
0.59999999999999998
40
0.69999999999999996
40
0.79999999999999993
40
0.89999999999999991
40
1
40
1
40
1
40
1
40
1
40
1
41
1
41
1
41
1
41
1
41
1
41
1
41
1
41
1
41
1
41
1
41
1
41
1
41
1
41
1
41
1
10
-5.1678864553843447
20
-3.0342279765434044
30
0
10
-5.1676926168843744
20
-3.0318704464597963
30
0
10
-5.1674378873539144
20
-3.0272180885660229
30
0
10
-5.1674546332198119
20
-3.0204276574859938
30
0
10
-5.1682877839764227
20
-3.0117561593763047
30
0
10
-5.1707706668441222
20
-3.0015966179737235
30
0
10
-5.174817326499098
20
-2.992174603657042
30
0
10
-5.1805453396166623
20
-2.9835455693422808
30
0
10
-5.1880001714222832
20
-2.9757309578821354
30
0
10
-5.1970931220357999
20
-2.9686889355796184
30
0
10
-5.2076918443909896
20
-2.9623570833304842
30
0
10
-5.2172723091879289
20
-2.9578110979447363
30
0
10
-5.2250372103956773
20
-2.9546749444292693
30
0
10
-5.230467166233848
20
-2.9527036657455628
30
0
10
-5.233245486133403
20
-2.9517479005050635
30
0
0
SPLINE
5
663
100
AcDbEntity
8
0
100
AcDbSpline
70
4
71
3
72
8
73
4
74
0
42
0.000000001
43
0.0000000001
44
0.0000000001
40
0
40
0
40
0
40
0
40
0.83070448558070309
40
0.83070448558070309
40
0.83070448558070309
40
0.83070448558070309
41
1
41
1
41
1
41
1
10
-5.0204595795319156
20
-3.3179255220010018
30
0
10
-5.0979112415121994
20
-3.2373756044505342
30
0
10
-5.1470535878321746
20
-3.1413848488894915
30
0
10
-5.1678864553843455
20
-3.0342279765434039
30
0
0
SPLINE
5
664
100
AcDbEntity
8
0
100
AcDbSpline
70
4
71
3
72
8
73
4
74
0
42
0.000000001
43
0.0000000001
44
0.0000000001
40
0
40
0
40
0
40
0
40
0.90102678821362769
40
0.90102678821362769
40
0.90102678821362769
40
0.90102678821362769
41
1
41
1
41
1
41
1
10
-5.5500406196475227
20
-3.2582541784380705
30
0
10
-5.5063564883944229
20
-3.2112097688382404
30
0
10
-5.4596444253362995
20
-3.1762761624634437
30
0
10
-5.4044485595429608
20
-3.1398137860562287
30
0
0
SPLINE
5
665
100
AcDbEntity
8
0
100
AcDbSpline
70
4
71
3
72
8
73
4
74
0
42
0.000000001
43
0.0000000001
44
0.0000000001
40
0.085410381256608991
40
0.085410381256608991
40
0.085410381256608991
40
0.085410381256608991
40
1
40
1
40
1
40
1
41
1
41
1
41
1
41
1
10
-5.3861901352186718
20
-3.1474752100027787
30
0
10
-5.3879381145849186
20
-3.2168733415294604
30
0
10
-5.3990449214285325
20
-3.2748583005009042
30
0
10
-5.4195103380722598
20
-3.3328442114938941
30
0
0
SPLINE
5
666
100
AcDbEntity
8
0
100
AcDbSpline
70
4
71
5
72
17
73
11
74
0
42
0.000000001
43
0.0000000001
44
0.0000000001
40
0
40
0
40
0
40
0
40
0
40
0
40
0.066666666666666666
40
0.13333333333333333
40
0.20000000000000001
40
0.26666666666666666
40
0.33333333333333331
40
0.34610177531016728
40
0.34610177531016728
40
0.34610177531016728
40
0.34610177531016728
40
0.34610177531016728
40
0.34610177531016728
41
1
41
1
41
1
41
1
41
1
41
1
41
1
41
1
41
1
41
1
41
1
10
-5.385945278451624
20
-3.0686410105071937
30
0
10
-5.387605059539113
20
-3.0725569763027596
30
0
10
-5.3907488406410451
20
-3.0801729983545649
30
0
10
-5.3949371742528607
20
-3.090949306941202
30
0
10
-5.3994592320297521
20
-3.1040128181348217
30
0
10
-5.4032904950719125
20
-3.1180961306638126
30
0
10
-5.404915309233
20
-3.1279229545633451
30
0
10
-5.4051488978076341
20
-3.1341264070040129
30
0
10
-5.4048246122438908
20
-3.1377529770450052
30
0
10
-5.4045038547659443
20
-3.1395326952031297
30
0
10
-5.4044485595409215
20
-3.1398137860716431
30
0
0
SPLINE
5
667
100
AcDbEntity
8
0
100
AcDbSpline
70
4
71
5
72
16
73
10
74
0
42
0.000000001
43
0.0000000001
44
0.0000000001
40
0
40
0
40
0
40
0
40
0
40
0
40
0.20000000000000001
40
0.40000000000000002
40
0.60000000000000009
40
0.80000000000000004
40
1
40
1
40
1
40
1
40
1
40
1
41
1
41
1
41
1
41
1
41
1
41
1
41
1
41
1
41
1
41
1
10
-5.3861901352186718
20
-3.1474752100027787
30
0
10
-5.3840195737481107
20
-3.1466456794985298
30
0
10
-5.3792778168983055
20
-3.1443083880804306
30
0
10
-5.3709643611129154
20
-3.1387695901065871
30
0
10
-5.3578094147011566
20
-3.1278796638906097
30
0
10
-5.3390688678215463
20
-3.1103789109607418
30
0
10
-5.3229492145537129
20
-3.0944700527435445
30
0
10
-5.3104337101185157
20
-3.0818176352911566
30
0
10
-5.3019131072702379
20
-3.0730831612742682
30
0
10
-5.2976085539347819
20
-3.0686410105071937
30
0
0
SPLINE
5
668
100
AcDbEntity
8
0
100
AcDbSpline
70
4
71
5
72
26
73
20
74
0
42
0.000000001
43
0.0000000001
44
0.0000000001
40
0
40
0
40
0
40
0
40
0
40
0
40
0.066666666666666666
40
0.13333333333333333
40
0.20000000000000001
40
0.26666666666666666
40
0.33333333333333331
40
0.39999999999999997
40
0.46666666666666662
40
0.53333333333333333
40
0.59999999999999998
40
0.66666666666666663
40
0.73333333333333328
40
0.79999999999999993
40
0.86666666666666659
40
0.93333333333333324
40
1
40
1
40
1
40
1
40
1
40
1
41
1
41
1
41
1
41
1
41
1
41
1
41
1
41
1
41
1
41
1
41
1
41
1
41
1
41
1
41
1
41
1
41
1
41
1
41
1
41
1
10
-1.5652794179641787
20
-2.7936609402154144
30
0
10
-1.5804573692578292
20
-2.8226012533020035
30
0
10
-1.6093332527137489
20
-2.8798686782639811
30
0
10
-1.6482070824333337
20
-2.9639302317642295
30
0
10
-1.6910937798998837
20
-3.0723062226932125
30
0
10
-1.729395275102362
20
-3.2014119395280409
30
0
10
-1.7518679631085166
20
-3.3238704306375895
30
0
10
-1.7580304714766979
20
-3.4393457673744656
30
0
10
-1.7476097374117807
20
-3.5474980267950849
30
0
10
-1.720840673046117
20
-3.6480706108424732
30
0
10
-1.6785194687881493
20
-3.7409251292952943
30
0
10
-1.6217090809192292
20
-3.8260007811207561
30
0
10
-1.5515882384057071
20
-3.9033181253543683
30
0
10
-1.4692983370726449
20
-3.9729950439009696
30
0
10
-1.375840161793463
20
-4.0352855269377015
30
0
10
-1.2720167882925451
20
-4.0904872021274343
30
0
10
-1.1811254987134616
20
-4.1291946136846258
30
0
10
-1.1087016781802705
20
-4.1552432412093605
30
0
10
-1.0585415620481595
20
-4.1712932919246883
30
0
10
-1.0329921086357996
20
-4.1789893898229957
30
0
0
SPLINE
5
669
100
AcDbEntity
8
0
100
AcDbSpline
70
4
71
5
72
16
73
10
74
0
42
0.000000001
43
0.0000000001
44
0.0000000001
40
0
40
0
40
0
40
0
40
0
40
0
40
0.20000000000000001
40
0.40000000000000002
40
0.60000000000000009
40
0.80000000000000004
40
1
40
1
40
1
40
1
40
1
40
1
41
1
41
1
41
1
41
1
41
1
41
1
41
1
41
1
41
1
41
1
10
-1.1306485956606553
20
-4.026522300009721
30
0
10
-1.1295067331344006
20
-4.0254263770796133
30
0
10
-1.127223008081909
20
-4.0232345312194715
30
0
10
-1.1237974205032286
20
-4.0199467624294885
30
0
10
-1.1192299703984214
20
-4.0155630707099021
30
0
10
-1.1135206577675207
20
-4.0100834560607854
30
0
10
-1.1089532076628432
20
-4.0056997643415455
30
0
10
-1.1055276200843454
20
-4.0024119955520492
30
0
10
-1.1032438950320151
20
-4.0002201496923382
30
0
10
-1.1021020325058506
20
-3.9991242267624729
30
0
0
SPLINE
5
670
100
AcDbEntity
8
0
100
AcDbSpline
70
4
71
5
72
16
73
10
74
0
42
0.000000001
43
0.0000000001
44
0.0000000001
40
0
40
0
40
0
40
0
40
0
40
0
40
0.20000000000000001
40
0.40000000000000002
40
0.60000000000000009
40
0.80000000000000004
40
1
40
1
40
1
40
1
40
1
40
1
41
1
41
1
41
1
41
1
41
1
41
1
41
1
41
1
41
1
41
1
10
-1.5371578453452845
20
-2.9449833236753822
30
0
10
-1.5359632894348678
20
-2.9449669368441094
30
0
10
-1.5335741776140372
20
-2.9449341631816623
30
0
10
-1.5299905098828062
20
-2.9448850026883031
30
0
10
-1.5252122862411859
20
-2.9448194553643767
30
0
10
-1.5192395066891886
20
-2.9447375212101226
30
0
10
-1.5144612830475956
20
-2.9446719738870679
30
0
10
-1.5108776153164023
20
-2.9446228133949326
30
0
10
-1.508488503495603
20
-2.9445900397335723
30
0
10
-1.507293947585203
20
-2.9445736529029087
30
0
0
LINE
5
671
100
AcDbEntity
8
0
100
AcDbLine
10
-1.0330253441204638
20
-4.1789028913068087
30
0
11
-1.0329921086357996
21
-4.1789893898229957
31
0
0
SPLINE
5
672
100
AcDbEntity
8
0
100
AcDbSpline
70
4
71
3
72
8
73
4
74
0
42
0.000000001
43
0.0000000001
44
0.0000000001
40
0
40
0
40
0
40
0
40
0.91993884645010604
40
0.91993884645010604
40
0.91993884645010604
40
0.91993884645010604
41
1
41
1
41
1
41
1
10
-0.5936082107986016
20
-5.3765806151729256
30
0
10
-0.74128972621363376
20
-4.9773732151899184
30
0
10
-0.88581545478491464
20
-4.5781917540186621
30
0
10
-1.0329921086357998
20
-4.1789893898229957
30
0
0
LINE
5
673
100
AcDbEntity
8
0
100
AcDbLine
10
-1.5652794179642737
20
-2.7936609402151689
30
0
11
-1.5652743040957058
21
-2.7936742495454676
31
0
0
LINE
5
674
100
AcDbEntity
8
0
100
AcDbLine
10
-1.507293947585203
20
-2.9445736529029087
30
0
11
-1.1021020325058506
21
-3.9991242267624729
31
0
0
SPLINE
5
675
100
AcDbEntity
8
0
100
AcDbSpline
70
4
71
5
72
36
73
30
74
0
42
0.000000001
43
0.0000000001
44
0.0000000001
40
0
40
0
40
0
40
0
40
0
40
0
40
0.040000000000000001
40
0.080000000000000002
40
0.12
40
0.16
40
0.20000000000000001
40
0.24000000000000002
40
0.28000000000000003
40
0.32000000000000001
40
0.35999999999999999
40
0.39999999999999997
40
0.43999999999999995
40
0.47999999999999993
40
0.51999999999999991
40
0.55999999999999994
40
0.59999999999999998
40
0.64000000000000001
40
0.68000000000000005
40
0.72000000000000008
40
0.76000000000000012
40
0.80000000000000016
40
0.84000000000000019
40
0.88000000000000023
40
0.92000000000000026
40
0.9600000000000003
40
1
40
1
40
1
40
1
40
1
40
1
41
1
41
1
41
1
41
1
41
1
41
1
41
1
41
1
41
1
41
1
41
1
41
1
41
1
41
1
41
1
41
1
41
1
41
1
41
1
41
1
41
1
41
1
41
1
41
1
41
1
41
1
41
1
41
1
41
1
41
1
10
1.1927955948988049
20
-1.9566770515819132
30
0
10
1.2025827823742135
20
-1.9614690983715957
30
0
10
1.2217648274677062
20
-1.9715706708871756
30
0
10
1.2493609030605388
20
-1.9882754706612045
30
0
10
1.2837955674127211
20
-2.0136614832531059
30
0
10
1.3228529667232625
20
-2.0505989831019829
30
0
10
1.3578301463523932
20
-2.0927080495500348
30
0
10
1.3885855799007243
20
-2.1398588424423277
30
0
10
1.414929787426157
20
-2.1917704493021608
30
0
10
1.436612075805729
20
-2.2479770391776355
30
0
10
1.4532995485864637
20
-2.3078156317554992
30
0
10
1.4645548031626552
20
-2.3703980472306334
30
0
10
1.4698253878363521
20
-2.4345984162448451
30
0
10
1.4684044604814037
20
-2.4989974415417033
30
0
10
1.4595148950090955
20
-2.5619855788504111
30
0
10
1.4424739209623099
20
-2.6219699039094726
30
0
10
1.4168478709462862
20
-2.6775608510130184
30
0
10
1.3825940748609313
20
-2.7277471796933819
30
0
10
1.3402720741007297
20
-2.772137718717044
30
0
10
1.2910023181155932
20
-2.8109490387896758
30
0
10
1.2362130933815731
20
-2.8447786202056515
30
0
10
1.1774474608436147
20
-2.8744404501056895
30
0
10
1.1161644495449845
20
-2.9007910860610377
30
0
10
1.0535097611067943
20
-2.9245365472506459
30
0
10
0.99022174373999505
20
-2.946141742063602
30
0
10
0.92674779246767236
20
-2.9659010377946804
30
0
10
0.87599534738418372
20
-2.9803553620098153
30
0
10
0.83797908896488416
20
-2.9904623662955876
30
0
10
0.81265616903890914
20
-2.9968750678154197
30
0
10
0.80000002553143834
20
-3.0000000957428936
30
0
0
SPLINE
5
676
100
AcDbEntity
8
0
100
AcDbSpline
70
0
71
3
72
8
73
4
74
0
42
0.000000001
43
0.0000000001
44
0.0000000001
40
0.21701993786861148
40
0.21701993786861148
40
0.21701993786861148
40
0.21701993786861148
40
0.21702297617507277
40
0.21702297617507277
40
0.21702297617507277
40
0.21702297617507277
10
-2.2974089689055099
20
-1.8246027881914262
30
0
10
-2.2974092599420159
20
-1.8246030376004987
30
0
10
-2.2974095509781529
20
-1.8246032870097972
30
0
10
-2.2974098420139204
20
-1.8246035364193216
30
0
0
LWPOLYLINE
5
677
100
AcDbEntity
8
0
100
AcDbPolyline
90
2
70
1
43
0.0
10
-1.7327738266379149
20
-2.3722823687409753
42
-1.664511233240795
10
-1.9967102684929627
20
-1.7082764542278934
0
LINE
5
678
100
AcDbEntity
8
0
100
AcDbLine
10
-1.5652743040957058
20
-2.7936742495454676
30
0
11
-1.6439196259383282
21
-2.5958199536969624
31
0
0
LINE
5
679
100
AcDbEntity
8
0
100
AcDbLine
10
0.3387529756965183
20
-4.1980758478158506
30
0
11
0.77354198539537633
21
-3.0269153510927658
31
0
0
SPLINE
5
680
100
AcDbEntity
8
0
100
AcDbSpline
70
0
71
3
72
8
73
4
74
0
42
0.000000001
43
0.0000000001
44
0.0000000001
40
0.99999862588194977
40
0.99999862588194977
40
0.99999862588194977
40
0.99999862588194977
40
1
40
1
40
1
40
1
10
0.85544512177595611
20
-4.1180566026115901
30
0
10
0.85544517796618724
20
-4.1180565464214203
30
0
10
0.85544523415641638
20
-4.118056490231222
30
0
10
0.85544529034664363
20
-4.1180564340409944
30
0
0
SPLINE
5
681
100
AcDbEntity
8
0
100
AcDbSpline
70
4
71
5
72
26
73
20
74
0
42
0.000000001
43
0.0000000001
44
0.0000000001
40
0
40
0
40
0
40
0
40
0
40
0
40
0.066666666666666666
40
0.13333333333333333
40
0.20000000000000001
40
0.26666666666666666
40
0.33333333333333331
40
0.39999999999999997
40
0.46666666666666662
40
0.53333333333333333
40
0.59999999999999998
40
0.66666666666666663
40
0.73333333333333328
40
0.79999999999999993
40
0.86666666666666659
40
0.93333333333333324
40
1
40
1
40
1
40
1
40
1
40
1
41
1
41
1
41
1
41
1
41
1
41
1
41
1
41
1
41
1
41
1
41
1
41
1
41
1
41
1
41
1
41
1
41
1
41
1
41
1
41
1
10
0.77354198539537633
20
-3.0269153510927658
30
0
10
0.77379017595436017
20
-3.0265353487458335
30
0
10
0.77426726435150128
20
-3.025764543663346
30
0
10
0.77492501699520422
20
-3.0245759340395879
30
0
10
0.77568543412582003
20
-3.0229258531262153
30
0
10
0.77644456906077297
20
-3.0207553542354222
30
0
10
0.77703046067844894
20
-3.0184848073565558
30
0
10
0.77748650156531396
20
-3.0161338904806723
30
0
10
0.77789459642171432
20
-3.0137405612737971
30
0
10
0.77838313916955082
20
-3.0113650005022263
30
0
10
0.77910374963481221
20
-3.0090785245719398
30
0
10
0.78021152530943039
20
-3.0069542622134153
30
0
10
0.78184532121931127
20
-3.0050578615116992
30
0
10
0.78410229191559655
20
-3.0034356000750209
30
0
10
0.78702591057399363
20
-3.0021087556411623
30
0
10
0.79062826614242387
20
-3.0010838563574871
30
0
10
0.7940477326121117
20
-3.0005035263786199
30
0
10
0.79690925316682815
20
-3.0002006929004743
30
0
10
0.7989479341837562
20
-3.000057224492521
30
0
10
0.80000002553143834
20
-3.0000000957428936
30
0
0
SPLINE
5
682
100
AcDbEntity
8
0
100
AcDbSpline
70
4
71
3
72
8
73
4
74
0
42
0.000000001
43
0.0000000001
44
0.0000000001
40
0.003316116884559548
40
0.003316116884559548
40
0.003316116884559548
40
0.003316116884559548
40
1
40
1
40
1
40
1
41
1
41
1
41
1
41
1
10
-1.6439196259383282
20
-2.5958199536969624
30
0
10
-1.8781689206412318
20
-2.7359354146432802
30
0
10
-2.123335453518596
20
-2.7059280693191079
30
0
10
-2.3203406729330776
20
-2.5944157451804597
30
0
0
SPLINE
5
683
100
AcDbEntity
8
0
100
AcDbSpline
70
0
71
3
72
9
73
5
74
0
42
0.000000001
43
0.0000000001
44
0.0000000001
40
0
40
0
40
0
40
0
40
0.049777065766765938
40
0.055900435561873206
40
0.055900435561873206
40
0.055900435561873206
40
0.055900435561873206
10
-3.4035794933283881
20
-1.3194612899459943
30
0
10
-3.404098260858027
20
-1.3259831819820558
30
0
10
-3.4046808450344042
20
-1.3333073703384279
30
0
10
-3.4058239504761865
20
-1.3405422616452645
30
0
10
-3.4059553120173538
20
-1.3413337973394301
30
0
0
LINE
5
684
100
AcDbEntity
8
0
100
AcDbLine
10
-3.9522385523508192
20
-1.3414336845401154
30
0
11
-3.9420346614613044
21
-1.3786131159549386
31
0
0
SPLINE
5
685
100
AcDbEntity
8
0
100
AcDbSpline
70
0
71
3
72
9
73
5
74
0
42
0.000000001
43
0.0000000001
44
0.0000000001
40
0
40
0
40
0
40
0
40
0.051420408781660487
40
0.082658416106334176
40
0.082658416106334176
40
0.082658416106334176
40
0.082658416106334176
10
-1.9267845684903975
20
-1.3233044493429356
30
0
10
-1.9272395534932454
20
-1.3300559484170691
30
0
10
-1.9279709428497021
20
-1.3409089974891002
30
0
10
-1.9303495168407814
20
-1.3514790518716442
30
0
10
-1.9313667805128854
20
-1.3554533184743567
30
0
0
SPLINE
5
686
100
AcDbEntity
8
0
100
AcDbSpline
70
0
71
3
72
9
73
5
74
0
42
0.000000001
43
0.0000000001
44
0.0000000001
40
0.046441920281074224
40
0.046441920281074224
40
0.046441920281074224
40
0.046441920281074224
40
0.064473490473974965
40
0.12082579646441752
40
0.12082579646441752
40
0.12082579646441752
40
0.12082579646441752
10
-1.6480096925867231
20
-1.3530921533916398
30
0
10
-1.6484989306030549
20
-1.3507801241447863
30
0
10
-1.6502926296904441
20
-1.341206839781985
30
0
10
-1.6508006109797606
20
-1.3314291305774939
30
0
10
-1.6511854513312163
20
-1.3240216588343046
30
0
0
SPLINE
5
687
100
AcDbEntity
8
0
100
AcDbSpline
70
0
71
3
72
9
73
5
74
0
42
0.000000001
43
0.0000000001
44
0.0000000001
40
0
40
0
40
0
40
0
40
0.056352305990442553
40
0.10325430858048407
40
0.10325430858048407
40
0.10325430858048407
40
0.10325430858048407
10
-0.98298773171614284
20
-1.3257605531804069
30
0
10
-0.98341110863802561
20
-1.3331659244714957
30
0
10
-0.9841868620090648
20
-1.3467347834383823
30
0
10
-0.98743809819149109
20
-1.3598968187841391
30
0
10
-0.98905413759205851
20
-1.3658526346734816
30
0
0
LINE
5
688
100
AcDbEntity
8
0
100
AcDbLine
10
2.9923245907221636
20
-1.3647059556113854
30
0
11
6.0932851944218029
21
-1.3786131159549386
31
0
0
SPLINE
5
689
100
AcDbEntity
8
0
100
AcDbSpline
70
4
71
3
72
8
73
4
74
0
42
0.000000001
43
0.0000000001
44
0.0000000001
40
0.46095902182204018
40
0.46095902182204018
40
0.46095902182204018
40
0.46095902182204018
40
1
40
1
40
1
40
1
41
1
41
1
41
1
41
1
10
-5.3859452784518611
20
-3.0686410105073723
30
0
10
-5.4285454789919712
20
-3.1007245304319633
30
0
10
-5.4753956266112702
20
-3.1265599588709985
30
0
10
-5.5276640080784505
20
-3.1426423018216467
30
0
0
SPLINE
5
690
100
AcDbEntity
8
0
100
AcDbSpline
70
4
71
3
72
8
73
4
74
0
42
0.000000001
43
0.0000000001
44
0.0000000001
40
0
40
0
40
0
40
0
40
0.80197460609765203
40
0.80197460609765203
40
0.80197460609765203
40
0.80197460609765203
41
1
41
1
41
1
41
1
10
-5.3150857713711845
20
-3.321655194374225
30
0
10
-5.3300403712767865
20
-3.2349186974729944
30
0
10
-5.3210085524451021
20
-3.1505802568395658
30
0
10
-5.2976085642353947
20
-3.068641046576646
30
0
0
SPLINE
5
691
100
AcDbEntity
8
0
100
AcDbSpline
70
0
71
3
72
9
73
5
74
0
42
0.000000001
43
0.0000000001
44
0.0000000001
40
0
40
0
40
0
40
0
40
0.056352033568633719
40
0.075771450728743805
40
0.075771450728743805
40
0.075771450728743805
40
0.075771450728743805
10
-2.9278961386014877
20
-1.3648995176478924
30
0
10
-2.9339533492176484
20
-1.3694274108324358
30
0
10
-2.9420979290436287
20
-1.3755156566970643
30
0
10
-2.9515238994545614
20
-1.3781094441403343
30
0
10
-2.9539987533577703
20
-1.3786130939182248
30
0
0
SPLINE
5
692
100
AcDbEntity
8
0
100
AcDbSpline
70
0
71
3
72
8
73
4
74
0
42
0.000000001
43
0.0000000001
44
0.0000000001
40
0.064782867314757131
40
0.064782867314757131
40
0.064782867314757131
40
0.064782867314757131
40
0.081702647853773319
40
0.081702647853773319
40
0.081702647853773319
40
0.081702647853773319
10
0.32768409239108293
20
0.32574131172673443
30
0
10
0.32816315827506665
20
0.32357299623150482
30
0
10
0.32863020335087739
20
0.32140173102278891
30
0
10
0.32909724842668847
20
0.31923046581407305
30
0
0
SPLINE
5
693
100
AcDbEntity
8
0
100
AcDbSpline
70
0
71
3
72
9
73
5
74
0
42
0.000000001
43
0.0000000001
44
0.0000000001
40
0
40
0
40
0
40
0
40
0.053063707218609778
40
0.06117249534835198
40
0.06117249534835198
40
0.06117249534835198
40
0.06117249534835198
10
1.0310546896144561
20
0.30180357920678036
30
0
10
1.031529820095259
20
0.30876633882205518
30
0
10
1.0320775563664384
20
0.31679309387748994
30
0
10
1.0333946134722205
20
0.32469569417935523
30
0
10
1.0335810959591158
20
0.32574131193811384
30
0
0
SPLINE
5
694
100
AcDbEntity
8
0
100
AcDbSpline
70
0
71
3
72
9
73
5
74
0
42
0.000000001
43
0.0000000001
44
0.0000000001
40
0.020241447377065507
40
0.020241447377065507
40
0.020241447377065507
40
0.020241447377065507
40
0.042830619796265137
40
0.10427347042372614
40
0.10427347042372614
40
0.10427347042372614
40
0.10427347042372614
10
2.1584583614607515
20
0.32574131193843875
30
0
10
2.1598941380244918
20
0.32313092965504281
30
0
10
2.1646334452258009
20
0.31323958396606505
30
0
10
2.1646356797624908
20
0.30192594755968161
30
0
10
2.1646373136194335
20
0.29365360034527682
30
0
0
LWPOLYLINE
5
695
100
AcDbEntity
8
0
100
AcDbPolyline
90
3
70
1
43
0.0
10
0.59235476316870528
20
-1.7142642812293953
10
-0.45870140870252502
20
-1.7109007540650576
10
0.073961602036554719
20
-3.1165368714815127
0
LINE
5
696
100
AcDbEntity
8
0
100
AcDbLine
10
-0.70224974982922628
20
-1.3498913415893743
30
0
11
-0.69275895590284298
21
-1.3786131159549386
31
0
0
ENDSEC
0
SECTION
2
OBJECTS
0
DICTIONARY
5
C
100
AcDbDictionary
3
ACAD_GROUP
350
D
3
ACAD_MLINESTYLE
350
17
0
DICTIONARY
5
D
100
AcDbDictionary
0
DICTIONARY
5
1A
330
C
100
AcDbDictionary
0
DICTIONARY
5
17
100
AcDbDictionary
0
ENDSEC
0
EOF
