0
SECTION
2
HEADER
9
$ACADVER
1
AC1006
9
$EXTMIN
10
16.22338901676
20
1.834417014566
9
$EXTMAX
10
30.132479021571
20
19.584662598649
9
$VERSIONGUID
2
7NNSK9KZJYX3SE9E9ZRTF89JQRN8RPRL
0
ENDSEC
0
SECTION
2
TABLES
0
TABLE
2
LTYPE
70
1
0
LTYPE
2
0
70
0
3
Solid Line
72
65
73
0
40
0.0
0
ENDTAB
0
TABLE
2
LAYER
70
1
0
LAYER
2
1
70
0
62
7
6
0
0
ENDTAB
0
ENDSEC
0
SECTION
2
BLOCKS
0
ENDSEC
0
SECTION
2
ENTITIES
0
POLYLINE
8
1
66
1
0
VERTEX
8
1
10
21.734806022791
20
13.673082718974
42
-0.075586118011
0
VERTEX
8
1
10
21.428862347132
20
14.281441394929
42
-0.061507281898
0
VERTEX
8
1
10
21.556523037866
20
14.329442749101
0
SEQEND
0
POLYLINE
8
1
66
1
0
VERTEX
8
1
10
22.659096853465
20
14.79160704883
42
-0.04372402133
0
VERTEX
8
1
10
22.994428302819
20
14.947969475073
0
VERTEX
8
1
10
23.118433527032
20
14.792962944807
42
-0.083833208336
0
VERTEX
8
1
10
23.008359992488
20
13.875841329476
0
SEQEND
0
POLYLINE
8
1
66
1
0
VERTEX
8
1
10
23.302571100871
20
13.890561412637
42
-0.063130516915
0
VERTEX
8
1
10
23.31615484773
20
14.656421998974
0
VERTEX
8
1
10
23.342022329427
20
14.809254907131
42
-0.232497323918
0
VERTEX
8
1
10
23.954302754864
20
15.082930952602
0
VERTEX
8
1
10
24.451128305476
20
15.04600488362
42
-0.207132723923
0
VERTEX
8
1
10
24.68272721768
20
14.928200458827
0
VERTEX
8
1
10
24.707495297062
20
14.896135978301
42
-0.141751717305
0
VERTEX
8
1
10
24.726408062668
20
14.355706079679
42
-0.023242653675
0
VERTEX
8
1
10
24.642652027119
20
14.013246436857
0
SEQEND
0
POLYLINE
8
1
66
1
0
VERTEX
8
1
10
24.878145231367
20
13.578406376231
42
-0.125357487552
0
VERTEX
8
1
10
25.242022991677
20
14.87046620994
42
-0.353936555168
0
VERTEX
8
1
10
25.784545847608
20
15.087475352312
0
VERTEX
8
1
10
26.156561520247
20
14.854965556913
0
VERTEX
8
1
10
26.621581111045
20
14.668957720594
42
-0.415873984884
0
VERTEX
8
1
10
26.86959155947
20
14.064432252556
42
-0.113941397735
0
VERTEX
8
1
10
26.14106086722
20
13.103391764907
0
VERTEX
8
1
10
26.064114928646
20
13.036064068655
0
SEQEND
0
POLYLINE
8
1
66
1
0
VERTEX
8
1
10
26.295903109049
20
12.865266400314
42
-0.130396038092
0
VERTEX
8
1
10
27.071100048816
20
13.95592768137
42
-0.448733297286
0
VERTEX
8
1
10
27.722127475934
20
13.862923763211
42
0.137735057395
0
VERTEX
8
1
10
28.202647719758
20
13.382403519386
0
VERTEX
8
1
10
28.373154903051
20
13.211896336093
42
-0.31005743092
0
VERTEX
8
1
10
28.326652943971
20
12.700374786215
42
-0.133552036557
0
VERTEX
8
1
10
27.209226983627
20
11.925380161385
0
SEQEND
0
POLYLINE
8
1
66
1
0
VERTEX
8
1
10
27.399638722212
20
11.691105468112
42
-0.121019414053
0
VERTEX
8
1
10
28.419656862131
20
12.498866296869
42
-0.464762766755
0
VERTEX
8
1
10
29.070684289248
20
12.188853236337
42
0.10196337795
0
VERTEX
8
1
10
29.411698655833
20
11.53782580922
42
-0.34537804231
0
VERTEX
8
1
10
29.411698655833
20
11.041804912369
42
-0.148814349395
0
VERTEX
8
1
10
28.636666004503
20
10.62328728065
42
-0.042822710865
0
VERTEX
8
1
10
27.991794545306
20
10.51840736812
0
SEQEND
0
POLYLINE
8
1
66
1
0
VERTEX
8
1
10
28.11671140121
20
10.260051342966
42
-0.112126792327
0
VERTEX
8
1
10
29.272192778594
20
10.700790545783
42
-0.308756548675
0
VERTEX
8
1
10
29.814715634525
20
10.406278138278
0
VERTEX
8
1
10
29.861217593605
20
9.80175267024
0
VERTEX
8
1
10
29.954221511765
20
9.507240262735
42
-0.4
0
VERTEX
8
1
10
29.737212369392
20
8.964717406804
42
-0.101814184348
0
VERTEX
8
1
10
29.272192778594
20
8.840712182591
42
-0.077000140984
0
VERTEX
8
1
10
28.28281285633
20
8.955244072005
0
SEQEND
0
POLYLINE
8
1
66
1
0
VERTEX
8
1
10
28.312117112257
20
8.659805835059
42
-0.13648581935
0
VERTEX
8
1
10
29.628707798206
20
8.701206305351
42
-0.438132472288
0
VERTEX
8
1
10
29.954221511765
20
8.11218149034
42
0.105981476845
0
VERTEX
8
1
10
29.830216287552
20
7.213143614797
42
-0.378089323694
0
VERTEX
8
1
10
29.163688207408
20
6.934131860318
42
-0.107321203708
0
VERTEX
8
1
10
28.094599411941
20
7.371684344401
0
SEQEND
0
POLYLINE
8
1
66
1
0
VERTEX
8
1
10
28.034486160306
20
7.086649219546
42
-0.113252961119
0
VERTEX
8
1
10
29.194689513461
20
6.763624677026
42
-0.371407537104
0
VERTEX
8
1
10
29.489201920967
20
6.174599862015
42
0.087107465422
0
VERTEX
8
1
10
29.070684289248
20
5.353065251605
42
-0.421740968802
0
VERTEX
8
1
10
28.481659474237
20
5.089554150152
42
-0.1172644036
0
VERTEX
8
1
10
27.459925529505
20
5.858009994971
0
SEQEND
0
POLYLINE
8
1
66
1
0
VERTEX
8
1
10
27.242716479509
20
5.676823801345
42
-0.122330001837
0
VERTEX
8
1
10
28.326652943971
20
4.934547619886
42
-0.468855103384
0
VERTEX
8
1
10
28.249149678838
20
4.237018233689
42
0.114215334083
0
VERTEX
8
1
10
27.722127475934
20
3.709996030785
42
-0.432028323972
0
VERTEX
8
1
10
27.133102660923
20
3.616992112625
42
-0.110940349617
0
VERTEX
8
1
10
26.482075233805
20
4.392024763955
42
-0.063152916341
0
VERTEX
8
1
10
26.303817723999
20
4.80279206916
0
SEQEND
0
POLYLINE
8
1
66
1
0
VERTEX
8
1
10
26.032556296034
20
4.609033906328
42
-0.130919042947
0
VERTEX
8
1
10
26.900592865524
20
3.523988194465
42
-0.444223341097
0
VERTEX
8
1
10
26.606080458018
20
2.903962073401
42
0.097114584075
0
VERTEX
8
1
10
25.924051724847
20
2.547447053789
42
-0.357844356875
0
VERTEX
8
1
10
25.459032134049
20
2.547447053789
42
-0.166356573583
0
VERTEX
8
1
10
25.056015155358
20
3.198474480907
0
VERTEX
8
1
10
24.916509278118
20
3.849501908024
0
VERTEX
8
1
10
24.924259604631
20
4.02775941783
0
SEQEND
0
POLYLINE
8
1
66
1
0
VERTEX
8
1
10
24.606496217586
20
3.927005173157
42
-0.103894948159
0
VERTEX
8
1
10
25.087016461411
20
2.779956849188
42
-0.27609594838
0
VERTEX
8
1
10
24.901008625092
20
2.221933340231
42
-0.154920573932
0
VERTEX
8
1
10
24.730501441799
20
2.144430075098
42
0.129541374479
0
VERTEX
8
1
10
23.970969443495
20
2.020424850885
42
-0.472430471184
0
VERTEX
8
1
10
23.304441363351
20
2.36143921747
42
-0.108448710796
0
VERTEX
8
1
10
23.242438751245
20
3.105470562747
0
VERTEX
8
1
10
23.350943322431
20
3.709996030785
0
SEQEND
0
POLYLINE
8
1
66
1
0
VERTEX
8
1
10
23.057373355709
20
3.720149397503
0
VERTEX
8
1
10
23.033179935386
20
3.733247010325
42
-0.091130704958
0
VERTEX
8
1
10
23.149434833085
20
2.950464032481
42
-0.137041834578
0
VERTEX
8
1
10
23.056430914926
20
2.252934646284
42
-0.386606874732
0
VERTEX
8
1
10
22.482906752941
20
2.004924197858
42
0.143728250942
0
VERTEX
8
1
10
21.707874101611
20
2.113428769044
42
-0.432668240139
0
VERTEX
8
1
10
21.320357775946
20
2.733454890109
42
-0.117651777061
0
VERTEX
8
1
10
21.793127693257
20
3.919254846644
0
SEQEND
0
POLYLINE
8
1
66
1
0
VERTEX
8
1
10
21.483114632725
20
4.02775941783
42
-0.128776297241
0
VERTEX
8
1
10
21.1188492866
20
2.702453584055
42
-0.38264169955
0
VERTEX
8
1
10
20.514323818563
20
2.50094509471
42
0.110652724101
0
VERTEX
8
1
10
19.801293779339
20
2.872960767348
42
-0.448256565479
0
VERTEX
8
1
10
19.491280718807
20
3.492986888412
42
-0.129698551217
0
VERTEX
8
1
10
20.359317288296
20
4.593533253301
0
SEQEND
0
POLYLINE
8
1
66
1
0
VERTEX
8
1
10
20.095806186844
20
4.77954108962
42
-0.125526651113
0
VERTEX
8
1
10
19.320773535514
20
3.632492765652
42
-0.460604451588
0
VERTEX
8
1
10
18.638744802343
20
3.709996030785
42
0.132419216035
0
VERTEX
8
1
10
18.158224558519
20
4.190516274609
42
-0.446790018897
0
VERTEX
8
1
10
18.018718681279
20
4.857044354753
42
-0.106191988208
0
VERTEX
8
1
10
18.731748720503
20
5.446069169764
42
-0.080360036107
0
VERTEX
8
1
10
19.196768311301
20
5.663078312137
0
SEQEND
0
POLYLINE
8
1
66
1
0
VERTEX
8
1
10
18.995259821955
20
5.926589413589
0
VERTEX
8
1
10
19.003010148469
20
5.926589413589
42
-0.108185804149
0
VERTEX
8
1
10
17.987717375226
20
5.089554150152
42
-0.484601940727
0
VERTEX
8
1
10
17.290187989029
20
5.384066557658
42
0.105717447279
0
VERTEX
8
1
10
16.933672969417
20
6.050594637802
42
-0.351187276247
0
VERTEX
8
1
10
16.949173622444
20
6.5156142286
42
-0.152203876116
0
VERTEX
8
1
10
17.569199743508
20
6.903130554265
0
VERTEX
8
1
10
18.173725211545
20
7.042636431505
0
VERTEX
8
1
10
18.421735659971
20
7.058137084531
0
SEQEND
0
POLYLINE
8
1
66
1
0
VERTEX
8
1
10
18.291807769991
20
7.340365389266
42
-0.110527053081
0
VERTEX
8
1
10
17.10418015271
20
6.872129248212
42
-0.297812900709
0
VERTEX
8
1
10
16.577157949805
20
7.120139696638
42
-0.193852604847
0
VERTEX
8
1
10
16.530655990725
20
7.321648185984
42
0.081865226757
0
VERTEX
8
1
10
16.406650766512
20
8.065679531261
42
-0.458994079873
0
VERTEX
8
1
10
16.747665133098
20
8.654704346272
42
-0.080640992719
0
VERTEX
8
1
10
17.135181458763
20
8.732207611405
42
-0.074442858485
0
VERTEX
8
1
10
18.086694842663
20
8.615261764884
0
SEQEND
0
POLYLINE
8
1
66
1
0
VERTEX
8
1
10
18.106373832036
20
8.922002800529
42
-0.120873273776
0
VERTEX
8
1
10
16.809667745204
20
8.856212835617
42
-0.513213331732
0
VERTEX
8
1
10
16.422151419539
20
9.553742221815
42
0.144813787148
0
VERTEX
8
1
10
16.515155337699
20
10.297773567092
42
-0.405641564602
0
VERTEX
8
1
10
17.166182764816
20
10.654288586703
42
-0.095871590624
0
VERTEX
8
1
10
18.273082241539
20
10.202954153977
0
SEQEND
0
POLYLINE
8
1
66
1
0
VERTEX
8
1
10
18.382913728393
20
10.491666019677
42
-0.128659010227
0
VERTEX
8
1
10
17.10418015271
20
10.840296423023
42
-0.297599486988
0
VERTEX
8
1
10
16.856169704284
20
11.351817972901
0
VERTEX
8
1
10
16.97382162447
20
11.543776368994
0
VERTEX
8
1
10
17.150682111789
20
11.832338216725
0
VERTEX
8
1
10
17.305688642055
20
12.26635650147
42
-0.368124580318
0
VERTEX
8
1
10
17.817210191933
20
12.483365643843
42
-0.12945689594
0
VERTEX
8
1
10
18.545740884184
20
12.064848012124
0
VERTEX
8
1
10
18.944252630153
20
11.652103703799
0
SEQEND
0
POLYLINE
8
1
66
1
70
1
0
VERTEX
8
1
10
22.172893692409
20
4.314521498822
42
-0.704229919936
0
VERTEX
8
1
10
22.637913283207
20
4.624534559354
0
VERTEX
8
1
10
22.622412630181
20
4.485028682115
42
0.705937842027
0
VERTEX
8
1
10
22.792919813473
20
4.609033906328
42
0.460048324968
0
VERTEX
8
1
10
22.684415242287
20
4.748539783567
42
1.00595001534
0
VERTEX
8
1
10
22.203894998462
20
4.05101039737
42
0.225940669923
0
VERTEX
8
1
10
22.684415242287
20
4.00450843829
0
VERTEX
8
1
10
22.707666221827
20
4.151764642043
42
-0.466879641822
0
SEQEND
0
POLYLINE
8
1
66
1
70
1
0
VERTEX
8
1
10
23.893466178362
20
4.77954108962
0
VERTEX
8
1
10
23.955468790469
20
4.547031294221
0
VERTEX
8
1
10
24.079474014682
20
4.578032600275
42
-0.964357307936
0
VERTEX
8
1
10
24.218979891921
20
4.702037824487
0
VERTEX
8
1
10
24.342985116134
20
4.221517580663
42
-0.216609194719
0
VERTEX
8
1
10
24.249981197974
20
4.175015621583
42
0.414213562373
0
VERTEX
8
1
10
24.280982504027
20
4.05101039737
0
VERTEX
8
1
10
24.637497523639
20
4.159514968556
0
VERTEX
8
1
10
24.590995564559
20
4.268019539742
42
-0.635385686736
0
VERTEX
8
1
10
24.466990340347
20
4.299020845796
42
0.04265728019
0
VERTEX
8
1
10
24.35848576916
20
4.702037824487
42
-1.289674914262
0
VERTEX
8
1
10
24.513492299426
20
4.717538477514
0
VERTEX
8
1
10
24.652998176666
20
4.733039130541
0
VERTEX
8
1
10
24.598745891073
20
4.973299252453
0
SEQEND
0
POLYLINE
8
1
66
1
70
1
0
VERTEX
8
1
10
21.800878019771
20
4.77954108962
42
-0.566190378969
0
VERTEX
8
1
10
21.89388193793
20
4.795041742647
42
0.720759220056
0
VERTEX
8
1
10
21.924883243984
20
4.91904696686
0
VERTEX
8
1
10
21.630370836478
20
5.027551538046
42
0.552572949063
0
VERTEX
8
1
10
21.676872795558
20
4.87254500778
42
-0.040419686193
0
VERTEX
8
1
10
21.537366918318
20
4.516029988168
42
-0.944045094962
0
VERTEX
8
1
10
21.21185320476
20
4.655535865408
0
VERTEX
8
1
10
21.335858428973
20
4.96554892594
0
VERTEX
8
1
10
21.382360388052
20
5.012050885019
42
1.287319373215
0
VERTEX
8
1
10
21.459863653185
20
5.120555456206
0
VERTEX
8
1
10
21.16535124568
20
5.229060027392
42
0.552572949063
0
VERTEX
8
1
10
21.21185320476
20
5.074053497126
0
VERTEX
8
1
10
21.07234732752
20
4.733039130541
42
0.874881678854
0
VERTEX
8
1
10
21.645871489505
20
4.407525416982
0
SEQEND
0
POLYLINE
8
1
66
1
70
1
0
VERTEX
8
1
10
25.459032134049
20
4.500529335142
42
1.258875719017
0
VERTEX
8
1
10
25.381528868916
20
4.593533253301
42
-0.099019513593
0
VERTEX
8
1
10
25.211021685624
20
4.857044354753
42
0.06179783053
0
VERTEX
8
1
10
25.133518420491
20
5.012050885019
42
-0.615637320993
0
VERTEX
8
1
10
25.195521032597
20
5.120555456206
42
0.762123425635
0
VERTEX
8
1
10
25.040514502331
20
5.182558068312
0
VERTEX
8
1
10
24.854506666012
20
5.089554150152
42
0.928597447465
0
VERTEX
8
1
10
24.963011237198
20
4.996550231993
0
VERTEX
8
1
10
25.211021685624
20
4.531530641195
42
0.840197025212
0
VERTEX
8
1
10
25.195521032597
20
4.361023457902
0
SEQEND
0
POLYLINE
8
1
66
1
70
1
0
VERTEX
8
1
10
26.885092212497
20
5.632077006084
42
0.904987562112
0
VERTEX
8
1
10
26.730085682231
20
5.663078312137
0
VERTEX
8
1
10
26.435573274725
20
5.895588107536
0
VERTEX
8
1
10
26.466574580779
20
5.926589413589
0
VERTEX
8
1
10
27.086600701843
20
5.880087454509
0
VERTEX
8
1
10
27.164103966976
20
5.988592025696
0
VERTEX
8
1
10
26.699084376178
20
6.376108351361
42
-0.520655561573
0
VERTEX
8
1
10
26.652582417098
20
6.438110963467
42
1.219803902719
0
VERTEX
8
1
10
26.590579804991
20
6.546615534653
42
0.082881012227
0
VERTEX
8
1
10
26.389071315646
20
6.283104433201
42
0.695323125863
0
VERTEX
8
1
10
26.544077845912
20
6.298605086228
0
VERTEX
8
1
10
26.823089600391
20
6.066095290829
0
VERTEX
8
1
10
26.792088294337
20
6.035093984775
0
VERTEX
8
1
10
26.203063479326
20
6.081595943855
0
VERTEX
8
1
10
26.04805694906
20
5.864586801483
42
0.736166370484
0
VERTEX
8
1
10
26.203063479326
20
5.880087454509
0
VERTEX
8
1
10
26.621581111045
20
5.539073087924
42
0.705773683223
0
VERTEX
8
1
10
26.668083070124
20
5.384066557658
0
SEQEND
0
ARC
8
1
10
24.39320723194
20
5.715780532427
40
0.315885510571
50
-107.830360306424
51
-69.351364500708
0
POLYLINE
8
1
66
1
70
1
0
VERTEX
8
1
10
19.646287249073
20
5.64757765911
0
VERTEX
8
1
10
19.491280718807
20
5.849086148456
0
VERTEX
8
1
10
19.630786596046
20
5.973091372669
0
VERTEX
8
1
10
19.847795738419
20
5.756082230296
0
VERTEX
8
1
10
19.925299003552
20
5.818084842403
0
VERTEX
8
1
10
19.754791820259
20
6.066095290829
0
VERTEX
8
1
10
19.894297697498
20
6.190100515041
0
VERTEX
8
1
10
20.064804880791
20
6.004092678722
42
1.258336408359
0
VERTEX
8
1
10
20.126807492897
20
5.849086148456
0
VERTEX
8
1
10
20.25081271711
20
5.957590719642
0
VERTEX
8
1
10
19.847795738419
20
6.46911226952
42
0.877513996826
0
VERTEX
8
1
10
19.801293779339
20
6.314105739254
0
VERTEX
8
1
10
19.398276800647
20
5.973091372669
0
VERTEX
8
1
10
19.367275494594
20
5.973091372669
42
1.754559129118
0
VERTEX
8
1
10
19.274271576434
20
5.895588107536
0
VERTEX
8
1
10
19.623036269533
20
5.469320149304
42
0.223320656577
0
VERTEX
8
1
10
19.816794432365
20
5.616576353057
0
VERTEX
8
1
10
19.723790514206
20
5.709580271217
0
SEQEND
0
POLYLINE
8
1
66
1
0
VERTEX
8
1
10
25.083814734311
20
5.781523620559
0
VERTEX
8
1
10
24.823505359959
20
5.833585495429
42
0.362798975733
0
VERTEX
8
1
10
24.54449360548
20
5.849086148456
42
0.162277660168
0
VERTEX
8
1
10
24.063973361655
20
5.895588107536
0
VERTEX
8
1
10
24.027017968731
20
5.895588107536
0
SEQEND
0
POLYLINE
8
1
66
1
0
VERTEX
8
1
10
23.297413087155
20
6.618291412363
42
-0.029201610214
0
VERTEX
8
1
10
24.265481851001
20
6.46911226952
42
0.051341776769
0
VERTEX
8
1
10
25.660540623395
20
6.453611616494
42
-0.178350961617
0
VERTEX
8
1
10
25.753544541555
20
6.283104433201
42
0.740940459145
0
VERTEX
8
1
10
26.04805694906
20
6.267603780174
0
VERTEX
8
1
10
26.04805694906
20
6.918631207292
42
0.944151760843
0
VERTEX
8
1
10
25.738043888528
20
6.825627289132
0
VERTEX
8
1
10
25.660540623395
20
6.748124023999
42
-0.103283965032
0
VERTEX
8
1
10
24.079474014682
20
6.949632513345
0
VERTEX
8
1
10
23.359320773478
20
7.114667631121
0
SEQEND
0
LINE
8
1
10
23.564422325673
20
7.740318200042
11
24.471250272752
21
7.743533901982
0
POLYLINE
8
1
66
1
0
VERTEX
8
1
10
23.423911135553
20
9.664621299998
0
VERTEX
8
1
10
23.467198220131
20
9.763001037674
42
-1.178877093876
0
VERTEX
8
1
10
23.389694954998
20
9.863755282347
42
0.171439029474
0
VERTEX
8
1
10
23.164935486112
20
9.80175267024
0
VERTEX
8
1
10
23.087432220979
20
9.75525071116
42
-0.867295401695
0
VERTEX
8
1
10
23.064181241439
20
9.809502996754
0
VERTEX
8
1
10
22.932425690713
20
9.770751364187
0
VERTEX
8
1
10
22.909174711173
20
9.809502996754
0
VERTEX
8
1
10
22.467406099915
20
9.786252017214
42
-0.566190378969
0
VERTEX
8
1
10
22.389902834782
20
9.786252017214
42
0.560521972095
0
VERTEX
8
1
10
22.281398263595
20
9.75525071116
42
0.166682200849
0
VERTEX
8
1
10
21.979135529577
20
9.863755282347
42
-1.178877093876
0
VERTEX
8
1
10
21.901632264444
20
9.763001037674
0
VERTEX
8
1
10
22.002386509117
20
9.522740915761
0
VERTEX
8
1
10
21.878381284904
20
9.352233732469
0
VERTEX
8
1
10
21.955884550037
20
9.274730467336
42
0.384757041015
0
VERTEX
8
1
10
21.924883243984
20
9.057721324963
0
VERTEX
8
1
10
21.894683412053
20
8.936921997241
0
SEQEND
0
POLYLINE
8
1
66
1
0
VERTEX
8
1
10
21.875011302234
20
8.858233557964
0
VERTEX
8
1
10
21.847379978851
20
8.747708264431
42
0.14975389269
0
VERTEX
8
1
10
21.831879325824
20
7.895172347968
0
VERTEX
8
1
10
21.800878019771
20
7.864171041915
0
VERTEX
8
1
10
20.994844062387
20
8.732207611405
42
0.404236170632
0
VERTEX
8
1
10
20.281814023163
20
8.701206305351
42
1.043314873198
0
VERTEX
8
1
10
20.39031859435
20
8.530699122059
42
-0.262362839896
0
VERTEX
8
1
10
20.669330348829
20
8.701206305351
0
VERTEX
8
1
10
21.149850592653
20
8.220686061527
42
-0.070199089093
0
VERTEX
8
1
10
20.808836226068
20
8.003676919154
42
0.078410399156
0
VERTEX
8
1
10
20.126807492897
20
8.468696509952
42
0.330029761641
0
VERTEX
8
1
10
19.367275494594
20
8.236186714553
42
1.684778059838
0
VERTEX
8
1
10
19.553283330913
20
8.050178878234
42
-0.369924076215
0
VERTEX
8
1
10
19.909798350525
20
8.29818932666
0
VERTEX
8
1
10
21.785388932917
20
6.93545554414
0
SEQEND
0
POLYLINE
8
1
66
1
0
VERTEX
8
1
10
21.597652080449
20
6.488270755353
42
-0.295983249996
0
VERTEX
8
1
10
21.94038389701
20
6.794625983079
42
-0.168158259873
0
VERTEX
8
1
10
22.885923731633
20
6.624118799786
42
-0.123105625618
0
VERTEX
8
1
10
23.53695115875
20
6.035093984775
42
0.076962108492
0
VERTEX
8
1
10
23.819652477308
20
5.70412562257
0
SEQEND
0
POLYLINE
8
1
66
1
0
VERTEX
8
1
10
23.705999584235
20
5.614659835408
42
0.114909291651
0
VERTEX
8
1
10
23.939968137442
20
5.616576353057
42
0.503806795288
0
VERTEX
8
1
10
24.110475320735
20
5.570074393977
42
-0.231980665748
0
VERTEX
8
1
10
24.575494911533
20
5.539073087924
42
-0.215275851332
0
VERTEX
8
1
10
25.118017767464
20
5.508071781871
42
0.037091181768
0
VERTEX
8
1
10
25.143215742153
20
5.496701821506
0
SEQEND
0
POLYLINE
8
1
66
1
0
VERTEX
8
1
10
25.231357355641
20
5.518712276232
42
-0.117526162397
0
VERTEX
8
1
10
24.963011237198
20
5.64757765911
42
-0.19499530369
0
VERTEX
8
1
10
25.149019073517
20
5.69407961819
0
VERTEX
8
1
10
25.31952625681
20
5.64757765911
0
SEQEND
0
LINE
8
1
10
23.412945934538
20
7.47665471625
11
23.490449199671
21
7.228644267824
0
LINE
8
1
10
23.617306893907
20
7.626590188697
11
23.893466178362
21
7.135640349664
0
POLYLINE
8
1
66
1
0
VERTEX
8
1
10
23.784055286746
20
7.614634852858
0
VERTEX
8
1
10
24.176981695992
20
7.073434326915
0
VERTEX
8
1
10
24.178615187432
20
7.071716268458
0
VERTEX
8
1
10
24.180370121719
20
7.070042377896
0
VERTEX
8
1
10
24.181489038923
20
7.068923460692
0
SEQEND
0
POLYLINE
8
1
66
1
0
VERTEX
8
1
10
21.320357775946
20
5.911088760563
0
VERTEX
8
1
10
21.397861041079
20
5.911088760563
0
VERTEX
8
1
10
21.800878019771
20
5.880087454509
0
VERTEX
8
1
10
21.925216302125
20
5.852456725097
0
SEQEND
0
ARC
8
1
10
22.405403487808
20
6.717122717946
40
0.901839662462
50
-155.637546984687
51
-115.350861482977
0
POLYLINE
8
1
66
1
0
VERTEX
8
1
10
23.58345311783
20
5.663078312137
0
VERTEX
8
1
10
23.443947240591
20
5.663078312137
42
-0.786210197912
0
VERTEX
8
1
10
23.412945934538
20
5.78708353635
0
VERTEX
8
1
10
23.62995507691
20
5.748331903783
0
VERTEX
8
1
10
23.056430914926
20
6.360607698334
42
0.212371585198
0
VERTEX
8
1
10
21.955884550037
20
6.670620758866
42
0.209032735089
0
VERTEX
8
1
10
21.798361788557
20
6.581427810409
0
SEQEND
0
POLYLINE
8
1
66
1
0
VERTEX
8
1
10
22.628006146352
20
6.492612832477
0
VERTEX
8
1
10
22.622412630181
20
6.500113575573
42
0.12775062064
0
VERTEX
8
1
10
21.971385203063
20
6.531114881627
0
SEQEND
0
POLYLINE
8
1
66
1
0
VERTEX
8
1
10
22.816368492726
20
6.326490911731
0
VERTEX
8
1
10
22.8084204665
20
6.329606392281
42
0.113523337827
0
VERTEX
8
1
10
22.157393039383
20
6.438110963467
0
SEQEND
0
ARC
8
1
10
22.206123217335
20
4.250387546925
40
2.080077879545
50
73.558421653813
51
88.353286658347
0
ARC
8
1
10
22.290698655411
20
4.106037715614
40
2.087217034841
50
73.791829758575
51
86.849673368523
0
ARC
8
1
10
22.386206525214
20
3.79429573609
40
2.245369381108
50
73.474517440997
51
86.343384134542
0
POLYLINE
8
1
66
1
0
VERTEX
8
1
10
25.257523644703
20
5.880087454509
0
VERTEX
8
1
10
24.912109454215
20
6.269597073571
42
0.104298330883
0
VERTEX
8
1
10
24.910264302702
20
6.27227624094
42
0.140340006895
0
VERTEX
8
1
10
24.907290857395
20
6.275436745897
0
SEQEND
0
POLYLINE
8
1
66
1
0
VERTEX
8
1
10
24.81371559381
20
6.014647116512
0
VERTEX
8
1
10
24.790686730585
20
6.039474747793
42
0.070438047775
0
VERTEX
8
1
10
24.789276786179
20
6.04117643632
42
0.046810492926
0
VERTEX
8
1
10
24.788188268539
20
6.042168362925
0
VERTEX
8
1
10
24.787413060911
20
6.043004121467
42
0.027848587759
0
VERTEX
8
1
10
24.786816406875
20
6.043647379723
0
VERTEX
8
1
10
24.784438214929
20
6.046211330544
42
0.094579990145
0
VERTEX
8
1
10
24.782476450405
20
6.048422016252
42
-0.055920720201
0
VERTEX
8
1
10
24.606496217586
20
6.298605086228
0
VERTEX
8
1
10
24.590995564559
20
6.314105739254
0
SEQEND
0
LINE
8
1
10
24.420488381267
20
6.190100515041
11
24.327484463107
21
6.329606392281
0
LINE
8
1
10
23.970969443495
20
6.097096596882
11
23.877965525336
21
6.407109657414
0
LINE
8
1
10
23.72295899507
20
6.128097902935
11
23.645455729937
21
6.438110963467
0
LINE
8
1
10
24.187978585868
20
6.190100515041
11
24.094974667708
21
6.376108351361
0
LINE
8
1
10
23.474948546644
20
6.329606392281
11
23.459447893617
21
6.484612922547
0
POLYLINE
8
1
66
1
0
VERTEX
8
1
10
27.507206217822
20
6.586808259887
42
0.330919702246
0
VERTEX
8
1
10
27.668105846369
20
6.803295606051
42
0.288127018084
0
VERTEX
8
1
10
27.540088792498
20
7.007006872063
0
SEQEND
0
ARC
8
1
10
27.358930923675
20
6.794987072601
40
0.22608958819
50
110.834922727428
51
-118.670524517532
0
ARC
8
1
10
-4.981023925059
20
-30.604951999626
40
48.102344103355
50
51.341578860425
51
52.649076140721
0
LINE
8
1
10
24.806875194477
20
7.015177444356
11
24.046618939085
21
7.637205289676
0
POLYLINE
8
1
66
1
70
1
0
VERTEX
8
1
10
22.309079283747
20
7.258081749489
42
-0.401728668886
0
VERTEX
8
1
10
22.358901528728
20
7.213143614797
0
VERTEX
8
1
10
22.358901528728
20
7.166641655717
0
VERTEX
8
1
10
22.451905446888
20
7.135640349664
42
-0.600477226413
0
VERTEX
8
1
10
22.467406099915
20
6.965133166372
42
0.286796226411
0
VERTEX
8
1
10
22.358901528728
20
7.058137084531
0
VERTEX
8
1
10
22.343400875702
20
6.934131860318
0
VERTEX
8
1
10
22.312399569649
20
6.903130554265
0
VERTEX
8
1
10
22.265897610569
20
6.965133166372
0
VERTEX
8
1
10
22.265897610569
20
7.011635125451
42
1.758310951739
0
VERTEX
8
1
10
22.203894998462
20
6.980633819398
0
VERTEX
8
1
10
22.172893692409
20
6.949632513345
42
-0.803727147626
0
VERTEX
8
1
10
22.234896304516
20
7.151141002691
0
VERTEX
8
1
10
22.265897610569
20
7.228644267824
42
-0.292600323805
0
SEQEND
0
POLYLINE
8
1
66
1
70
1
0
VERTEX
8
1
10
22.948720733394
20
7.041699807439
42
0.377428015641
0
VERTEX
8
1
10
22.932425690713
20
7.011635125451
42
-0.904987562112
0
VERTEX
8
1
10
22.870423078606
20
6.996134472425
42
-0.590791804451
0
VERTEX
8
1
10
22.994428302819
20
7.151141002691
0
VERTEX
8
1
10
23.056430914926
20
7.259645573877
42
0.123992584136
0
VERTEX
8
1
10
23.257939404272
20
7.073637737558
42
-0.261505874425
0
VERTEX
8
1
10
23.195936792165
20
6.949632513345
0
VERTEX
8
1
10
23.164935486112
20
6.980633819398
42
1.161187420808
0
VERTEX
8
1
10
23.102932874005
20
7.027135778478
42
-0.272308292332
0
VERTEX
8
1
10
23.056430914926
20
6.903130554265
42
-0.250984023236
0
VERTEX
8
1
10
23.017679282359
20
7.065887411045
0
SEQEND
0
LINE
8
1
10
25.36602821589
20
7.089138390584
11
24.40498772824
21
7.662662552569
0
ARC
8
1
10
30.543246326775
20
13.370778029615
40
8.760462020586
50
-139.07157150638
51
-133.22468323128
0
POLYLINE
8
1
66
1
70
1
0
VERTEX
8
1
10
21.479480597699
20
7.840040121252
0
VERTEX
8
1
10
22.084006065736
20
7.204513347161
0
VERTEX
8
1
10
22.006502800603
20
7.096008775975
0
VERTEX
8
1
10
21.262471455326
20
7.669532937959
0
SEQEND
0
LINE
8
1
10
25.699472013774
20
7.149221385948
11
24.680276278361
21
7.648827138601
0
POLYLINE
8
1
66
1
0
VERTEX
8
1
10
22.162889213724
20
8.48320929298
0
VERTEX
8
1
10
22.141892386356
20
8.546199775085
42
-0.475970508006
0
VERTEX
8
1
10
22.234896304516
20
8.716706958378
0
VERTEX
8
1
10
22.280426973654
20
8.67117628924
0
SEQEND
0
POLYLINE
8
1
66
1
0
VERTEX
8
1
10
23.067528197093
20
8.625804799283
42
-0.845306667004
0
VERTEX
8
1
10
23.195936792165
20
8.685705652325
0
VERTEX
8
1
10
23.226938098218
20
8.654704346272
0
VERTEX
8
1
10
23.195936792165
20
8.453195856926
0
VERTEX
8
1
10
23.273440057298
20
8.623703040218
0
VERTEX
8
1
10
23.319942016378
20
8.577201081138
42
0.080752584934
0
VERTEX
8
1
10
23.30014243236
20
8.407909819003
0
SEQEND
0
POLYLINE
8
1
66
1
0
VERTEX
8
1
10
23.442791639047
20
8.261417235184
42
-0.055100702711
0
VERTEX
8
1
10
23.428446587564
20
8.236186714553
0
VERTEX
8
1
10
23.366443975458
20
8.15868344942
42
-0.633378994491
0
VERTEX
8
1
10
23.412945934538
20
8.050178878234
0
VERTEX
8
1
10
23.335442669405
20
7.957174960074
42
-1.033888734653
0
VERTEX
8
1
10
23.412945934538
20
7.879671694941
0
VERTEX
8
1
10
23.343192995918
20
7.802168429808
42
-1.128774042436
0
VERTEX
8
1
10
23.412945934538
20
7.724665164675
0
VERTEX
8
1
10
23.350943322431
20
7.662662552569
0
VERTEX
8
1
10
23.397445281511
20
7.616160593489
0
VERTEX
8
1
10
23.273440057298
20
7.47665471625
0
VERTEX
8
1
10
23.304441363351
20
7.43015275717
42
-0.632079491274
0
VERTEX
8
1
10
23.273440057298
20
7.368150145063
42
0.28115852528
0
VERTEX
8
1
10
23.191809693678
20
7.390237768278
0
SEQEND
0
POLYLINE
8
1
66
1
0
VERTEX
8
1
10
22.92246095405
20
7.282263895949
0
VERTEX
8
1
10
22.823921119527
20
7.352649492037
42
-0.326784772784
0
VERTEX
8
1
10
22.544909365048
20
7.352649492037
0
VERTEX
8
1
10
22.450677682922
20
7.281975730442
0
SEQEND
0
POLYLINE
8
1
66
1
0
VERTEX
8
1
10
22.204777186665
20
7.36726795686
0
VERTEX
8
1
10
22.165143365896
20
7.40690177763
0
VERTEX
8
1
10
22.07988977425
20
7.368150145063
42
-0.44236988612
0
VERTEX
8
1
10
22.095390427276
20
7.47665471625
0
VERTEX
8
1
10
22.07988977425
20
7.47665471625
0
VERTEX
8
1
10
21.971385203063
20
7.616160593489
0
VERTEX
8
1
10
22.017887162143
20
7.662662552569
0
VERTEX
8
1
10
21.94038389701
20
7.755666470728
42
-1.022985503848
0
VERTEX
8
1
10
22.002386509117
20
7.802168429808
0
VERTEX
8
1
10
22.03338781517
20
7.794418103295
0
VERTEX
8
1
10
21.971385203063
20
7.848670388888
0
VERTEX
8
1
10
21.924883243984
20
7.941674307048
42
-0.44906606431
0
VERTEX
8
1
10
22.03338781517
20
7.957174960074
0
VERTEX
8
1
10
21.955884550037
20
8.050178878234
42
-0.674870096093
0
VERTEX
8
1
10
22.01013683563
20
8.166433775933
42
-0.250984023236
0
VERTEX
8
1
10
21.909382590957
20
8.360191938766
0
VERTEX
8
1
10
21.94038389701
20
8.391193244819
0
VERTEX
8
1
10
22.087640100763
20
8.336940959226
42
-0.459112886909
0
VERTEX
8
1
10
22.069854900214
20
8.476661103723
0
SEQEND
0
ARC
8
1
10
22.551773939959
20
7.584937849535
40
0.149801062038
50
-124.277334572447
51
-68.403048919373
0
LINE
8
1
10
22.792919813473
20
7.43015275717
11
22.870423078606
21
7.43015275717
0
LINE
8
1
10
22.296898916622
20
7.538657328356
11
22.420904140835
21
7.538657328356
0
LINE
8
1
10
23.056430914926
20
7.507656022303
11
22.932425690713
21
7.538657328356
0
POLYLINE
8
1
66
1
0
VERTEX
8
1
10
22.513908058995
20
7.631661246516
0
VERTEX
8
1
10
22.591411324128
20
7.631661246516
42
0.414213562373
0
VERTEX
8
1
10
22.823921119527
20
7.554157981383
0
SEQEND
0
POLYLINE
8
1
66
1
0
VERTEX
8
1
10
22.132845884366
20
7.671709054559
0
VERTEX
8
1
10
22.141892386356
20
7.662662552569
0
VERTEX
8
1
10
22.265897610569
20
7.647161899542
0
SEQEND
0
POLYLINE
8
1
66
1
0
VERTEX
8
1
10
22.932425690713
20
7.693663858622
0
VERTEX
8
1
10
23.056430914926
20
7.693663858622
42
0.618405162755
0
VERTEX
8
1
10
23.149434833085
20
7.662662552569
0
VERTEX
8
1
10
23.226938098218
20
7.662662552569
0
VERTEX
8
1
10
23.242438751245
20
7.678163205595
0
SEQEND
0
LINE
8
1
10
22.312399569649
20
7.724665164675
11
22.420904140835
21
7.709164511649
0
LINE
8
1
10
22.76191850742
20
7.724665164675
11
22.839421772553
21
7.740165817702
0
POLYLINE
8
1
66
1
70
1
0
VERTEX
8
1
10
20.948143260976
20
7.919700953294
0
VERTEX
8
1
10
21.242655668481
20
8.105708789613
0
VERTEX
8
1
10
21.382161545721
20
7.966202912374
42
-0.1113827683
0
VERTEX
8
1
10
21.087649138215
20
7.795695729081
0
SEQEND
0
LINE
8
1
10
22.544909365048
20
7.786667776782
11
22.71541654834
21
7.786667776782
0
LINE
8
1
10
22.126391733329
20
7.833169735861
11
22.234896304516
21
7.786667776782
0
LINE
8
1
10
23.133934180059
20
7.786667776782
11
23.242438751245
21
7.833169735861
0
ARC
8
1
10
22.381266756667
20
8.003455481254
40
0.149801062038
50
-124.277334572447
51
-68.403048919373
0
ARC
8
1
10
22.994686647036
20
7.993859838904
40
0.137861198417
50
-109.827162582328
51
-55.92280471987
0
LINE
8
1
10
22.76191850742
20
7.879671694941
11
22.839421772553
21
7.895172347968
0
ARC
8
1
10
22.606911977154
20
8.099005935268
40
0.156872811831
50
-126.360363632389
51
-53.639636367609
0
LINE
8
1
10
22.265897610569
20
7.972675613101
11
22.141892386356
21
8.003676919154
0
POLYLINE
8
1
66
1
0
VERTEX
8
1
10
23.071931567952
20
7.988176266128
0
VERTEX
8
1
10
23.180436139138
20
7.988176266128
0
VERTEX
8
1
10
23.226938098218
20
8.034678225207
0
SEQEND
0
LINE
8
1
10
22.746417854394
20
8.034678225207
11
23.040930261899
21
8.081180184287
0
LINE
8
1
10
22.312399569649
20
8.081180184287
11
22.420904140835
21
8.065679531261
0
LINE
8
1
10
22.513908058995
20
8.11218149034
11
22.606911977154
21
8.096680837314
0
ARC
8
1
10
22.236072746215
20
8.346652021905
40
0.204151539839
50
-147.241812002532
51
-94.685701061614
0
LINE
8
1
10
23.164935486112
20
8.143182796394
11
23.304441363351
21
8.220686061527
0
POLYLINE
8
1
66
1
0
VERTEX
8
1
10
22.699915895314
20
8.174184102447
0
VERTEX
8
1
10
22.870423078606
20
8.174184102447
0
VERTEX
8
1
10
22.916925037686
20
8.236186714553
42
0.194023186137
0
VERTEX
8
1
10
23.087432220979
20
8.29818932666
0
SEQEND
0
LINE
8
1
10
22.296898916622
20
8.282688673633
11
22.436404793861
21
8.236186714553
0
LINE
8
1
10
22.622412630181
20
8.282688673633
11
22.76191850742
21
8.282688673633
0
ARC
8
1
10
22.760811317918
20
8.587165786656
40
0.280907745246
50
-171.614399765206
51
-131.164680902865
0
LINE
8
1
10
22.684415242287
20
8.375692591793
11
22.684415242287
21
8.499126239938
0
ARC
8
1
10
22.583660997614
20
8.606652321889
40
0.311659508023
50
-47.822155299817
51
-14.10535776433
0
POLYLINE
8
1
66
1
0
VERTEX
8
1
10
23.378345420667
20
9.59783100699
0
VERTEX
8
1
10
23.319942016378
20
9.522740915761
0
VERTEX
8
1
10
23.474948546644
20
9.367734385495
0
VERTEX
8
1
10
23.343192995918
20
9.313482099902
42
-0.160584497656
0
VERTEX
8
1
10
23.474948546644
20
9.166225896149
0
VERTEX
8
1
10
23.443947240591
20
9.135224590096
0
VERTEX
8
1
10
23.381944628484
20
9.135224590096
42
-0.834576353409
0
VERTEX
8
1
10
23.350943322431
20
9.02672001891
0
VERTEX
8
1
10
23.350943322431
20
8.887214141671
0
VERTEX
8
1
10
23.319942016378
20
8.856212835617
0
VERTEX
8
1
10
23.250189077758
20
8.91046512121
0
VERTEX
8
1
10
23.257939404272
20
8.778709570484
0
VERTEX
8
1
10
23.226938098218
20
8.747708264431
0
VERTEX
8
1
10
23.118433527032
20
8.856212835617
0
VERTEX
8
1
10
23.087432220979
20
8.778709570484
0
VERTEX
8
1
10
23.009928955846
20
8.701206305351
0
VERTEX
8
1
10
22.975026055452
20
8.731123077118
0
SEQEND
0
POLYLINE
8
1
66
1
0
VERTEX
8
1
10
22.861876536395
20
8.715114526982
0
VERTEX
8
1
10
22.85492242558
20
8.701206305351
0
VERTEX
8
1
10
22.792919813473
20
8.639203693245
0
VERTEX
8
1
10
22.684415242287
20
8.739957937918
0
VERTEX
8
1
10
22.591411324128
20
8.639203693245
42
-0.2
0
VERTEX
8
1
10
22.467406099915
20
8.794210223511
0
VERTEX
8
1
10
22.343400875702
20
8.701206305351
0
VERTEX
8
1
10
22.250396957542
20
8.856212835617
0
VERTEX
8
1
10
22.141892386356
20
8.747708264431
0
VERTEX
8
1
10
22.110891080303
20
8.778709570484
0
VERTEX
8
1
10
22.118641406816
20
8.91046512121
42
-0.752890997749
0
VERTEX
8
1
10
22.004928345184
20
8.905044160757
0
SEQEND
0
ARC
8
1
10
22.443380087723
20
8.946891655823
40
0.055076418127
50
2.419509216658
51
-166.159304508346
0
ARC
8
1
10
22.578541440419
20
9.759701721785
40
0.047348405969
50
-169.149895370216
51
-10.850104629784
0
ARC
8
1
10
22.778467987182
20
9.76436374948
40
0.050887909165
50
-156.037511025413
51
-23.962488974585
0
POLYLINE
8
1
66
1
0
VERTEX
8
1
10
23.150739879198
20
9.021950949475
42
-0.127926104774
0
VERTEX
8
1
10
23.152249349524
20
9.023293472114
0
VERTEX
8
1
10
23.195936792165
20
9.07322197799
0
VERTEX
8
1
10
23.250189077758
20
9.04997099845
42
-0.3806322709
0
VERTEX
8
1
10
23.290008703132
20
9.131126427318
42
-0.461450758119
0
VERTEX
8
1
10
23.257939404272
20
9.166225896149
42
-0.530271358661
0
VERTEX
8
1
10
23.350943322431
20
9.212727855229
0
SEQEND
0
LINE
8
1
10
22.622412630181
20
9.600244180894
11
22.560410018074
21
9.662246793001
0
LINE
8
1
10
22.76191850742
20
9.600244180894
11
22.8084204665
21
9.662246793001
0
POLYLINE
8
1
66
1
70
1
0
VERTEX
8
1
10
27.226106579082
20
9.84825462932
0
VERTEX
8
1
10
27.148603313949
20
10.065263771693
42
-0.058064126546
0
VERTEX
8
1
10
27.629123557774
20
10.251271608012
42
-0.520655561573
0
VERTEX
8
1
10
27.69112616988
20
10.189268995905
42
0.969238162099
0
VERTEX
8
1
10
27.815131394093
20
10.220270301959
0
VERTEX
8
1
10
27.71437714942
20
10.538033689004
42
0.755834378781
0
VERTEX
8
1
10
27.629123557774
20
10.421778791304
42
-0.048743845482
0
VERTEX
8
1
10
27.117602007896
20
10.235770954985
0
VERTEX
8
1
10
27.071100048816
20
10.282272914065
42
0.962558552826
0
VERTEX
8
1
10
26.96259547763
20
10.282272914065
0
VERTEX
8
1
10
27.140852987436
20
9.685497772541
0
VERTEX
8
1
10
27.365612456322
20
9.739750058134
0
VERTEX
8
1
10
27.342361476782
20
9.887006261887
0
SEQEND
0
POLYLINE
8
1
66
1
70
1
0
VERTEX
8
1
10
21.614870183451
20
10.034262465639
0
VERTEX
8
1
10
21.630370836478
20
10.049763118666
0
VERTEX
8
1
10
21.630370836478
20
10.313274220118
0
VERTEX
8
1
10
21.397861041079
20
10.313274220118
0
VERTEX
8
1
10
21.366859735026
20
10.344275526171
0
VERTEX
8
1
10
21.366859735026
20
10.731791851837
0
VERTEX
8
1
10
21.397861041079
20
10.76279315789
0
VERTEX
8
1
10
22.002386509117
20
10.76279315789
0
VERTEX
8
1
10
22.017887162143
20
10.778293810916
0
VERTEX
8
1
10
22.002386509117
20
11.057305565395
0
VERTEX
8
1
10
21.397861041079
20
11.057305565395
0
VERTEX
8
1
10
21.366859735026
20
11.088306871448
0
VERTEX
8
1
10
21.366859735026
20
11.553326462247
0
VERTEX
8
1
10
21.397861041079
20
11.5843277683
0
VERTEX
8
1
10
21.89388193793
20
11.5843277683
0
VERTEX
8
1
10
21.924883243984
20
11.553326462247
0
VERTEX
8
1
10
21.924883243984
20
11.382819278954
0
VERTEX
8
1
10
22.250396957542
20
11.382819278954
0
VERTEX
8
1
10
22.250396957542
20
11.863339522779
0
VERTEX
8
1
10
20.762334266988
20
11.863339522779
0
VERTEX
8
1
10
20.762334266988
20
11.5843277683
0
VERTEX
8
1
10
20.979343409361
20
11.5843277683
0
VERTEX
8
1
10
21.010344715414
20
11.553326462247
0
VERTEX
8
1
10
21.010344715414
20
10.344275526171
0
VERTEX
8
1
10
20.979343409361
20
10.313274220118
0
VERTEX
8
1
10
20.762334266988
20
10.313274220118
0
VERTEX
8
1
10
20.762334266988
20
10.042012792153
0
SEQEND
0
POLYLINE
8
1
66
1
70
1
0
VERTEX
8
1
10
23.335442669405
20
10.034262465639
0
VERTEX
8
1
10
23.335442669405
20
10.313274220118
0
VERTEX
8
1
10
23.102932874005
20
10.313274220118
0
VERTEX
8
1
10
23.071931567952
20
10.344275526171
0
VERTEX
8
1
10
23.071931567952
20
10.731791851837
0
VERTEX
8
1
10
23.102932874005
20
10.76279315789
0
VERTEX
8
1
10
23.72295899507
20
10.76279315789
0
VERTEX
8
1
10
23.707458342043
20
11.057305565395
0
VERTEX
8
1
10
23.102932874005
20
11.057305565395
0
VERTEX
8
1
10
23.071931567952
20
11.088306871448
0
VERTEX
8
1
10
23.071931567952
20
11.553326462247
0
VERTEX
8
1
10
23.102932874005
20
11.5843277683
0
VERTEX
8
1
10
23.598953770857
20
11.5843277683
0
VERTEX
8
1
10
23.62995507691
20
11.553326462247
0
VERTEX
8
1
10
23.62995507691
20
11.382819278954
0
VERTEX
8
1
10
23.955468790469
20
11.382819278954
0
VERTEX
8
1
10
23.955468790469
20
11.863339522779
0
VERTEX
8
1
10
22.467406099915
20
11.863339522779
0
VERTEX
8
1
10
22.467406099915
20
11.599828421326
0
VERTEX
8
1
10
22.482906752941
20
11.5843277683
0
VERTEX
8
1
10
22.684415242287
20
11.5843277683
0
VERTEX
8
1
10
22.71541654834
20
11.553326462247
0
VERTEX
8
1
10
22.71541654834
20
10.344275526171
0
VERTEX
8
1
10
22.684415242287
20
10.313274220118
0
VERTEX
8
1
10
22.467406099915
20
10.313274220118
0
VERTEX
8
1
10
22.475156426428
20
10.042012792153
0
SEQEND
0
POLYLINE
8
1
66
1
70
1
0
VERTEX
8
1
10
28.760671228716
20
11.041804912369
42
-0.052852215233
0
VERTEX
8
1
10
28.245565174052
20
10.739530014461
42
0.093063361012
0
VERTEX
8
1
10
29.179188860434
20
11.103807524475
42
0.483525948607
0
VERTEX
8
1
10
29.241191472541
20
11.367318625927
0
VERTEX
8
1
10
29.069258864022
20
11.610889821329
42
-0.214477426702
0
VERTEX
8
1
10
29.070684289248
20
11.181310789608
42
-1.
0
VERTEX
8
1
10
28.962179718062
20
11.196811442635
0
VERTEX
8
1
10
28.915677758982
20
11.103807524475
0
VERTEX
8
1
10
28.791672534769
20
10.979802300262
42
-0.302775637732
0
SEQEND
0
POLYLINE
8
1
66
1
70
1
0
VERTEX
8
1
10
27.647645735432
20
11.359592693367
42
-0.045383013667
0
VERTEX
8
1
10
28.094143148572
20
11.5843277683
42
-1.
0
VERTEX
8
1
10
28.295651637918
20
11.103807524475
0
VERTEX
8
1
10
27.944391076959
20
10.903087203927
0
VERTEX
8
1
10
28.373154903051
20
11.041804912369
42
0.675469939301
0
VERTEX
8
1
10
28.419656862131
20
11.661831033433
0
VERTEX
8
1
10
28.373154903051
20
11.708332992513
0
VERTEX
8
1
10
28.458408494697
20
11.770335604619
42
0.205557584611
0
VERTEX
8
1
10
28.125144454625
20
11.708332992513
42
-0.61803398875
0
VERTEX
8
1
10
28.101893475085
20
11.762585278106
42
0.082642940834
0
SEQEND
0
POLYLINE
8
1
66
1
70
1
0
VERTEX
8
1
10
28.937665367509
20
11.882391376935
0
VERTEX
8
1
10
28.853675146876
20
12.204353889364
42
0.270371149727
0
VERTEX
8
1
10
28.474523507116
20
12.323941782767
42
-0.160643342546
0
SEQEND
0
POLYLINE
8
1
66
1
70
1
0
VERTEX
8
1
10
19.739291167232
20
11.475823197114
42
0.960199855119
0
VERTEX
8
1
10
19.630786596046
20
11.553326462247
0
VERTEX
8
1
10
19.460279412753
20
11.274314707768
0
VERTEX
8
1
10
19.553283330913
20
11.212312095661
0
VERTEX
8
1
10
19.615285943019
20
11.305316013821
42
-0.646585609973
0
VERTEX
8
1
10
19.770292473286
20
11.212312095661
42
-0.554879914514
0
VERTEX
8
1
10
19.320773535514
20
11.010803606315
42
-0.452993200283
0
VERTEX
8
1
10
19.243270270381
20
11.429321238034
0
VERTEX
8
1
10
19.351774841567
20
11.53782580922
42
1.234444011838
0
VERTEX
8
1
10
19.491280718807
20
11.615329074353
42
0.599599127548
0
VERTEX
8
1
10
19.212268964328
20
11.5843277683
42
1.298523961189
0
VERTEX
8
1
10
19.863296391445
20
11.072806218422
0
VERTEX
8
1
10
19.925299003552
20
11.258814054741
42
0.509224591703
0
VERTEX
8
1
10
19.847795738419
20
11.382819278954
0
SEQEND
0
LINE
8
1
10
23.195936792165
20
12.436863684763
11
23.211437445192
21
12.018346053045
0
POLYLINE
8
1
66
1
70
1
0
VERTEX
8
1
10
21.196352551733
20
12.31285846055
42
1.199991570607
0
VERTEX
8
1
10
21.103348633573
20
12.421363031736
0
VERTEX
8
1
10
20.839837532121
20
12.824380010428
42
-0.6
0
VERTEX
8
1
10
20.901840144228
20
12.932884581614
0
VERTEX
8
1
10
20.824336879095
20
13.041389152801
0
VERTEX
8
1
10
20.530761095655
20
12.854586926827
42
0.775278255281
0
VERTEX
8
1
10
20.669330348829
20
12.793378704375
0
VERTEX
8
1
10
20.948342103307
20
12.35936041963
42
-0.445362404707
0
VERTEX
8
1
10
20.932841450281
20
12.297357807524
42
1.487138298868
0
VERTEX
8
1
10
20.994844062387
20
12.204353889364
0
SEQEND
0
POLYLINE
8
1
66
1
70
1
0
VERTEX
8
1
10
25.862049112741
20
12.638372174109
42
-0.558185569905
0
VERTEX
8
1
10
25.955053030901
20
12.638372174109
42
1.117265015349
0
VERTEX
8
1
10
25.955053030901
20
12.777878051348
0
VERTEX
8
1
10
25.769045194581
20
12.901883275561
42
1.003029114593
0
VERTEX
8
1
10
25.753544541555
20
12.746876745295
0
VERTEX
8
1
10
25.567536705236
20
12.421363031736
42
-0.996030636591
0
VERTEX
8
1
10
25.257523644703
20
12.607370868056
0
VERTEX
8
1
10
25.474532787076
20
12.932884581614
42
1.511565690605
0
VERTEX
8
1
10
25.567536705236
20
13.010387846747
0
VERTEX
8
1
10
25.350527562863
20
13.149893723987
42
1.219803902718
0
VERTEX
8
1
10
25.31952625681
20
13.010387846747
0
VERTEX
8
1
10
25.087016461411
20
12.607370868056
42
0.829425004687
0
VERTEX
8
1
10
25.691541929448
20
12.343859766603
0
SEQEND
0
POLYLINE
8
1
66
1
70
1
0
VERTEX
8
1
10
22.048888468196
20
12.901883275561
42
-0.302212063621
0
VERTEX
8
1
10
21.661372142531
20
12.715875439242
42
-0.674198177724
0
VERTEX
8
1
10
21.568368224372
20
13.242897642146
42
-0.26123942834
0
VERTEX
8
1
10
21.785377366744
20
13.258398295173
42
1.233152157858
0
VERTEX
8
1
10
21.924883243984
20
13.258398295173
42
0.073136110976
0
VERTEX
8
1
10
21.862880631877
20
13.428905478466
42
0.242520011361
0
VERTEX
8
1
10
21.351359081999
20
13.22739698912
42
0.810606829966
0
VERTEX
8
1
10
21.955884550037
20
12.638372174109
0
VERTEX
8
1
10
22.048888468196
20
12.700374786215
42
0.48482445367
0
VERTEX
8
1
10
22.064389121223
20
12.870881969508
0
SEQEND
0
POLYLINE
8
1
66
1
70
1
0
VERTEX
8
1
10
24.54449360548
20
12.746876745295
0
VERTEX
8
1
10
24.683999482719
20
13.196395683067
42
-1.056031953012
0
VERTEX
8
1
10
24.839006012985
20
13.149893723987
42
1.125141073638
0
VERTEX
8
1
10
24.978511890225
20
13.13439307096
42
-0.168181442711
0
VERTEX
8
1
10
25.025013849304
20
13.2738989482
0
VERTEX
8
1
10
24.373986422187
20
13.506408743599
42
0.591271221051
0
VERTEX
8
1
10
24.311983810081
20
13.444406131492
0
VERTEX
8
1
10
24.265481851001
20
13.289399601226
0
VERTEX
8
1
10
24.389487075214
20
13.258398295173
42
-1.295173971215
0
VERTEX
8
1
10
24.54449360548
20
13.242897642146
0
VERTEX
8
1
10
24.40498772824
20
12.824380010428
42
-0.720759220056
0
VERTEX
8
1
10
24.35848576916
20
12.793378704375
42
1.
0
VERTEX
8
1
10
24.280982504027
20
12.684874133189
0
VERTEX
8
1
10
24.621996870613
20
12.591870215029
0
VERTEX
8
1
10
24.645247850153
20
12.708125112729
42
-0.254994014357
0
SEQEND
0
POLYLINE
8
1
66
1
70
1
0
VERTEX
8
1
10
23.986470096522
20
13.025888499774
0
VERTEX
8
1
10
23.846964219282
20
13.025888499774
0
VERTEX
8
1
10
23.846964219282
20
12.948385234641
42
-0.297019124959
0
VERTEX
8
1
10
23.58345311783
20
12.963885887668
0
VERTEX
8
1
10
23.62995507691
20
13.459906784519
0
VERTEX
8
1
10
23.660956382963
20
13.490908090572
42
0.620260790394
0
VERTEX
8
1
10
23.784961607176
20
13.599412661758
0
VERTEX
8
1
10
23.397445281511
20
13.645914620838
0
VERTEX
8
1
10
23.381944628484
20
13.521909396625
42
-0.677032961427
0
VERTEX
8
1
10
23.490449199671
20
13.444406131492
0
VERTEX
8
1
10
23.443947240591
20
13.010387846747
0
VERTEX
8
1
10
23.397445281511
20
12.963885887668
42
1.009132230551
0
VERTEX
8
1
10
23.350943322431
20
12.839880663455
0
VERTEX
8
1
10
23.970969443495
20
12.793378704375
0
SEQEND
0
POLYLINE
8
1
66
1
70
1
0
VERTEX
8
1
10
22.932425690713
20
13.490908090572
0
VERTEX
8
1
10
22.978927649793
20
13.537410049652
0
VERTEX
8
1
10
23.040930261899
20
13.537410049652
42
0.869941616606
0
VERTEX
8
1
10
22.885923731633
20
13.630413967812
0
VERTEX
8
1
10
22.668914589261
20
13.614913314785
0
VERTEX
8
1
10
22.684415242287
20
13.583912008732
0
VERTEX
8
1
10
22.684415242287
20
13.506408743599
42
-0.802171606366
0
VERTEX
8
1
10
22.8084204665
20
13.366902866359
0
VERTEX
8
1
10
22.839421772553
20
13.118892417934
42
-0.942578727302
0
VERTEX
8
1
10
22.482906752941
20
13.056889805827
0
VERTEX
8
1
10
22.436404793861
20
13.428905478466
0
VERTEX
8
1
10
22.482906752941
20
13.475407437545
42
1.344030650891
0
VERTEX
8
1
10
22.498407405968
20
13.583912008732
0
VERTEX
8
1
10
22.172893692409
20
13.552910702679
0
VERTEX
8
1
10
22.188394345436
20
13.444406131492
42
-0.687621588428
0
VERTEX
8
1
10
22.296898916622
20
13.351402213333
0
VERTEX
8
1
10
22.374402181755
20
12.917383928588
42
0.560559132467
0
VERTEX
8
1
10
22.978927649793
20
12.994887193721
0
SEQEND
0
POLYLINE
8
1
66
1
70
1
0
VERTEX
8
1
10
19.734755009806
20
14.205874287321
42
-0.164810226388
0
VERTEX
8
1
10
19.462849494286
20
14.082877628859
0
VERTEX
8
1
10
19.436590174993
20
14.109136948152
42
0.148187929913
0
VERTEX
8
1
10
19.567886771456
20
14.384859800724
42
-0.344538501918
0
VERTEX
8
1
10
19.777961325797
20
14.608064014711
0
VERTEX
8
1
10
19.80422064509
20
14.581804695418
0
VERTEX
8
1
10
19.65979438898
20
14.2929521832
0
VERTEX
8
1
10
19.90925792226
20
14.621193674357
0
VERTEX
8
1
10
20.145591795893
20
14.765619930466
42
-0.82557001583
0
VERTEX
8
1
10
20.211240094125
20
14.726230951527
0
VERTEX
8
1
10
20.040554518723
20
14.384859800724
0
VERTEX
8
1
10
19.988035880138
20
14.332341162139
0
SEQEND
0
POLYLINE
8
1
66
1
0
VERTEX
8
1
10
22.707604476132
20
15.606746516798
42
-0.03513402725
0
VERTEX
8
1
10
22.870423078606
20
15.350986453765
0
VERTEX
8
1
10
21.865761444464
20
14.612264663954
0
SEQEND
0
POLYLINE
8
1
66
1
0
VERTEX
8
1
10
21.735265083281
20
14.541640334487
42
-0.195974376566
0
VERTEX
8
1
10
20.638329042775
20
14.560453149408
0
VERTEX
8
1
10
20.39031859435
20
14.653457067567
42
-0.333333333333
0
VERTEX
8
1
10
20.328315982243
20
14.7309603327
42
-0.110411448735
0
VERTEX
8
1
10
20.296906412775
20
15.404913130895
0
SEQEND
0
POLYLINE
8
1
66
1
0
VERTEX
8
1
10
21.236763024298
20
16.334924396132
0
VERTEX
8
1
10
21.444363000159
20
16.46703347168
42
-0.069054913249
0
VERTEX
8
1
10
21.99258448184
20
16.232028341307
0
SEQEND
0
POLYLINE
8
1
66
1
70
1
0
VERTEX
8
1
10
21.02584536844
20
14.637956414541
0
VERTEX
8
1
10
21.909382590957
20
15.350986453765
0
VERTEX
8
1
10
22.07988977425
20
15.195979923499
0
VERTEX
8
1
10
21.366859735026
20
14.606955108488
42
-0.132580618046
0
SEQEND
0
POLYLINE
8
1
66
1
70
1
0
VERTEX
8
1
10
21.568368224372
20
15.59899690219
42
-0.173213749464
0
VERTEX
8
1
10
21.754376060691
20
15.443990371924
0
VERTEX
8
1
10
20.762334266988
20
14.668957720594
42
-0.121266992795
0
VERTEX
8
1
10
20.560825777642
20
14.761961638754
0
SEQEND
0
POLYLINE
8
1
66
1
70
1
0
VERTEX
8
1
10
20.007183666125
20
15.059097234403
42
0.126164427839
0
VERTEX
8
1
10
20.131371102154
20
15.073063143214
42
-0.456628882752
0
VERTEX
8
1
10
20.155656670078
20
15.01194787845
42
-0.16302471601
0
VERTEX
8
1
10
19.518529111318
20
14.982861844235
42
0.087372360253
0
VERTEX
8
1
10
19.231635199222
20
15.022183574183
42
-0.434552301912
0
VERTEX
8
1
10
19.241954858334
20
15.085255745448
42
-0.258114879394
0
VERTEX
8
1
10
20.12550038265
20
15.176878824322
0
VERTEX
8
1
10
20.141690761266
20
15.136135314479
42
-0.121630376723
0
VERTEX
8
1
10
19.724471130335
20
15.1472576635
0
VERTEX
8
1
10
19.579911939385
20
15.125196565381
0
SEQEND
0
POLYLINE
8
1
66
1
70
1
0
VERTEX
8
1
10
20.405819247376
20
15.118476658366
0
VERTEX
8
1
10
21.25835516384
20
15.800505391536
42
-0.2360679775
0
VERTEX
8
1
10
21.428862347132
20
15.69200082035
0
VERTEX
8
1
10
20.452321206456
20
14.901467515993
0
VERTEX
8
1
10
20.421319900403
20
14.932468822046
0
SEQEND
0
POLYLINE
8
1
66
1
70
1
0
VERTEX
8
1
10
21.02584536844
20
15.971012574829
0
VERTEX
8
1
10
21.16535124568
20
15.878008656669
0
VERTEX
8
1
10
20.452321206456
20
15.304484494685
0
VERTEX
8
1
10
20.421319900403
20
15.335485800738
0
VERTEX
8
1
10
20.452321206456
20
15.55249494311
0
SEQEND
0
POLYLINE
8
1
66
1
70
1
0
VERTEX
8
1
10
23.877965525336
20
15.459491024951
42
0.677032961427
0
VERTEX
8
1
10
23.908966831389
20
15.59899690219
0
VERTEX
8
1
10
23.893466178362
20
15.676500167323
42
0.413671773193
0
VERTEX
8
1
10
23.784961607176
20
15.443990371924
0
VERTEX
8
1
10
23.815962913229
20
15.443990371924
42
-1.546585609973
0
VERTEX
8
1
10
23.691957689016
20
15.412989065871
0
VERTEX
8
1
10
23.67645703599
20
15.428489718898
0
VERTEX
8
1
10
23.67645703599
20
15.629998208244
0
VERTEX
8
1
10
23.846964219282
20
15.800505391536
0
VERTEX
8
1
10
23.769460954149
20
15.986513227855
42
-1.117265015349
0
VERTEX
8
1
10
23.908966831389
20
15.986513227855
42
0.456165173327
0
VERTEX
8
1
10
24.063973361655
20
15.831506697589
42
-0.563494311311
0
VERTEX
8
1
10
24.187978585868
20
15.474991677977
42
-0.86896979881
0
VERTEX
8
1
10
24.032972055602
20
15.459491024951
42
0.4766049838
0
VERTEX
8
1
10
24.094974667708
20
15.69200082035
0
VERTEX
8
1
10
24.009721076062
20
15.71525179989
42
-0.193499659707
0
VERTEX
8
1
10
24.017471402575
20
15.428489718898
42
-0.723355398627
0
VERTEX
8
1
10
23.846964219282
20
15.428489718898
0
SEQEND
0
POLYLINE
8
1
66
1
0
VERTEX
8
1
10
22.389902834782
20
15.847007350616
0
VERTEX
8
1
10
22.374402181755
20
15.769504085483
42
-1.161187420808
0
VERTEX
8
1
10
22.389902834782
20
15.69200082035
42
-0.580322535471
0
VERTEX
8
1
10
22.281398263595
20
15.862508003643
0
VERTEX
8
1
10
22.320149896162
20
15.963262248316
0
VERTEX
8
1
10
22.172893692409
20
15.971012574829
0
VERTEX
8
1
10
22.126391733329
20
15.909009962722
0
VERTEX
8
1
10
22.234896304516
20
15.847007350616
42
-1.01004999875
0
VERTEX
8
1
10
22.048888468196
20
15.971012574829
0
VERTEX
8
1
10
22.107138803498
20
16.058388077781
0
SEQEND
0
POLYLINE
8
1
66
1
0
VERTEX
8
1
10
22.157393039383
20
16.079517146015
0
VERTEX
8
1
10
22.358901528728
20
16.064016492988
0
VERTEX
8
1
10
22.451905446888
20
16.203522370228
0
VERTEX
8
1
10
22.529408712021
20
16.126019105095
0
VERTEX
8
1
10
22.482906752941
20
16.033015186935
0
VERTEX
8
1
10
22.684415242287
20
15.847007350616
42
-0.926031139262
0
VERTEX
8
1
10
22.544909365048
20
15.816006044563
42
0.24033432914
0
VERTEX
8
1
10
22.463257679459
20
15.901662099975
0
SEQEND
0
POLYLINE
8
1
66
1
0
VERTEX
8
1
10
24.296483157054
20
17.28856808209
42
-0.193215491777
0
VERTEX
8
1
10
24.482490993373
20
16.746045226159
0
VERTEX
8
1
10
24.45148968732
20
16.715043920106
42
0.11404343533
0
VERTEX
8
1
10
24.218979891921
20
16.823548491292
0
VERTEX
8
1
10
24.309134265761
20
16.628214014639
0
SEQEND
0
POLYLINE
8
1
66
1
0
VERTEX
8
1
10
24.349306423595
20
16.221190434611
0
VERTEX
8
1
10
24.349306423595
20
16.104755284282
42
0.226733838826
0
VERTEX
8
1
10
24.296165285423
20
16.0464740592
42
0.111125857272
0
VERTEX
8
1
10
24.116796628196
20
16.249907171157
0
VERTEX
8
1
10
24.163298587276
20
16.110401293918
42
-0.819803902719
0
VERTEX
8
1
10
24.194299893329
20
16.001896722732
42
-0.265851153876
0
VERTEX
8
1
10
23.977290750957
20
16.296409130237
0
VERTEX
8
1
10
23.97315714252
20
16.317077172423
0
SEQEND
0
POLYLINE
8
1
66
1
0
VERTEX
8
1
10
23.591568023858
20
16.009909121988
42
-0.185680832749
0
VERTEX
8
1
10
23.428446587564
20
15.754003432456
0
VERTEX
8
1
10
23.397445281511
20
15.78500473851
0
VERTEX
8
1
10
23.428446587564
20
15.924510615749
0
VERTEX
8
1
10
23.335442669405
20
15.847007350616
42
-0.632079491274
0
VERTEX
8
1
10
23.273440057298
20
15.878008656669
0
VERTEX
8
1
10
23.335442669405
20
15.986513227855
0
VERTEX
8
1
10
23.335442669405
20
16.188021717201
0
VERTEX
8
1
10
23.356784864472
20
16.209363912269
0
SEQEND
0
POLYLINE
8
1
66
1
0
VERTEX
8
1
10
23.443331286767
20
16.432320499527
42
0.083698429746
0
VERTEX
8
1
10
23.381944628484
20
16.699543267079
42
-0.587654824371
0
VERTEX
8
1
10
23.660956382963
20
16.947553715505
42
-0.11338691046
0
VERTEX
8
1
10
24.030814321376
20
16.743963969095
0
SEQEND
0
POLYLINE
8
1
66
1
0
VERTEX
8
1
10
24.125975973761
20
16.653041307999
42
0.261075714013
0
VERTEX
8
1
10
23.939968137442
20
16.994055674585
0
VERTEX
8
1
10
23.970969443495
20
17.025056980638
42
-0.182232490744
0
VERTEX
8
1
10
24.327484463107
20
16.885551103398
0
SEQEND
0
POLYLINE
8
1
66
1
0
VERTEX
8
1
10
24.280982504027
20
17.087059592744
42
0.197065817298
0
VERTEX
8
1
10
23.257939404272
20
17.505577224463
42
-0.904987562112
0
VERTEX
8
1
10
23.242438751245
20
17.443574612356
42
0.125509741784
0
VERTEX
8
1
10
22.777747875392
20
17.49293393755
0
SEQEND
0
POLYLINE
8
1
66
1
0
VERTEX
8
1
10
22.786824124852
20
17.411004717464
0
VERTEX
8
1
10
22.926330002091
20
17.349002105357
0
VERTEX
8
1
10
23.019333920251
20
17.255998187198
0
VERTEX
8
1
10
22.988332614198
20
17.224996881145
0
VERTEX
8
1
10
22.740322165772
20
17.255998187198
0
SEQEND
0
POLYLINE
8
1
66
1
0
VERTEX
8
1
10
22.864119479246
20
17.100910311414
0
VERTEX
8
1
10
23.143131233725
20
16.868400516015
42
-0.5
0
VERTEX
8
1
10
23.003625356486
20
16.852899862989
42
0.107278136587
0
VERTEX
8
1
10
22.685861969441
20
17.015656719768
0
VERTEX
8
1
10
22.941622744379
20
16.806397903909
42
-0.343107750142
0
VERTEX
8
1
10
22.941622744379
20
16.697893332723
42
0.123034317659
0
VERTEX
8
1
10
22.690855461354
20
16.839725400029
0
SEQEND
0
POLYLINE
8
1
66
1
0
VERTEX
8
1
10
22.358901528728
20
16.901051756425
0
VERTEX
8
1
10
22.467406099915
20
16.823548491292
42
-0.347704387485
0
VERTEX
8
1
10
22.203894998462
20
16.885551103398
42
0.14108134556
0
VERTEX
8
1
10
21.351359081999
20
17.474575918409
0
VERTEX
8
1
10
21.348279025405
20
17.477079635552
0
SEQEND
0
POLYLINE
8
1
66
1
0
VERTEX
8
1
10
21.685859803794
20
17.493774177357
0
VERTEX
8
1
10
21.413361694106
20
17.598581142622
42
0.343609949158
0
VERTEX
8
1
10
21.16535124568
20
17.505577224463
42
-0.721709727567
0
VERTEX
8
1
10
21.490864959239
20
17.877592897101
0
VERTEX
8
1
10
21.568368224372
20
17.955096162234
42
-0.120546607394
0
VERTEX
8
1
10
21.909382590957
20
17.893093550128
42
0.101626794298
0
VERTEX
8
1
10
22.575910671101
20
17.800089631968
42
0.804062214762
0
VERTEX
8
1
10
22.591411324128
20
18.048100080394
0
VERTEX
8
1
10
22.544909365048
20
18.094602039474
0
SEQEND
0
POLYLINE
8
1
66
1
0
VERTEX
8
1
10
22.424124083251
20
18.194135175833
42
-0.291200687201
0
VERTEX
8
1
10
22.145112328772
20
18.20963582886
0
VERTEX
8
1
10
22.284618206012
20
18.333641053073
0
SEQEND
0
POLYLINE
8
1
66
1
0
VERTEX
8
1
10
21.955884550037
20
18.218607263686
42
-0.2
0
VERTEX
8
1
10
21.661372142531
20
18.265109222766
42
-0.209178456653
0
VERTEX
8
1
10
21.89388193793
20
18.420115753032
0
SEQEND
0
POLYLINE
8
1
66
1
0
VERTEX
8
1
10
21.716583708534
20
18.838768251003
42
0.195332696062
0
VERTEX
8
1
10
21.949093503933
20
19.009275434295
0
VERTEX
8
1
10
21.654581096428
20
19.071278046402
0
VERTEX
8
1
10
21.577077831295
20
19.040276740348
0
SEQEND
0
POLYLINE
8
1
66
1
0
VERTEX
8
1
10
20.917340797254
20
18.761130119618
0
VERTEX
8
1
10
21.056846674494
20
18.761130119618
0
VERTEX
8
1
10
21.087847980547
20
18.730128813564
42
-0.162277660168
0
VERTEX
8
1
10
20.886339491201
20
18.590622936325
42
0.169675945789
0
VERTEX
8
1
10
20.402490669199
20
18.466582006456
0
SEQEND
0
POLYLINE
8
1
66
1
0
VERTEX
8
1
10
20.576514261837
20
18.258937136231
0
VERTEX
8
1
10
20.824336879095
20
18.296110528819
42
-0.276122780234
0
VERTEX
8
1
10
20.979343409361
20
18.24960856974
0
VERTEX
8
1
10
20.948342103307
20
18.218607263686
42
0.151963333699
0
VERTEX
8
1
10
20.715832307908
20
18.187605957633
0
SEQEND
0
POLYLINE
8
1
66
1
0
VERTEX
8
1
10
21.80926833583
20
18.615910968531
42
-0.2360679775
0
VERTEX
8
1
10
21.467941690301
20
18.610696612062
0
VERTEX
8
1
10
21.515512007916
20
18.722292388606
0
VERTEX
8
1
10
21.259281950321
20
18.722249647979
42
-1.033888734653
0
VERTEX
8
1
10
21.286464988959
20
18.786018663147
42
0.116967276539
0
VERTEX
8
1
10
21.666685604865
20
18.917830756162
0
SEQEND
0
POLYLINE
8
1
66
1
0
VERTEX
8
1
10
21.304857122919
20
18.234107916713
42
-0.265564437075
0
VERTEX
8
1
10
21.583868877398
20
18.187605957633
0
VERTEX
8
1
10
21.552867571345
20
18.15660465158
42
0.118385824626
0
VERTEX
8
1
10
20.994844062387
20
17.986097468287
0
SEQEND
0
POLYLINE
8
1
66
1
0
VERTEX
8
1
10
20.839837532121
20
17.846591591048
42
-0.414213562373
0
VERTEX
8
1
10
20.994844062387
20
17.769088325915
0
VERTEX
8
1
10
20.785585246528
20
17.660583754729
0
VERTEX
8
1
10
20.901840144228
20
17.660583754729
0
VERTEX
8
1
10
20.932841450281
20
17.629582448675
0
VERTEX
8
1
10
20.622828389749
20
17.490076571436
0
SEQEND
0
POLYLINE
8
1
66
1
0
VERTEX
8
1
10
20.802885967511
20
17.31342581278
42
-0.213696035337
0
VERTEX
8
1
10
21.094033002536
20
17.291093063454
42
-0.228842080142
0
VERTEX
8
1
10
20.923525819243
20
16.996580655949
42
0.122956516244
0
VERTEX
8
1
10
21.311042144908
20
17.151587186215
0
VERTEX
8
1
10
21.342043450962
20
17.120585880162
0
VERTEX
8
1
10
21.343310769132
20
17.106812594101
0
SEQEND
0
POLYLINE
8
1
66
1
0
VERTEX
8
1
10
21.523133583462
20
17.073286306684
42
-0.169975695899
0
VERTEX
8
1
10
21.459863653185
20
16.839049144319
0
VERTEX
8
1
10
21.359109408512
20
16.707293593593
42
0.133918083664
0
VERTEX
8
1
10
21.568368224372
20
16.870050450372
42
-0.357310102193
0
VERTEX
8
1
10
21.622620509965
20
16.722794246619
0
VERTEX
8
1
10
21.800878019771
20
16.978555021558
42
-0.250640928737
0
VERTEX
8
1
10
21.785377366744
20
16.761545879186
42
-0.126164427839
0
VERTEX
8
1
10
21.583868877398
20
16.529036083787
0
SEQEND
0
POLYLINE
8
1
66
1
0
VERTEX
8
1
10
25.102517114437
20
16.854549797345
42
-0.324653308915
0
VERTEX
8
1
10
25.149019073517
20
16.374029553521
42
-1.
0
VERTEX
8
1
10
25.071515808384
20
16.358528900494
42
0.232353758472
0
VERTEX
8
1
10
24.870007319038
20
16.668541961026
0
SEQEND
0
ARC
8
1
10
23.382877240388
20
15.776932821685
40
1.891207306279
50
29.73823480528
51
58.944678839593
0
POLYLINE
8
1
66
1
0
VERTEX
8
1
10
24.456938150183
20
16.599957057551
42
-0.169710346203
0
VERTEX
8
1
10
24.559994258506
20
16.188021717201
0
VERTEX
8
1
10
24.559994258506
20
16.114110178941
0
SEQEND
0
POLYLINE
8
1
66
1
0
VERTEX
8
1
10
23.143441150372
20
16.625786053642
0
VERTEX
8
1
10
23.149434833085
20
16.622040001946
0
VERTEX
8
1
10
23.257939404272
20
16.51353543076
42
-0.711077793912
0
VERTEX
8
1
10
23.188186465652
20
16.49028445122
0
VERTEX
8
1
10
23.226938098218
20
16.296526288387
42
-0.61803398875
0
VERTEX
8
1
10
23.133934180059
20
16.265524982334
0
VERTEX
8
1
10
22.973108598125
20
16.413979365657
0
SEQEND
0
POLYLINE
8
1
66
1
0
VERTEX
8
1
10
22.846369661039
20
16.35758288234
0
VERTEX
8
1
10
22.895723146523
20
16.201194750622
0
VERTEX
8
1
10
22.857312830213
20
16.180056880459
42
0.158416578579
0
VERTEX
8
1
10
22.592184078136
20
16.434494735526
0
VERTEX
8
1
10
22.58998037016
20
16.438499165478
0
SEQEND
0
POLYLINE
8
1
66
1
0
VERTEX
8
1
10
22.445278231599
20
16.558463661171
42
-0.255432466445
0
VERTEX
8
1
10
22.349757995796
20
16.345725326937
0
VERTEX
8
1
10
22.272254730663
20
16.531733163256
42
-0.474757877394
0
VERTEX
8
1
10
22.148249506451
20
16.37672663299
42
-0.081811655951
0
VERTEX
8
1
10
22.062931132335
20
16.65668111253
0
SEQEND
0
POLYLINE
8
1
66
1
0
VERTEX
8
1
10
23.983002421455
20
16.438510914248
42
-0.15130046574
0
VERTEX
8
1
10
23.770108532026
20
16.62731574511
42
0.113874278825
0
VERTEX
8
1
10
23.665533850878
20
16.71271531903
0
SEQEND
0
POLYLINE
8
1
66
1
70
1
0
VERTEX
8
1
10
21.934549639862
20
16.796812853548
0
VERTEX
8
1
10
21.965550945915
20
16.765811547495
0
VERTEX
8
1
10
21.934549639862
20
16.455798486962
42
-0.786210197912
0
VERTEX
8
1
10
21.841545721702
20
16.471299139989
42
-0.204085032708
0
SEQEND
0
POLYLINE
8
1
66
1
70
1
0
VERTEX
8
1
10
25.257523644703
20
16.963054368531
42
0.182561788098
0
VERTEX
8
1
10
24.777003400879
20
17.412573306303
42
0.345064845429
0
SEQEND
0
ARC
8
1
10
22.645663609721
20
18.31936150836
40
1.313674628413
50
-108.221159593043
51
-94.398705354997
0
POLYLINE
8
1
66
1
0
VERTEX
8
1
10
21.98688585609
20
17.257566776037
42
-0.169370888868
0
VERTEX
8
1
10
22.335650549189
20
17.149062204851
0
VERTEX
8
1
10
22.451905446888
20
17.149062204851
0
SEQEND
0
POLYLINE
8
1
66
1
70
1
0
VERTEX
8
1
10
23.158929130858
20
17.26244464066
0
VERTEX
8
1
10
23.127927824805
20
17.293445946713
42
-0.278968877634
0
VERTEX
8
1
10
23.453441538364
20
17.26244464066
42
0.136308338454
0
VERTEX
8
1
10
23.747953945869
20
17.153940069474
0
VERTEX
8
1
10
23.778955251922
20
17.122938763421
42
-0.260708058279
0
VERTEX
8
1
10
23.391438926257
20
17.184941375527
42
0.173213749464
0
SEQEND
0
LINE
8
1
10
22.559753520934
20
17.284111413251
11
22.429905276969
21
17.322009704551
0
POLYLINE
8
1
66
1
0
VERTEX
8
1
10
25.119532677593
20
17.556469418197
42
-0.134864235969
0
VERTEX
8
1
10
24.994999591724
20
17.667657811733
0
VERTEX
8
1
10
24.911491009237
20
17.846403710203
42
-0.720759220056
0
VERTEX
8
1
10
24.975060744782
20
17.839809555593
42
-0.051808616481
0
VERTEX
8
1
10
25.422811661931
20
17.528789607148
0
SEQEND
0
POLYLINE
8
1
66
1
0
VERTEX
8
1
10
25.583037358262
20
17.660583754729
0
VERTEX
8
1
10
25.381528868916
20
17.769088325915
42
-0.445362404707
0
VERTEX
8
1
10
25.598538011289
20
17.831090938021
0
SEQEND
0
POLYLINE
8
1
66
1
0
VERTEX
8
1
10
25.242022991677
20
18.048100080394
42
0.125128334726
0
VERTEX
8
1
10
24.746002094826
20
18.172105304607
0
VERTEX
8
1
10
24.715000788772
20
18.20310661066
42
-0.2763069007
0
VERTEX
8
1
10
25.149019073517
20
18.20310661066
0
SEQEND
0
POLYLINE
8
1
66
1
0
VERTEX
8
1
10
25.471982321829
20
18.590622936325
0
VERTEX
8
1
10
25.552036052209
20
18.590622936325
42
-0.148869545742
0
VERTEX
8
1
10
25.769045194581
20
18.358113140926
42
-0.882782218537
0
VERTEX
8
1
10
25.707042582475
20
18.327111834873
42
0.123105625618
0
VERTEX
8
1
10
25.36602821589
20
18.389114446979
0
SEQEND
0
POLYLINE
8
1
66
1
0
VERTEX
8
1
10
25.338759598518
20
18.219716626995
42
0.292997571504
0
VERTEX
8
1
10
25.64877265905
20
18.142213361862
42
-0.154143140862
0
VERTEX
8
1
10
25.834780495369
20
18.095711402782
0
SEQEND
0
POLYLINE
8
1
66
1
0
VERTEX
8
1
10
24.962910887582
20
18.840349532894
42
-0.177540564005
0
VERTEX
8
1
10
25.118017767464
20
18.792131425671
0
VERTEX
8
1
10
25.304025603783
20
18.637124895405
0
VERTEX
8
1
10
25.27302429773
20
18.606123589352
42
0.133386285044
0
VERTEX
8
1
10
25.009513196278
20
18.559621630272
42
-0.308470260759
0
VERTEX
8
1
10
24.715000788772
20
18.606123589352
0
VERTEX
8
1
10
24.761502747852
20
18.652625548431
0
VERTEX
8
1
10
24.885507972065
20
18.637124895405
0
SEQEND
0
POLYLINE
8
1
66
1
0
VERTEX
8
1
10
24.364815064472
20
18.804539724293
0
VERTEX
8
1
10
24.550822900792
20
18.649533194027
0
VERTEX
8
1
10
24.395816370526
20
18.58753058192
0
VERTEX
8
1
10
24.333256215508
20
18.58753058192
0
SEQEND
0
POLYLINE
8
1
66
1
0
VERTEX
8
1
10
24.467569089036
20
18.334104807018
42
0.083146894097
0
VERTEX
8
1
10
24.59482770329
20
18.283829818209
0
VERTEX
8
1
10
24.625829009343
20
18.252828512156
42
-0.535183758488
0
VERTEX
8
1
10
24.517324438157
20
18.237327859129
42
-0.211224408819
0
VERTEX
8
1
10
24.222812030651
20
18.345832430315
0
SEQEND
0
POLYLINE
8
1
66
1
0
VERTEX
8
1
10
25.36591389618
20
17.43416751912
0
VERTEX
8
1
10
25.660426303686
20
17.232659029774
0
VERTEX
8
1
10
25.753430221845
20
17.139655111615
42
-0.225430507946
0
VERTEX
8
1
10
25.45891781434
20
17.139655111615
0
VERTEX
8
1
10
25.381414549207
20
17.170656417668
0
SEQEND
0
ARC
8
1
10
20.316760949987
20
17.61711146874
40
0.20583755969
50
-113.309324274788
51
-27.810606068859
0
ARC
8
1
10
26.141835899871
20
17.763663097356
40
0.348445922886
50
-139.329591058594
51
-105.612793523106
0
POLYLINE
8
1
66
1
0
VERTEX
8
1
10
24.756795562114
20
17.809773735948
42
0.136905864839
0
VERTEX
8
1
10
24.187228003727
20
18.010162112561
42
-0.12629762873
0
VERTEX
8
1
10
24.570787725795
20
17.670267858709
0
SEQEND
0
LINE
8
1
10
21.98688585609
20
17.459075265383
11
21.878381284904
21
17.490076571436
0
POLYLINE
8
1
66
1
0
VERTEX
8
1
10
22.920544824538
20
17.675422424749
0
VERTEX
8
1
10
23.06620289728
20
17.605235107168
42
-0.386606874732
0
VERTEX
8
1
10
23.210851875767
20
17.666098668175
0
VERTEX
8
1
10
23.377035335205
20
17.715260018245
0
SEQEND
0
LINE
8
1
10
22.157317212246
20
17.653472100077
11
22.022535220858
21
17.714736641617
0
POLYLINE
8
1
66
1
0
VERTEX
8
1
10
21.886228977278
20
17.792948217454
0
VERTEX
8
1
10
21.830334570619
20
17.792948217454
42
-0.042106969053
0
VERTEX
8
1
10
21.827717247109
20
17.780409573739
42
-0.213571684797
0
VERTEX
8
1
10
21.787107891595
20
17.733237119693
42
-0.042106969054
0
VERTEX
8
1
10
21.775097847932
20
17.728784387973
42
-0.530595701818
0
VERTEX
8
1
10
21.678985405173
20
17.810525863558
0
SEQEND
0
ARC
8
1
10
21.757119774746
20
17.777489133704
40
0.137905168871
50
-159.280399275201
51
-45.990644723539
0
ARC
8
1
10
20.595788361691
20
17.269708954241
40
0.504765471012
50
81.62245197379
51
119.946143761333
0
LINE
8
1
10
26.032556296034
20
17.707085713809
11
25.722543235502
21
17.862092244075
0
POLYLINE
8
1
66
1
0
VERTEX
8
1
10
23.071147273533
20
17.938288351842
42
-0.103765666413
0
VERTEX
8
1
10
22.838637478134
20
17.829783780655
0
VERTEX
8
1
10
22.80763617208
20
17.860785086709
0
VERTEX
8
1
10
22.80763617208
20
17.984790310921
0
SEQEND
0
ARC
8
1
10
25.494560736943
20
16.085803653337
40
1.90379997447
50
54.979316945696
51
73.207667055276
0
POLYLINE
8
1
66
1
0
VERTEX
8
1
10
19.646287249073
20
17.831090938021
42
-0.12305970788
0
VERTEX
8
1
10
20.188810105004
20
17.986097468287
42
-0.916817076575
0
VERTEX
8
1
10
20.181059778491
20
17.908594203154
42
0.14737116957
0
VERTEX
8
1
10
20.731332960935
20
18.048100080394
0
VERTEX
8
1
10
20.824336879095
20
18.048100080394
42
-0.566190378969
0
VERTEX
8
1
10
20.824336879095
20
17.970596815261
0
SEQEND
0
ARC
8
1
10
23.389694954998
20
18.714628160538
40
0.862656950361
50
-98.785298717885
51
-31.405163665925
0
ARC
8
1
10
28.257641275245
20
20.544797252411
40
3.112820014704
50
-125.371843871513
51
-114.491179809502
0
ARC
8
1
10
28.39102585822
20
19.357710898669
40
1.345058241215
50
-117.956587390803
51
-93.091634602705
0
POLYLINE
8
1
66
1
0
VERTEX
8
1
10
19.816794432365
20
18.125603345527
42
-0.135702955023
0
VERTEX
8
1
10
20.34381663527
20
18.218607263686
0
VERTEX
8
1
10
20.452321206456
20
18.373613793952
0
SEQEND
0
POLYLINE
8
1
66
1
0
VERTEX
8
1
10
25.970553683927
20
18.327111834873
0
VERTEX
8
1
10
26.04805694906
20
18.218607263686
0
VERTEX
8
1
10
26.389071315646
20
18.187605957633
0
SEQEND
0
POLYLINE
8
1
66
1
70
1
0
VERTEX
8
1
10
19.057044327325
20
18.318039801776
42
0.142313502682
0
VERTEX
8
1
10
17.956497962436
20
18.11653131243
42
-0.069112738154
0
VERTEX
8
1
10
18.328513635074
20
18.147532618484
42
0.15170579974
0
SEQEND
0
POLYLINE
8
1
66
1
70
1
0
VERTEX
8
1
10
20.355138741054
20
18.545117709797
0
VERTEX
8
1
10
20.354357472453
20
18.551832336272
42
-0.275608455639
0
VERTEX
8
1
10
20.328635337852
20
18.569532278384
0
VERTEX
8
1
10
20.32856124047
20
18.56952138276
0
VERTEX
8
1
10
20.324152186642
20
18.568243401007
0
VERTEX
8
1
10
20.315353542675
20
18.567030606979
42
-0.094177359361
0
VERTEX
8
1
10
20.304155532764
20
18.569051264629
0
VERTEX
8
1
10
20.301155026905
20
18.566766466673
0
VERTEX
8
1
10
20.297448357482
20
18.562405445403
0
VERTEX
8
1
10
20.297097380599
20
18.562032831513
0
VERTEX
8
1
10
20.292207665494
20
18.558386440006
0
VERTEX
8
1
10
20.290309109165
20
18.557107536182
42
-0.027624730299
0
VERTEX
8
1
10
20.176276807597
20
18.524315084582
42
0.025640863506
0
VERTEX
8
1
10
20.173200081208
20
18.523776856488
42
0.115111882928
0
VERTEX
8
1
10
20.159352129694
20
18.523710918939
42
0.120018564554
0
VERTEX
8
1
10
20.14493033664
20
18.523639991182
0
VERTEX
8
1
10
20.133845755638
20
18.523259073511
0
VERTEX
8
1
10
20.1282648916
20
18.523304487768
42
0.106222164717
0
VERTEX
8
1
10
20.115566252876
20
18.521668985218
42
0.105520670916
0
VERTEX
8
1
10
20.103290516377
20
18.518333408822
42
0.105146962305
0
VERTEX
8
1
10
20.092441916069
20
18.511775321459
0
VERTEX
8
1
10
20.091851385918
20
18.511480953208
42
0.081129545513
0
VERTEX
8
1
10
20.082972422344
20
18.50727527076
42
-0.04041579286
0
VERTEX
8
1
10
19.909798350525
20
18.497619018165
42
0.178111053179
0
VERTEX
8
1
10
19.692789208152
20
18.482118365139
42
-0.151061698659
0
VERTEX
8
1
10
19.971800962631
20
18.420115753032
42
0.193081025215
0
VERTEX
8
1
10
20.081655343319
20
18.402004514276
0
VERTEX
8
1
10
20.082448610708
20
18.401985960415
42
0.082461352645
0
VERTEX
8
1
10
20.092373262164
20
18.400901091227
0
VERTEX
8
1
10
20.095199374718
20
18.400874852798
0
VERTEX
8
1
10
20.096612430995
20
18.400855188803
0
VERTEX
8
1
10
20.098590709782
20
18.400901091227
0
VERTEX
8
1
10
20.103112489869
20
18.400985206671
0
VERTEX
8
1
10
20.107069047444
20
18.400874852798
42
0.085552478277
0
VERTEX
8
1
10
20.117329490803
20
18.402253708176
0
VERTEX
8
1
10
20.12402003365
20
18.403937187037
42
0.104530179565
0
VERTEX
8
1
10
20.135909593173
20
18.40812047148
0
VERTEX
8
1
10
20.139582616479
20
18.409365614057
42
0.140224745151
0
VERTEX
8
1
10
20.155465776799
20
18.41472545631
42
0.144437449534
0
VERTEX
8
1
10
20.171150986302
20
18.421895849305
42
0.093868244351
0
VERTEX
8
1
10
20.180908488927
20
18.42767822591
42
0.101359503192
0
VERTEX
8
1
10
20.19060060001
20
18.435136534248
0
VERTEX
8
1
10
20.19160053939
20
18.435862542898
42
0.097939882431
0
VERTEX
8
1
10
20.201821721826
20
18.44180878868
42
0.091182121976
0
VERTEX
8
1
10
20.210691395473
20
18.448353719143
42
0.00929624089
0
VERTEX
8
1
10
20.211601120087
20
18.449029182462
42
0.071603613601
0
VERTEX
8
1
10
20.219040908957
20
18.45350745589
42
0.06858836559
0
VERTEX
8
1
10
20.22687380366
20
18.45631680007
0
VERTEX
8
1
10
20.234209557191
20
18.458849122781
42
0.051483200277
0
VERTEX
8
1
10
20.240461559994
20
18.458553787329
0
VERTEX
8
1
10
20.243005061292
20
18.458518370789
0
VERTEX
8
1
10
20.245265951335
20
18.458539353394
0
VERTEX
8
1
10
20.247526841379
20
18.458518370789
42
0.134033827308
0
VERTEX
8
1
10
20.263121711418
20
18.462312458445
0
VERTEX
8
1
10
20.263352200175
20
18.462417139195
42
0.173122453311
0
VERTEX
8
1
10
20.279368492447
20
18.475194747451
0
VERTEX
8
1
10
20.282390527778
20
18.480450829783
0
VERTEX
8
1
10
20.283492152625
20
18.482712483449
0
VERTEX
8
1
10
20.283754202599
20
18.482992461546
0
VERTEX
8
1
10
20.287322203158
20
18.487135734983
0
VERTEX
8
1
10
20.289966686177
20
18.488469187109
0
VERTEX
8
1
10
20.294684279984
20
18.490226786599
0
VERTEX
8
1
10
20.302458009674
20
18.492975556191
0
VERTEX
8
1
10
20.308304273241
20
18.495731064665
0
VERTEX
8
1
10
20.315333873424
20
18.499694594694
0
VERTEX
8
1
10
20.316803178105
20
18.500494321602
42
0.126243116521
0
VERTEX
8
1
10
20.328838048552
20
18.509691874464
0
VERTEX
8
1
10
20.331721698724
20
18.51227592469
0
VERTEX
8
1
10
20.333302571574
20
18.513492123573
42
0.107766480045
0
VERTEX
8
1
10
20.343215733286
20
18.521879647738
42
0.225127841245
0
SEQEND
0
POLYLINE
8
1
66
1
0
VERTEX
8
1
10
26.603737059992
20
18.468846706956
42
0.22714226302
0
VERTEX
8
1
10
26.403327739112
20
18.453470651955
0
VERTEX
8
1
10
26.051587279224
20
18.521113048087
0
SEQEND
0
POLYLINE
8
1
66
1
0
VERTEX
8
1
10
21.028739262148
20
18.983312196628
42
0.148187929913
0
VERTEX
8
1
10
20.641222936483
20
18.859306972415
0
VERTEX
8
1
10
20.56371967135
20
18.812805013336
0
VERTEX
8
1
10
20.535453044899
20
18.808093908927
0
SEQEND
0
POLYLINE
8
1
66
1
70
1
0
VERTEX
8
1
10
19.196768311301
20
18.916136649884
42
0.188584905816
0
VERTEX
8
1
10
18.421735659971
20
18.792131425671
0
VERTEX
8
1
10
19.041761781035
20
18.838633384751
0
SEQEND
0
POLYLINE
8
1
66
1
70
1
0
VERTEX
8
1
10
19.899139749488
20
19.117780005481
42
0.297035519819
0
VERTEX
8
1
10
19.682130607116
20
19.179782617588
0
VERTEX
8
1
10
19.372117546584
20
19.110029678968
42
0.131608810836
0
VERTEX
8
1
10
19.759633872249
20
19.086778699428
42
0.116407903837
0
VERTEX
8
1
10
20.364159340286
20
19.117780005481
0
SEQEND
0
POLYLINE
8
1
66
1
0
VERTEX
8
1
10
21.539585644936
20
19.238187407265
42
0.265564437075
0
VERTEX
8
1
10
21.307075849537
20
19.207186101212
0
VERTEX
8
1
10
21.257771505739
20
19.212116535591
0
SEQEND
0
POLYLINE
8
1
66
1
0
VERTEX
8
1
10
25.223899013277
20
19.35388762331
42
-0.2360679775
0
VERTEX
8
1
10
25.681168277562
20
19.229882399097
0
VERTEX
8
1
10
25.750921216182
20
19.229882399097
0
SEQEND
0
POLYLINE
8
1
66
1
70
1
0
VERTEX
8
1
10
29.192370189222
20
9.201540618918
42
-0.052852215233
0
VERTEX
8
1
10
28.608296483569
20
9.0767918
42
0.093063361012
0
VERTEX
8
1
10
29.609127676414
20
9.128639803858
42
0.483525948607
0
VERTEX
8
1
10
29.750932211739
20
9.359234466107
0
VERTEX
8
1
10
29.664418400866
20
9.644546768033
42
-0.214477426702
0
VERTEX
8
1
10
29.530538169729
20
9.236360217492
42
-1.
0
VERTEX
8
1
10
29.432429994826
20
9.285230435722
0
VERTEX
8
1
10
29.359014345948
20
9.211594143779
0
VERTEX
8
1
10
29.202276618707
20
9.132931089405
42
-0.302775637732
0
SEQEND
0
POLYLINE
8
1
66
1
70
1
0
VERTEX
8
1
10
28.235975426261
20
9.853555864009
42
-0.045383013667
0
VERTEX
8
1
10
28.730518935528
20
9.926305512031
42
-1.
0
VERTEX
8
1
10
28.770512391911
20
9.406780825947
0
VERTEX
8
1
10
28.373923519993
20
9.32684400441
0
VERTEX
8
1
10
28.824556467949
20
9.323532295272
42
0.675469939301
0
VERTEX
8
1
10
29.063880796669
20
9.897395248147
0
VERTEX
8
1
10
29.034382151279
20
9.956171895863
0
VERTEX
8
1
10
29.134819838176
20
9.988183922469
42
0.205557584611
0
VERTEX
8
1
10
28.798981369664
20
10.03424656873
42
-0.61803398875
0
VERTEX
8
1
10
28.793991381077
20
10.09305999029
42
0.082642940834
0
SEQEND
0
POLYLINE
8
1
66
1
70
1
0
VERTEX
8
1
10
29.62498531706
20
9.943670446337
0
VERTEX
8
1
10
29.646620511392
20
10.275703780413
42
0.270371149727
0
VERTEX
8
1
10
29.324392931058
20
10.508569872091
42
-0.160643342546
0
SEQEND
0
POLYLINE
8
1
66
1
70
1
0
VERTEX
8
1
10
28.930850015705
20
7.374688023603
42
-0.052852215233
0
VERTEX
8
1
10
28.338764102211
20
7.453037449242
42
0.093063361012
0
VERTEX
8
1
10
29.299025402714
20
7.166245666181
42
0.483525948607
0
VERTEX
8
1
10
29.509950010032
20
7.335931359521
0
VERTEX
8
1
10
29.524128084765
20
7.633734534955
42
-0.214477426702
0
VERTEX
8
1
10
29.261111931379
20
7.294083715156
42
-1.
0
VERTEX
8
1
10
29.185074190522
20
7.373025302282
0
VERTEX
8
1
10
29.091215439852
20
7.328273811648
0
VERTEX
8
1
10
28.917173977108
20
7.306729426992
42
-0.302775637732
0
SEQEND
0
POLYLINE
8
1
66
1
70
1
0
VERTEX
8
1
10
28.248498415998
20
8.309680599418
42
-0.045383013667
0
VERTEX
8
1
10
28.738800409135
20
8.21236796215
42
-1.
0
VERTEX
8
1
10
28.602250821353
20
7.709516506867
0
VERTEX
8
1
10
28.201820688267
20
7.7672082505
0
VERTEX
8
1
10
28.625247129143
20
7.612964708115
42
0.675469939301
0
VERTEX
8
1
10
29.043162170749
20
8.073336124473
0
VERTEX
8
1
10
29.035083026503
20
8.138601673002
0
VERTEX
8
1
10
29.140439931069
20
8.135077264259
42
0.205557584611
0
VERTEX
8
1
10
28.839497179103
20
8.291098751089
42
-0.61803398875
0
VERTEX
8
1
10
28.854519741741
20
8.348179756279
42
0.082642940834
0
SEQEND
0
POLYLINE
8
1
66
1
70
1
0
VERTEX
8
1
10
29.58729223167
20
7.928760353429
0
VERTEX
8
1
10
29.719024762015
20
8.234310279007
42
0.270371149727
0
VERTEX
8
1
10
29.493550832219
20
8.561753002493
42
-0.160643342546
0
SEQEND
0
POLYLINE
8
1
66
1
70
1
0
VERTEX
8
1
10
28.205129084457
20
5.682696173483
42
-0.052852215233
0
VERTEX
8
1
10
27.671025350488
20
5.949974236212
42
0.093063361012
0
VERTEX
8
1
10
28.485126618948
20
5.365516866708
42
0.483525948607
0
VERTEX
8
1
10
28.73987829542
20
5.45708109461
0
VERTEX
8
1
10
28.850463563422
20
5.7339540756
42
-0.214477426702
0
VERTEX
8
1
10
28.491006677572
20
5.498728814315
42
-1.
0
VERTEX
8
1
10
28.444893010447
20
5.598162419886
0
VERTEX
8
1
10
28.341568665296
20
5.586490201145
0
VERTEX
8
1
10
28.170024529725
20
5.622920968573
42
-0.302775637732
0
SEQEND
0
POLYLINE
8
1
66
1
70
1
0
VERTEX
8
1
10
27.865253321827
20
6.789176760041
42
-0.045383013667
0
VERTEX
8
1
10
28.296957007884
20
6.537189218105
42
-1.
0
VERTEX
8
1
10
28.00378524494
20
6.106427458642
0
VERTEX
8
1
10
27.644103678099
20
6.291634907846
0
VERTEX
8
1
10
27.994014446734
20
6.007656959419
42
0.675469939301
0
VERTEX
8
1
10
28.539285460759
20
6.306445085463
0
VERTEX
8
1
10
28.552946998544
20
6.370774136303
0
VERTEX
8
1
10
28.651385944593
20
6.333061105432
42
0.205557584611
0
VERTEX
8
1
10
28.417833630402
20
6.578749039302
42
-0.61803398875
0
VERTEX
8
1
10
28.450661262169
20
6.627802735739
42
0.082642940834
0
SEQEND
0
POLYLINE
8
1
66
1
70
1
0
VERTEX
8
1
10
29.006446786699
20
5.992215913813
0
VERTEX
8
1
10
29.230678955319
20
6.238049498027
42
0.270371149727
0
VERTEX
8
1
10
29.124404503086
20
6.62114605372
42
-0.160643342546
0
SEQEND
0
POLYLINE
8
1
66
1
70
1
0
VERTEX
8
1
10
27.025336908097
20
4.252109097084
42
-0.052852215233
0
VERTEX
8
1
10
26.582744254086
20
4.65312792965
42
0.093063361012
0
VERTEX
8
1
10
27.209762513497
20
3.87133550551
42
0.483525948607
0
VERTEX
8
1
10
27.479751248554
20
3.891046097557
0
VERTEX
8
1
10
27.66069566174
20
4.127999401899
42
-0.214477426702
0
VERTEX
8
1
10
27.251236564656
20
3.99806317082
42
-1.
0
VERTEX
8
1
10
27.233550404304
20
4.106232999999
0
VERTEX
8
1
10
27.130891709938
20
4.122766404436
0
VERTEX
8
1
10
26.975455614651
20
4.203971155196
42
-0.302775637732
0
SEQEND
0
POLYLINE
8
1
66
1
70
1
0
VERTEX
8
1
10
26.995419581845
20
5.409226107607
42
-0.045383013667
0
VERTEX
8
1
10
27.343492020412
20
5.050462436988
42
-1.
0
VERTEX
8
1
10
26.945313348622
20
4.714368519555
0
VERTEX
8
1
10
26.648659838016
20
4.98944909577
0
VERTEX
8
1
10
26.909350432275
20
4.621860419033
42
0.675469939301
0
VERTEX
8
1
10
27.514870924492
20
4.763068621715
0
VERTEX
8
1
10
27.545322706028
20
4.821357157447
0
VERTEX
8
1
10
27.62999994222
20
4.75856970275
42
0.205557584611
0
VERTEX
8
1
10
27.471091361501
20
5.057998003495
42
-0.61803398875
0
VERTEX
8
1
10
27.515897358025
20
5.096421189427
42
0.082642940834
0
SEQEND
0
POLYLINE
8
1
66
1
70
1
0
VERTEX
8
1
10
27.88036380875
20
4.334822631276
0
VERTEX
8
1
10
28.162427628142
20
4.511328207283
42
0.270371149727
0
VERTEX
8
1
10
28.163050361073
20
4.90889184041
42
-0.160643342546
0
SEQEND
0
POLYLINE
8
1
66
1
70
1
0
VERTEX
8
1
10
25.413373125689
20
3.29070962894
42
-0.052852215233
0
VERTEX
8
1
10
25.11494600386
20
3.808054402194
42
0.093063361012
0
VERTEX
8
1
10
25.472254564701
20
2.871741482051
42
0.483525948607
0
VERTEX
8
1
10
25.735296205423
20
2.807776493636
0
VERTEX
8
1
10
25.980142146704
20
2.977888851036
42
-0.214477426702
0
VERTEX
8
1
10
25.550564423426
20
2.979665363103
42
-1.
0
VERTEX
8
1
10
25.566873392367
20
3.088051385009
0
VERTEX
8
1
10
25.474218663335
20
3.135245263628
0
VERTEX
8
1
10
25.351141165479
20
3.260171324903
42
-0.302775637732
0
SEQEND
0
POLYLINE
8
1
66
1
70
1
0
VERTEX
8
1
10
25.73944809334
20
4.401335550627
42
-0.045383013667
0
VERTEX
8
1
10
25.960848925478
20
3.953175461624
42
-1.
0
VERTEX
8
1
10
25.478840071883
20
3.755254161455
0
VERTEX
8
1
10
25.28074347243
20
4.108001048119
0
VERTEX
8
1
10
25.416261506032
20
3.678215190082
42
0.675469939301
0
VERTEX
8
1
10
26.035923798218
20
3.627093114196
0
VERTEX
8
1
10
26.082771071196
20
3.673247175892
0
VERTEX
8
1
10
26.144136517303
20
3.587533811586
42
0.205557584611
0
VERTEX
8
1
10
26.084619634616
20
3.921250735023
42
-0.61803398875
0
VERTEX
8
1
10
26.139043715996
20
3.944096695443
42
0.082642940834
0
SEQEND
0
POLYLINE
8
1
66
1
70
1
0
VERTEX
8
1
10
26.252617001907
20
3.107455036063
0
VERTEX
8
1
10
26.575196597833
20
3.189043153237
42
0.270371149727
0
VERTEX
8
1
10
26.697607202859
20
3.567292904008
42
-0.160643342546
0
SEQEND
0
POLYLINE
8
1
66
1
70
1
0
VERTEX
8
1
10
23.630255843703
20
2.85692428384
42
-0.052852215233
0
VERTEX
8
1
10
23.547171422708
20
3.448364340349
42
0.093063361012
0
VERTEX
8
1
10
23.528032286176
20
2.446373828653
42
0.483525948607
0
VERTEX
8
1
10
23.748008803656
20
2.28859944463
0
VERTEX
8
1
10
24.038730181103
20
2.354696568599
42
-0.214477426702
0
VERTEX
8
1
10
23.641046387408
20
2.51713971731
42
-1.
0
VERTEX
8
1
10
23.69673985476
20
2.611541782472
0
VERTEX
8
1
10
23.628486036321
20
2.689986522638
0
VERTEX
8
1
10
23.561117121572
20
2.851900143405
42
-0.302775637732
0
SEQEND
0
POLYLINE
8
1
66
1
70
1
0
VERTEX
8
1
10
24.348345978078
20
3.764757628328
42
-0.045383013667
0
VERTEX
8
1
10
24.385900287567
20
3.266304553621
42
-1.
0
VERTEX
8
1
10
23.864847801366
20
3.263192861426
0
VERTEX
8
1
10
23.813189342482
20
3.664445939161
0
VERTEX
8
1
10
23.777981946857
20
3.215178245582
42
0.675469939301
0
VERTEX
8
1
10
24.333461153266
20
2.935826005127
0
VERTEX
8
1
10
24.394178761054
20
2.961089348158
0
VERTEX
8
1
10
24.418999652239
20
2.85863730007
42
0.205557584611
0
VERTEX
8
1
10
24.488723467072
20
3.190371883673
42
-0.61803398875
0
VERTEX
8
1
10
24.547742587905
20
3.191185466936
42
0.082642940834
0
SEQEND
0
POLYLINE
8
1
66
1
70
1
0
VERTEX
8
1
10
24.339895047267
20
2.372853286624
0
VERTEX
8
1
10
24.669563464173
20
2.327765023561
42
0.270371149727
0
VERTEX
8
1
10
24.924658344794
20
2.63269752767
42
-0.160643342546
0
SEQEND
0
POLYLINE
8
1
66
1
70
1
0
VERTEX
8
1
10
21.78729512506
20
3.026455266255
42
-0.052852215233
0
VERTEX
8
1
10
21.908734696361
20
3.611225983698
42
0.093063361012
0
VERTEX
8
1
10
21.552485808109
20
2.674509366094
42
0.483525948607
0
VERTEX
8
1
10
21.706291974536
20
2.451740230742
0
VERTEX
8
1
10
22.002260872216
20
2.41582142358
42
-0.214477426702
0
VERTEX
8
1
10
21.682754205815
20
2.702972370744
42
-1.
0
VERTEX
8
1
10
21.767045142922
20
2.773033416512
0
VERTEX
8
1
10
21.729277482863
20
2.869913573639
0
VERTEX
8
1
10
21.720518643902
20
3.045064577074
42
-0.302775637732
0
SEQEND
0
POLYLINE
8
1
66
1
70
1
0
VERTEX
8
1
10
22.769685275183
20
3.638602646707
42
-0.045383013667
0
VERTEX
8
1
10
22.636776847324
20
3.156730107907
42
-1.
0
VERTEX
8
1
10
22.145257894048
20
3.329688179628
0
VERTEX
8
1
10
22.232079085055
20
3.724827028083
0
VERTEX
8
1
10
22.047282882051
20
3.313814394998
42
0.675469939301
0
VERTEX
8
1
10
22.475858957201
20
2.863350888364
0
VERTEX
8
1
10
22.541540583489
20
2.866635452975
0
VERTEX
8
1
10
22.53032073755
20
2.761818403533
42
0.205557584611
0
VERTEX
8
1
10
22.707932747963
20
3.05054529537
42
-0.61803398875
0
VERTEX
8
1
10
22.763762291406
20
3.031388557116
42
0.082642940834
0
SEQEND
0
POLYLINE
8
1
66
1
70
1
0
VERTEX
8
1
10
22.291877440683
20
2.331250824137
0
VERTEX
8
1
10
22.586975449612
20
2.177525804385
42
0.270371149727
0
VERTEX
8
1
10
22.930030563506
20
2.378449717875
42
-0.160643342546
0
SEQEND
0
POLYLINE
8
1
66
1
70
1
0
VERTEX
8
1
10
20.073727916585
20
3.756269597113
42
-0.052852215233
0
VERTEX
8
1
10
20.355261095368
20
4.282998588817
42
0.093063361012
0
VERTEX
8
1
10
19.749139467568
20
3.484895923498
42
0.483525948607
0
VERTEX
8
1
10
19.833825333855
20
3.227775857094
0
VERTEX
8
1
10
20.107626863234
20
3.10979080884
42
-0.214477426702
0
VERTEX
8
1
10
19.882145315465
20
3.475438519003
42
-1.
0
VERTEX
8
1
10
19.982782114279
20
3.518863706819
0
VERTEX
8
1
10
19.97389048489
20
3.622464382097
0
VERTEX
8
1
10
20.014917571348
20
3.792967664883
42
-0.302775637732
0
SEQEND
0
POLYLINE
8
1
66
1
70
1
0
VERTEX
8
1
10
21.188941603959
20
4.066290973708
42
-0.045383013667
0
VERTEX
8
1
10
20.925444963398
20
3.641514192023
42
-1.
0
VERTEX
8
1
10
20.502716408001
20
3.946154872917
0
VERTEX
8
1
10
20.697521799616
20
4.300729954055
0
VERTEX
8
1
10
20.40424411853
20
3.958576153876
42
0.675469939301
0
VERTEX
8
1
10
20.688272665117
20
3.405473443953
0
VERTEX
8
1
10
20.752211396162
20
3.390088286532
0
VERTEX
8
1
10
20.711866880816
20
3.292698251733
42
0.205557584611
0
VERTEX
8
1
10
20.963741765406
20
3.51956448286
42
-0.61803398875
0
VERTEX
8
1
10
21.01189565547
20
3.485430607994
42
0.082642940834
0
SEQEND
0
POLYLINE
8
1
66
1
70
1
0
VERTEX
8
1
10
20.361604105017
20
2.946924287796
0
VERTEX
8
1
10
20.601323698408
20
2.716167417657
42
0.270371149727
0
VERTEX
8
1
10
20.987137572501
20
2.812109508202
42
-0.160643342546
0
SEQEND
0
POLYLINE
8
1
66
1
70
1
0
VERTEX
8
1
10
18.621546024432
20
4.960374594486
42
-0.052852215233
0
VERTEX
8
1
10
19.053416640286
20
5.372918086275
42
0.093063361012
0
VERTEX
8
1
10
18.228472209342
20
4.803868019999
42
0.483525948607
0
VERTEX
8
1
10
18.228675459062
20
4.533160829133
0
VERTEX
8
1
10
18.451973381343
20
4.335611374549
42
-0.214477426702
0
VERTEX
8
1
10
18.351881667585
20
4.753369468628
42
-1.
0
VERTEX
8
1
10
18.461044778174
20
4.763214645071
0
VERTEX
8
1
10
18.484933052552
20
4.864414997534
0
VERTEX
8
1
10
18.577127812869
20
5.013595148472
42
-0.302775637732
0
SEQEND
0
POLYLINE
8
1
66
1
70
1
0
VERTEX
8
1
10
19.777810578295
20
4.906829249864
42
-0.045383013667
0
VERTEX
8
1
10
19.394896640417
20
4.585515213406
42
-1.
0
VERTEX
8
1
10
19.088370330693
20
5.006878474086
0
VERTEX
8
1
10
19.384113358146
20
5.282937689616
0
VERTEX
8
1
10
18.99869432327
20
5.049414267331
42
0.675469939301
0
VERTEX
8
1
10
19.095900003962
20
4.435292228449
0
VERTEX
8
1
10
19.151842560564
20
4.400719193329
0
VERTEX
8
1
10
19.083116282475
20
4.320786737489
42
0.205557584611
0
VERTEX
8
1
10
19.39321747182
20
4.45770458395
42
-0.61803398875
0
VERTEX
8
1
10
19.428311923949
20
4.410246202484
42
0.082642940834
0
SEQEND
0
POLYLINE
8
1
66
1
70
1
0
VERTEX
8
1
10
18.642429029655
20
4.101610115905
0
VERTEX
8
1
10
18.798149451247
20
3.807560176488
42
0.270371149727
0
VERTEX
8
1
10
19.194634586624
20
3.778289583627
42
-0.160643342546
0
SEQEND
0
POLYLINE
8
1
66
1
70
1
0
VERTEX
8
1
10
17.593677536327
20
6.489383540814
42
-0.052852215233
0
VERTEX
8
1
10
18.092692583704
20
6.817542563161
42
0.093063361012
0
VERTEX
8
1
10
17.178867855819
20
6.406111331019
42
0.483525948607
0
VERTEX
8
1
10
17.130388775511
20
6.139780327812
0
VERTEX
8
1
10
17.314523097941
20
5.905297278521
42
-0.214477426702
0
VERTEX
8
1
10
17.291184911125
20
6.334244251197
42
-1.
0
VERTEX
8
1
10
17.400338954659
20
6.324299051713
0
VERTEX
8
1
10
17.442035847254
20
6.419554131048
0
VERTEX
8
1
10
17.559553584387
20
6.549723915266
42
-0.302775637732
0
SEQEND
0
POLYLINE
8
1
66
1
70
1
0
VERTEX
8
1
10
18.721465471778
20
6.228789613211
42
-0.045383013667
0
VERTEX
8
1
10
18.287014102958
20
5.981569464404
42
-1.
0
VERTEX
8
1
10
18.061254650631
20
6.451184248763
0
VERTEX
8
1
10
18.401818265114
20
6.669562483155
0
VERTEX
8
1
10
17.980689288438
20
6.509152364386
42
0.675469939301
0
VERTEX
8
1
10
17.9658779959
20
5.887561302181
0
VERTEX
8
1
10
18.014691664981
20
5.843492150756
0
VERTEX
8
1
10
17.932712091289
20
5.777221129233
42
0.205557584611
0
VERTEX
8
1
10
18.262379186332
20
5.856144197842
42
-0.61803398875
0
VERTEX
8
1
10
18.288367526759
20
5.803148681961
42
0.082642940834
0
SEQEND
0
POLYLINE
8
1
66
1
70
1
0
VERTEX
8
1
10
17.459795676863
20
5.64086237002
0
VERTEX
8
1
10
17.560101186537
20
5.323603766826
42
0.270371149727
0
VERTEX
8
1
10
17.944859821232
20
5.22351369135
42
-0.160643342546
0
SEQEND
0
POLYLINE
8
1
66
1
70
1
0
VERTEX
8
1
10
17.188995323801
20
8.345872426816
42
-0.052852215233
0
VERTEX
8
1
10
17.766502964513
20
8.498152715674
42
0.093063361012
0
VERTEX
8
1
10
16.769252010069
20
8.398946738352
42
0.483525948607
0
VERTEX
8
1
10
16.638531549362
20
8.161892766335
0
VERTEX
8
1
10
16.738465400984
20
7.880999593756
42
-0.214477426702
0
VERTEX
8
1
10
16.852856717774
20
8.295070605751
42
-1.
0
VERTEX
8
1
10
16.953170041138
20
8.250903317309
0
VERTEX
8
1
10
17.023014597745
20
8.327935121803
0
VERTEX
8
1
10
17.17584951738
20
8.413935578804
42
-0.302775637732
0
SEQEND
0
POLYLINE
8
1
66
1
70
1
0
VERTEX
8
1
10
18.175206545431
20
7.739900274995
42
-0.045383013667
0
VERTEX
8
1
10
17.684665011497
20
7.643802422096
42
-1.
0
VERTEX
8
1
10
17.620103039334
20
8.160848965218
0
VERTEX
8
1
10
18.012459424943
20
8.259485142345
0
VERTEX
8
1
10
17.562175599794
20
8.24144357895
42
0.675469939301
0
VERTEX
8
1
10
17.35030781009
20
7.656886599105
0
VERTEX
8
1
10
17.382557981465
20
7.599573504241
0
VERTEX
8
1
10
17.283749705088
20
7.562839006613
42
0.205557584611
0
VERTEX
8
1
10
17.621393358101
20
7.532739041607
42
-0.61803398875
0
VERTEX
8
1
10
17.629164135959
20
7.474228072096
42
0.082642940834
0
SEQEND
0
POLYLINE
8
1
66
1
70
1
0
VERTEX
8
1
10
16.792025732065
20
7.584080018861
0
VERTEX
8
1
10
16.786145513965
20
7.251394522324
42
0.270371149727
0
VERTEX
8
1
10
17.119043714888
20
7.034056035157
42
-0.160643342546
0
SEQEND
0
POLYLINE
8
1
66
1
70
1
0
VERTEX
8
1
10
17.409047220343
20
10.208043567357
42
-0.052852215233
0
VERTEX
8
1
10
18.001639471564
20
10.133620551769
42
0.093063361012
0
VERTEX
8
1
10
17.039498245065
20
10.41404086549
42
0.483525948607
0
VERTEX
8
1
10
16.82970304678
20
10.242960769415
0
VERTEX
8
1
10
16.817499295665
20
9.945070156
42
-0.214477426702
0
VERTEX
8
1
10
17.078258268187
20
10.286456937497
42
-1.
0
VERTEX
8
1
10
17.154817609166
20
10.2080211069
0
VERTEX
8
1
10
17.248377658997
20
10.253393764601
0
VERTEX
8
1
10
17.422272489501
20
10.27609132368
42
-0.302775637732
0
SEQEND
0
POLYLINE
8
1
66
1
70
1
0
VERTEX
8
1
10
18.09758150225
20
9.277594554734
42
-0.045383013667
0
VERTEX
8
1
10
17.606645236105
20
9.371655048189
42
-1.
0
VERTEX
8
1
10
17.739858632955
20
9.875400586039
0
VERTEX
8
1
10
18.14066238321
20
9.820364392973
0
VERTEX
8
1
10
17.716222829066
20
9.971797830755
42
0.675469939301
0
VERTEX
8
1
10
17.301368577457
20
9.50866634519
0
VERTEX
8
1
10
17.309880162112
20
9.443455783751
0
VERTEX
8
1
10
17.204502210336
20
9.446281748407
42
0.205557584611
0
VERTEX
8
1
10
17.506472551694
20
9.292258512326
42
-0.61803398875
0
VERTEX
8
1
10
17.491828685094
20
9.235079182908
42
0.082642940834
0
SEQEND
0
POLYLINE
8
1
66
1
70
1
0
VERTEX
8
1
10
16.756292138634
20
9.649632130437
0
VERTEX
8
1
10
16.626587864445
20
9.343215717971
42
0.270371149727
0
VERTEX
8
1
10
16.854227320988
20
9.017274760118
42
-0.160643342546
0
SEQEND
0
POLYLINE
8
1
66
1
70
1
0
VERTEX
8
1
10
18.107989318291
20
11.907713482316
42
-0.052852215233
0
VERTEX
8
1
10
18.645399449437
20
11.647147344075
42
0.093063361012
0
VERTEX
8
1
10
17.824040311867
20
12.22136024815
42
0.483525948607
0
VERTEX
8
1
10
17.570455691202
20
12.126611819882
0
VERTEX
8
1
10
17.463347609768
20
11.848375215545
42
-0.214477426702
0
VERTEX
8
1
10
17.81982951892
20
12.08808509181
42
-1.
0
VERTEX
8
1
10
17.867185215655
20
11.989236974988
0
VERTEX
8
1
10
17.970355229815
20
12.002202667003
0
VERTEX
8
1
10
18.142342288213
20
11.967923766674
42
-0.302775637732
0
SEQEND
0
POLYLINE
8
1
66
1
70
1
0
VERTEX
8
1
10
18.461699776064
20
10.80557749501
42
-0.045383013667
0
VERTEX
8
1
10
18.026873208388
20
11.052137122461
42
-1.
0
VERTEX
8
1
10
18.314625624989
20
11.486537770186
0
VERTEX
8
1
10
18.676599141733
20
11.305850742588
0
VERTEX
8
1
10
18.323158315274
20
11.585422921805
42
0.675469939301
0
VERTEX
8
1
10
17.78167313882
20
11.279827393893
0
VERTEX
8
1
10
17.768818551196
20
11.215332246994
0
VERTEX
8
1
10
17.669914882178
20
11.251809130789
42
0.205557584611
0
VERTEX
8
1
10
17.906526709266
20
11.009066288267
42
-0.61803398875
0
VERTEX
8
1
10
17.874316170613
20
10.959605195059
42
0.082642940834
0
SEQEND
0
POLYLINE
8
1
66
1
70
1
0
VERTEX
8
1
10
17.310611985585
20
11.588179573525
0
VERTEX
8
1
10
17.089477077483
20
11.339556225888
42
0.270371149727
0
VERTEX
8
1
10
17.200542408119
20
10.957821078813
42
-0.160643342546
0
SEQEND
0
POLYLINE
8
1
66
1
70
1
0
VERTEX
8
1
10
27.73654564307
20
12.642035838682
42
-0.052852215233
0
VERTEX
8
1
10
27.325970103771
20
12.208293878543
42
0.093063361012
0
VERTEX
8
1
10
28.121250638751
20
12.818113657459
42
0.483525948607
0
VERTEX
8
1
10
28.107432659586
20
13.088468032213
0
VERTEX
8
1
10
27.874481751401
20
13.274536899779
42
-0.214477426702
0
VERTEX
8
1
10
27.995457580052
20
12.862341527154
42
-1.
0
VERTEX
8
1
10
27.886927775712
20
12.847018544991
0
VERTEX
8
1
10
27.868159518356
20
12.744744826436
0
VERTEX
8
1
10
27.783584323357
20
12.591116614004
42
-0.302775637732
0
SEQEND
0
POLYLINE
8
1
66
1
70
1
0
VERTEX
8
1
10
26.579051384013
20
12.637360081973
42
-0.045383013667
0
VERTEX
8
1
10
26.945320509964
20
12.977525808084
42
-1.
0
VERTEX
8
1
10
27.272650999779
20
12.572112282852
0
VERTEX
8
1
10
26.991166412474
20
12.281528291765
0
VERTEX
8
1
10
27.36435281896
20
12.534140498942
42
0.675469939301
0
VERTEX
8
1
10
27.236383414269
20
13.142596458288
0
VERTEX
8
1
10
27.178772834607
20
13.174312156412
0
VERTEX
8
1
10
27.243392001553
20
13.257599983013
42
0.205557584611
0
VERTEX
8
1
10
26.940569427176
20
13.105259138979
42
-0.61803398875
0
VERTEX
8
1
10
26.903132510166
20
13.15089241397
42
0.082642940834
0
SEQEND
0
POLYLINE
8
1
66
1
70
1
0
VERTEX
8
1
10
27.672498241289
20
13.49866321386
0
VERTEX
8
1
10
27.502185901637
20
13.784509192551
42
0.270371149727
0
VERTEX
8
1
10
27.104730399106
20
13.793801861148
42
-0.160643342546
0
SEQEND
0
POLYLINE
8
1
66
1
70
1
0
VERTEX
8
1
10
19.329801060906
20
12.308281961957
42
-0.045383013667
0
VERTEX
8
1
10
19.012403631898
20
12.694448591672
42
-1.
0
VERTEX
8
1
10
19.436866978568
20
12.996667458287
0
VERTEX
8
1
10
19.709899761256
20
12.698128133669
0
VERTEX
8
1
10
19.480313907116
20
13.08590559147
42
0.675469939301
0
VERTEX
8
1
10
18.865233690669
20
12.994959726606
0
VERTEX
8
1
10
18.830092679197
20
12.939372194647
0
VERTEX
8
1
10
18.750864339797
20
13.008909012467
42
0.205557584611
0
VERTEX
8
1
10
18.884616733829
20
12.697429412166
42
-0.61803398875
0
VERTEX
8
1
10
18.836803380282
20
12.662820139358
42
0.082642940834
0
SEQEND
0
POLYLINE
8
1
66
1
70
1
0
VERTEX
8
1
10
20.650822712651
20
13.2215385132
42
-0.045383013667
0
VERTEX
8
1
10
20.464909531868
20
13.685545068173
42
-1.
0
VERTEX
8
1
10
20.960838369014
20
13.845419908252
0
VERTEX
8
1
10
21.130930597438
20
13.478348712711
0
VERTEX
8
1
10
21.029213096176
20
13.917364169315
42
0.675469939301
0
VERTEX
8
1
10
20.415395564865
20
14.016474518196
0
VERTEX
8
1
10
20.36510409129
20
13.974099618995
0
VERTEX
8
1
10
20.310583369284
20
14.064321510288
42
0.205557584611
0
VERTEX
8
1
10
20.343993226293
20
13.726989291596
42
-0.61803398875
0
VERTEX
8
1
10
20.287958698581
20
13.708440700121
42
0.082642940834
0
SEQEND
0
POLYLINE
8
1
66
1
70
1
0
VERTEX
8
1
10
23.637250745735
20
13.979396495008
42
-0.045383013667
0
VERTEX
8
1
10
23.711614321461
20
14.473699896221
42
-1.
0
VERTEX
8
1
10
24.220281623986
20
14.360726663349
0
VERTEX
8
1
10
24.181308746771
20
13.95804348316
0
VERTEX
8
1
10
24.315657166608
20
14.388196390028
42
0.675469939301
0
VERTEX
8
1
10
23.83631483158
20
14.784208698991
0
VERTEX
8
1
10
23.771496567413
20
14.773097577223
0
VERTEX
8
1
10
23.770108523989
20
14.878504275929
42
0.205557584611
0
VERTEX
8
1
10
23.628277521015
20
14.570619214732
42
-0.61803398875
0
VERTEX
8
1
10
23.57055859362
20
14.582966034648
42
0.082642940834
0
SEQEND
0
POLYLINE
8
1
66
1
70
1
0
VERTEX
8
1
10
26.283544266908
20
13.798416330821
42
-0.052852215233
0
VERTEX
8
1
10
25.985950284643
20
13.280591859425
42
0.093063361012
0
VERTEX
8
1
10
26.616322458267
20
14.059682492662
42
0.483525948607
0
VERTEX
8
1
10
26.539581588446
20
14.319284617838
0
VERTEX
8
1
10
26.269536851538
20
14.445631715824
42
-0.214477426702
0
VERTEX
8
1
10
26.48367024522
20
14.073224591776
42
-1.
0
VERTEX
8
1
10
26.381745944143
20
14.032913934843
0
VERTEX
8
1
10
26.38744824506
20
13.929088866793
0
VERTEX
8
1
10
26.341198556902
20
13.759927530757
42
-0.302775637732
0
SEQEND
0
POLYLINE
8
1
66
1
70
1
0
VERTEX
8
1
10
25.15932638387
20
13.522827916861
42
-0.045383013667
0
VERTEX
8
1
10
25.435757909655
20
13.939302892577
42
-1.
0
VERTEX
8
1
10
25.848920684574
20
13.6218097471
0
VERTEX
8
1
10
25.64330623503
20
13.273391425389
0
VERTEX
8
1
10
25.946964541604
20
13.606366881013
42
0.675469939301
0
VERTEX
8
1
10
25.680074988948
20
14.167940375476
0
VERTEX
8
1
10
25.616639487935
20
14.185284008536
0
VERTEX
8
1
10
25.659959115533
20
14.281387643542
42
0.205557584611
0
VERTEX
8
1
10
25.401228463741
20
14.062372360659
42
-0.61803398875
0
VERTEX
8
1
10
25.354146757249
20
14.097970555213
42
0.082642940834
0
SEQEND
0
POLYLINE
8
1
66
1
70
1
0
VERTEX
8
1
10
26.020686878266
20
14.61622958751
0
VERTEX
8
1
10
25.788175051558
20
14.854247374686
42
0.270371149727
0
VERTEX
8
1
10
25.399593890152
20
14.770212196446
42
-0.160643342546
0
SEQEND
0
LINE
8
1
10
19.416311161835
20
8.432732275518
11
18.488557863472
21
8.571461740694
0
LINE
8
1
10
20.244352657103
20
8.827244192111
11
18.713993244382
21
9.395167940175
0
LINE
8
1
10
21.653323787795
20
8.333020472423
11
21.445229590031
21
8.424061683944
0
LINE
8
1
10
21.692341449876
20
8.619149994348
11
19.477005302849
21
9.915403434584
0
LINE
8
1
10
21.783382661397
20
8.944297178354
11
19.758799528988
21
10.648068422544
0
LINE
8
1
10
21.787717957184
20
9.447191489616
11
21.397541336377
21
9.915403434584
0
LINE
8
1
10
21.93945330972
20
10.032456420826
11
21.783382661397
21
10.218874139656
0
LINE
8
1
10
20.881641137754
20
10.513674253155
11
20.179323220302
21
11.328709861063
0
LINE
8
1
10
21.666329675155
20
12.009351299582
11
21.588294350994
21
12.174092539478
0
LINE
8
1
10
22.477029987276
20
11.979004229074
11
22.412000550475
21
12.412533807749
0
LINE
8
1
10
22.320959338953
20
10.106156449201
11
22.09985925383
21
10.639397830971
0
LINE
8
1
10
23.985712921063
20
12.100392511103
11
24.081089428372
21
12.46455735719
0
LINE
8
1
10
24.74872497953
20
11.987674820648
11
24.89612503628
21
12.317157300441
0
LINE
8
1
10
25.338325206527
20
11.441427551518
11
25.572431179012
21
11.796921806031
0
LINE
8
1
10
25.659137094747
20
10.704427267772
11
26.188043180729
21
11.294027494769
0
LINE
8
1
10
26.023301940833
20
10.088815266054
11
26.630243350977
21
10.591709577316
0
ARC
8
1
10
23.194941029703
20
7.773368635999
40
1.294141771064
50
1.553339966743
51
76.358475708774
0
LINE
8
1
10
23.534842159242
20
9.161061967691
11
23.734265765432
21
10.591709577316
0
LINE
8
1
10
23.725595173859
20
9.074356051956
11
23.985712921063
21
9.837368110423
0
LINE
8
1
10
23.942359963196
20
8.996320727794
11
24.384560133444
21
9.846038701996
0
LINE
8
1
10
24.15045416096
20
8.814238304751
11
25.034854501455
21
9.863379885143
0
LINE
8
1
10
24.332536584003
20
8.658167656428
11
25.69381946104
21
9.785344560982
0
LINE
8
1
10
24.471266049179
20
8.510767599679
11
26.742961041433
21
9.820026927276
0
LINE
8
1
10
24.566642556487
20
8.224638077754
11
27.479961325179
21
9.30846202444
0
LINE
8
1
10
24.618666105928
20
7.99053210527
11
27.722737889237
21
8.528108782826
0
LINE
8
1
10
24.688030838516
20
7.765096724359
11
27.844126171266
21
7.851802640094
0
LINE
8
1
10
26.295941681721
20
6.883070519323
11
27.216018325341
21
6.360614937769
0
LINE
8
1
10
27.04957229936
20
6.846082513549
11
25.001361479641
21
7.682936144179
0
LINE
8
1
10
18.545648032264
20
7.737343067941
11
20.473127296021
21
7.737343067941
0
LINE
8
1
10
19.694227983283
20
7.535699083425
11
18.632631711859
21
7.367662429661
0
LINE
8
1
10
20.581856895515
20
7.533349009401
11
18.76994982347
21
6.927029911363
0
LINE
8
1
10
20.886299774099
20
7.430923287549
11
18.865906125319
21
6.648070171192
0
LINE
8
1
10
21.00096007902
20
7.316262982628
11
19.02010446642
21
6.319904470901
0
LINE
8
1
10
21.190742652682
20
7.193695070471
11
20.059954817944
21
6.430610972204
0
LINE
8
1
10
21.384479029962
20
7.047404336606
11
20.285321624168
21
6.138029504475
0
LINE
8
1
10
21.594030621714
20
6.912975013595
11
20.530457448482
21
5.928477912722
0
LINE
8
1
10
23.335194052663
20
7.343194688431
11
23.38103525403
21
7.214839324602
0
LINE
8
1
10
27.124479363485
20
7.056218716146
11
25.53350463331
21
7.63683305733
0
LINE
8
1
10
25.976965980514
20
7.664263656126
11
27.714237237602
21
7.152225811932
0
LINE
8
1
10
26.557580321698
20
7.623117757932
11
27.810244333388
21
7.316809404709
0
LINE
8
1
10
26.818171010262
20
7.65969188966
11
27.791957267524
21
7.65969188966
0
LINE
8
1
10
25.309488076475
20
6.301877249252
11
25.656942327892
21
5.917848866106
0
LINE
8
1
10
26.178123705019
20
6.640187967738
11
26.370137896592
21
6.493891440825
0
LINE
8
1
10
24.636834748874
20
5.120992926962
11
24.254277738844
21
5.230294929828
0
LINE
8
1
10
25.006779989343
20
5.284945931261
11
24.691485750307
21
5.39004401094
0
POLYLINE
8
1
66
1
0
VERTEX
8
1
10
21.556072134431
20
5.43448563973
42
-0.05357154707
0
VERTEX
8
1
10
21.897123722879
20
5.452205225733
0
VERTEX
8
1
10
21.959126334985
20
5.452205225733
0
VERTEX
8
1
10
22.005628294065
20
5.405703266654
0
VERTEX
8
1
10
21.943625681959
20
5.343700654547
0
VERTEX
8
1
10
22.284640048544
20
5.343700654547
0
VERTEX
8
1
10
22.315641354597
20
5.312699348494
0
VERTEX
8
1
10
22.269139395517
20
5.219695430334
42
-0.058965859609
0
VERTEX
8
1
10
22.687657027236
20
5.250696736388
0
VERTEX
8
1
10
22.718658333289
20
5.219695430334
0
VERTEX
8
1
10
22.664406047696
20
5.134441838688
42
-0.205096020283
0
VERTEX
8
1
10
23.044172046848
20
5.157692818228
42
0.540240433932
0
VERTEX
8
1
10
23.022919949579
20
5.069173362849
0
VERTEX
8
1
10
23.385186413433
20
5.095690206121
0
VERTEX
8
1
10
23.416187719486
20
5.064688900068
0
VERTEX
8
1
10
23.35418510738
20
4.971684981909
42
-0.09318730885
0
VERTEX
8
1
10
23.698648396013
20
5.050774993234
0
SEQEND
0
POLYLINE
8
1
66
1
0
VERTEX
8
1
10
24.098082133003
20
5.373217934212
0
VERTEX
8
1
10
24.017471402575
20
5.353065251605
42
0.576552547374
0
VERTEX
8
1
10
23.72295899507
20
5.353065251605
42
0.098172303609
0
VERTEX
8
1
10
23.412945934538
20
5.275561986472
0
VERTEX
8
1
10
23.381944628484
20
5.306563292525
0
VERTEX
8
1
10
23.428446587564
20
5.399567210685
0
VERTEX
8
1
10
23.381944628484
20
5.399567210685
0
VERTEX
8
1
10
23.350943322431
20
5.430568516738
0
VERTEX
8
1
10
23.443947240591
20
5.523572434897
0
VERTEX
8
1
10
22.839421772553
20
5.523572434897
0
VERTEX
8
1
10
22.622412630181
20
5.446069169764
42
-1.24661605081
0
VERTEX
8
1
10
22.575910671101
20
5.492571128844
0
VERTEX
8
1
10
22.575910671101
20
5.523572434897
0
VERTEX
8
1
10
22.746417854394
20
5.632077006084
0
VERTEX
8
1
10
22.622412630181
20
5.632077006084
0
VERTEX
8
1
10
22.529408712021
20
5.554573740951
0
VERTEX
8
1
10
22.281398263595
20
5.570074393977
0
VERTEX
8
1
10
22.157393039383
20
5.663078312137
0
VERTEX
8
1
10
22.281398263595
20
5.725080924243
42
0.208743777553
0
VERTEX
8
1
10
21.89388193793
20
5.74058157727
42
0.144751203152
0
VERTEX
8
1
10
21.423166136959
20
5.724384845336
0
SEQEND
0
LINE
8
1
10
21.298259591936
20
6.136077453204
11
20.880436977132
21
5.622268562027
0
POLYLINE
8
1
66
1
0
VERTEX
8
1
10
22.541288500424
20
9.528172212698
0
VERTEX
8
1
10
22.573830153778
20
9.479359732667
0
VERTEX
8
1
10
22.575910671101
20
9.476238956682
42
0.126754685938
0
VERTEX
8
1
10
22.8084204665
20
9.491739609708
0
VERTEX
8
1
10
22.841774490319
20
9.547329649407
0
SEQEND
0
POLYLINE
8
1
66
1
70
1
0
VERTEX
8
1
10
18.297730435758
20
18.575122283298
42
-0.128478873296
0
VERTEX
8
1
10
18.762750026556
20
18.621624242378
42
-0.245186961845
0
VERTEX
8
1
10
18.995259821955
20
18.668126201458
42
0.118069543666
0
VERTEX
8
1
10
19.320773535514
20
18.652625548431
42
-0.178709128582
0
VERTEX
8
1
10
18.765901779737
20
18.568741369775
42
-0.226193768135
0
SEQEND
0
POLYLINE
8
1
66
1
70
1
0
VERTEX
8
1
10
18.076185276837
20
18.546333202456
42
-0.098138724854
0
VERTEX
8
1
10
17.217302503822
20
18.390784686564
42
-0.258751471389
0
SEQEND
0
POLYLINE
8
1
66
1
70
1
0
VERTEX
8
1
10
19.835853799307
20
18.299506655236
42
0.208327765859
0
VERTEX
8
1
10
19.266218493624
20
18.217881996624
42
0.184739695047
0
VERTEX
8
1
10
19.082404268781
20
17.972115988129
42
0.17226649111
0
VERTEX
8
1
10
19.274271576434
20
17.970596815261
42
0.085144650113
0
VERTEX
8
1
10
19.723790514206
20
18.234107916713
42
-0.116793189135
0
SEQEND
0
LINE
8
1
10
20.113159501299
20
17.765964941625
11
19.749363536881
21
17.664102071588
0
POLYLINE
8
1
66
1
70
1
0
VERTEX
8
1
10
20.358899061238
20
18.859132891677
42
-0.110583735239
0
VERTEX
8
1
10
19.959030155268
20
18.819037963229
42
0.031219541881
0
VERTEX
8
1
10
19.339004034204
20
18.788036657176
0
VERTEX
8
1
10
19.677288555126
20
18.652625548431
42
0.166025574633
0
VERTEX
8
1
10
20.219811411057
20
18.745629466591
42
-0.109667339454
0
SEQEND
0
POLYLINE
8
1
66
1
70
1
0
VERTEX
8
1
10
20.886339491201
20
19.226149710416
42
0.219281284355
0
VERTEX
8
1
10
20.514323818563
20
19.102144486203
42
0.359384923756
0
SEQEND
0
LINE
8
1
10
24.467805723239
20
15.848046690276
11
26.511297231771
21
16.632243711757
0
LINE
8
1
10
24.517928264055
20
15.732382500517
11
26.339126527846
21
16.240043795417
0
LINE
8
1
10
24.560622620194
20
15.641592823246
11
26.672502545729
21
16.008652103443
0
LINE
8
1
10
24.553084791761
20
15.559497485113
11
26.614923938334
21
15.602072334747
0
LINE
8
1
10
23.495948775054
20
15.614973523598
11
22.981893520002
21
15.650837843718
0
LINE
8
1
10
23.487835675575
20
15.516732694048
11
23.012371963109
21
15.449680119213
0
LINE
8
1
10
23.518314118682
20
15.407010298863
11
23.036754717595
21
15.321670658164
0
LINE
8
1
10
23.524409807304
20
15.339957724028
11
23.079424537944
21
15.157087065387
0
POLYLINE
8
1
66
1
70
1
0
VERTEX
8
1
10
21.528883642344
20
16.113153404603
0
VERTEX
8
1
10
21.599255090143
20
16.256858951435
0
VERTEX
8
1
10
21.457855390545
20
16.181962023533
0
VERTEX
8
1
10
21.342929267091
20
16.293296703681
0
VERTEX
8
1
10
21.370465568247
20
16.135673174427
0
VERTEX
8
1
10
21.229065869957
20
16.060776244053
0
VERTEX
8
1
10
21.387483939595
20
16.03825647345
0
VERTEX
8
1
10
21.415020243507
20
15.880632944677
0
VERTEX
8
1
10
21.485391693819
20
16.024338490279
0
VERTEX
8
1
10
21.643809763851
20
16.001818722445
0
SEQEND
0
POLYLINE
8
1
66
1
70
1
0
VERTEX
8
1
10
21.906189572423
20
15.7975884449
0
VERTEX
8
1
10
21.976561020223
20
15.941293991732
0
VERTEX
8
1
10
21.835161320624
20
15.86639706383
0
VERTEX
8
1
10
21.72023519717
20
15.977731743978
0
VERTEX
8
1
10
21.747771498326
20
15.820108214725
0
VERTEX
8
1
10
21.606371800037
20
15.74521128435
0
VERTEX
8
1
10
21.764789869675
20
15.722691513747
0
VERTEX
8
1
10
21.792326173587
20
15.565067984974
0
VERTEX
8
1
10
21.862697623899
20
15.708773530576
0
VERTEX
8
1
10
22.02111569393
20
15.686253762742
0
SEQEND
0
POLYLINE
8
1
66
1
70
1
0
VERTEX
8
1
10
22.314365987691
20
15.478593431287
0
VERTEX
8
1
10
22.384737435491
20
15.622298978119
0
VERTEX
8
1
10
22.243337735892
20
15.547402050217
0
VERTEX
8
1
10
22.128411612438
20
15.658736730366
0
VERTEX
8
1
10
22.155947913594
20
15.501113201112
0
VERTEX
8
1
10
22.014548215305
20
15.426216270738
0
VERTEX
8
1
10
22.172966284943
20
15.403696500134
0
VERTEX
8
1
10
22.200502588855
20
15.246072971361
0
VERTEX
8
1
10
22.270874039167
20
15.389778516963
0
VERTEX
8
1
10
22.429292109198
20
15.367258749129
0
SEQEND
0
POLYLINE
8
1
66
1
70
1
0
VERTEX
8
1
10
19.043253981901
20
14.582130442403
42
0.051926455797
0
VERTEX
8
1
10
19.305629591219
20
14.623450804252
42
-0.632079491274
0
VERTEX
8
1
10
19.350353326527
20
14.570486737328
42
-0.222581765038
0
VERTEX
8
1
10
18.603334038317
20
14.520360268469
0
VERTEX
8
1
10
18.587092610517
20
14.561083455685
0
VERTEX
8
1
10
19.026926955994
20
14.760100755089
42
-0.379400329044
0
VERTEX
8
1
10
19.321990636736
20
14.700777012876
0
VERTEX
8
1
10
19.06250788896
20
14.630710535031
0
SEQEND
0
POLYLINE
8
1
66
1
70
1
0
VERTEX
8
1
10
19.209968276952
20
14.171589841152
42
0.126164427839
0
VERTEX
8
1
10
19.262639332288
20
14.284918239209
42
-0.456628882752
0
VERTEX
8
1
10
19.327468203579
20
14.273869173923
42
-0.16302471601
0
VERTEX
8
1
10
19.020893679371
20
13.714593227163
42
0.087372360253
0
VERTEX
8
1
10
18.838076374645
20
13.490022195335
42
-0.434552301912
0
VERTEX
8
1
10
18.789576847879
20
13.531644185385
42
-0.258114879394
0
VERTEX
8
1
10
19.170920557995
20
14.333906272783
0
VERTEX
8
1
10
19.214139805522
20
14.326540229259
42
-0.121630376723
0
VERTEX
8
1
10
18.987614746461
20
13.975994476611
0
VERTEX
8
1
10
18.931260669363
20
13.841056454791
0
SEQEND
0
POLYLINE
8
1
66
1
70
1
0
VERTEX
8
1
10
18.615489643945
20
14.208233122923
42
0.126164427839
0
VERTEX
8
1
10
18.703887060844
20
14.296570332309
42
-0.456628882752
0
VERTEX
8
1
10
18.760974824872
20
14.263922949644
42
-0.16302471601
0
VERTEX
8
1
10
18.280929231027
20
13.844001824494
42
0.087372360253
0
VERTEX
8
1
10
18.03209077542
20
13.695901391494
42
-0.434552301912
0
VERTEX
8
1
10
18.000841330063
20
13.751651425728
42
-0.258114879394
0
VERTEX
8
1
10
18.634579106135
20
14.374085288319
0
VERTEX
8
1
10
18.672637615486
20
14.352320366543
42
-0.121630376723
0
VERTEX
8
1
10
18.339475139875
20
14.100926866375
0
VERTEX
8
1
10
18.240195262088
20
13.993560402314
0
SEQEND
0
POLYLINE
8
1
66
1
70
1
0
VERTEX
8
1
10
18.406103516985
20
13.54966764524
42
0.051926455797
0
VERTEX
8
1
10
18.668479126303
20
13.59098800709
42
-0.632079491274
0
VERTEX
8
1
10
18.713202861611
20
13.538023940165
42
-0.222581765038
0
VERTEX
8
1
10
17.966183573401
20
13.487897471306
0
VERTEX
8
1
10
17.949942145601
20
13.528620658522
0
VERTEX
8
1
10
18.389776491079
20
13.727637957926
42
-0.379400329044
0
VERTEX
8
1
10
18.68484017182
20
13.668314215713
0
VERTEX
8
1
10
18.425357424044
20
13.598247737868
0
SEQEND
0
POLYLINE
8
1
66
1
0
VERTEX
8
1
10
19.421714900056
20
11.947069740353
42
-0.128659010227
0
VERTEX
8
1
10
18.374255414752
20
12.759185090759
42
-0.057948877856
0
VERTEX
8
1
10
18.314494377964
20
12.863354530642
42
-0.426698501861
0
VERTEX
8
1
10
18.402679060427
20
13.071041245668
0
VERTEX
8
1
10
18.406235006944
20
13.072390458854
42
0.17256877772
0
VERTEX
8
1
10
18.778250679583
20
13.397904172412
42
0.314827955674
0
VERTEX
8
1
10
19.38277614762
20
13.847423110184
42
-0.106328290465
0
VERTEX
8
1
10
20.045329962967
20
12.804198723659
0
SEQEND
0
POLYLINE
8
1
66
1
0
VERTEX
8
1
10
21.444408740959
20
13.590522586807
42
0.093553548648
0
VERTEX
8
1
10
21.304857122919
20
14.296942047956
0
VERTEX
8
1
10
21.07234732752
20
14.296942047956
42
-0.048061482927
0
VERTEX
8
1
10
20.43682055343
20
14.467449231248
42
-0.11355088007
0
VERTEX
8
1
10
20.078562602528
20
14.156520304249
42
0.406591593661
0
VERTEX
8
1
10
19.965503978105
20
13.803315843628
42
0.085308945549
0
VERTEX
8
1
10
20.536724226129
20
13.024412766227
0
SEQEND
0
POLYLINE
8
1
66
1
70
1
0
VERTEX
8
1
10
22.183168909272
20
14.535187388911
42
0.161897216294
0
VERTEX
8
1
10
21.995308532781
20
14.310574451071
42
0.037339283639
0
VERTEX
8
1
10
22.005753235357
20
14.247343034506
42
-0.61803398875
0
VERTEX
8
1
10
21.946814000068
20
14.244167332199
42
0.082642940834
0
VERTEX
8
1
10
22.169013143194
20
13.679037636351
42
-0.045383013667
0
VERTEX
8
1
10
22.111533871639
20
14.17558766121
42
-1.
0
VERTEX
8
1
10
22.632044066076
20
14.199556672252
0
VERTEX
8
1
10
22.699724875644
20
13.800693366367
0
VERTEX
8
1
10
22.716918064847
20
14.251010382973
42
0.630314799707
0
SEQEND
0
POLYLINE
8
1
66
1
70
1
0
VERTEX
8
1
10
20.192853144266
20
12.115393010467
0
VERTEX
8
1
10
20.235312064084
20
12.157851930284
42
0.454084608828
0
VERTEX
8
1
10
20.095806186844
20
12.343859766603
0
VERTEX
8
1
10
19.894297697498
20
12.188853236337
0
VERTEX
8
1
10
20.080305533818
20
12.002845400018
0
VERTEX
8
1
10
20.099435205186
20
12.021975071387
0
VERTEX
8
1
10
20.189037933055
20
11.926821172514
42
0.097631624506
0
VERTEX
8
1
10
20.173309451977
20
11.878840175805
0
VERTEX
8
1
10
20.266313370137
20
11.785836257646
0
VERTEX
8
1
10
20.34381663527
20
11.847838869752
42
-0.414213562373
0
VERTEX
8
1
10
20.421319900403
20
11.739334298566
0
VERTEX
8
1
10
20.173309451977
20
11.522325156193
42
-0.895911458215
0
VERTEX
8
1
10
20.142308145924
20
11.661831033433
42
0.039486360403
0
VERTEX
8
1
10
19.785793126312
20
12.064848012124
0
VERTEX
8
1
10
19.692789208152
20
12.018346053045
0
VERTEX
8
1
10
19.615285943019
20
12.095849318178
0
VERTEX
8
1
10
19.971800962631
20
12.421363031736
42
-0.81958429751
0
VERTEX
8
1
10
20.34381663527
20
12.142351277258
42
0.132064381601
0
VERTEX
8
1
10
20.576326430669
20
12.064848012124
42
-0.885219226004
0
VERTEX
8
1
10
20.715832307908
20
12.018346053045
0
VERTEX
8
1
10
20.607327736722
20
11.909841481858
42
-0.141195631296
0
VERTEX
8
1
10
20.374817941323
20
11.971844093965
42
0.137457885062
0
VERTEX
8
1
10
20.307752242445
20
11.993375551527
0
SEQEND
0
POLYLINE
8
1
66
1
70
1
0
VERTEX
8
1
10
26.355514175265
20
11.931564240025
0
VERTEX
8
1
10
26.398883140604
20
11.890035303251
42
0.454084608828
0
VERTEX
8
1
10
26.581824444195
20
12.033538907377
0
VERTEX
8
1
10
26.422487952969
20
12.231641351248
0
VERTEX
8
1
10
26.240554269608
20
12.041646706052
0
VERTEX
8
1
10
26.260093957808
20
12.022936034274
0
VERTEX
8
1
10
26.166903942055
20
11.931292516904
42
0.097631624506
0
VERTEX
8
1
10
26.118593400548
20
11.945977636635
0
VERTEX
8
1
10
26.027626558867
20
11.850980314037
0
VERTEX
8
1
10
26.091293980676
20
11.774838739227
42
-0.414213562373
0
VERTEX
8
1
10
25.984494251895
20
11.695002556909
0
VERTEX
8
1
10
25.762162085681
20
11.93825254821
42
-0.895911458215
0
VERTEX
8
1
10
25.90096346207
20
11.972269436278
42
0.039486360403
0
VERTEX
8
1
10
26.296160729582
20
12.337433459799
0
VERTEX
8
1
10
26.247654448054
20
12.429407921709
0
VERTEX
8
1
10
26.323460149454
20
12.508572357207
0
VERTEX
8
1
10
26.656622525366
20
12.159194383945
42
-0.81958429751
0
VERTEX
8
1
10
26.385737240783
20
11.781220334012
42
0.132064381601
0
VERTEX
8
1
10
26.31329027348
20
11.547085761616
42
-0.885219226004
0
VERTEX
8
1
10
26.269822093098
20
11.406605018178
0
VERTEX
8
1
10
26.158991883401
20
11.512733000138
42
-0.141195631296
0
VERTEX
8
1
10
26.215941837014
20
11.746531699125
42
0.137457885062
0
VERTEX
8
1
10
26.236015036969
20
11.814048202844
0
SEQEND
0
POLYLINE
8
1
66
1
70
1
0
VERTEX
8
1
10
26.881106167995
20
10.939055267646
0
VERTEX
8
1
10
26.988153394614
20
11.012714366413
0
VERTEX
8
1
10
27.00909743671
20
10.979802300262
0
VERTEX
8
1
10
27.164103966976
20
11.165810136581
42
0.496570670566
0
VERTEX
8
1
10
26.993596783683
20
11.181310789608
0
VERTEX
8
1
10
26.931594171577
20
11.181310789608
0
VERTEX
8
1
10
26.900592865524
20
11.150309483555
0
VERTEX
8
1
10
26.917346470554
20
11.123982389936
0
VERTEX
8
1
10
26.814008121686
20
11.047207195169
0
VERTEX
8
1
10
26.792088294337
20
11.088306871448
42
0.566190378969
0
VERTEX
8
1
10
26.652582417098
20
11.103807524475
42
-1.180460421716
0
VERTEX
8
1
10
26.559578498938
20
11.010803606315
0
VERTEX
8
1
10
26.420072621699
20
11.243313401714
42
-0.887174264961
0
VERTEX
8
1
10
26.575079151965
20
11.243313401714
0
VERTEX
8
1
10
27.086600701843
20
11.336317319874
42
0.707515081019
0
VERTEX
8
1
10
27.102101354869
20
11.44482189106
0
VERTEX
8
1
10
27.218356252569
20
11.499074176653
42
-0.05571083873
0
VERTEX
8
1
10
27.365612456322
20
11.196811442635
0
VERTEX
8
1
10
26.947094824603
20
10.654288586703
42
0.212214450449
0
VERTEX
8
1
10
26.978096130657
20
10.561284668544
42
-0.646442816445
0
VERTEX
8
1
10
26.838590253417
20
10.545784015517
0
VERTEX
8
1
10
26.699084376178
20
10.778293810916
42
-0.669832846258
0
VERTEX
8
1
10
26.86959155947
20
10.793794463943
0
VERTEX
8
1
10
26.91609351855
20
10.855797076049
0
SEQEND
0
POLYLINE
8
1
66
1
70
1
0
VERTEX
8
1
10
19.164849607076
20
10.266628217487
0
VERTEX
8
1
10
19.039295381737
20
10.300108182503
0
VERTEX
8
1
10
19.050695591065
20
10.337416254349
0
VERTEX
8
1
10
18.808587393295
20
10.334324301908
42
0.496570670566
0
VERTEX
8
1
10
18.907626986033
20
10.194667118531
0
VERTEX
8
1
10
18.947925107459
20
10.147546153796
0
VERTEX
8
1
10
18.99163465054
20
10.144134732142
0
VERTEX
8
1
10
19.000753931501
20
10.173978288475
0
VERTEX
8
1
10
19.126265781912
20
10.145342292165
0
VERTEX
8
1
10
19.10927732777
20
10.101971165282
42
0.566190378969
0
VERTEX
8
1
10
19.188167859796
20
9.985874464272
42
-1.180460421716
0
VERTEX
8
1
10
19.319296489037
20
9.975640199309
0
VERTEX
8
1
10
19.23326364449
20
9.718500073307
42
-0.887174264961
0
VERTEX
8
1
10
19.132518340925
20
9.836302485144
0
VERTEX
8
1
10
18.729377392057
20
10.164603262068
42
0.707515081019
0
VERTEX
8
1
10
18.636841173414
20
10.105861790755
0
VERTEX
8
1
10
18.520051351597
20
10.158952743385
42
-0.05571083873
0
VERTEX
8
1
10
18.654058016293
20
10.467318376583
0
VERTEX
8
1
10
19.338378777349
20
10.501860427102
42
0.212214450449
0
VERTEX
8
1
10
19.388911163738
20
10.585868091609
42
-0.646442816445
0
VERTEX
8
1
10
19.491362178131
20
10.489920451312
0
VERTEX
8
1
10
19.405329333584
20
10.23278032531
42
-0.669832846258
0
VERTEX
8
1
10
19.282729258478
20
10.352288447975
0
VERTEX
8
1
10
19.205384702674
20
10.3473310501
0
SEQEND
0
POLYLINE
8
1
66
1
70
1
0
VERTEX
8
1
10
24.881147929884
20
10.840296423023
0
VERTEX
8
1
10
25.040514502331
20
10.840296423023
0
VERTEX
8
1
10
25.071515808384
20
10.871297729076
0
VERTEX
8
1
10
25.056015155358
20
10.917799688156
42
0.041826141364
0
VERTEX
8
1
10
24.823505359959
20
11.460322544087
0
VERTEX
8
1
10
24.761502747852
20
11.367318625927
0
VERTEX
8
1
10
24.606496217586
20
10.933300341182
42
0.558185569905
0
VERTEX
8
1
10
24.606496217586
20
10.840296423023
0
VERTEX
8
1
10
24.74909460582
20
10.840296423023
0
VERTEX
8
1
10
24.74909460582
20
10.561284668544
0
VERTEX
8
1
10
24.466990340347
20
10.561284668544
0
VERTEX
8
1
10
24.40498772824
20
10.421778791304
42
0.491544920303
0
VERTEX
8
1
10
24.40498772824
20
10.313274220118
0
VERTEX
8
1
10
24.598745891073
20
10.321024546631
0
VERTEX
8
1
10
24.590995564559
20
10.034262465639
0
VERTEX
8
1
10
23.800462260203
20
10.042012792153
0
VERTEX
8
1
10
23.800462260203
20
10.313274220118
0
VERTEX
8
1
10
23.986470096522
20
10.313274220118
0
VERTEX
8
1
10
24.032972055602
20
10.359776179198
0
VERTEX
8
1
10
24.482490993373
20
11.49132385014
42
0.506738349183
0
VERTEX
8
1
10
24.482490993373
20
11.5843277683
0
VERTEX
8
1
10
24.280982504027
20
11.5843277683
0
VERTEX
8
1
10
24.280982504027
20
11.863339522779
0
VERTEX
8
1
10
25.040514502331
20
11.863339522779
0
VERTEX
8
1
10
25.676041276422
20
10.313274220118
0
VERTEX
8
1
10
25.877549765768
20
10.313274220118
0
VERTEX
8
1
10
25.877549765768
20
10.034262465639
0
VERTEX
8
1
10
25.056015155358
20
10.034262465639
0
VERTEX
8
1
10
25.056015155358
20
10.313274220118
0
VERTEX
8
1
10
25.242022991677
20
10.313274220118
0
VERTEX
8
1
10
25.27302429773
20
10.344275526171
0
VERTEX
8
1
10
25.18002037957
20
10.561284668544
0
VERTEX
8
1
10
24.881147929884
20
10.561284668544
0
SEQEND
0
POLYLINE
8
1
66
1
0
VERTEX
8
1
10
22.629082859672
20
9.120695656842
0
VERTEX
8
1
10
22.636175493856
20
8.99066403014
0
VERTEX
8
1
10
22.683459721747
20
8.90318820854
0
VERTEX
8
1
10
22.728379738245
20
8.985935607351
0
VERTEX
8
1
10
22.733108161034
20
9.120695656842
0
SEQEND
0
POLYLINE
8
1
66
1
70
1
0
VERTEX
8
1
10
23.025429608872
20
9.11972393707
42
0.147629446019
0
VERTEX
8
1
10
23.149434833085
20
9.251479487796
42
1.073976346259
0
VERTEX
8
1
10
23.071931567952
20
9.290231120362
42
-0.838493400948
0
VERTEX
8
1
10
22.90142438466
20
9.274730467336
42
1.132782218537
0
VERTEX
8
1
10
22.823921119527
20
9.243729161282
42
0.121995912968
0
VERTEX
8
1
10
22.947926343739
20
9.11972393707
42
0.110365105525
0
SEQEND
0
POLYLINE
8
1
66
1
70
1
0
VERTEX
8
1
10
22.41546306907
20
9.103174457308
42
0.147629446019
0
VERTEX
8
1
10
22.539468293283
20
9.234930008034
42
1.073976346258
0
VERTEX
8
1
10
22.46196502815
20
9.2736816406
42
-0.838493400948
0
VERTEX
8
1
10
22.291457844857
20
9.258180987574
42
1.132782218537
0
VERTEX
8
1
10
22.213954579724
20
9.22717968152
42
0.121995912968
0
VERTEX
8
1
10
22.337959803937
20
9.103174457308
42
0.110365105525
0
SEQEND
0
POLYLINE
8
1
66
1
0
VERTEX
8
1
10
22.182910500956
20
9.034551158405
42
0.127926104772
0
VERTEX
8
1
10
22.181619626258
20
9.036105027839
0
VERTEX
8
1
10
22.145920744557
20
9.09202495442
0
VERTEX
8
1
10
22.088793293588
20
9.077179992733
42
0.3806322709
0
VERTEX
8
1
10
22.061605218605
20
9.163392606534
42
0.461450758119
0
VERTEX
8
1
10
22.098579281083
20
9.193281255642
42
0.530271358661
0
VERTEX
8
1
10
22.013608267713
20
9.253215285026
0
SEQEND
0
LINE
8
1
10
23.533033709595
20
7.503340888485
11
23.610536974728
21
7.255330440059
0
ARC
8
1
10
25.783307842822
20
13.918572931008
40
7.322818762607
50
-108.896402137869
51
-90.964337026217
0
ARC
8
1
10
25.363396826674
20
16.806881931405
40
10.267509299824
50
-102.173467932319
51
-93.335103459326
0
POLYLINE
8
1
66
1
70
1
0
VERTEX
8
1
10
20.798348458797
20
5.50888376744
42
-0.852579599003
0
VERTEX
8
1
10
20.312815329217
20
4.87254500778
0
VERTEX
8
1
10
19.987301615658
20
5.105054803179
42
-1.420596378806
0
VERTEX
8
1
10
20.080305533818
20
5.198058721339
0
VERTEX
8
1
10
20.421319900403
20
5.632077006084
42
-0.908063162577
0
VERTEX
8
1
10
20.43682055343
20
5.78708353635
0
VERTEX
8
1
10
20.696177642325
20
5.592565719678
0
VERTEX
8
1
10
20.614475758379
20
5.489893938915
0
VERTEX
8
1
10
20.560825777642
20
5.539073087924
0
VERTEX
8
1
10
20.219811411057
20
5.105054803179
0
VERTEX
8
1
10
20.43682055343
20
4.950048272913
42
0.531492851201
0
VERTEX
8
1
10
20.746833613962
20
5.368565904631
0
VERTEX
8
1
10
20.712057014839
20
5.400444453827
0
SEQEND
0
POLYLINE
8
1
66
1
70
1
0
VERTEX
8
1
10
23.354259720107
20
4.175015621583
0
VERTEX
8
1
10
23.304441363351
20
4.175015621583
42
0.576895238184
0
VERTEX
8
1
10
23.257939404272
20
4.05101039737
42
-1.227506716066
0
VERTEX
8
1
10
23.273440057298
20
3.927005173157
0
VERTEX
8
1
10
22.986677976306
20
3.93475549967
0
VERTEX
8
1
10
22.978927649793
20
4.035509744343
0
VERTEX
8
1
10
23.056430914926
20
4.035509744343
0
VERTEX
8
1
10
23.257939404272
20
4.578032600275
42
-0.490561932118
0
VERTEX
8
1
10
23.164935486112
20
4.733039130541
0
VERTEX
8
1
10
23.489512575605
20
4.732244740886
0
VERTEX
8
1
10
23.800462260203
20
4.082011703423
0
VERTEX
8
1
10
23.893466178362
20
4.082011703423
0
VERTEX
8
1
10
23.893466178362
20
3.973507132237
0
VERTEX
8
1
10
23.53695115875
20
3.942505826184
0
VERTEX
8
1
10
23.53695115875
20
4.066511050397
0
VERTEX
8
1
10
23.598953770857
20
4.066511050397
0
VERTEX
8
1
10
23.62995507691
20
4.09751235645
0
VERTEX
8
1
10
23.567952464804
20
4.175015621583
0
VERTEX
8
1
10
23.486316985509
20
4.175015621583
0
VERTEX
8
1
10
23.485348510828
20
4.300365192412
42
0.0748393098
0
VERTEX
8
1
10
23.521450505724
20
4.330022151849
0
VERTEX
8
1
10
23.412945934538
20
4.547031294221
42
0.260457062542
0
VERTEX
8
1
10
23.335442669405
20
4.376524110929
0
VERTEX
8
1
10
23.304441363351
20
4.314521498822
42
0.09029975101
0
VERTEX
8
1
10
23.353395614802
20
4.286856675622
0
SEQEND
0
POLYLINE
8
1
66
1
70
1
0
VERTEX
8
1
10
26.050727060837
20
5.012653459817
42
0.508780258645
0
VERTEX
8
1
10
25.986054336954
20
5.477070475818
42
0.529297316626
0
VERTEX
8
1
10
25.598538011289
20
5.322063945552
42
0.500517097066
0
VERTEX
8
1
10
25.935110391896
20
4.94761424305
0
VERTEX
8
1
10
26.012067512548
20
4.836961986183
42
-3.171952403322
0
VERTEX
8
1
10
26.289396074932
20
5.233082735245
42
-0.230310459614
0
VERTEX
8
1
10
26.12807637763
20
4.901437286475
0
SEQEND
0
ARC
8
1
10
22.964930279188
20
8.929625242844
40
0.058465590247
50
23.4429289268
51
133.593088363706
0
POLYLINE
8
1
66
1
70
1
0
VERTEX
8
1
10
27.596973407964
20
18.721814185374
42
0.297035519819
0
VERTEX
8
1
10
27.393049479512
20
18.818521595566
0
VERTEX
8
1
10
27.07579839974
20
18.800484896046
42
0.131608810836
0
VERTEX
8
1
10
27.454273889994
20
18.714079954156
42
0.116407903837
0
VERTEX
8
1
10
28.055713687081
20
18.645652671853
0
SEQEND
0
POLYLINE
8
1
66
1
70
1
0
VERTEX
8
1
10
27.704520294864
20
17.978251135476
42
0.142313502682
0
VERTEX
8
1
10
26.610899881916
20
18.214476377421
42
-0.069112738154
0
VERTEX
8
1
10
26.966332707879
20
18.100352550403
42
0.15170579974
0
SEQEND
0
POLYLINE
8
1
66
1
70
1
0
VERTEX
8
1
10
28.905341105081
20
18.224426597637
42
0.188584905816
0
VERTEX
8
1
10
28.135771608313
20
18.378749946178
0
VERTEX
8
1
10
28.733031238658
20
18.205903896296
0
SEQEND
0
POLYLINE
8
1
66
1
70
1
0
VERTEX
8
1
10
26.942183172721
20
18.552938438449
42
-0.128478873296
0
VERTEX
8
1
10
27.405461407454
20
18.491465442371
42
-0.245186961846
0
VERTEX
8
1
10
27.642437199056
20
18.483359188645
42
0.118069543666
0
VERTEX
8
1
10
27.955702836616
20
18.39355891981
42
-0.178709128582
0
VERTEX
8
1
10
27.396391091993
20
18.439270987298
42
-0.226193768135
0
SEQEND
0
POLYLINE
8
1
66
1
70
1
0
VERTEX
8
1
10
25.916452730039
20
18.7185575135
42
0.208327765859
0
VERTEX
8
1
10
25.455942392971
20
19.063633151335
42
0.184739695047
0
VERTEX
8
1
10
25.152183296914
20
19.019826625009
42
0.17226649111
0
VERTEX
8
1
10
25.286779753807
20
18.883081733242
42
0.085144650113
0
VERTEX
8
1
10
25.790968129732
20
18.751554330827
42
-0.116793189135
0
SEQEND
0
POLYLINE
8
1
66
1
0
VERTEX
8
1
10
24.780008645096
20
18.958291590497
42
-0.195332696062
0
VERTEX
8
1
10
24.530332668363
20
19.102497731673
0
VERTEX
8
1
10
24.816353946887
20
19.196165817563
0
VERTEX
8
1
10
24.896769332067
20
19.173778256073
0
SEQEND
0
POLYLINE
8
1
66
1
70
1
0
VERTEX
8
1
10
24.289557244699
20
17.502114268285
42
0.354181376436
0
VERTEX
8
1
10
23.576527205475
20
17.703622757631
42
0.165653277551
0
SEQEND
0
LINE
8
1
10
22.464261143653
20
17.646982446917
11
22.334412899688
21
17.684880738217
0
LINE
8
1
10
22.607499709574
20
17.455997692356
11
22.477651465609
21
17.493895983656
0
LINE
8
1
10
22.311473340004
20
17.475096167812
11
22.18162509604
21
17.512994459112
0
POLYLINE
8
1
66
1
70
1
0
VERTEX
8
1
10
27.334894626745
20
6.817972002142
0
VERTEX
8
1
10
27.334894626745
20
6.887612502345
0
VERTEX
8
1
10
27.409531754766
20
6.887612502345
0
VERTEX
8
1
10
27.422491758167
20
6.886658285228
0
VERTEX
8
1
10
27.433890315375
20
6.883795633874
0
VERTEX
8
1
10
27.44372742639
20
6.879024548284
0
VERTEX
8
1
10
27.451274416323
20
6.872379727264
0
VERTEX
8
1
10
27.455802610282
20
6.863895869615
0
VERTEX
8
1
10
27.457312008269
20
6.85357297534
0
VERTEX
8
1
10
27.455802610282
20
6.842538755577
0
VERTEX
8
1
10
27.451274416323
20
6.833586464071
0
VERTEX
8
1
10
27.44372742639
20
6.826716100822
0
VERTEX
8
1
10
27.433890315375
20
6.821858268222
0
VERTEX
8
1
10
27.422491758167
20
6.818943568662
0
VERTEX
8
1
10
27.409531754766
20
6.817972002142
0
VERTEX
8
1
10
27.413903804106
20
6.778311268842
0
VERTEX
8
1
10
27.456375140553
20
6.716165710364
0
VERTEX
8
1
10
27.449192488066
20
6.710232214831
0
VERTEX
8
1
10
27.449192488066
20
6.701488116151
0
VERTEX
8
1
10
27.523517326848
20
6.701488116151
0
VERTEX
8
1
10
27.523517326848
20
6.710232214831
0
VERTEX
8
1
10
27.50759057568
20
6.715853421125
0
VERTEX
8
1
10
27.45262766969
20
6.790178259908
0
VERTEX
8
1
10
27.46258188917
20
6.794335610397
0
VERTEX
8
1
10
27.471521168624
20
6.799625009375
0
VERTEX
8
1
10
27.479445508053
20
6.806046456843
0
VERTEX
8
1
10
27.486354907457
20
6.813599952802
0
VERTEX
8
1
10
27.491956595674
20
6.822187906863
0
VERTEX
8
1
10
27.495957801543
20
6.831712728639
0
VERTEX
8
1
10
27.498358525065
20
6.842174418132
0
VERTEX
8
1
10
27.499158766239
20
6.85357297534
0
VERTEX
8
1
10
27.497821777936
20
6.869265509579
0
VERTEX
8
1
10
27.493810813028
20
6.883240453005
0
VERTEX
8
1
10
27.487125871515
20
6.89549780562
0
VERTEX
8
1
10
27.477766953396
20
6.906037567422
0
VERTEX
8
1
10
27.465987793678
20
6.914508413018
0
VERTEX
8
1
10
27.452042127368
20
6.920559017016
0
VERTEX
8
1
10
27.435929954465
20
6.924189379414
0
VERTEX
8
1
10
27.417651274969
20
6.925399500214
0
VERTEX
8
1
10
27.280556299231
20
6.925399500214
0
VERTEX
8
1
10
27.280556299231
20
6.916655401534
0
VERTEX
8
1
10
27.292111001059
20
6.910721906001
0
VERTEX
8
1
10
27.292111001059
20
6.715853421125
0
VERTEX
8
1
10
27.280556299231
20
6.710232214831
0
VERTEX
8
1
10
27.280556299231
20
6.701488116151
0
VERTEX
8
1
10
27.346449328572
20
6.701488116151
0
VERTEX
8
1
10
27.346449328572
20
6.710232214831
0
VERTEX
8
1
10
27.334894626745
20
6.715853421125
0
VERTEX
8
1
10
27.334894626745
20
6.778311268842
0
SEQEND
0
POLYLINE
8
1
66
1
70
1
0
VERTEX
8
1
10
26.05157018318
20
19.190414342907
42
0.142313502682
0
VERTEX
8
1
10
27.157686871709
20
19.022147162788
42
-0.069112738154
0
VERTEX
8
1
10
26.795887169111
20
19.11411300898
42
0.15170579974
0
SEQEND
0
POLYLINE
8
1
66
1
70
1
0
VERTEX
8
1
10
28.457355767949
20
18.655483282097
42
0.188584905816
0
VERTEX
8
1
10
29.23045859505
20
18.519966032311
0
VERTEX
8
1
10
28.629162889282
20
18.678200975437
0
SEQEND
0
POLYLINE
8
1
66
1
70
1
0
VERTEX
8
1
10
26.714585029204
20
18.652625548431
42
-0.222184559294
0
VERTEX
8
1
10
25.993804663467
20
18.869634690804
0
VERTEX
8
1
10
26.23406478538
20
18.807632078697
42
-0.058520088525
0
VERTEX
8
1
10
26.571808767251
20
18.818938761024
42
-0.570434096354
0
SEQEND
0
POLYLINE
8
1
66
1
70
1
0
VERTEX
8
1
10
27.451990469991
20
15.52851588954
0
VERTEX
8
1
10
26.644832090585
20
15.219230903038
0
VERTEX
8
1
10
26.714585029204
20
15.350986453765
42
0.720759220056
0
VERTEX
8
1
10
26.699084376178
20
15.412989065871
0
VERTEX
8
1
10
25.133518420491
20
15.459491024951
0
VERTEX
8
1
10
25.102517114437
20
15.428489718898
0
VERTEX
8
1
10
25.27302429773
20
15.288983841658
0
VERTEX
8
1
10
25.722543235502
20
15.273483188632
0
VERTEX
8
1
10
26.311568050513
20
14.994471434153
42
-0.119929972364
0
VERTEX
8
1
10
27.040098742763
20
14.529451843355
42
0.292805577985
0
VERTEX
8
1
10
27.350111803295
20
14.265940741902
42
-0.144565232601
0
VERTEX
8
1
10
27.69112616988
20
14.09543355861
0
VERTEX
8
1
10
28.419656862131
20
13.397904172412
42
-0.127266270251
0
VERTEX
8
1
10
28.683167963583
20
12.839880663455
0
VERTEX
8
1
10
29.039682983195
20
12.560868908976
0
VERTEX
8
1
10
29.411698655833
20
11.894340828832
42
-0.159240402412
0
VERTEX
8
1
10
29.675209757286
20
10.902299035129
42
-0.196966020734
0
VERTEX
8
1
10
30.016224123871
20
10.003261159586
42
-0.107440918376
0
VERTEX
8
1
10
30.093727389004
20
9.042220671937
42
0.246415847414
0
VERTEX
8
1
10
30.047225429924
20
8.685705652325
42
-0.117683819969
0
VERTEX
8
1
10
30.124728695057
20
8.174184102447
0
VERTEX
8
1
10
30.031724776898
20
7.523156675329
42
-0.160417611733
0
VERTEX
8
1
10
29.690710410312
20
6.701622064919
42
-0.064358171731
0
VERTEX
8
1
10
29.644208451233
20
6.174599862015
0
VERTEX
8
1
10
29.3341953907
20
5.554573740951
42
-0.181205651697
0
VERTEX
8
1
10
28.729669922663
20
4.795041742647
0
VERTEX
8
1
10
28.574663392397
20
4.376524110929
0
VERTEX
8
1
10
28.078642495546
20
3.834001254998
42
-0.175180677855
0
VERTEX
8
1
10
27.226106579082
20
3.27597774604
0
VERTEX
8
1
10
26.947094824603
20
2.919462726428
0
VERTEX
8
1
10
26.296067397486
20
2.562947706816
42
-0.176116606445
0
VERTEX
8
1
10
25.31952625681
20
2.299436605364
0
VERTEX
8
1
10
24.963011237198
20
2.051426156938
42
-0.039138560791
0
VERTEX
8
1
10
23.58345311783
20
1.834417014566
0
VERTEX
8
1
10
23.180436139138
20
1.958422238778
42
-0.123566666282
0
VERTEX
8
1
10
22.630162956694
20
1.842167341079
0
VERTEX
8
1
10
21.971385203063
20
1.927420932725
42
-0.169287523261
0
VERTEX
8
1
10
21.087847980547
20
2.283935952337
0
VERTEX
8
1
10
20.622828389749
20
2.299436605364
0
VERTEX
8
1
10
19.47578006578
20
2.872960767348
0
VERTEX
8
1
10
19.134765699195
20
3.27597774604
0
VERTEX
8
1
10
18.778250679583
20
3.384482317226
0
VERTEX
8
1
10
17.92571476312
20
4.190516274609
42
-0.120365986944
0
VERTEX
8
1
10
17.677704314694
20
4.733039130541
0
VERTEX
8
1
10
17.305688642055
20
5.027551538046
0
VERTEX
8
1
10
16.949173622444
20
5.678578965163
42
-0.160473279868
0
VERTEX
8
1
10
16.685662520991
20
6.670620758866
42
-0.113117182635
0
VERTEX
8
1
10
16.437652072566
20
7.058137084531
42
-0.051337538617
0
VERTEX
8
1
10
16.23614358322
20
8.422194550872
42
0.179391768906
0
VERTEX
8
1
10
16.313646848353
20
8.918215447724
42
-0.177765621176
0
VERTEX
8
1
10
16.23614358322
20
9.398735691549
0
VERTEX
8
1
10
16.422151419539
20
10.499282056437
0
VERTEX
8
1
10
16.685662520991
20
10.902299035129
0
VERTEX
8
1
10
16.685662520991
20
11.305316013821
0
VERTEX
8
1
10
17.026676887577
20
12.018346053045
42
-0.172789960023
0
VERTEX
8
1
10
17.569199743508
20
12.731376092268
42
0.239966996453
0
VERTEX
8
1
10
17.693204967721
20
12.932884581614
42
-0.154320167164
0
VERTEX
8
1
10
17.92571476312
20
13.366902866359
42
0.274840295457
0
VERTEX
8
1
10
17.708705620747
20
13.397904172412
42
-0.073492525763
0
VERTEX
8
1
10
17.894713457066
20
13.723417885971
0
VERTEX
8
1
10
17.7397069268
20
13.816421804131
42
-0.026779089882
0
VERTEX
8
1
10
18.328731741811
20
14.405446619142
0
VERTEX
8
1
10
18.173725211545
20
14.498450537301
42
-0.057719606834
0
VERTEX
8
1
10
18.995259821955
20
14.947969475073
0
VERTEX
8
1
10
18.793751332609
20
15.211480576525
0
VERTEX
8
1
10
19.615285943019
20
15.366487106791
0
VERTEX
8
1
10
19.677288555126
20
15.412989065871
42
-0.112205669071
0
VERTEX
8
1
10
19.615285943019
20
15.723002126403
42
0.175425501098
0
VERTEX
8
1
10
20.266313370137
20
15.583496249164
0
VERTEX
8
1
10
20.452321206456
20
15.862508003643
0
VERTEX
8
1
10
21.07234732752
20
16.296526288387
0
VERTEX
8
1
10
21.056846674494
20
16.56003738984
0
VERTEX
8
1
10
21.02584536844
20
16.591038695893
42
-0.123105625618
0
VERTEX
8
1
10
20.638329042775
20
16.56003738984
0
VERTEX
8
1
10
20.731332960935
20
16.854549797345
42
0.558185569905
0
VERTEX
8
1
10
20.731332960935
20
16.947553715505
0
VERTEX
8
1
10
20.421319900403
20
16.947553715505
0
VERTEX
8
1
10
20.20431075803
20
17.009556327611
42
0.126164427839
0
VERTEX
8
1
10
20.405819247376
20
17.164562857877
0
VERTEX
8
1
10
20.374817941323
20
17.195564163931
42
-0.078871373527
0
VERTEX
8
1
10
19.863296391445
20
17.211064816957
0
VERTEX
8
1
10
19.956300309605
20
17.459075265383
42
0.456628882752
0
VERTEX
8
1
10
19.909798350525
20
17.505577224463
42
-0.079502017186
0
VERTEX
8
1
10
18.948757862875
20
17.575330163082
0
VERTEX
8
1
10
19.112417253057
20
17.687845993832
0
VERTEX
8
1
10
18.266729129705
20
17.714836040322
0
VERTEX
8
1
10
18.344232394838
20
17.784588978942
0
VERTEX
8
1
10
18.313231088785
20
17.815590284995
0
VERTEX
8
1
10
18.158224558519
20
17.815590284995
42
-0.12475279805
0
VERTEX
8
1
10
17.421943539755
20
17.924094856181
0
VERTEX
8
1
10
17.538198437454
20
18.001598121314
0
VERTEX
8
1
10
17.507197131401
20
18.032599427367
42
-0.078634783024
0
VERTEX
8
1
10
16.856169704284
20
18.148854325067
42
0.279378138157
0
VERTEX
8
1
10
16.96467427547
20
18.234107916713
0
VERTEX
8
1
10
16.933672969417
20
18.265109222766
42
-0.157512422581
0
VERTEX
8
1
10
16.251644236246
20
18.606123589352
42
0.029084964217
0
VERTEX
8
1
10
17.042177540603
20
18.683626854485
0
VERTEX
8
1
10
19.336274188541
20
19.319153628575
42
-0.112991860293
0
VERTEX
8
1
10
21.800878019771
20
19.505161464895
42
-0.400197384495
0
VERTEX
8
1
10
22.374402181755
20
18.745629466591
42
0.321417954783
0
VERTEX
8
1
10
22.699915895314
20
18.20310661066
42
0.145031960082
0
VERTEX
8
1
10
23.505949852697
20
18.141103998553
42
0.284985350761
0
VERTEX
8
1
10
23.986470096522
20
18.559621630272
0
VERTEX
8
1
10
24.001970749549
20
18.869634690804
42
-0.317914417861
0
VERTEX
8
1
10
24.435989034293
20
19.458659505815
42
-0.104584258025
0
VERTEX
8
1
10
26.017055643007
20
19.536162770948
42
-0.033430184651
0
VERTEX
8
1
10
28.543662086344
20
18.900635996857
42
0.07415500675
0
VERTEX
8
1
10
30.132479021571
20
18.613873915865
42
-0.095248923096
0
VERTEX
8
1
10
29.411698655833
20
18.234107916713
42
0.395447479964
0
VERTEX
8
1
10
29.535703880046
20
18.15660465158
42
-0.088171719305
0
VERTEX
8
1
10
28.869175799902
20
18.032599427367
0
VERTEX
8
1
10
28.838174493849
20
18.001598121314
0
VERTEX
8
1
10
28.931178412009
20
17.924094856181
0
VERTEX
8
1
10
28.969930044575
20
17.916344529668
42
-0.099247087067
0
VERTEX
8
1
10
28.063141842519
20
17.815590284995
42
0.518107299109
0
VERTEX
8
1
10
28.091127503955
20
17.723496099603
0
VERTEX
8
1
10
28.095911085688
20
17.717117990626
42
-0.082847238895
0
VERTEX
8
1
10
27.334611150268
20
17.707085713809
0
VERTEX
8
1
10
27.303609844215
20
17.676084407755
0
VERTEX
8
1
10
27.396613762375
20
17.583080489596
0
VERTEX
8
1
10
27.435365394941
20
17.575330163082
42
-0.073619403361
0
VERTEX
8
1
10
26.466574580779
20
17.505577224463
42
0.456628882752
0
VERTEX
8
1
10
26.420072621699
20
17.459075265383
0
VERTEX
8
1
10
26.513076539858
20
17.211064816957
42
-0.081329803987
0
VERTEX
8
1
10
26.001554989981
20
17.195564163931
0
VERTEX
8
1
10
25.970553683927
20
17.164562857877
0
VERTEX
8
1
10
26.156561520247
20
17.009556327611
42
-0.137889660457
0
VERTEX
8
1
10
25.645039970369
20
16.947553715505
0
VERTEX
8
1
10
25.614038664315
20
16.916552409452
0
VERTEX
8
1
10
25.738043888528
20
16.56003738984
0
VERTEX
8
1
10
25.354104636638
20
16.56003738984
0
VERTEX
8
1
10
25.443531481023
20
16.327527594441
0
VERTEX
8
1
10
26.1875628263
20
16.668541961026
0
VERTEX
8
1
10
26.086808581627
20
16.784796858726
0
VERTEX
8
1
10
26.978096130657
20
16.839049144319
0
VERTEX
8
1
10
26.544077845912
20
16.436032165627
0
VERTEX
8
1
10
26.575079151965
20
16.405030859574
0
VERTEX
8
1
10
26.854090906444
20
16.412781186087
0
VERTEX
8
1
10
26.621581111045
20
16.219023023254
0
VERTEX
8
1
10
26.652582417098
20
16.188021717201
42
0.040583454602
0
VERTEX
8
1
10
27.288109191189
20
16.141519758121
42
0.031613941731
0
VERTEX
8
1
10
26.714585029204
20
15.78500473851
0
SEQEND
0
CIRCLE
8
1
10
25.890322454203
20
6.85350066509
40
0.056110809657
0
CIRCLE
8
1
10
25.890984422701
20
6.585587140801
40
0.056110809657
0
CIRCLE
8
1
10
25.890493299973
20
6.352228612796
40
0.056110809657
0
CIRCLE
8
1
10
23.197869807325
20
14.960827154867
40
0.101579480049
0
CIRCLE
8
1
10
23.197869807325
20
5.268055041578
40
0.101579480049
0
ENDSEC
0
EOF
