0
SECTION
2
HEADER
9
$INSUNITS
70
1
9
$ACADVER
1
AC1014
9
$HANDSEED
5
FFFF
0
ENDSEC
0
SECTION
2
TABLES
0
TABLE
2
VPORT
5
8
100
AcDbSymbolTable
0
ENDTAB
0
TABLE
2
LTYPE
5
5
100
AcDbSymbolTable
0
LTYPE
5
14
100
AcDbSymbolTableRecord
100
AcDbLinetypeTableRecord
2
BYBLOCK
70
0
0
LTYPE
5
15
100
AcDbSymbolTableRecord
100
AcDbLinetypeTableRecord
2
BYLAYER
70
0
0
ENDTAB
0
TABLE
2
LAYER
5
2
100
AcDbSymbolTable
70
2
0
LAYER
5
50
100
AcDbSymbolTableRecord
100
AcDbLayerTableRecord
2
0
70
0
6
CONTINUOUS
0
ENDTAB
0
TABLE
2
STYLE
5
3
100
AcDbSymbolTable
70
1
0
STYLE
5
11
100
AcDbSymbolTableRecord
100
AcDbTextStyleTableRecord
2
STANDARD
70
0
0
ENDTAB
0
TABLE
2
VIEW
5
6
100
AcDbSymbolTable
70
0
0
ENDTAB
0
TABLE
2
UCS
5
7
100
AcDbSymbolTable
70
0
0
ENDTAB
0
TABLE
2
APPID
5
9
100
AcDbSymbolTable
70
2
0
APPID
5
12
100
AcDbSymbolTableRecord
100
AcDbRegAppTableRecord
2
ACAD
70
0
0
ENDTAB
0
TABLE
2
DIMSTYLE
5
A
100
AcDbSymbolTable
70
1
0
ENDTAB
0
TABLE
2
BLOCK_RECORD
5
1
100
AcDbSymbolTable
70
1
0
BLOCK_RECORD
5
1F
100
AcDbSymbolTableRecord
100
AcDbBlockTableRecord
2
*MODEL_SPACE
0
BLOCK_RECORD
5
1B
100
AcDbSymbolTableRecord
100
AcDbBlockTableRecord
2
*PAPER_SPACE
0
ENDTAB
0
ENDSEC
0
SECTION
2
BLOCKS
0
BLOCK
5
20
100
AcDbEntity
100
AcDbBlockBegin
2
*MODEL_SPACE
0
ENDBLK
5
21
100
AcDbEntity
100
AcDbBlockEnd
0
BLOCK
5
1C
100
AcDbEntity
100
AcDbBlockBegin
2
*PAPER_SPACE
0
ENDBLK
5
1D
100
AcDbEntity
100
AcDbBlockEnd
0
ENDSEC
0
SECTION
2
ENTITIES
0
SPLINE
5
100
100
AcDbEntity
8
0
100
AcDbSpline
70
4
71
3
72
8
73
4
74
0
42
0.000000001
43
0.0000000001
44
0.0000000001
40
0
40
0
40
0
40
0
40
1
40
1
40
1
40
1
41
1
41
1
41
1
41
1
10
3.8099557923260394
20
-1.2593782081147709
30
0
10
4.0818307905811304
20
-1.2831282280893821
30
0
10
4.3012057888821396
20
-1.3062532442068273
30
0
10
4.4630807873209051
20
-1.3275032560997566
30
0
0
LINE
5
101
100
AcDbEntity
8
0
100
AcDbLine
10
4.4630807377848676
20
-1.3275032495969523
30
0
11
4.5912058717460216
21
-1.344378271883319
31
0
0
SPLINE
5
102
100
AcDbEntity
8
0
100
AcDbSpline
70
4
71
3
72
8
73
4
74
0
42
0.000000001
43
0.0000000001
44
0.0000000001
40
0
40
0
40
0
40
0
40
1
40
1
40
1
40
1
41
1
41
1
41
1
41
1
10
4.5854377309550669
20
-1.4939621194646928
30
0
10
4.5698127309550678
20
-1.4939621194646928
30
0
10
4.1704377309550669
20
-1.5183371194646926
30
0
10
4.1198127309550676
20
-1.5227121194646926
30
0
0
SPLINE
5
103
100
AcDbEntity
8
0
100
AcDbSpline
70
4
71
3
72
8
73
4
74
0
42
0.000000001
43
0.0000000001
44
0.0000000001
40
0
40
0
40
0
40
0
40
1
40
1
40
1
40
1
41
1
41
1
41
1
41
1
10
3.9710627309550666
20
-1.5345871194646927
30
0
10
3.9404377309550669
20
-1.5364621194646928
30
0
10
3.8998127309550674
20
-1.5395871194646928
30
0
10
3.8823127309550673
20
-1.5420871194646928
30
0
0
LINE
5
104
100
AcDbEntity
8
0
100
AcDbLine
10
3.8823127309550669
20
-1.5420871194646926
30
0
11
3.8491877309550673
21
-1.5452121194646928
31
0
0
LINE
5
105
100
AcDbEntity
8
0
100
AcDbLine
10
3.8491877309550673
20
-1.5452121194646928
30
0
11
3.8491877309550673
21
-1.5714621194646927
31
0
0
SPLINE
5
106
100
AcDbEntity
8
0
100
AcDbSpline
70
4
71
3
72
8
73
4
74
0
42
0.000000001
43
0.0000000001
44
0.0000000001
40
0
40
0
40
0
40
0
40
1
40
1
40
1
40
1
41
1
41
1
41
1
41
1
10
3.9189554400607687
20
-1.9600959740175439
30
0
10
3.928330440060769
20
-1.9657209740175432
30
0
10
4.6064554400607687
20
-1.5163459740175436
30
0
10
4.6114554400607695
20
-1.5007209740175436
30
0
0
SPLINE
5
107
100
AcDbEntity
8
0
100
AcDbSpline
70
4
71
3
72
8
73
4
74
0
42
0.000000001
43
0.0000000001
44
0.0000000001
40
0
40
0
40
0
40
0
40
1
40
1
40
1
40
1
41
1
41
1
41
1
41
1
10
4.6114554400607606
20
-1.5007209740175422
30
0
10
4.6117828254114182
20
-1.496781707736599
30
0
10
4.6063491668521097
20
-1.4929586226393443
30
0
10
4.5986184898016722
20
-1.4929111111477043
30
0
0
SPLINE
5
108
100
AcDbEntity
8
0
100
AcDbSpline
70
4
71
3
72
8
73
4
74
0
42
0.000000001
43
0.0000000001
44
0.0000000001
40
0
40
0
40
0
40
0
40
1
40
1
40
1
40
1
41
1
41
1
41
1
41
1
10
4.6105808746388481
20
-1.3475032772270237
30
0
10
4.6262055271178353
20
-1.3476074881231199
30
0
10
5.1082320992903076
20
-1.4201989776012727
30
0
10
5.1188318523609562
20
-1.4240197576055751
30
0
0
LINE
5
109
100
AcDbEntity
8
0
100
AcDbLine
10
5.7896628184131362
20
-1.5241318550332053
30
0
11
5.8764532135466609
21
-1.5406331756719385
31
0
0
LINE
5
110
100
AcDbEntity
8
0
100
AcDbLine
10
5.8764532135466609
20
-1.5406331756719385
30
0
11
5.8161906003787065
21
-1.5616291559963063
31
0
0
SPLINE
5
111
100
AcDbEntity
8
0
100
AcDbSpline
70
4
71
3
72
8
73
4
74
0
42
0.000000001
43
0.0000000001
44
0.0000000001
40
0
40
0
40
0
40
0
40
1
40
1
40
1
40
1
41
1
41
1
41
1
41
1
10
5.8161906003787065
20
-1.5616291559963065
30
0
10
5.7999041747165991
20
-1.5671478029457553
30
0
10
5.7780173845284697
20
-1.5688797571197508
30
0
10
5.7511552164586508
20
-1.566829104397121
30
0
0
SPLINE
5
112
100
AcDbEntity
8
0
100
AcDbSpline
70
4
71
3
72
8
73
4
74
0
42
0.000000001
43
0.0000000001
44
0.0000000001
40
0
40
0
40
0
40
0
40
1
40
1
40
1
40
1
41
1
41
1
41
1
41
1
10
5.7511552838701094
20
-1.5668291098747891
30
0
10
5.6580402047613285
20
-1.5592069272762399
30
0
10
5.3455765564351374
20
-1.531296920563846
30
0
10
5.3137056841769796
20
-1.5281301001546379
30
0
0
SPLINE
5
113
100
AcDbEntity
8
0
100
AcDbSpline
70
4
71
3
72
8
73
4
74
0
42
0.000000001
43
0.0000000001
44
0.0000000001
40
0
40
0
40
0
40
0
40
1
40
1
40
1
40
1
41
1
41
1
41
1
41
1
10
5.3137057504359495
20
-1.5281301068889308
30
0
10
5.2768307507687675
20
-1.5243801036162226
30
0
10
4.7524557497703164
20
-1.5356300570772021
30
0
10
4.709330749271091
20
-1.5412550532497973
30
0
0
SPLINE
5
114
100
AcDbEntity
8
0
100
AcDbSpline
70
4
71
3
72
8
73
4
74
0
42
0.000000001
43
0.0000000001
44
0.0000000001
40
0
40
0
40
0
40
0
40
1
40
1
40
1
40
1
41
1
41
1
41
1
41
1
10
4.7093308226532722
20
-1.5412550443475643
30
0
10
4.6880260983509929
20
-1.543235252014425
30
0
10
4.6436632423065269
20
-1.5677839816878301
30
0
10
4.4969956078830933
20
-1.6598539890878201
30
0
0
SPLINE
5
115
100
AcDbEntity
8
0
100
AcDbSpline
70
4
71
3
72
8
73
4
74
0
42
0.000000001
43
0.0000000001
44
0.0000000001
40
0
40
0
40
0
40
0
40
1
40
1
40
1
40
1
41
1
41
1
41
1
41
1
10
4.4969957322421266
20
-1.6598539110219472
30
0
10
4.1722290260235679
20
-1.8527320517143264
30
0
10
3.9354513225583805
20
-1.9958242654848575
30
0
10
3.9307385700787547
20
-2.0031167677348249
30
0
0
SPLINE
5
116
100
AcDbEntity
8
0
100
AcDbSpline
70
4
71
3
72
8
73
4
74
0
42
0.000000001
43
0.0000000001
44
0.0000000001
40
0
40
0
40
0
40
0
40
1
40
1
40
1
40
1
41
1
41
1
41
1
41
1
10
3.930738685588806
20
-2.0031165890396476
30
0
10
3.9246455917075442
20
-2.01361134163102
30
0
10
3.9324571310303678
20
-2.0174021830162512
30
0
10
3.9710427486440687
20
-2.021975555772674
30
0
0
SPLINE
5
117
100
AcDbEntity
8
0
100
AcDbSpline
70
4
71
3
72
8
73
4
74
0
42
0.000000001
43
0.0000000001
44
0.0000000001
40
0
40
0
40
0
40
0
40
1
40
1
40
1
40
1
41
1
41
1
41
1
41
1
10
4.1426910090166178
20
-2.0418396898302724
30
0
10
4.1183506040904483
20
-2.0687460262220978
30
0
10
4.0990069787565417
20
-2.0931459321428481
30
0
10
4.0996343904418042
20
-2.0950201265236941
30
0
0
SPLINE
5
118
100
AcDbEntity
8
0
100
AcDbSpline
70
4
71
3
72
8
73
4
74
0
42
0.000000001
43
0.0000000001
44
0.0000000001
40
0
40
0
40
0
40
0
40
1
40
1
40
1
40
1
41
1
41
1
41
1
41
1
10
4.0996343094497734
20
-2.0950198841278231
30
0
10
4.1372080700638705
20
-2.1116831862709944
30
0
10
4.1383613989072314
20
-2.1131615155912309
30
0
10
4.1373969489261384
20
-2.1281825786772437
30
0
0
SPLINE
5
119
100
AcDbEntity
8
0
100
AcDbSpline
70
4
71
3
72
8
73
4
74
0
42
0.000000001
43
0.0000000001
44
0.0000000001
40
0
40
0
40
0
40
0
40
1
40
1
40
1
40
1
41
1
41
1
41
1
41
1
10
4.1373969657473237
20
-2.1281823166896117
30
0
10
4.1300611896131842
20
-2.1331129747095705
30
0
10
4.1242046108850321
20
-2.1402443655697723
30
0
10
4.1234830754507783
20
-2.1439242958160016
30
0
0
SPLINE
5
120
100
AcDbEntity
8
0
100
AcDbSpline
70
4
71
3
72
8
73
4
74
0
42
0.000000001
43
0.0000000001
44
0.0000000001
40
0
40
0
40
0
40
0
40
1
40
1
40
1
40
1
41
1
41
1
41
1
41
1
10
4.1234831255977547
20
-2.1439240400961048
30
0
10
4.1235948442672141
20
-2.1470470424878578
30
0
10
4.1544034094526703
20
-2.1865959180877224
30
0
10
4.1922613297711173
20
-2.23089581644158
30
0
0
SPLINE
5
121
100
AcDbEntity
8
0
100
AcDbSpline
70
4
71
3
72
8
73
4
74
0
42
0.000000001
43
0.0000000001
44
0.0000000001
40
0
40
0
40
0
40
0
40
1
40
1
40
1
40
1
41
1
41
1
41
1
41
1
10
4.0553750967031634
20
-2.2239852816180514
30
0
10
4.0390044824870346
20
-2.2654380392487181
30
0
10
4.0087934128260105
20
-2.2995590649504298
30
0
10
3.9894198540824046
20
-2.2997953838197831
30
0
0
SPLINE
5
122
100
AcDbEntity
8
0
100
AcDbSpline
70
4
71
3
72
8
73
4
74
0
42
0.000000001
43
0.0000000001
44
0.0000000001
40
0
40
0
40
0
40
0
40
1
40
1
40
1
40
1
41
1
41
1
41
1
41
1
10
3.9894198694323091
20
-2.299795383632588
30
0
10
3.9719203439275605
20
-2.2999242522039891
30
0
10
3.9689427070261716
20
-2.3199467221685937
30
0
10
3.9852843154030091
20
-2.3323267195699686
30
0
0
SPLINE
5
123
100
AcDbEntity
8
0
100
AcDbSpline
70
4
71
3
72
8
73
4
74
0
42
0.000000001
43
0.0000000001
44
0.0000000001
40
0
40
0
40
0
40
0
40
1
40
1
40
1
40
1
41
1
41
1
41
1
41
1
10
4.1524523259750357
20
-2.4362502607476708
30
0
10
4.1562042423970835
20
-2.4175006441339386
30
0
10
4.1774556476766165
20
-2.4037528161729473
30
0
10
4.2024556475460306
20
-2.4037553714284607
30
0
0
SPLINE
5
124
100
AcDbEntity
8
0
100
AcDbSpline
70
4
71
3
72
8
73
4
74
0
42
0.000000001
43
0.0000000001
44
0.0000000001
40
0
40
0
40
0
40
0
40
1
40
1
40
1
40
1
41
1
41
1
41
1
41
1
10
4.2024556126334653
20
-2.4037553714249014
30
0
10
4.2249556126334591
20
-2.4037553575023529
30
0
10
4.2418306029650195
20
-2.3881303470604442
30
0
10
4.2855805639045288
20
-2.3250053199888336
30
0
0
SPLINE
5
125
100
AcDbEntity
8
0
100
AcDbSpline
70
4
71
3
72
8
73
4
74
0
42
0.000000001
43
0.0000000001
44
0.0000000001
40
0
40
0
40
0
40
0
40
1
40
1
40
1
40
1
41
1
41
1
41
1
41
1
10
4.2855801531578646
20
-2.3250059126381131
30
0
10
4.3237051458512452
20
-2.2700059075732986
30
0
10
4.3287051452700354
20
-2.2656309069090597
30
0
10
4.3437051457682143
20
-2.2693809049163463
30
0
0
SPLINE
5
126
100
AcDbEntity
8
0
100
AcDbSpline
70
4
71
3
72
8
73
4
74
0
42
0.000000001
43
0.0000000001
44
0.0000000001
40
0
40
0
40
0
40
0
40
1
40
1
40
1
40
1
41
1
41
1
41
1
41
1
10
4.3437050253164857
20
-2.2693808759186092
30
0
10
4.3774550206316665
20
-2.2775058953785972
30
0
10
4.3780800170279663
20
-2.2837558957389668
30
0
10
4.3512049745042889
20
-2.3575058802430364
30
0
0
SPLINE
5
127
100
AcDbEntity
8
0
100
AcDbSpline
70
4
71
3
72
8
73
4
74
0
42
0.000000001
43
0.0000000001
44
0.0000000001
40
0
40
0
40
0
40
0
40
1
40
1
40
1
40
1
41
1
41
1
41
1
41
1
10
4.3512052477511469
20
-2.3575051227060317
30
0
10
4.2743301568805894
20
-2.5706300899286543
30
0
10
4.2662051507514906
20
-2.5850050864643785
30
0
10
4.2255801507514938
20
-2.5850050691430098
30
0
0
SPLINE
5
128
100
AcDbEntity
8
0
100
AcDbSpline
70
4
71
3
72
8
73
4
74
0
42
0.000000001
43
0.0000000001
44
0.0000000001
40
0
40
0
40
0
40
0
40
1
40
1
40
1
40
1
41
1
41
1
41
1
41
1
10
4.2255802554583708
20
-2.5850050691431243
30
0
10
4.1943302554583726
20
-2.5850050558748623
30
0
10
4.1768302634193315
20
-2.5662550484446371
30
0
10
4.1605802849139195
20
-2.5156300415451454
30
0
0
LINE
5
129
100
AcDbEntity
8
0
100
AcDbLine
10
4.1605805056590137
20
-2.5156307292498226
30
0
11
4.1474544291144779
21
-2.4762524572640809
31
0
0
LINE
5
130
100
AcDbEntity
8
0
100
AcDbLine
10
4.1474544291144779
20
-2.4762524572640809
30
0
11
4.0287058030938887
21
-2.4125031888281749
31
0
0
SPLINE
5
131
100
AcDbEntity
8
0
100
AcDbSpline
70
4
71
3
72
8
73
4
74
0
42
0.000000001
43
0.0000000001
44
0.0000000001
40
0
40
0
40
0
40
0
40
1
40
1
40
1
40
1
41
1
41
1
41
1
41
1
10
4.0287058134007188
20
-2.4125031944258506
30
0
10
3.9562058150654096
20
-2.3731281913607076
30
0
10
3.9024558161223561
20
-2.3481281890882739
30
0
10
3.8912058161223562
20
-2.3481281886126482
30
0
0
SPLINE
5
132
100
AcDbEntity
8
0
100
AcDbSpline
70
4
71
3
72
8
73
4
74
0
42
0.000000001
43
0.0000000001
44
0.0000000001
40
0
40
0
40
0
40
0
40
1
40
1
40
1
40
1
41
1
41
1
41
1
41
1
10
3.8912058343798819
20
-2.3481281891342887
30
0
10
3.8693308344020627
20
-2.3475031883579462
30
0
10
3.8493308338253516
20
-2.3637531876481472
30
0
10
3.7812058311857868
20
-2.4381281852303949
30
0
0
SPLINE
5
133
100
AcDbEntity
8
0
100
AcDbSpline
70
4
71
3
72
8
73
4
74
0
42
0.000000001
43
0.0000000001
44
0.0000000001
40
0
40
0
40
0
40
0
40
1
40
1
40
1
40
1
41
1
41
1
41
1
41
1
10
3.7812058459149553
20
-2.4381281694234822
30
0
10
3.7555808451194443
20
-2.4656281686822097
30
0
10
3.7330808444866501
20
-2.4875031680313358
30
0
10
3.7312058445047294
20
-2.4868781679770966
30
0
0
SPLINE
5
134
100
AcDbEntity
8
0
100
AcDbSpline
70
4
71
3
72
8
73
4
74
0
42
0.000000001
43
0.0000000001
44
0.0000000001
40
0
40
0
40
0
40
0
40
1
40
1
40
1
40
1
41
1
41
1
41
1
41
1
10
3.7312058506263495
20
-2.4868781700408995
30
0
10
3.7293329977603391
20
-2.4862467651452289
30
0
10
3.7274494639838274
20
-2.4887403419964098
30
0
10
3.7268095143597582
20
-2.4931131802599014
30
0
0
SPLINE
5
135
100
AcDbEntity
8
0
100
AcDbSpline
70
4
71
3
72
8
73
4
74
0
42
0.000000001
43
0.0000000001
44
0.0000000001
40
0
40
0
40
0
40
0
40
1
40
1
40
1
40
1
41
1
41
1
41
1
41
1
10
3.726809514356241
20
-2.4931131802296931
30
0
10
3.7273154612052215
20
-2.4974588266472018
30
0
10
3.7215152932215263
20
-2.5233029855880709
30
0
10
3.7153834310918907
20
-2.5517026491745129
30
0
0
SPLINE
5
136
100
AcDbEntity
8
0
100
AcDbSpline
70
4
71
3
72
8
73
4
74
0
42
0.000000001
43
0.0000000001
44
0.0000000001
40
0
40
0
40
0
40
0
40
1
40
1
40
1
40
1
41
1
41
1
41
1
41
1
10
3.7153834318364538
20
-2.5517026457191951
30
0
10
3.7082377997287059
20
-2.5956054425182691
30
0
10
3.7044089356762413
20
-2.6058460992388004
30
0
10
3.68778683886827
20
-2.6190849963872189
30
0
0
SPLINE
5
137
100
AcDbEntity
8
0
100
AcDbSpline
70
4
71
3
72
8
73
4
74
0
42
0.000000001
43
0.0000000001
44
0.0000000001
40
0
40
0
40
0
40
0
40
1
40
1
40
1
40
1
41
1
41
1
41
1
41
1
10
3.6877868418133155
20
-2.6190849940415966
30
0
10
3.6554969224946534
20
-2.652043564404921
30
0
10
3.6183362248846325
20
-2.6420074706360959
30
0
10
3.5806282366714068
20
-2.5902494869532737
30
0
0
SPLINE
5
138
100
AcDbEntity
8
0
100
AcDbSpline
70
4
71
3
72
8
73
4
74
0
42
0.000000001
43
0.0000000001
44
0.0000000001
40
0
40
0
40
0
40
0
40
1
40
1
40
1
40
1
41
1
41
1
41
1
41
1
10
3.6220473507195949
20
-2.4804601610319978
30
0
10
3.6475202210133006
20
-2.4723857954841617
30
0
10
3.6570164474614422
20
-2.4517405070810989
30
0
10
3.6549368249436238
20
-2.4079283706896453
30
0
0
SPLINE
5
139
100
AcDbEntity
8
0
100
AcDbSpline
70
4
71
3
72
8
73
4
74
0
42
0.000000001
43
0.0000000001
44
0.0000000001
40
0
40
0
40
0
40
0
40
1
40
1
40
1
40
1
41
1
41
1
41
1
41
1
10
3.6549368237212385
20
-2.4079283741473141
30
0
10
3.6671025018785683
20
-2.373689379200437
30
0
10
3.6640666742266541
20
-2.3682981826293723
30
0
10
3.6213296228101091
20
-2.3563530973965396
30
0
0
SPLINE
5
140
100
AcDbEntity
8
0
100
AcDbSpline
70
4
71
3
72
8
73
4
74
0
42
0.000000001
43
0.0000000001
44
0.0000000001
40
0
40
0
40
0
40
0
40
1
40
1
40
1
40
1
41
1
41
1
41
1
41
1
10
3.6213296233900993
20
-2.3563530975586482
30
0
10
3.5724986833093362
20
-2.3407934770353513
30
0
10
3.5658109295972653
20
-2.343254208692128
30
0
10
3.5603283443824862
20
-2.3769291809914881
30
0
0
SPLINE
5
141
100
AcDbEntity
8
0
100
AcDbSpline
70
4
71
3
72
8
73
4
74
0
42
0.000000001
43
0.0000000001
44
0.0000000001
40
0
40
0
40
0
40
0
40
1
40
1
40
1
40
1
41
1
41
1
41
1
41
1
10
3.5603283449124268
20
-2.3769291777074693
30
0
10
3.5610156455549342
20
-2.4166979954900838
30
0
10
3.5308453760772025
20
-2.471497959811614
30
0
10
3.5008410107680175
20
-2.4847463299903572
30
0
0
SPLINE
5
142
100
AcDbEntity
8
0
100
AcDbSpline
70
4
71
3
72
8
73
4
74
0
42
0.000000001
43
0.0000000001
44
0.0000000001
40
0
40
0
40
0
40
0
40
1
40
1
40
1
40
1
41
1
41
1
41
1
41
1
10
3.5008410264997769
20
-2.4847463213190109
30
0
10
3.4406562706009547
20
-2.5194276586259732
30
0
10
3.381703018596069
20
-2.4397389183419884
30
0
10
3.4083768769659528
20
-2.3598792427875304
30
0
0
SPLINE
5
143
100
AcDbEntity
8
0
100
AcDbSpline
70
4
71
3
72
8
73
4
74
0
42
0.000000001
43
0.0000000001
44
0.0000000001
40
0
40
0
40
0
40
0
40
1
40
1
40
1
40
1
41
1
41
1
41
1
41
1
10
3.4083768721294487
20
-2.3598792572676888
30
0
10
3.4178856182472965
20
-2.3324252161759604
30
0
10
3.4178856182472965
20
-2.3324252161759604
30
0
10
3.4004679651937781
20
-2.315465234244741
30
0
0
SPLINE
5
144
100
AcDbEntity
8
0
100
AcDbSpline
70
4
71
3
72
8
73
4
74
0
42
0.000000001
43
0.0000000001
44
0.0000000001
40
0
40
0
40
0
40
0
40
1
40
1
40
1
40
1
41
1
41
1
41
1
41
1
10
3.4004679683816987
20
-2.3154652373488958
30
0
10
3.3911314374356736
20
-2.3066742012953974
30
0
10
3.3799528207031395
20
-2.2903750133417868
30
0
10
3.3756217243571887
20
-2.2803559200972816
30
0
0
SPLINE
5
145
100
AcDbEntity
8
0
100
AcDbSpline
70
4
71
3
72
8
73
4
74
0
42
0.000000001
43
0.0000000001
44
0.0000000001
40
0
40
0
40
0
40
0
40
1
40
1
40
1
40
1
41
1
41
1
41
1
41
1
10
3.3756217287312396
20
-2.2803559302157361
30
0
10
3.3663760305730959
20
-2.2571789305054959
30
0
10
3.3752445776448612
20
-2.2359781316329079
30
0
10
3.4205685101871999
20
-2.1781053680571336
30
0
0
SPLINE
5
146
100
AcDbEntity
8
0
100
AcDbSpline
70
4
71
3
72
8
73
4
74
0
42
0.000000001
43
0.0000000001
44
0.0000000001
40
0
40
0
40
0
40
0
40
1
40
1
40
1
40
1
41
1
41
1
41
1
41
1
10
3.4205684989854692
20
-2.1781053823602883
30
0
10
3.4595603863297595
20
-2.1276664505086904
30
0
10
3.4721739294061531
20
-2.1039765574937364
30
0
10
3.4697577268901685
20
-2.0864647910094045
30
0
0
SPLINE
5
147
100
AcDbEntity
8
0
100
AcDbSpline
70
4
71
3
72
8
73
4
74
0
42
0.000000001
43
0.0000000001
44
0.0000000001
40
0
40
0
40
0
40
0
40
1
40
1
40
1
40
1
41
1
41
1
41
1
41
1
10
3.4697577297498392
20
-2.0864648117353268
30
0
10
3.4673188692126491
20
-2.0689561864529082
30
0
10
3.4498342570139466
20
-2.0645200889268218
30
0
10
3.3773368822633683
20
-2.0636418638564376
30
0
0
LINE
5
148
100
AcDbEntity
8
0
100
AcDbLine
10
3.3773368822633678
20
-2.0636418638564376
30
0
11
3.326914681060515
21
-2.063265455319129
31
0
0
LINE
5
149
100
AcDbEntity
8
0
100
AcDbLine
10
3.326914681060515
20
-2.063265455319129
30
0
11
3.2350517244196246
21
-1.9243120050367462
31
0
0
SPLINE
5
150
100
AcDbEntity
8
0
100
AcDbSpline
70
4
71
3
72
8
73
4
74
0
42
0.000000001
43
0.0000000001
44
0.0000000001
40
0
40
0
40
0
40
0
40
1
40
1
40
1
40
1
41
1
41
1
41
1
41
1
10
3.2350517573092135
20
-1.924312054895166
30
0
10
3.1443722598881734
20
-1.7868479891453575
30
0
10
3.0980957544950498
20
-1.7199913277450141
30
0
10
3.0687058919280816
20
-1.6825029748431497
30
0
0
SPLINE
5
151
100
AcDbEntity
8
0
100
AcDbSpline
70
4
71
3
72
8
73
4
74
0
42
0.000000001
43
0.0000000001
44
0.0000000001
40
0
40
0
40
0
40
0
40
1
40
1
40
1
40
1
41
1
41
1
41
1
41
1
10
3.0687059197005397
20
-1.6825030099241411
30
0
10
3.0568309194976613
20
-1.6675030100847539
30
0
10
3.0518309194723012
20
-1.6656280101523799
30
0
10
3.0337059195061147
20
-1.6681280103975253
30
0
0
SPLINE
5
152
100
AcDbEntity
8
0
100
AcDbSpline
70
4
71
3
72
8
73
4
74
0
42
0.000000001
43
0.0000000001
44
0.0000000001
40
0
40
0
40
0
40
0
40
1
40
1
40
1
40
1
41
1
41
1
41
1
41
1
10
2.9924558863179396
20
-1.6756280170976234
30
0
10
2.9287058863357114
20
-1.6906280171731538
30
0
10
2.7968308863697744
20
-1.7193780173293993
30
0
10
2.7380808863845845
20
-1.7318780173990065
30
0
0
SPLINE
5
153
100
AcDbEntity
8
0
100
AcDbSpline
70
4
71
3
72
8
73
4
74
0
42
0.000000001
43
0.0000000001
44
0.0000000001
40
0
40
0
40
0
40
0
40
1
40
1
40
1
40
1
41
1
41
1
41
1
41
1
10
2.7380809508226793
20
-1.7318780036887731
30
0
10
2.6987059509802509
20
-1.7406280043978479
30
0
10
2.6505809511715888
20
-1.7512530052644948
30
0
10
2.6312059512616299
20
-1.7562530056134047
30
0
0
SPLINE
5
154
100
AcDbEntity
8
0
100
AcDbSpline
70
4
71
3
72
8
73
4
74
0
42
0.000000001
43
0.0000000001
44
0.0000000001
40
0
40
0
40
0
40
0
40
1
40
1
40
1
40
1
41
1
41
1
41
1
41
1
10
2.631206052501613
20
-1.7562529794869719
30
0
10
2.6093310527235891
20
-1.7612529804581136
30
0
10
2.5924560527790828
20
-1.7625029812072806
30
0
10
2.5874560526403481
20
-1.7593779814292554
30
0
0
SPLINE
5
155
100
AcDbEntity
8
0
100
AcDbSpline
70
4
71
3
72
8
73
4
74
0
42
0.000000001
43
0.0000000001
44
0.0000000001
40
0
40
0
40
0
40
0
40
1
40
1
40
1
40
1
41
1
41
1
41
1
41
1
10
2.5874561235306959
20
-1.7593780257924676
30
0
10
2.5737061230778542
20
-1.7500030264566362
30
0
10
2.6005811222023589
20
-1.7318780251584895
30
0
10
2.7268311188513281
20
-1.6625030190602168
30
0
0
SPLINE
5
156
100
AcDbEntity
8
0
100
AcDbSpline
70
4
71
3
72
8
73
4
74
0
42
0.000000001
43
0.0000000001
44
0.0000000001
40
0
40
0
40
0
40
0
40
1
40
1
40
1
40
1
41
1
41
1
41
1
41
1
10
2.7268310133619065
20
-1.6625030768549549
30
0
10
2.8443310125881722
20
-1.5981280754427032
30
0
10
2.8943310122576458
20
-1.5706280748417452
30
0
10
2.9318310120022382
20
-1.5493780743910266
30
0
0
SPLINE
5
157
100
AcDbEntity
8
0
100
AcDbSpline
70
4
71
3
72
8
73
4
74
0
42
0.000000001
43
0.0000000001
44
0.0000000001
40
0
40
0
40
0
40
0
40
1
40
1
40
1
40
1
41
1
41
1
41
1
41
1
10
2.9318309414123083
20
-1.5493781152588664
30
0
10
2.9437059414853226
20
-1.5425031153849809
30
0
10
2.9749559416645375
20
-1.5256281157168612
30
0
10
3.0005809418105649
20
-1.5118781159890033
30
0
0
SPLINE
5
158
100
AcDbEntity
8
0
100
AcDbSpline
70
4
71
3
72
8
73
4
74
0
42
0.000000001
43
0.0000000001
44
0.0000000001
40
0
40
0
40
0
40
0
40
1
40
1
40
1
40
1
41
1
41
1
41
1
41
1
10
3.000580896476801
20
-1.5118781403144366
30
0
10
3.0262058968133023
20
-1.4981281409415523
30
0
10
3.0718308974098272
20
-1.4737531420581245
30
0
10
3.1012058978075103
20
-1.4575031427770133
30
0
0
SPLINE
5
159
100
AcDbEntity
8
0
100
AcDbSpline
70
4
71
3
72
8
73
4
74
0
42
0.000000001
43
0.0000000001
44
0.0000000001
40
0
40
0
40
0
40
0
40
1
40
1
40
1
40
1
41
1
41
1
41
1
41
1
10
3.4243308668567116
20
-1.3012531830885139
30
0
10
3.459955867453115
20
-1.2856281844483135
30
0
10
3.4968308681449427
20
-1.2675031858558252
30
0
10
3.5062058684312163
20
-1.2600031862136676
30
0
0
SPLINE
5
160
100
AcDbEntity
8
0
100
AcDbSpline
70
4
71
3
72
8
73
4
74
0
42
0.000000001
43
0.0000000001
44
0.0000000001
40
0
40
0
40
0
40
0
40
1
40
1
40
1
40
1
41
1
41
1
41
1
41
1
10
3.5062058502363254
20
-1.2600031990327951
30
0
10
3.5337058510645822
20
-1.2406282002083853
30
0
10
3.5518308513050445
20
-1.2350032009832062
30
0
10
3.5755808511714551
20
-1.2381282019984883
30
0
0
SPLINE
5
161
100
AcDbEntity
8
0
100
AcDbSpline
70
4
71
3
72
8
73
4
74
0
42
0.000000001
43
0.0000000001
44
0.0000000001
40
0
40
0
40
0
40
0
40
1
40
1
40
1
40
1
41
1
41
1
41
1
41
1
10
3.5755808286507724
20
-1.2381281991198292
30
0
10
3.5874558285857936
20
-1.2393781997371209
30
0
10
3.6930808280984584
20
-1.2487532052277661
30
0
10
3.8099558275461449
20
-1.2593782113032144
30
0
0
SPLINE
5
162
100
AcDbEntity
8
0
100
AcDbSpline
70
4
71
3
72
8
73
4
74
0
42
0.000000001
43
0.0000000001
44
0.0000000001
40
0
40
0
40
0
40
0
40
1
40
1
40
1
40
1
41
1
41
1
41
1
41
1
10
3.5349559150026888
20
-1.5350030642266379
30
0
10
3.5330809150026887
20
-1.5381280642266377
30
0
10
3.5343309150026889
20
-1.5412530642266378
30
0
10
3.5374559150026883
20
-1.5412530642266378
30
0
0
SPLINE
5
163
100
AcDbEntity
8
0
100
AcDbSpline
70
4
71
3
72
8
73
4
74
0
42
0.000000001
43
0.0000000001
44
0.0000000001
40
0
40
0
40
0
40
0
40
1
40
1
40
1
40
1
41
1
41
1
41
1
41
1
10
3.5374559150026883
20
-1.5412530642266378
30
0
10
3.5412059150026884
20
-1.5412530642266378
30
0
10
3.5443309150026887
20
-1.5381280642266377
30
0
10
3.5443309150026887
20
-1.5350030642266379
30
0
0
SPLINE
5
164
100
AcDbEntity
8
0
100
AcDbSpline
70
4
71
3
72
8
73
4
74
0
42
0.000000001
43
0.0000000001
44
0.0000000001
40
0
40
0
40
0
40
0
40
1
40
1
40
1
40
1
41
1
41
1
41
1
41
1
10
3.5443309150026887
20
-1.5350030642266379
30
0
10
3.5443309150026887
20
-1.5312530642266378
30
0
10
3.5430809150026885
20
-1.5287530642266378
30
0
10
3.5418309150026888
20
-1.5287530642266378
30
0
0
SPLINE
5
165
100
AcDbEntity
8
0
100
AcDbSpline
70
4
71
3
72
8
73
4
74
0
42
0.000000001
43
0.0000000001
44
0.0000000001
40
0
40
0
40
0
40
0
40
1
40
1
40
1
40
1
41
1
41
1
41
1
41
1
10
3.5418309150026888
20
-1.5287530642266378
30
0
10
3.5399559150026882
20
-1.5287530642266378
30
0
10
3.5368309150026889
20
-1.5312530642266378
30
0
10
3.5349559150026888
20
-1.5350030642266379
30
0
0
SPLINE
5
166
100
AcDbEntity
8
0
100
AcDbSpline
70
4
71
3
72
8
73
4
74
0
42
0.000000001
43
0.0000000001
44
0.0000000001
40
0
40
0
40
0
40
0
40
1
40
1
40
1
40
1
41
1
41
1
41
1
41
1
10
3.7458862457041198
20
-1.5788638812977414
30
0
10
3.7433862457041203
20
-1.5851138812977412
30
0
10
3.73776124570412
20
-1.5963638812977412
30
0
10
3.7327612457041206
20
-1.6038638812977413
30
0
0
SPLINE
5
167
100
AcDbEntity
8
0
100
AcDbSpline
70
4
71
3
72
8
73
4
74
0
42
0.000000001
43
0.0000000001
44
0.0000000001
40
0
40
0
40
0
40
0
40
1
40
1
40
1
40
1
41
1
41
1
41
1
41
1
10
3.7327612457041206
20
-1.6038638812977413
30
0
10
3.7283862457041201
20
-1.6113638812977413
30
0
10
3.7233862457041198
20
-1.6213638812977411
30
0
10
3.7227612457041199
20
-1.6257388812977416
30
0
0
SPLINE
5
168
100
AcDbEntity
8
0
100
AcDbSpline
70
4
71
3
72
8
73
4
74
0
42
0.000000001
43
0.0000000001
44
0.0000000001
40
0
40
0
40
0
40
0
40
1
40
1
40
1
40
1
41
1
41
1
41
1
41
1
10
3.7227612457041199
20
-1.6257388812977416
30
0
10
3.7221362457041205
20
-1.6301138812977412
30
0
10
3.6952612457041205
20
-1.6869888812977414
30
0
10
3.6627612457041199
20
-1.7526138812977414
30
0
0
SPLINE
5
169
100
AcDbEntity
8
0
100
AcDbSpline
70
4
71
3
72
8
73
4
74
0
42
0.000000001
43
0.0000000001
44
0.0000000001
40
0
40
0
40
0
40
0
40
1
40
1
40
1
40
1
41
1
41
1
41
1
41
1
10
3.6627612457041199
20
-1.7526138812977414
30
0
10
3.63088624570412
20
-1.8176138812977409
30
0
10
3.5858862457041201
20
-1.908863881297741
30
0
10
3.5633862457041201
20
-1.9551138812977411
30
0
0
LINE
5
170
100
AcDbEntity
8
0
100
AcDbLine
10
3.5633862457041201
20
-1.9551138812977411
30
0
11
3.5226934741164646
21
-2.0453492753948104
31
0
0
LINE
5
171
100
AcDbEntity
8
0
100
AcDbLine
10
3.5226934741164646
20
-2.0453492753948104
30
0
11
3.43901124570412
21
-2.035113881297741
31
0
0
SPLINE
5
172
100
AcDbEntity
8
0
100
AcDbSpline
70
4
71
3
72
8
73
4
74
0
42
0.000000001
43
0.0000000001
44
0.0000000001
40
0
40
0
40
0
40
0
40
1
40
1
40
1
40
1
41
1
41
1
41
1
41
1
10
3.43901124570412
20
-2.035113881297741
30
0
10
3.3927612457041199
20
-2.0332388812977409
30
0
10
3.3546362457041199
20
-2.0307388812977409
30
0
10
3.3527612457041203
20
-2.0294888812977412
30
0
0
SPLINE
5
173
100
AcDbEntity
8
0
100
AcDbSpline
70
4
71
3
72
8
73
4
74
0
42
0.000000001
43
0.0000000001
44
0.0000000001
40
0
40
0
40
0
40
0
40
1
40
1
40
1
40
1
41
1
41
1
41
1
41
1
10
3.3527612457041203
20
-2.0294888812977412
30
0
10
3.3508862457041202
20
-2.0269888812977408
30
0
10
3.4977612457041198
20
-1.8344888812977413
30
0
10
3.5608862457041202
20
-1.7563638812977411
30
0
0
SPLINE
5
174
100
AcDbEntity
8
0
100
AcDbSpline
70
4
71
3
72
8
73
4
74
0
42
0.000000001
43
0.0000000001
44
0.0000000001
40
0
40
0
40
0
40
0
40
1
40
1
40
1
40
1
41
1
41
1
41
1
41
1
10
3.5608862457041202
20
-1.7563638812977411
30
0
10
3.5708862457041199
20
-1.7444888812977413
30
0
10
3.5827612457041202
20
-1.7288638812977415
30
0
10
3.5877612457041201
20
-1.7207388812977411
30
0
0
SPLINE
5
175
100
AcDbEntity
8
0
100
AcDbSpline
70
4
71
3
72
8
73
4
74
0
42
0.000000001
43
0.0000000001
44
0.0000000001
40
0
40
0
40
0
40
0
40
1
40
1
40
1
40
1
41
1
41
1
41
1
41
1
10
3.5877612457041201
20
-1.7207388812977411
30
0
10
3.6027612457041198
20
-1.6988638812977412
30
0
10
3.7015112457041202
20
-1.578238881297741
30
0
10
3.7090112457041204
20
-1.5732388812977414
30
0
0
SPLINE
5
176
100
AcDbEntity
8
0
100
AcDbSpline
70
4
71
3
72
8
73
4
74
0
42
0.000000001
43
0.0000000001
44
0.0000000001
40
0
40
0
40
0
40
0
40
1
40
1
40
1
40
1
41
1
41
1
41
1
41
1
10
3.7090112457041204
20
-1.5732388812977414
30
0
10
3.7127612457041197
20
-1.5707388812977412
30
0
10
3.7233862457041198
20
-1.5682388812977415
30
0
10
3.7327612457041206
20
-1.5682388812977415
30
0
0
SPLINE
5
177
100
AcDbEntity
8
0
100
AcDbSpline
70
4
71
3
72
8
73
4
74
0
42
0.000000001
43
0.0000000001
44
0.0000000001
40
0
40
0
40
0
40
0
40
1
40
1
40
1
40
1
41
1
41
1
41
1
41
1
10
3.7327612457041206
20
-1.5682388812977415
30
0
10
3.7465112457041201
20
-1.5682388812977415
30
0
10
3.74901124570412
20
-1.5707388812977412
30
0
10
3.7458862457041198
20
-1.5788638812977414
30
0
0
SPLINE
5
178
100
AcDbEntity
8
0
100
AcDbSpline
70
4
71
3
72
8
73
4
74
0
42
0.000000001
43
0.0000000001
44
0.0000000001
40
0
40
0
40
0
40
0
40
1
40
1
40
1
40
1
41
1
41
1
41
1
41
1
10
3.8220722924584973
20
-1.7021340183270735
30
0
10
3.8435883214876227
20
-1.8203166677296732
30
0
10
3.8487166268744168
20
-1.9120824898469506
30
0
10
3.8343309150024329
20
-1.933753064226424
30
0
0
SPLINE
5
179
100
AcDbEntity
8
0
100
AcDbSpline
70
4
71
3
72
8
73
4
74
0
42
0.000000001
43
0.0000000001
44
0.0000000001
40
0
40
0
40
0
40
0
40
1
40
1
40
1
40
1
41
1
41
1
41
1
41
1
10
3.7905776001840383
20
-1.9630817722059148
30
0
10
3.7887026001840383
20
-1.9630817722059148
30
0
10
3.7868276001840377
20
-1.9512067722059148
30
0
10
3.785577600184038
20
-1.9368317722059147
30
0
0
SPLINE
5
180
100
AcDbEntity
8
0
100
AcDbSpline
70
4
71
3
72
8
73
4
74
0
42
0.000000001
43
0.0000000001
44
0.0000000001
40
0
40
0
40
0
40
0
40
1
40
1
40
1
40
1
41
1
41
1
41
1
41
1
10
3.785577600184038
20
-1.9368317722059147
30
0
10
3.7824526001840377
20
-1.8912067722059149
30
0
10
3.7324526001840383
20
-1.8693317722059148
30
0
10
3.6924526001840379
20
-1.8962067722059146
30
0
0
SPLINE
5
181
100
AcDbEntity
8
0
100
AcDbSpline
70
4
71
3
72
8
73
4
74
0
42
0.000000001
43
0.0000000001
44
0.0000000001
40
0
40
0
40
0
40
0
40
1
40
1
40
1
40
1
41
1
41
1
41
1
41
1
10
3.6924526001840379
20
-1.8962067722059146
30
0
10
3.6649526001840385
20
-1.9149567722059146
30
0
10
3.6599526001840381
20
-1.9487067722059146
30
0
10
3.6812026001840379
20
-1.9774567722059144
30
0
0
LINE
5
182
100
AcDbEntity
8
0
100
AcDbLine
10
3.6812026001840379
20
-1.9774567722059144
30
0
11
3.6949526001840383
21
-1.9968317722059141
31
0
0
SPLINE
5
183
100
AcDbEntity
8
0
100
AcDbSpline
70
4
71
3
72
8
73
4
74
0
42
0.000000001
43
0.0000000001
44
0.0000000001
40
0
40
0
40
0
40
0
40
1
40
1
40
1
40
1
41
1
41
1
41
1
41
1
10
3.5596199920491807
20
-2.0459644578627572
30
0
10
3.5633699920491808
20
-2.0403394578627574
30
0
10
3.5746199920491808
20
-2.0153394578627575
30
0
10
3.5858699920491808
20
-1.9915894578627573
30
0
0
SPLINE
5
184
100
AcDbEntity
8
0
100
AcDbSpline
70
4
71
3
72
8
73
4
74
0
42
0.000000001
43
0.0000000001
44
0.0000000001
40
0
40
0
40
0
40
0
40
1
40
1
40
1
40
1
41
1
41
1
41
1
41
1
10
3.5858699920491808
20
-1.9915894578627573
30
0
10
3.6208699920491809
20
-1.9165894578627576
30
0
10
3.754619992049181
20
-1.6422144578627573
30
0
10
3.7608699920491806
20
-1.6322144578627575
30
0
0
SPLINE
5
185
100
AcDbEntity
8
0
100
AcDbSpline
70
4
71
3
72
8
73
4
74
0
42
0.000000001
43
0.0000000001
44
0.0000000001
40
0
40
0
40
0
40
0
40
1
40
1
40
1
40
1
41
1
41
1
41
1
41
1
10
3.7608699920491806
20
-1.6322144578627575
30
0
10
3.7646199920491812
20
-1.6272144578627574
30
0
10
3.7721199920491806
20
-1.6134644578627577
30
0
10
3.7777449920491808
20
-1.6022144578627575
30
0
0
SPLINE
5
186
100
AcDbEntity
8
0
100
AcDbSpline
70
4
71
3
72
8
73
4
74
0
42
0.000000001
43
0.0000000001
44
0.0000000001
40
0
40
0
40
0
40
0
40
1
40
1
40
1
40
1
41
1
41
1
41
1
41
1
10
3.7777449920480812
20
-1.6022144578621296
30
0
10
3.7898404249808384
20
-1.5730364395577765
30
0
10
3.7921563281894066
20
-1.5784947215520071
30
0
10
3.8220722924576189
20
-1.7021340183265483
30
0
0
SPLINE
5
187
100
AcDbEntity
8
0
100
AcDbSpline
70
4
71
3
72
8
73
4
74
0
42
0.000000001
43
0.0000000001
44
0.0000000001
40
0
40
0
40
0
40
0
40
1
40
1
40
1
40
1
41
1
41
1
41
1
41
1
10
3.6534141445571957
20
-1.5823221108522481
30
0
10
3.6477891445571955
20
-1.5923221108522483
30
0
10
3.4640391445571956
20
-1.8323221108522476
30
0
10
3.4084141445571952
20
-1.902947110852248
30
0
0
SPLINE
5
188
100
AcDbEntity
8
0
100
AcDbSpline
70
4
71
3
72
8
73
4
74
0
42
0.000000001
43
0.0000000001
44
0.0000000001
40
0
40
0
40
0
40
0
40
1
40
1
40
1
40
1
41
1
41
1
41
1
41
1
10
3.4084141445571952
20
-1.902947110852248
30
0
10
3.4059141445571952
20
-1.9060721108522483
30
0
10
3.3940391445571949
20
-1.921697110852248
30
0
10
3.3821641445571951
20
-1.937322110852248
30
0
0
SPLINE
5
189
100
AcDbEntity
8
0
100
AcDbSpline
70
4
71
3
72
8
73
4
74
0
42
0.000000001
43
0.0000000001
44
0.0000000001
40
0
40
0
40
0
40
0
40
1
40
1
40
1
40
1
41
1
41
1
41
1
41
1
10
3.3821641445571951
20
-1.937322110852248
30
0
10
3.3452891445571948
20
-1.9848221108522481
30
0
10
3.3259141445571951
20
-2.003572110852248
30
0
10
3.3209141445571957
20
-1.996697110852248
30
0
0
SPLINE
5
190
100
AcDbEntity
8
0
100
AcDbSpline
70
4
71
3
72
8
73
4
74
0
42
0.000000001
43
0.0000000001
44
0.0000000001
40
0
40
0
40
0
40
0
40
1
40
1
40
1
40
1
41
1
41
1
41
1
41
1
10
3.3209141445571957
20
-1.996697110852248
30
0
10
3.3034141445571952
20
-1.9729471108522478
30
0
10
3.1459141445571954
20
-1.7335721108522482
30
0
10
3.1227891445571951
20
-1.6960721108522481
30
0
0
SPLINE
5
191
100
AcDbEntity
8
0
100
AcDbSpline
70
4
71
3
72
8
73
4
74
0
42
0.000000001
43
0.0000000001
44
0.0000000001
40
0
40
0
40
0
40
0
40
1
40
1
40
1
40
1
41
1
41
1
41
1
41
1
10
3.1227891445571951
20
-1.6960721108522481
30
0
10
3.0952891445571953
20
-1.6498221108522482
30
0
10
3.0946641445571954
20
-1.6491971108522481
30
0
10
3.1090391445571957
20
-1.6441971108522477
30
0
0
SPLINE
5
192
100
AcDbEntity
8
0
100
AcDbSpline
70
4
71
3
72
8
73
4
74
0
42
0.000000001
43
0.0000000001
44
0.0000000001
40
0
40
0
40
0
40
0
40
1
40
1
40
1
40
1
41
1
41
1
41
1
41
1
10
3.1090391445571957
20
-1.6441971108522477
30
0
10
3.1215391445571954
20
-1.6391971108522483
30
0
10
3.275289144557195
20
-1.6166971108522479
30
0
10
3.4915391445571951
20
-1.587947110852248
30
0
0
SPLINE
5
193
100
AcDbEntity
8
0
100
AcDbSpline
70
4
71
3
72
8
73
4
74
0
42
0.000000001
43
0.0000000001
44
0.0000000001
40
0
40
0
40
0
40
0
40
1
40
1
40
1
40
1
41
1
41
1
41
1
41
1
10
3.4915391445571951
20
-1.587947110852248
30
0
10
3.6002891445571956
20
-1.5735721108522482
30
0
10
3.6596641445571954
20
-1.5716971108522482
30
0
10
3.6534141445571957
20
-1.5823221108522481
30
0
0
SPLINE
5
194
100
AcDbEntity
8
0
100
AcDbSpline
70
4
71
3
72
8
73
4
74
0
42
0.000000001
43
0.0000000001
44
0.0000000001
40
0
40
0
40
0
40
0
40
1
40
1
40
1
40
1
41
1
41
1
41
1
41
1
10
3.7398295448420584
20
-2.3099420912946789
30
0
10
3.7274767726563334
20
-2.3093025451058953
30
0
10
3.7240688065155112
20
-2.3153190446515612
30
0
10
3.7129038789567081
20
-2.3620987880519544
30
0
0
SPLINE
5
195
100
AcDbEntity
8
0
100
AcDbSpline
70
4
71
3
72
8
73
4
74
0
42
0.000000001
43
0.0000000001
44
0.0000000001
40
0
40
0
40
0
40
0
40
1
40
1
40
1
40
1
41
1
41
1
41
1
41
1
10
3.7129038789567081
20
-2.3620987880519544
30
0
10
3.7065036922944858
20
-2.390728538499499
30
0
10
3.7020953047859821
20
-2.4231043183291021
30
0
10
3.7049825092007138
20
-2.4341825199280778
30
0
0
LINE
5
196
100
AcDbEntity
8
0
100
AcDbLine
10
3.7049825092007138
20
-2.4341825199280778
30
0
11
3.7083265613193719
21
-2.4540273508779169
31
0
0
LINE
5
197
100
AcDbEntity
8
0
100
AcDbLine
10
3.7083265613193719
20
-2.4540273508779169
30
0
11
3.72628008743134
21
-2.4414781118513118
31
0
0
SPLINE
5
198
100
AcDbEntity
8
0
100
AcDbSpline
70
4
71
3
72
8
73
4
74
0
42
0.000000001
43
0.0000000001
44
0.0000000001
40
0
40
0
40
0
40
0
40
1
40
1
40
1
40
1
41
1
41
1
41
1
41
1
10
3.72628008743134
20
-2.4414781118513118
30
0
10
3.7563488168036492
20
-2.4200845610956545
30
0
10
3.827568998938061
20
-2.3461779601946446
30
0
10
3.8245813002074796
20
-2.3405589161215592
30
0
0
SPLINE
5
199
100
AcDbEntity
8
0
100
AcDbSpline
70
4
71
3
72
8
73
4
74
0
42
0.000000001
43
0.0000000001
44
0.0000000001
40
0
40
0
40
0
40
0
40
1
40
1
40
1
40
1
41
1
41
1
41
1
41
1
10
3.8245813002074796
20
-2.3405589161215592
30
0
10
3.8205977019000374
20
-2.3330668573574442
30
0
10
3.7578607533322153
20
-2.3099649032323404
30
0
10
3.7398295448420584
20
-2.3099420912946789
30
0
0
ARC
5
200
100
AcDbEntity
8
0
100
AcDbCircle
10
4.598143872355001
20
-1.5701347560100156
30
0
40
0.077225103350794563
210
0
220
-0
230
1
100
AcDbArc
50
89.647863886304279
51
99.470154312734508
0
LINE
5
201
100
AcDbEntity
8
0
100
AcDbLine
10
4.5912058717460216
20
-1.344378271883319
30
0
11
4.6105808996115689
21
-1.3475032773936417
31
0
0
LINE
5
202
100
AcDbEntity
8
0
100
AcDbLine
10
5.1188318335374596
20
-1.4240197508205812
30
0
11
5.7896628184131362
21
-1.5241318550332053
31
0
0
LINE
5
203
100
AcDbEntity
8
0
100
AcDbLine
10
3.9710627309550666
20
-1.5345871194646927
30
0
11
4.1198127309550676
21
-1.5227121194646926
31
0
0
LINE
5
204
100
AcDbEntity
8
0
100
AcDbLine
10
3.8491877309550673
20
-1.5714621194646927
30
0
11
3.8491877309550673
21
-1.5844551199800634
31
0
0
LINE
5
205
100
AcDbEntity
8
0
100
AcDbLine
10
3.8491877309550673
20
-1.5844551199800634
30
0
11
3.9013500443726659
21
-1.9394034168096423
31
0
0
ARC
5
206
100
AcDbEntity
8
0
100
AcDbCircle
10
3.9266902015621161
20
-1.9356794907247066
30
0
40
0.025612324999345886
210
0
220
0
230
1
100
AcDbArc
50
188.36020337803313
51
252.42260954520543
0
LINE
5
207
100
AcDbEntity
8
0
100
AcDbLine
10
3.0337059195555796
20
-1.6681280106695864
30
0
11
2.9924558863179396
21
-1.675628017097623
31
0
0
ARC
5
208
100
AcDbEntity
8
0
100
AcDbCircle
10
3.6867639078094983
20
-2.0784127377187089
30
0
40
0.39631499355299299
210
-0
220
0
230
1
100
AcDbArc
50
338.44986274813061
51
345.64688634849244
0
ARC
5
209
100
AcDbEntity
8
0
100
AcDbCircle
10
3.9470333564324966
20
-2.2245445478226502
30
0
40
0.2039868805940471
210
0
220
-0
230
1
100
AcDbArc
50
55.733592827119892
51
83.240584532368828
0
ARC
5
210
100
AcDbEntity
8
0
100
AcDbCircle
10
4.0720699322812184
20
-2.1770064905929423
30
0
40
0.0014053360756681251
210
0
220
-0
230
1
100
AcDbArc
50
58.846584883867578
51
165.64688634828065
0
ARC
5
211
100
AcDbEntity
8
0
100
AcDbCircle
10
3.8313881280891624
20
-2.5751495896640026
30
0
40
0.46664254246296011
210
0
220
-0
230
1
100
AcDbArc
50
35.590681988143963
51
58.846584883848948
0
SPLINE
5
212
100
AcDbEntity
8
0
100
AcDbSpline
70
4
71
3
72
8
73
4
74
0
42
0.000000001
43
0.0000000001
44
0.0000000001
40
0
40
0
40
0
40
0
40
0.89594060309334078
40
0.89594060309334078
40
0.89594060309334078
40
0.89594060309334078
41
1
41
1
41
1
41
1
10
3.9852843120163777
20
-2.3323267169776769
30
0
10
4.0278486573990531
20
-2.365355292921639
30
0
10
4.1241007343410905
20
-2.4284738303807587
30
0
10
4.1472672088184943
20
-2.4394536086804917
30
0
0
ARC
5
213
100
AcDbEntity
8
0
100
AcDbCircle
10
4.1488222641352577
20
-2.4361725742218554
30
0
40
0.0036308930247164499
210
0
220
0
230
1
100
AcDbArc
50
244.64125864947343
51
358.77400691655504
0
ARC
5
214
100
AcDbEntity
8
0
100
AcDbCircle
10
3.5626319709171916
20
-2.0479724437747646
30
0
40
0.0036199480830754719
210
0
220
0
230
1
100
AcDbArc
50
146.30993247401824
51
292.31871726826091
0
ARC
5
215
100
AcDbEntity
8
0
100
AcDbCircle
10
3.5913288841804634
20
-1.9782263269633262
30
0
40
0.078034379429666512
210
0
220
0
230
1
100
AcDbArc
50
249.50470950589406
51
311.46770541610954
0
SPLINE
5
216
100
AcDbEntity
8
0
100
AcDbSpline
70
4
71
3
72
8
73
4
74
0
42
0.000000001
43
0.0000000001
44
0.0000000001
40
0
40
0
40
0
40
0
40
0.47889559800727
40
0.47889559800727
40
0.47889559800727
40
0.47889559800727
41
1
41
1
41
1
41
1
10
4.192261193985372
20
-2.2308956575502519
30
0
10
4.2106111079490676
20
-2.2521685554942943
30
0
10
4.2269002355748491
20
-2.2717865403173838
30
0
10
4.2386947606151786
20
-2.2866683466633746
30
0
0
ARC
5
217
100
AcDbEntity
8
0
100
AcDbCircle
10
4.2227020486461724
20
-2.2917002247797806
30
0
40
0.016765563535453307
210
0
220
0
230
1
100
AcDbArc
50
-134.93864438021112
51
17.466106141424138
0
SPLINE
5
218
100
AcDbEntity
8
0
100
AcDbSpline
70
4
71
3
72
8
73
4
74
0
42
0.000000001
43
0.0000000001
44
0.0000000001
40
0
40
0
40
0
40
0
40
0.95242494777169251
40
0.95242494777169251
40
0.95242494777169251
40
0.95242494777169251
41
1
41
1
41
1
41
1
10
4.0618864375187709
20
-2.0559639656787501
30
0
10
4.0678390912764755
20
-2.055969043604688
30
0
10
4.1055813236062875
20
-2.0083777751213718
30
0
10
4.1761958445169638
20
-1.9099512427106349
30
0
0
SPLINE
5
219
100
AcDbEntity
8
0
100
AcDbSpline
70
4
71
3
72
8
73
4
74
0
42
0.000000001
43
0.0000000001
44
0.0000000001
40
0.2973491059515837
40
0.2973491059515837
40
0.2973491059515837
40
0.2973491059515837
40
1
40
1
40
1
40
1
41
1
41
1
41
1
41
1
10
4.2085064072948093
20
-1.927234322621264
30
0
10
4.200655870158438
20
-1.9485408928585064
30
0
10
4.1824663527126926
20
-1.9794384028670351
30
0
10
4.1426908948928975
20
-2.0418398688725254
30
0
0
ARC
5
220
100
AcDbEntity
8
0
100
AcDbCircle
10
4.1905163706604514
20
-1.9220228411304243
30
0
40
0.018729681188821807
210
-0
220
0
230
1
100
AcDbArc
50
-16.155620402183221
51
139.87052660018205
0
ARC
5
221
100
AcDbEntity
8
0
100
AcDbCircle
10
3.6171922977561026
20
-2.5636109456828864
30
0
40
0.045238727259058434
210
0
220
0
230
1
100
AcDbArc
50
158.19901024987962
51
216.07499922115099
0
ARC
5
222
100
AcDbEntity
8
0
100
AcDbCircle
10
3.737550213808214
20
-2.6117530893167222
30
0
40
0.1748677901657533
210
0
220
0
230
1
100
AcDbArc
50
131.33918860460051
51
158.19901024987993
0
LINE
5
223
100
AcDbEntity
8
0
100
AcDbLine
10
3.1012058978075112
20
-1.4575031427770135
30
0
11
3.4243308832061334
21
-1.3012531759177159
31
0
0
ARC
5
224
100
AcDbEntity
8
0
100
AcDbCircle
10
3.7354316822498954
20
-2.1412900195155755
30
0
40
0.13957854353267474
210
0
220
0
230
1
100
AcDbArc
50
111.5550413257766
51
131.46770541610965
0
ARC
5
225
100
AcDbEntity
8
0
100
AcDbCircle
10
3.6778489572120412
20
-1.9955185741704029
30
0
40
0.017153981811638429
210
0
220
0
230
1
100
AcDbArc
50
291.55504132577596
51
355.60950972911746
0
ARC
5
226
100
AcDbEntity
8
0
100
AcDbCircle
10
3.7905776001840383
20
-1.9157812625599722
30
0
40
0.047300509645942755
210
0
220
0
230
1
100
AcDbArc
50
270
51
337.66944974427452
0
ENDSEC
0
SECTION
2
OBJECTS
0
DICTIONARY
5
C
100
AcDbDictionary
3
ACAD_GROUP
350
D
3
ACAD_MLINESTYLE
350
17
0
DICTIONARY
5
D
100
AcDbDictionary
0
DICTIONARY
5
1A
330
C
100
AcDbDictionary
0
DICTIONARY
5
17
100
AcDbDictionary
0
ENDSEC
0
EOF
