0
SECTION
2
HEADER
9
$INSUNITS
70
1
9
$ACADVER
1
AC1014
9
$HANDSEED
5
FFFF
0
ENDSEC
0
SECTION
2
TABLES
0
TABLE
2
VPORT
5
8
100
AcDbSymbolTable
0
ENDTAB
0
TABLE
2
LTYPE
5
5
100
AcDbSymbolTable
0
LTYPE
5
14
100
AcDbSymbolTableRecord
100
AcDbLinetypeTableRecord
2
BYBLOCK
70
0
0
LTYPE
5
15
100
AcDbSymbolTableRecord
100
AcDbLinetypeTableRecord
2
BYLAYER
70
0
0
ENDTAB
0
TABLE
2
LAYER
5
2
100
AcDbSymbolTable
70
2
0
LAYER
5
50
100
AcDbSymbolTableRecord
100
AcDbLayerTableRecord
2
0
70
0
6
CONTINUOUS
0
ENDTAB
0
TABLE
2
STYLE
5
3
100
AcDbSymbolTable
70
1
0
STYLE
5
11
100
AcDbSymbolTableRecord
100
AcDbTextStyleTableRecord
2
STANDARD
70
0
0
ENDTAB
0
TABLE
2
VIEW
5
6
100
AcDbSymbolTable
70
0
0
ENDTAB
0
TABLE
2
UCS
5
7
100
AcDbSymbolTable
70
0
0
ENDTAB
0
TABLE
2
APPID
5
9
100
AcDbSymbolTable
70
2
0
APPID
5
12
100
AcDbSymbolTableRecord
100
AcDbRegAppTableRecord
2
ACAD
70
0
0
ENDTAB
0
TABLE
2
DIMSTYLE
5
A
100
AcDbSymbolTable
70
1
0
ENDTAB
0
TABLE
2
BLOCK_RECORD
5
1
100
AcDbSymbolTable
70
1
0
BLOCK_RECORD
5
1F
100
AcDbSymbolTableRecord
100
AcDbBlockTableRecord
2
*MODEL_SPACE
0
BLOCK_RECORD
5
1B
100
AcDbSymbolTableRecord
100
AcDbBlockTableRecord
2
*PAPER_SPACE
0
ENDTAB
0
ENDSEC
0
SECTION
2
BLOCKS
0
BLOCK
5
20
100
AcDbEntity
100
AcDbBlockBegin
2
*MODEL_SPACE
0
ENDBLK
5
21
100
AcDbEntity
100
AcDbBlockEnd
0
BLOCK
5
1C
100
AcDbEntity
100
AcDbBlockBegin
2
*PAPER_SPACE
0
ENDBLK
5
1D
100
AcDbEntity
100
AcDbBlockEnd
0
ENDSEC
0
SECTION
2
ENTITIES
0
ARC
5
100
100
AcDbEntity
8
0
100
AcDbCircle
10
-4.1845872812372829
20
4.8500003046614371
30
0
40
0.24999999999999933
210
0
220
-0
230
1
100
AcDbArc
50
20.924818504475706
51
90.000025266400883
0
LINE
5
101
100
AcDbEntity
8
0
100
AcDbLine
10
-4.1845873914827543
20
5.1000003046614113
30
0
11
-4.6750002460228783
21
5.100000088398227
31
0
0
ARC
5
102
100
AcDbEntity
8
0
100
AcDbCircle
10
-4.6750000255319382
20
4.6000000883982759
30
0
40
0.49999999999999944
210
0
220
0
230
1
100
AcDbArc
50
90.000025266400598
51
180
0
ARC
5
103
100
AcDbEntity
8
0
100
AcDbCircle
10
-4.6750000255319391
20
-3.6500000925514642
30
0
40
0.49999999999999911
210
0
220
0
230
1
100
AcDbArc
50
180
51
270.00000000000011
0
LINE
5
104
100
AcDbEntity
8
0
100
AcDbLine
10
-4.6750000255319382
20
-4.1500000925514637
30
0
11
-0.42500002553193816
21
-4.1500000925514637
31
0
0
ARC
5
105
100
AcDbEntity
8
0
100
AcDbCircle
10
-0.42500002553193811
20
-3.6500000925514637
30
0
40
0.49999999999999978
210
0
220
0
230
1
100
AcDbArc
50
-90
51
0
0
ARC
5
106
100
AcDbEntity
8
0
100
AcDbCircle
10
-0.42500002553193938
20
4.6000019625712829
30
0
40
0.50000000000000089
210
0
220
-0
230
1
100
AcDbArc
50
0
51
90.000025266400726
0
LINE
5
107
100
AcDbEntity
8
0
100
AcDbLine
10
-0.42500024602288067
20
5.1000019625712349
30
0
11
-0.91541232884468804
21
5.1000017463083909
31
0
0
ARC
5
108
100
AcDbEntity
8
0
100
AcDbCircle
10
-0.91541221859921629
20
4.8500017463084149
30
0
40
0.24999999999999972
210
0
220
0
230
1
100
AcDbArc
50
90.000025266400968
51
159.07523202832587
0
ARC
5
109
100
AcDbEntity
8
0
100
AcDbCircle
10
-2.550000025531435
20
5.47499990744853
30
0
40
1.5000000000000009
210
0
220
0
230
1
100
AcDbArc
50
200.92481850447564
51
339.07523202832596
0
CIRCLE
5
110
100
AcDbEntity
8
0
100
AcDbCircle
10
-4.5500000255314372
20
4.4749999074485372
30
0
40
0.31500000000000011
210
0
220
-0
230
1
0
CIRCLE
5
111
100
AcDbEntity
8
0
100
AcDbCircle
10
-4.5500000255314372
20
-1.5250000925514635
30
0
40
0.31500000000000011
210
0
220
-0
230
1
0
CIRCLE
5
112
100
AcDbEntity
8
0
100
AcDbCircle
10
-0.55000002553143768
20
-1.5250000925514635
30
0
40
0.315
210
0
220
-0
230
1
0
CIRCLE
5
113
100
AcDbEntity
8
0
100
AcDbCircle
10
-0.5500000255319385
20
2.4749999074485363
30
0
40
0.28124999999999994
210
0
220
-0
230
1
0
CIRCLE
5
114
100
AcDbEntity
8
0
100
AcDbCircle
10
-4.5500000255319382
20
-3.5250000925514633
30
0
40
0.28125000000000017
210
0
220
-0
230
1
0
CIRCLE
5
115
100
AcDbEntity
8
0
100
AcDbCircle
10
-4.5500000255319382
20
2.4749999074485363
30
0
40
0.28125000000000017
210
0
220
-0
230
1
0
CIRCLE
5
116
100
AcDbEntity
8
0
100
AcDbCircle
10
-0.5500000255319385
20
-3.5250000925514633
30
0
40
0.28124999999999994
210
0
220
-0
230
1
0
CIRCLE
5
117
100
AcDbEntity
8
0
100
AcDbCircle
10
-0.55000002553143768
20
0.47499990744853643
30
0
40
0.315
210
0
220
-0
230
1
0
CIRCLE
5
118
100
AcDbEntity
8
0
100
AcDbCircle
10
-4.5500000255314372
20
0.47499990744853643
30
0
40
0.31500000000000011
210
0
220
-0
230
1
0
CIRCLE
5
119
100
AcDbEntity
8
0
100
AcDbCircle
10
-0.5500000255319385
20
4.4750019074485357
30
0
40
0.315
210
0
220
-0
230
1
0
LINE
5
120
100
AcDbEntity
8
0
100
AcDbLine
10
0.59363315708013153
20
-1.6455509425290864
30
0
11
0.074999974468061475
21
-2.2636323380605505
31
0
0
LINE
5
121
100
AcDbEntity
8
0
100
AcDbLine
10
0.59361619985144221
20
-1.4044850252764496
30
0
11
0.074999974468061628
21
-0.78660039599165854
31
0
0
ARC
5
122
100
AcDbEntity
8
0
100
AcDbCircle
10
0.44999997407677961
20
-1.5250280868529718
30
0
40
0.18749999999999981
210
0
220
0
230
1
100
AcDbArc
50
-40.000071347798446
51
40.008132028010898
0
LINE
5
123
100
AcDbEntity
8
0
100
AcDbLine
10
0.59446183339550651
20
0.59622573753556796
30
0
11
0.074999974468061573
21
1.213399604008341
31
0
0
ARC
5
124
100
AcDbEntity
8
0
100
AcDbCircle
10
0.45101081171825153
20
0.47548612357332376
30
0
40
0.18749999999999967
210
0
220
0
230
1
100
AcDbArc
50
-39.921611540939622
51
40.086591834869679
0
LINE
5
125
100
AcDbEntity
8
0
100
AcDbLine
10
0.59480890182342183
20
0.3551600695280539
30
0
11
0.074999974468061614
21
-0.26604812653890869
31
0
0
LINE
5
126
100
AcDbEntity
8
0
100
AcDbLine
10
0.5944618333955064
20
2.5962257375355682
30
0
11
0.074999974468061489
21
3.213399604008341
31
0
0
ARC
5
127
100
AcDbEntity
8
0
100
AcDbCircle
10
0.45101081171825136
20
2.4754861235733241
30
0
40
0.18749999999999969
210
0
220
0
230
1
100
AcDbArc
50
-39.921611540939622
51
40.086591834869644
0
LINE
5
128
100
AcDbEntity
8
0
100
AcDbLine
10
0.59480890182342172
20
2.3551600695280541
30
0
11
0.074999974468061475
21
1.7339518734610913
31
0
0
LINE
5
129
100
AcDbEntity
8
0
100
AcDbLine
10
-5.6932448162997256
20
-1.6450635030988143
30
0
11
-5.1747074831198354
21
-2.2632253133937672
31
0
0
ARC
5
130
100
AcDbEntity
8
0
100
AcDbCircle
10
-5.549592946067599
20
-1.5245629214453971
30
0
40
0.18749999999999978
210
0
220
0
230
1
100
AcDbArc
50
139.98298336433947
51
219.99118674014917
0
LINE
5
131
100
AcDbEntity
8
0
100
AcDbLine
10
-5.6931904780267368
20
-1.4039975913739191
30
0
11
-5.1744784461933806
21
-0.7861933890827556
31
0
0
LINE
5
132
100
AcDbEntity
8
0
100
AcDbLine
10
-5.6934157387232913
20
2.596713254467558
30
0
11
-5.1738581835709407
21
3.2138065628265284
31
0
0
LINE
5
133
100
AcDbEntity
8
0
100
AcDbLine
10
-5.6941103194641105
20
0.35564766722204971
30
0
11
-5.1743977264144387
21
-0.26564112588843874
31
0
0
LINE
5
134
100
AcDbEntity
8
0
100
AcDbLine
10
-5.6938001881528892
20
2.3556476431766931
30
0
11
-5.1740875951032184
21
1.7343588500662033
31
0
0
LINE
5
135
100
AcDbEntity
8
0
100
AcDbLine
10
-5.6937258700345126
20
0.59671327851291522
30
0
11
-5.1741683148821602
21
1.2138065868718864
31
0
0
ARC
5
136
100
AcDbEntity
8
0
100
AcDbCircle
10
-5.5499834413380995
20
2.4759513976302019
30
0
40
0.18750000000000036
210
0
220
0
230
1
100
AcDbArc
50
139.90452355748047
51
219.91272693328963
0
ARC
5
137
100
AcDbEntity
8
0
100
AcDbCircle
10
-5.5502935726493208
20
0.47595142167556004
30
0
40
0.18749999999999992
210
0
220
0
230
1
100
AcDbArc
50
139.90452355748067
51
219.91272693329
0
LINE
5
138
100
AcDbEntity
8
0
100
AcDbLine
10
0.074999974468061711
20
-3.6500000925514637
30
0
11
0.074999974468061475
21
-2.2636323380605505
31
0
0
LINE
5
139
100
AcDbEntity
8
0
100
AcDbLine
10
0.074999974468061628
20
-0.78660039599165854
30
0
11
0.074999974468061614
21
-0.26604812653890869
31
0
0
LINE
5
140
100
AcDbEntity
8
0
100
AcDbLine
10
0.074999974468061573
20
1.213399604008341
30
0
11
0.074999974468061475
21
1.7339518734610913
31
0
0
LINE
5
141
100
AcDbEntity
8
0
100
AcDbLine
10
0.074999974468061489
20
3.213399604008341
30
0
11
0.074999974468061475
21
4.6000019625712838
31
0
0
LINE
5
142
100
AcDbEntity
8
0
100
AcDbLine
10
-5.1750000255319373
20
3.2124503646029687
30
0
11
-5.1750000255319373
21
4.6000000883982759
31
0
0
LINE
5
143
100
AcDbEntity
8
0
100
AcDbLine
10
-5.1750000255319373
20
1.212818740441056
30
0
11
-5.1750000255319373
21
1.7354496121670981
31
0
0
LINE
5
144
100
AcDbEntity
8
0
100
AcDbLine
10
-5.1750000255319382
20
-3.6500000925514642
30
0
11
-5.1750000255319382
21
-2.2628765659931815
31
0
0
LINE
5
145
100
AcDbEntity
8
0
100
AcDbLine
10
-5.1750000255319373
20
-0.7868146083478067
30
0
11
-5.1750000255319373
21
-0.26492110929309931
31
0
0
ENDSEC
0
SECTION
2
OBJECTS
0
DICTIONARY
5
C
100
AcDbDictionary
3
ACAD_GROUP
350
D
3
ACAD_MLINESTYLE
350
17
0
DICTIONARY
5
D
100
AcDbDictionary
0
DICTIONARY
5
1A
330
C
100
AcDbDictionary
0
DICTIONARY
5
17
100
AcDbDictionary
0
ENDSEC
0
EOF
