0
SECTION
2
HEADER
9
$INSUNITS
70
1
9
$ACADVER
1
AC1014
9
$HANDSEED
5
FFFF
0
ENDSEC
0
SECTION
2
TABLES
0
TABLE
2
VPORT
5
8
100
AcDbSymbolTable
0
ENDTAB
0
TABLE
2
LTYPE
5
5
100
AcDbSymbolTable
0
LTYPE
5
14
100
AcDbSymbolTableRecord
100
AcDbLinetypeTableRecord
2
BYBLOCK
70
0
0
LTYPE
5
15
100
AcDbSymbolTableRecord
100
AcDbLinetypeTableRecord
2
BYLAYER
70
0
0
ENDTAB
0
TABLE
2
LAYER
5
2
100
AcDbSymbolTable
70
2
0
LAYER
5
50
100
AcDbSymbolTableRecord
100
AcDbLayerTableRecord
2
0
70
0
6
CONTINUOUS
0
ENDTAB
0
TABLE
2
STYLE
5
3
100
AcDbSymbolTable
70
1
0
STYLE
5
11
100
AcDbSymbolTableRecord
100
AcDbTextStyleTableRecord
2
STANDARD
70
0
0
ENDTAB
0
TABLE
2
VIEW
5
6
100
AcDbSymbolTable
70
0
0
ENDTAB
0
TABLE
2
UCS
5
7
100
AcDbSymbolTable
70
0
0
ENDTAB
0
TABLE
2
APPID
5
9
100
AcDbSymbolTable
70
2
0
APPID
5
12
100
AcDbSymbolTableRecord
100
AcDbRegAppTableRecord
2
ACAD
70
0
0
ENDTAB
0
TABLE
2
DIMSTYLE
5
A
100
AcDbSymbolTable
70
1
0
ENDTAB
0
TABLE
2
BLOCK_RECORD
5
1
100
AcDbSymbolTable
70
1
0
BLOCK_RECORD
5
1F
100
AcDbSymbolTableRecord
100
AcDbBlockTableRecord
2
*MODEL_SPACE
0
BLOCK_RECORD
5
1B
100
AcDbSymbolTableRecord
100
AcDbBlockTableRecord
2
*PAPER_SPACE
0
ENDTAB
0
ENDSEC
0
SECTION
2
BLOCKS
0
BLOCK
5
20
100
AcDbEntity
100
AcDbBlockBegin
2
*MODEL_SPACE
0
ENDBLK
5
21
100
AcDbEntity
100
AcDbBlockEnd
0
BLOCK
5
1C
100
AcDbEntity
100
AcDbBlockBegin
2
*PAPER_SPACE
0
ENDBLK
5
1D
100
AcDbEntity
100
AcDbBlockEnd
0
ENDSEC
0
SECTION
2
ENTITIES
0
LINE
5
100
100
AcDbEntity
8
0
100
AcDbLine
10
0.099999999999999839
20
2.1854783949314103e-17
30
0
11
0.55247783249762472
21
-2.3866841174303824e-17
31
0
0
LINE
5
101
100
AcDbEntity
8
0
100
AcDbLine
10
0.55247783249762472
20
-2.3866841174303824e-17
30
0
11
0.55247783249762472
21
1.5726456422256274
31
0
0
LINE
5
102
100
AcDbEntity
8
0
100
AcDbLine
10
0.55247783249762472
20
1.5726456422256274
30
0
11
0.099999999999999992
21
1.5726456422256274
31
0
0
LINE
5
103
100
AcDbEntity
8
0
100
AcDbLine
10
0
20
1.4726456422256275
30
0
11
0
21
0.099999999999999811
31
0
0
LINE
5
104
100
AcDbEntity
8
0
100
AcDbLine
10
0.55247783249762472
20
1.5726456422256274
30
0
11
2.1463960248264651
21
2.5319842803154584
31
0
0
ARC
5
105
100
AcDbEntity
8
0
100
AcDbCircle
10
0.099999999999999867
20
1.4726456422256275
30
0
40
0.099999999999999811
210
0
220
-0
230
1
100
AcDbArc
50
89.999999999999929
51
180
0
ARC
5
106
100
AcDbEntity
8
0
100
AcDbCircle
10
0.09999999999999977
20
0.09999999999999977
30
0
40
0.09999999999999977
210
0
220
0
230
1
100
AcDbArc
50
180
51
270.00000000000006
0
LWPOLYLINE
5
107
100
AcDbEntity
8
0
100
AcDbPolyline
90
4
70
1
43
0.0
10
0.3866013451100927
20
1.1028678842919024
10
0.3866013451100927
20
1.0424234001593526
42
-0.99999999999999989
10
0.13660134511009275
20
1.0424234001593526
10
0.13660134511009275
20
1.1028678842919024
42
-0.99999999999999989
0
LWPOLYLINE
5
108
100
AcDbEntity
8
0
100
AcDbPolyline
90
4
70
1
43
0.0
10
0.3866013451100932
20
0.53399999999999992
10
0.3866013451100932
20
0.46599999999999997
42
-0.99999999999999989
10
0.13660134511009323
20
0.46599999999999997
10
0.13660134511009323
20
0.53399999999999992
42
-0.99999999999999989
0
LINE
5
109
100
AcDbEntity
8
0
100
AcDbLine
10
0.55247783249762472
20
-2.3866841174303824e-17
30
0
11
3.8225412412090067
21
2.498128500396426
31
0
0
LINE
5
110
100
AcDbEntity
8
0
100
AcDbLine
10
3.5173843617179275
20
3.6776683628979634
30
0
11
3.4445835479487186
21
3.584487570497215
31
0
0
LINE
5
111
100
AcDbEntity
8
0
100
AcDbLine
10
3.9372880477115721
20
3.8297696067098785
30
0
11
3.6124339684071214
21
4.0835734295825192
31
0
0
LWPOLYLINE
5
112
100
AcDbEntity
8
0
100
AcDbPolyline
90
4
70
1
43
0.0
10
2.6976330330442395
20
2.4254008535975728
10
2.6143531390471173
20
2.3188074501460316
42
-0.99999999999999989
10
2.4173504506454382
20
2.4727228189774473
10
2.5006303446425591
20
2.5793162224289889
42
-0.99999999999999989
0
LINE
5
113
100
AcDbEntity
8
0
100
AcDbLine
10
3.4188830175170875
20
3.7546260473136686
30
0
11
3.3460822037478781
21
3.6614452549129219
31
0
0
LINE
5
114
100
AcDbEntity
8
0
100
AcDbLine
10
3.5430848921495572
20
3.5075298860815081
30
0
11
3.615885705918767
21
3.6007106784822556
31
0
0
ARC
5
115
100
AcDbEntity
8
0
100
AcDbCircle
10
3.4445835479487186
20
3.584487570497215
30
0
40
0.12499999999999975
210
0
220
0
230
1
100
AcDbArc
50
142.0000000000002
51
321.99999999999966
0
ARC
5
116
100
AcDbEntity
8
0
100
AcDbCircle
10
3.5173843617179275
20
3.6776683628979634
30
0
40
0.12499999999999963
210
-0
220
0
230
1
100
AcDbArc
50
-38.000000000000384
51
142.00000000000071
0
LINE
5
117
100
AcDbEntity
8
0
100
AcDbLine
10
3.3316995226206463
20
4.0491035739263062
30
0
11
2.1463960248264651
21
2.5319842803154584
31
0
0
ARC
5
118
100
AcDbEntity
8
0
100
AcDbCircle
10
3.4893016733419895
20
3.925971278861176
30
0
40
0.19999999999999912
210
0
220
-0
230
1
100
AcDbArc
50
51.99999999999973
51
142.00000000000014
0
LINE
5
119
100
AcDbEntity
8
0
100
AcDbLine
10
2.5158517948462777
20
2.3957651345617395
30
0
11
2.5991316888433995
21
2.5023585380132811
31
0
0
LINE
5
120
100
AcDbEntity
8
0
100
AcDbLine
10
3.9752541747293102
20
3.7413079763525694
30
0
11
3.8613669730181117
21
2.5679331306598208
31
0
0
CIRCLE
5
121
100
AcDbEntity
8
0
100
AcDbCircle
10
3.4463071538245353
20
2.8060307519943639
30
0
40
0.21398088100328175
210
0
220
0
230
1
0
CIRCLE
5
122
100
AcDbEntity
8
0
100
AcDbCircle
10
2.0582072840093879
20
1.7956320201138205
30
0
40
0.25000000000000011
210
0
220
0
230
1
0
CIRCLE
5
123
100
AcDbEntity
8
0
100
AcDbCircle
10
1.3882614128958497
20
1.3465589612925661
30
0
40
0.25000000000000011
210
0
220
0
230
1
0
ARC
5
124
100
AcDbEntity
8
0
100
AcDbCircle
10
3.8757219001790064
20
3.7509685313492054
30
0
40
0.10000000000000017
210
-0
220
0
230
1
100
AcDbArc
50
-5.5437361436365213
51
52.000000000000377
0
ARC
5
125
100
AcDbEntity
8
0
100
AcDbCircle
10
3.7618346984678008
20
2.5775936856564607
30
0
40
0.10000000000000756
210
0
220
0
230
1
100
AcDbArc
50
307.37761539190547
51
354.4562638563616
0
ENDSEC
0
SECTION
2
OBJECTS
0
DICTIONARY
5
C
100
AcDbDictionary
3
ACAD_GROUP
350
D
3
ACAD_MLINESTYLE
350
17
0
DICTIONARY
5
D
100
AcDbDictionary
0
DICTIONARY
5
1A
330
C
100
AcDbDictionary
0
DICTIONARY
5
17
100
AcDbDictionary
0
ENDSEC
0
EOF
