  0
SECTION
  2
HEADER
  9
$ACADVER
  1
AC1009
  9
$INSBASE
 10
0.0
 20
0.0
 30
0.0
  9
$EXTMIN
 10
0.0
 20
0.0
 30
0.0
  9
$EXTMAX
 10
324.7999599999999987
 20
379.8656733552926994
 30
0.0
  9
$LIMMIN
 10
0.0
 20
0.0
  9
$LIMMAX
 10
12.0
 20
9.0
  9
$ORTHOMODE
 70
     0
  9
$REGENMODE
 70
     1
  9
$FILLMODE
 70
     1
  9
$QTEXTMODE
 70
     0
  9
$MIRRTEXT
 70
     0
  9
$DRAGMODE
 70
     2
  9
$LTSCALE
 40
1.0
  9
$OSMODE
 70
  2103
  9
$ATTMODE
 70
     1
  9
$TEXTSIZE
 40
0.2
  9
$TRACEWID
 40
0.05
  9
$TEXTSTYLE
  7
STANDARD
  9
$CLAYER
  8
0
  9
$CELTYPE
  6
CONTINUOUS
  9
$CECOLOR
 62
   256
  9
$DIMSCALE
 40
1.0
  9
$DIMASZ
 40
0.18
  9
$DIMEXO
 40
0.0625
  9
$DIMDLI
 40
0.38
  9
$DIMRND
 40
0.0
  9
$DIMDLE
 40
0.0
  9
$DIMEXE
 40
0.18
  9
$DIMTP
 40
0.0
  9
$DIMTM
 40
0.0
  9
$DIMTXT
 40
0.18
  9
$DIMCEN
 40
0.09
  9
$DIMTSZ
 40
0.0
  9
$DIMTOL
 70
     0
  9
$DIMLIM
 70
     0
  9
$DIMTIH
 70
     1
  9
$DIMTOH
 70
     1
  9
$DIMSE1
 70
     0
  9
$DIMSE2
 70
     0
  9
$DIMTAD
 70
     0
  9
$DIMZIN
 70
     0
  9
$DIMBLK
  1

  9
$DIMASO
 70
     1
  9
$DIMSHO
 70
     1
  9
$DIMPOST
  1

  9
$DIMAPOST
  1

  9
$DIMALT
 70
     0
  9
$DIMALTD
 70
     2
  9
$DIMALTF
 40
25.3999999999999986
  9
$DIMLFAC
 40
1.0
  9
$DIMTOFL
 70
     0
  9
$DIMTVP
 40
0.0
  9
$DIMTIX
 70
     0
  9
$DIMSOXD
 70
     0
  9
$DIMSAH
 70
     0
  9
$DIMBLK1
  1

  9
$DIMBLK2
  1

  9
$DIMSTYLE
  2
STANDARD
  9
$DIMCLRD
 70
     0
  9
$DIMCLRE
 70
     0
  9
$DIMCLRT
 70
     0
  9
$DIMTFAC
 40
1.0
  9
$DIMGAP
 40
0.09
  9
$LUNITS
 70
     2
  9
$LUPREC
 70
     4
  9
$SKETCHINC
 40
0.1
  9
$FILLETRAD
 40
0.0
  9
$AUNITS
 70
     0
  9
$AUPREC
 70
     0
  9
$MENU
  1
.
  9
$ELEVATION
 40
0.0
  9
$PELEVATION
 40
0.0
  9
$THICKNESS
 40
0.0
  9
$LIMCHECK
 70
     0
  9
$BLIPMODE
 70
     0
  9
$CHAMFERA
 40
0.0
  9
$CHAMFERB
 40
0.0
  9
$SKPOLY
 70
     0
  9
$TDCREATE
 40
2459973.578553241211921
  9
$TDUPDATE
 40
2459973.5811111112125218
  9
$TDINDWG
 40
0.0025578704
  9
$TDUSRTIMER
 40
0.0025578704
  9
$USRTIMER
 70
     1
  9
$ANGBASE
 50
0.0
  9
$ANGDIR
 70
     0
  9
$PDMODE
 70
     0
  9
$PDSIZE
 40
0.0
  9
$PLINEWID
 40
0.0
  9
$COORDS
 70
     1
  9
$SPLFRAME
 70
     0
  9
$SPLINETYPE
 70
     6
  9
$SPLINESEGS
 70
     8
  9
$ATTDIA
 70
     1
  9
$ATTREQ
 70
     1
  9
$HANDLING
 70
     1
  9
$HANDSEED
  5
101B3
  9
$SURFTAB1
 70
     6
  9
$SURFTAB2
 70
     6
  9
$SURFTYPE
 70
     6
  9
$SURFU
 70
     6
  9
$SURFV
 70
     6
  9
$UCSNAME
  2

  9
$UCSORG
 10
0.0
 20
0.0
 30
0.0
  9
$UCSXDIR
 10
1.0
 20
0.0
 30
0.0
  9
$UCSYDIR
 10
0.0
 20
1.0
 30
0.0
  9
$PUCSNAME
  2

  9
$PUCSORG
 10
0.0
 20
0.0
 30
0.0
  9
$PUCSXDIR
 10
1.0
 20
0.0
 30
0.0
  9
$PUCSYDIR
 10
0.0
 20
1.0
 30
0.0
  9
$USERI1
 70
     0
  9
$USERI2
 70
     0
  9
$USERI3
 70
     0
  9
$USERI4
 70
     0
  9
$USERI5
 70
     0
  9
$USERR1
 40
0.0
  9
$USERR2
 40
0.0
  9
$USERR3
 40
0.0
  9
$USERR4
 40
0.0
  9
$USERR5
 40
0.0
  9
$WORLDVIEW
 70
     1
  9
$SHADEDGE
 70
     3
  9
$SHADEDIF
 70
    70
  9
$TILEMODE
 70
     1
  9
$MAXACTVP
 70
    64
  9
$PLIMCHECK
 70
     0
  9
$PEXTMIN
 10
1.0000000000000000E+20
 20
1.0000000000000000E+20
 30
1.0000000000000000E+20
  9
$PEXTMAX
 10
-1.0000000000000000E+20
 20
-1.0000000000000000E+20
 30
-1.0000000000000000E+20
  9
$PLIMMIN
 10
0.0
 20
0.0
  9
$PLIMMAX
 10
12.0
 20
9.0
  9
$UNITMODE
 70
     0
  9
$VISRETAIN
 70
     1
  9
$PLINEGEN
 70
     0
  9
$PSLTSCALE
 70
     1
  0
ENDSEC
  0
SECTION
  2
TABLES
  0
TABLE
  2
VPORT
 70
     1
  0
VPORT
  2
*ACTIVE
 70
     0
 10
0.0
 20
0.0
 11
1.0
 21
1.0
 12
437.1926229907990091
 22
157.1889784297505912
 13
0.0
 23
0.0
 14
1.0
 24
1.0
 15
0.0
 25
0.0
 16
0.0
 26
0.0
 36
1.0
 17
0.0
 27
0.0
 37
0.0
 40
800.7863827809881059
 41
2.73170731707317
 42
50.0
 43
0.0
 44
0.0
 50
0.0
 51
0.0
 71
     0
 72
  1000
 73
     1
 74
     3
 75
     0
 76
     0
 77
     0
 78
     0
  0
ENDTAB
  0
TABLE
  2
LTYPE
 70
     2
  0
LTYPE
  2
CONTINUOUS
 70
     0
  3
Solid line
 72
    65
 73
     0
 40
0.0
  0
ENDTAB
  0
TABLE
  2
LAYER
 70
     1
  0
LAYER
  2
0
 70
     0
 62
     7
  6
CONTINUOUS
  0
ENDTAB
  0
TABLE
  2
STYLE
 70
     1
  0
STYLE
  2
STANDARD
 70
     0
 40
0.0
 41
1.0
 50
0.0
 71
     0
 42
0.2
  3
txt
  4

  0
ENDTAB
  0
TABLE
  2
VIEW
 70
     0
  0
ENDTAB
  0
TABLE
  2
UCS
 70
     0
  0
ENDTAB
  0
TABLE
  2
APPID
 70
     4
  0
APPID
  2
ACAD
 70
     0
  0
APPID
  2
ACAD_NAV_VCDISPLAY
 70
     0
  0
APPID
  2
ACAD_EXEMPT_FROM_CAD_STANDARDS
 70
     0
  0
APPID
  2
ACAD_MLEADERVER
 70
     0
  0
ENDTAB
  0
TABLE
  2
DIMSTYLE
 70
     2
  0
DIMSTYLE
  2
STANDARD
 70
     0
  3

  4

  5

  6

  7

 40
1.0
 41
0.18
 42
0.0625
 43
0.38
 44
0.18
 45
0.0
 46
0.0
 47
0.0
 48
0.0
140
0.18
141
0.09
142
0.0
143
25.3999999999999986
144
1.0
145
0.0
146
1.0
147
0.09
 71
     0
 72
     0
 73
     1
 74
     1
 75
     0
 76
     0
 77
     0
 78
     0
170
     0
171
     2
172
     0
173
     0
174
     0
175
     0
176
     0
177
     0
178
     0
  0
ENDTAB
  0
ENDSEC
  0
SECTION
  2
BLOCKS
  0
BLOCK
  8
0
  2
$MODEL_SPACE
 70
     0
 10
0.0
 20
0.0
 30
0.0
  3
$MODEL_SPACE
  1

  0
ENDBLK
  5
21
  8
0
  0
BLOCK
 67
     1
  8
0
  2
$PAPER_SPACE
 70
     0
 10
0.0
 20
0.0
 30
0.0
  3
$PAPER_SPACE
  1

  0
ENDBLK
  5
1D
 67
     1
  8
0
  0
ENDSEC
  0
SECTION
  2
ENTITIES
  0
POLYLINE
  5
1007E
  8
0
 66
     1
 10
0.0
 20
0.0
 30
0.0
  0
VERTEX
  5
10155
  8
0
 10
324.7999599999999987
 20
133.9174733552927137
 30
0.0
  0
VERTEX
  5
10156
  8
0
 10
324.7999599999999987
 20
379.8656733552926994
 30
0.0
  0
VERTEX
  5
10157
  8
0
 10
0.0
 20
379.8656733552926994
 30
0.0
  0
VERTEX
  5
10158
  8
0
 10
0.0
 20
133.9174733552927137
 30
0.0
  0
SEQEND
  5
10159
  8
0
  0
CIRCLE
  5
1007F
  8
0
 10
16.3499799999999915
 20
169.0456733552927062
 30
0.0
 40
1.2295
  0
CIRCLE
  5
10080
  8
0
 10
16.3499799999999915
 20
301.125673355292804
 30
0.0
 40
1.2295
  0
CIRCLE
  5
10081
  8
0
 10
16.3499799999999915
 20
373.5156733552926767
 30
0.0
 40
1.2295
  0
CIRCLE
  5
10082
  8
0
 10
219.549980000000005
 20
146.1856733552926926
 30
0.0
 40
1.2295
  0
CIRCLE
  5
10083
  8
0
 10
173.8299800000000062
 20
146.1856733552926926
 30
0.0
 40
1.2295
  0
CIRCLE
  5
10084
  8
0
 10
173.8299800000000062
 20
301.125673355292804
 30
0.0
 40
1.2295
  0
CIRCLE
  5
10085
  8
0
 10
173.8299800000000062
 20
373.5156733552926767
 30
0.0
 40
1.2295
  0
CIRCLE
  5
10086
  8
0
 10
298.2899800000000141
 20
373.5156733552926767
 30
0.0
 40
1.2295
  0
CIRCLE
  5
10087
  8
0
 10
298.2899800000000141
 20
301.125673355292804
 30
0.0
 40
1.2295
  0
CIRCLE
  5
10088
  8
0
 10
298.2899800000000141
 20
146.1856733552926926
 30
0.0
 40
1.2295
  0
POLYLINE
  5
10089
  8
0
 66
     1
 10
0.0
 20
0.0
 30
0.0
  0
VERTEX
  5
1015A
  8
0
 10
173.3880200000000116
 20
14.9987000000003796
 30
0.0
  0
VERTEX
  5
1015B
  8
0
 10
173.3880200000000116
 20
117.3001200000004047
 30
0.0
  0
VERTEX
  5
1015C
  8
0
 10
186.3880200000000116
 20
117.3001200000004047
 30
0.0
  0
VERTEX
  5
1015D
  8
0
 10
186.3880200000000116
 20
14.9987000000003796
 30
0.0
  0
SEQEND
  5
1015E
  8
0
  0
POLYLINE
  5
1008A
  8
0
 66
     1
 10
0.0
 20
0.0
 30
0.0
 70
     1
  0
VERTEX
  5
1015F
  8
0
 10
166.5706600000000037
 20
128.0951200000004064
 30
0.0
  0
VERTEX
  5
10160
  8
0
 10
166.5706600000000037
 20
83.5994000000003723
 30
0.0
  0
VERTEX
  5
10161
  8
0
 10
7.8206600000000028
 20
83.5994000000005428
 30
0.0
  0
VERTEX
  5
10162
  8
0
 10
7.8206600000000028
 20
128.0951200000004064
 30
0.0
  0
SEQEND
  5
10163
  8
0
  0
POLYLINE
  5
1008B
  8
0
 66
     1
 10
0.0
 20
0.0
 30
0.0
  0
VERTEX
  5
10164
  8
0
 10
0.0
 20
13.8677266447080605
 30
0.0
  0
VERTEX
  5
10165
  8
0
 10
0.0
 20
0.0
 30
0.0
  0
VERTEX
  5
10166
  8
0
 10
324.7999599999999987
 20
0.0
 30
0.0
  0
VERTEX
  5
10167
  8
0
 10
324.7999599999999987
 20
13.8677266447080605
 30
0.0
  0
SEQEND
  5
10168
  8
0
  0
CIRCLE
  5
1008C
  8
0
 10
169.7380200000000059
 20
10.5839233223539608
 30
0.0
 40
1.2295
  0
CIRCLE
  5
1008D
  8
0
 10
190.0378600000001086
 20
10.5839233223539608
 30
0.0
 40
1.2295
  0
CIRCLE
  5
1008E
  8
0
 10
210.3375400000001036
 20
10.5839233223539608
 30
0.0
 40
1.2295
  0
CIRCLE
  5
1008F
  8
0
 10
230.6372200000000987
 20
10.5839233223539608
 30
0.0
 40
1.2295
  0
CIRCLE
  5
10090
  8
0
 10
250.9369000000000938
 20
10.5839233223539608
 30
0.0
 40
1.2295
  0
CIRCLE
  5
10091
  8
0
 10
271.2365800000000036
 20
10.5839233223539608
 30
0.0
 40
1.2295
  0
CIRCLE
  5
10092
  8
0
 10
291.536260000000027
 20
10.5839233223539608
 30
0.0
 40
1.2295
  0
LINE
  5
1009A
  8
0
  6
CONTINUOUS
 10
0.0
 20
133.9174733552927137
 30
0.0
 11
0.0
 21
132.7865000000003874
 31
0.0
  0
LINE
  5
1009B
  8
0
  6
CONTINUOUS
 10
324.7999599999999987
 20
133.9174733552927137
 30
0.0
 11
324.7999599999999987
 21
132.7865000000003874
 31
0.0
  0
LINE
  5
1009C
  8
0
  6
CONTINUOUS
 10
0.0
 20
14.9987000000003796
 30
0.0
 11
0.0
 21
13.8677266447080605
 31
0.0
  0
LINE
  5
1009D
  8
0
  6
CONTINUOUS
 10
324.7999599999999987
 20
14.9987000000003796
 30
0.0
 11
324.7999599999999987
 21
13.8677266447080605
 31
0.0
  0
LINE
  5
1009E
  8
0
  6
CONTINUOUS
 10
0.0
 20
14.4332133223542201
 30
0.0
 11
324.7999599999999987
 21
14.4332133223542201
 31
0.0
  0
LINE
  5
1009F
  8
0
  6
CONTINUOUS
 10
308.1860999999998967
 20
14.9987000000003796
 30
0.0
 11
308.1860999999998967
 21
13.8677266447080605
 31
0.0
  0
LINE
  5
100A0
  8
0
  6
CONTINUOUS
 10
295.1861000000000104
 20
14.9987000000003796
 30
0.0
 11
295.1861000000000104
 21
13.8677266447080605
 31
0.0
  0
LINE
  5
100A1
  8
0
  6
CONTINUOUS
 10
287.8864200000001006
 20
14.9987000000003796
 30
0.0
 11
287.8864200000001006
 21
13.8677266447080605
 31
0.0
  0
LINE
  5
100A2
  8
0
  6
CONTINUOUS
 10
274.8864199999999869
 20
14.9987000000003796
 30
0.0
 11
274.8864199999999869
 21
13.8677266447080605
 31
0.0
  0
LINE
  5
100A3
  8
0
  6
CONTINUOUS
 10
267.5867400000000202
 20
14.9987000000003796
 30
0.0
 11
267.5867400000000202
 21
13.8677266447080605
 31
0.0
  0
LINE
  5
100A4
  8
0
  6
CONTINUOUS
 10
254.5867399999999918
 20
14.9987000000003796
 30
0.0
 11
254.5867399999999918
 21
13.8677266447080605
 31
0.0
  0
LINE
  5
100A5
  8
0
  6
CONTINUOUS
 10
247.2870599999999968
 20
14.9987000000003796
 30
0.0
 11
247.2870599999999968
 21
13.8677266447080605
 31
0.0
  0
LINE
  5
100A6
  8
0
  6
CONTINUOUS
 10
234.2870599999999968
 20
14.9987000000003796
 30
0.0
 11
234.2870599999999968
 21
13.8677266447080605
 31
0.0
  0
LINE
  5
100A7
  8
0
  6
CONTINUOUS
 10
226.9873800000000017
 20
14.9987000000003796
 30
0.0
 11
226.9873800000000017
 21
13.8677266447080605
 31
0.0
  0
LINE
  5
100A8
  8
0
  6
CONTINUOUS
 10
213.9873800000000017
 20
14.9987000000003796
 30
0.0
 11
213.9873800000000017
 21
13.8677266447080605
 31
0.0
  0
LINE
  5
100A9
  8
0
  6
CONTINUOUS
 10
206.6877000000000066
 20
14.9987000000003796
 30
0.0
 11
206.6877000000000066
 21
13.8677266447080605
 31
0.0
  0
LINE
  5
100AA
  8
0
  6
CONTINUOUS
 10
193.6877000000000066
 20
14.9987000000003796
 30
0.0
 11
193.6877000000000066
 21
13.8677266447080605
 31
0.0
  0
LINE
  5
100AB
  8
0
  6
CONTINUOUS
 10
186.3880200000000116
 20
14.9987000000003796
 30
0.0
 11
186.3880200000000116
 21
13.8677266447080605
 31
0.0
  0
LINE
  5
100AC
  8
0
  6
CONTINUOUS
 10
173.3880200000000116
 20
14.9987000000003796
 30
0.0
 11
173.3880200000000116
 21
13.8677266447080605
 31
0.0
  0
POLYLINE
  5
100AD
  8
0
 66
     1
 10
0.0
 20
0.0
 30
0.0
  0
VERTEX
  5
1016C
  8
0
 10
193.6877000000000066
 20
14.9987000000003796
 30
0.0
  0
VERTEX
  5
1016D
  8
0
 10
193.6877000000000066
 20
117.3001200000004047
 30
0.0
  0
VERTEX
  5
1016E
  8
0
 10
206.6877000000000066
 20
117.3001200000004047
 30
0.0
  0
VERTEX
  5
1016F
  8
0
 10
206.6877000000000066
 20
14.9987000000003796
 30
0.0
  0
SEQEND
  5
10170
  8
0
  0
POLYLINE
  5
100B0
  8
0
 66
     1
 10
0.0
 20
0.0
 30
0.0
  0
VERTEX
  5
10171
  8
0
 10
186.3880200000000116
 20
13.8677266447080605
 30
0.0
  0
VERTEX
  5
10172
  8
0
 10
186.3880200000000116
 20
7.300120000000021
 30
0.0
  0
VERTEX
  5
10173
  8
0
 10
173.3880200000000116
 20
7.300120000000021
 30
0.0
  0
VERTEX
  5
10174
  8
0
 10
173.3880200000000116
 20
13.8677266447080605
 30
0.0
  0
SEQEND
  5
10175
  8
0
  0
POLYLINE
  5
100B1
  8
0
 66
     1
 10
0.0
 20
0.0
 30
0.0
  0
VERTEX
  5
10176
  8
0
 10
213.9873800000000017
 20
14.9987000000003796
 30
0.0
  0
VERTEX
  5
10177
  8
0
 10
213.9873800000000017
 20
117.3001200000004047
 30
0.0
  0
VERTEX
  5
10178
  8
0
 10
226.9873800000000017
 20
117.3001200000004047
 30
0.0
  0
VERTEX
  5
10179
  8
0
 10
226.9873800000000017
 20
14.9987000000003796
 30
0.0
  0
SEQEND
  5
1017A
  8
0
  0
POLYLINE
  5
100B2
  8
0
 66
     1
 10
0.0
 20
0.0
 30
0.0
  0
VERTEX
  5
1017B
  8
0
 10
206.6877000000000066
 20
13.8677266447080605
 30
0.0
  0
VERTEX
  5
1017C
  8
0
 10
206.6877000000000066
 20
7.300120000000021
 30
0.0
  0
VERTEX
  5
1017D
  8
0
 10
193.6877000000000066
 20
7.300120000000021
 30
0.0
  0
VERTEX
  5
1017E
  8
0
 10
193.6877000000000066
 20
13.8677266447080605
 30
0.0
  0
SEQEND
  5
1017F
  8
0
  0
POLYLINE
  5
100B3
  8
0
 66
     1
 10
0.0
 20
0.0
 30
0.0
  0
VERTEX
  5
10180
  8
0
 10
234.2870599999999968
 20
14.9987000000003796
 30
0.0
  0
VERTEX
  5
10181
  8
0
 10
234.2870599999999968
 20
117.3001200000004047
 30
0.0
  0
VERTEX
  5
10182
  8
0
 10
247.2870599999999968
 20
117.3001200000004047
 30
0.0
  0
VERTEX
  5
10183
  8
0
 10
247.2870599999999968
 20
14.9987000000003796
 30
0.0
  0
SEQEND
  5
10184
  8
0
  0
POLYLINE
  5
100B4
  8
0
 66
     1
 10
0.0
 20
0.0
 30
0.0
  0
VERTEX
  5
10185
  8
0
 10
226.9873800000000017
 20
13.8677266447080605
 30
0.0
  0
VERTEX
  5
10186
  8
0
 10
226.9873800000000017
 20
7.300120000000021
 30
0.0
  0
VERTEX
  5
10187
  8
0
 10
213.9873800000000017
 20
7.300120000000021
 30
0.0
  0
VERTEX
  5
10188
  8
0
 10
213.9873800000000017
 20
13.8677266447080605
 30
0.0
  0
SEQEND
  5
10189
  8
0
  0
POLYLINE
  5
100B5
  8
0
 66
     1
 10
0.0
 20
0.0
 30
0.0
  0
VERTEX
  5
1018A
  8
0
 10
254.5867399999999918
 20
14.9987000000003796
 30
0.0
  0
VERTEX
  5
1018B
  8
0
 10
254.5867399999999918
 20
117.3001200000004047
 30
0.0
  0
VERTEX
  5
1018C
  8
0
 10
267.5867400000000202
 20
117.3001200000004047
 30
0.0
  0
VERTEX
  5
1018D
  8
0
 10
267.5867400000000202
 20
14.9987000000003796
 30
0.0
  0
SEQEND
  5
1018E
  8
0
  0
POLYLINE
  5
100B6
  8
0
 66
     1
 10
0.0
 20
0.0
 30
0.0
  0
VERTEX
  5
1018F
  8
0
 10
247.2870599999999968
 20
13.8677266447080605
 30
0.0
  0
VERTEX
  5
10190
  8
0
 10
247.2870599999999968
 20
7.300120000000021
 30
0.0
  0
VERTEX
  5
10191
  8
0
 10
234.2870599999999968
 20
7.300120000000021
 30
0.0
  0
VERTEX
  5
10192
  8
0
 10
234.2870599999999968
 20
13.8677266447080605
 30
0.0
  0
SEQEND
  5
10193
  8
0
  0
POLYLINE
  5
100B7
  8
0
 66
     1
 10
0.0
 20
0.0
 30
0.0
  0
VERTEX
  5
10194
  8
0
 10
274.8864199999999869
 20
14.9987000000003796
 30
0.0
  0
VERTEX
  5
10195
  8
0
 10
274.8864199999999869
 20
117.3001200000004047
 30
0.0
  0
VERTEX
  5
10196
  8
0
 10
287.8864200000001006
 20
117.3001200000004047
 30
0.0
  0
VERTEX
  5
10197
  8
0
 10
287.8864200000001006
 20
14.9987000000003796
 30
0.0
  0
SEQEND
  5
10198
  8
0
  0
POLYLINE
  5
100B8
  8
0
 66
     1
 10
0.0
 20
0.0
 30
0.0
  0
VERTEX
  5
10199
  8
0
 10
267.5867400000000202
 20
13.8677266447080605
 30
0.0
  0
VERTEX
  5
1019A
  8
0
 10
267.5867400000000202
 20
7.300120000000021
 30
0.0
  0
VERTEX
  5
1019B
  8
0
 10
254.5867399999999918
 20
7.300120000000021
 30
0.0
  0
VERTEX
  5
1019C
  8
0
 10
254.5867399999999918
 20
13.8677266447080605
 30
0.0
  0
SEQEND
  5
1019D
  8
0
  0
POLYLINE
  5
100B9
  8
0
 66
     1
 10
0.0
 20
0.0
 30
0.0
  0
VERTEX
  5
1019E
  8
0
 10
295.1861000000000104
 20
14.9987000000003796
 30
0.0
  0
VERTEX
  5
1019F
  8
0
 10
295.1861000000000104
 20
117.3001200000004047
 30
0.0
  0
VERTEX
  5
101A0
  8
0
 10
308.1860999999998967
 20
117.3001200000004047
 30
0.0
  0
VERTEX
  5
101A1
  8
0
 10
308.1860999999998967
 20
14.9987000000003796
 30
0.0
  0
SEQEND
  5
101A2
  8
0
  0
POLYLINE
  5
100BA
  8
0
 66
     1
 10
0.0
 20
0.0
 30
0.0
  0
VERTEX
  5
101A3
  8
0
 10
287.8864200000001006
 20
13.8677266447080605
 30
0.0
  0
VERTEX
  5
101A4
  8
0
 10
287.8864200000001006
 20
7.300120000000021
 30
0.0
  0
VERTEX
  5
101A5
  8
0
 10
274.8864199999999869
 20
7.300120000000021
 30
0.0
  0
VERTEX
  5
101A6
  8
0
 10
274.8864199999999869
 20
13.8677266447080605
 30
0.0
  0
SEQEND
  5
101A7
  8
0
  0
POLYLINE
  5
100BB
  8
0
 66
     1
 10
0.0
 20
0.0
 30
0.0
  0
VERTEX
  5
101A8
  8
0
 10
324.7999599999999987
 20
14.9987000000003796
 30
0.0
  0
VERTEX
  5
101A9
  8
0
 10
324.7999599999999987
 20
132.7865000000003874
 30
0.0
  0
SEQEND
  5
101AA
  8
0
  0
POLYLINE
  5
100BC
  8
0
 66
     1
 10
0.0
 20
0.0
 30
0.0
  0
VERTEX
  5
101AB
  8
0
 10
308.1860999999998967
 20
13.8677266447080605
 30
0.0
  0
VERTEX
  5
101AC
  8
0
 10
308.1860999999998967
 20
7.300120000000021
 30
0.0
  0
VERTEX
  5
101AD
  8
0
 10
295.1861000000000104
 20
7.300120000000021
 30
0.0
  0
VERTEX
  5
101AE
  8
0
 10
295.1861000000000104
 20
13.8677266447080605
 30
0.0
  0
SEQEND
  5
101AF
  8
0
  0
LINE
  5
100BD
  8
0
  6
CONTINUOUS
 10
0.0
 20
133.3519866776464937
 30
0.0
 11
324.7999599999999987
 21
133.3519866776464937
 31
0.0
  0
POLYLINE
  5
100BE
  8
0
 66
     1
 10
0.0
 20
0.0
 30
0.0
  0
VERTEX
  5
101B0
  8
0
 10
0.0
 20
132.7865000000003874
 30
0.0
  0
VERTEX
  5
101B1
  8
0
 10
0.0
 20
14.9987000000003796
 30
0.0
  0
SEQEND
  5
101B2
  8
0
  0
ENDSEC
  0
EOF
