  0
SECTION
  2
HEADER
  9
$ACADVER
  1
AC1032
  9
$ACADMAINTVER
 90
      251
  9
$DWGCODEPAGE
  3
ANSI_1252
  9
$REQUIREDVERSIONS
160
                 0
  9
$INSBASE
 10
0.0
 20
0.0
 30
0.0
  9
$EXTMIN
 10
1.000000000000000E+20
 20
1.000000000000000E+20
 30
1.000000000000000E+20
  9
$EXTMAX
 10
-1.000000000000000E+20
 20
-1.000000000000000E+20
 30
-1.000000000000000E+20
  9
$LIMMIN
 10
0.0
 20
0.0
  9
$LIMMAX
 10
12.0
 20
9.0
  9
$ORTHOMODE
 70
     0
  9
$REGENMODE
 70
     1
  9
$FILLMODE
 70
     1
  9
$QTEXTMODE
 70
     0
  9
$MIRRTEXT
 70
     0
  9
$LTSCALE
 40
1.0
  9
$ATTMODE
 70
     1
  9
$TEXTSIZE
 40
0.2
  9
$TRACEWID
 40
0.05
  9
$TEXTSTYLE
  7
Standard
  9
$CLAYER
  8
0
  9
$CELTYPE
  6
ByLayer
  9
$CECOLOR
 62
   256
  9
$CELTSCALE
 40
1.0
  9
$DISPSILH
 70
     0
  9
$DIMSCALE
 40
1.0
  9
$DIMASZ
 40
0.18
  9
$DIMEXO
 40
0.0625
  9
$DIMDLI
 40
0.38
  9
$DIMRND
 40
0.0
  9
$DIMDLE
 40
0.0
  9
$DIMEXE
 40
0.18
  9
$DIMTP
 40
0.0
  9
$DIMTM
 40
0.0
  9
$DIMTXT
 40
0.18
  9
$DIMCEN
 40
0.09
  9
$DIMTSZ
 40
0.0
  9
$DIMTOL
 70
     0
  9
$DIMLIM
 70
     0
  9
$DIMTIH
 70
     1
  9
$DIMTOH
 70
     1
  9
$DIMSE1
 70
     0
  9
$DIMSE2
 70
     0
  9
$DIMTAD
 70
     0
  9
$DIMZIN
 70
     0
  9
$DIMBLK
  1

  9
$DIMASO
 70
     1
  9
$DIMSHO
 70
     1
  9
$DIMPOST
  1

  9
$DIMAPOST
  1

  9
$DIMALT
 70
     0
  9
$DIMALTD
 70
     2
  9
$DIMALTF
 40
25.4
  9
$DIMLFAC
 40
1.0
  9
$DIMTOFL
 70
     0
  9
$DIMTVP
 40
0.0
  9
$DIMTIX
 70
     0
  9
$DIMSOXD
 70
     0
  9
$DIMSAH
 70
     0
  9
$DIMBLK1
  1

  9
$DIMBLK2
  1

  9
$DIMSTYLE
  2
Standard
  9
$DIMCLRD
 70
     0
  9
$DIMCLRE
 70
     0
  9
$DIMCLRT
 70
     0
  9
$DIMTFAC
 40
1.0
  9
$DIMGAP
 40
0.09
  9
$DIMJUST
 70
     0
  9
$DIMSD1
 70
     0
  9
$DIMSD2
 70
     0
  9
$DIMTOLJ
 70
     1
  9
$DIMTZIN
 70
     0
  9
$DIMALTZ
 70
     0
  9
$DIMALTTZ
 70
     0
  9
$DIMUPT
 70
     0
  9
$DIMDEC
 70
     4
  9
$DIMTDEC
 70
     4
  9
$DIMALTU
 70
     2
  9
$DIMALTTD
 70
     2
  9
$DIMTXSTY
  7
Standard
  9
$DIMAUNIT
 70
     0
  9
$DIMADEC
 70
     0
  9
$DIMALTRND
 40
0.0
  9
$DIMAZIN
 70
     0
  9
$DIMDSEP
 70
    46
  9
$DIMATFIT
 70
     3
  9
$DIMFRAC
 70
     0
  9
$DIMLDRBLK
  1

  9
$DIMLUNIT
 70
     2
  9
$DIMLWD
 70
    -2
  9
$DIMLWE
 70
    -2
  9
$DIMTMOVE
 70
     0
  9
$DIMFXL
 40
1.0
  9
$DIMFXLON
 70
     0
  9
$DIMJOGANG
 40
0.7853981633974483
  9
$DIMTFILL
 70
     0
  9
$DIMTFILLCLR
 70
     0
  9
$DIMARCSYM
 70
     0
  9
$DIMLTYPE
  6

  9
$DIMLTEX1
  6

  9
$DIMLTEX2
  6

  9
$DIMTXTDIRECTION
 70
     0
  9
$LUNITS
 70
     2
  9
$LUPREC
 70
     4
  9
$SKETCHINC
 40
0.1
  9
$FILLETRAD
 40
0.0
  9
$AUNITS
 70
     0
  9
$AUPREC
 70
     0
  9
$MENU
  1
.
  9
$ELEVATION
 40
0.0
  9
$PELEVATION
 40
0.0
  9
$THICKNESS
 40
0.0
  9
$LIMCHECK
 70
     0
  9
$CHAMFERA
 40
0.0
  9
$CHAMFERB
 40
0.0
  9
$CHAMFERC
 40
0.0
  9
$CHAMFERD
 40
0.0
  9
$SKPOLY
 70
     0
  9
$TDCREATE
 40
2459928.593738426
  9
$TDUCREATE
 40
2459928.802071760
  9
$TDUPDATE
 40
2459928.593738426
  9
$TDUUPDATE
 40
2459928.802071760
  9
$TDINDWG
 40
0.0000000000
  9
$TDUSRTIMER
 40
0.0000000000
  9
$USRTIMER
 70
     1
  9
$ANGBASE
 50
0.0
  9
$ANGDIR
 70
     0
  9
$PDMODE
 70
     0
  9
$PDSIZE
 40
0.0
  9
$PLINEWID
 40
0.0
  9
$SPLFRAME
 70
     0
  9
$SPLINETYPE
 70
     6
  9
$SPLINESEGS
 70
     8
  9
$HANDSEED
  5
B0
  9
$SURFTAB1
 70
     6
  9
$SURFTAB2
 70
     6
  9
$SURFTYPE
 70
     6
  9
$SURFU
 70
     6
  9
$SURFV
 70
     6
  9
$UCSBASE
  2

  9
$UCSNAME
  2

  9
$UCSORG
 10
0.0
 20
0.0
 30
0.0
  9
$UCSXDIR
 10
1.0
 20
0.0
 30
0.0
  9
$UCSYDIR
 10
0.0
 20
1.0
 30
0.0
  9
$UCSORTHOREF
  2

  9
$UCSORTHOVIEW
 70
     0
  9
$UCSORGTOP
 10
0.0
 20
0.0
 30
0.0
  9
$UCSORGBOTTOM
 10
0.0
 20
0.0
 30
0.0
  9
$UCSORGLEFT
 10
0.0
 20
0.0
 30
0.0
  9
$UCSORGRIGHT
 10
0.0
 20
0.0
 30
0.0
  9
$UCSORGFRONT
 10
0.0
 20
0.0
 30
0.0
  9
$UCSORGBACK
 10
0.0
 20
0.0
 30
0.0
  9
$PUCSBASE
  2

  9
$PUCSNAME
  2

  9
$PUCSORG
 10
0.0
 20
0.0
 30
0.0
  9
$PUCSXDIR
 10
1.0
 20
0.0
 30
0.0
  9
$PUCSYDIR
 10
0.0
 20
1.0
 30
0.0
  9
$PUCSORTHOREF
  2

  9
$PUCSORTHOVIEW
 70
     0
  9
$PUCSORGTOP
 10
0.0
 20
0.0
 30
0.0
  9
$PUCSORGBOTTOM
 10
0.0
 20
0.0
 30
0.0
  9
$PUCSORGLEFT
 10
0.0
 20
0.0
 30
0.0
  9
$PUCSORGRIGHT
 10
0.0
 20
0.0
 30
0.0
  9
$PUCSORGFRONT
 10
0.0
 20
0.0
 30
0.0
  9
$PUCSORGBACK
 10
0.0
 20
0.0
 30
0.0
  9
$USERI1
 70
     0
  9
$USERI2
 70
     0
  9
$USERI3
 70
     0
  9
$USERI4
 70
     0
  9
$USERI5
 70
     0
  9
$USERR1
 40
0.0
  9
$USERR2
 40
0.0
  9
$USERR3
 40
0.0
  9
$USERR4
 40
0.0
  9
$USERR5
 40
0.0
  9
$WORLDVIEW
 70
     1
  9
$SHADEDGE
 70
     3
  9
$SHADEDIF
 70
    70
  9
$TILEMODE
 70
     1
  9
$MAXACTVP
 70
    64
  9
$PINSBASE
 10
0.0
 20
0.0
 30
0.0
  9
$PLIMCHECK
 70
     0
  9
$PEXTMIN
 10
1.000000000000000E+20
 20
1.000000000000000E+20
 30
1.000000000000000E+20
  9
$PEXTMAX
 10
-1.000000000000000E+20
 20
-1.000000000000000E+20
 30
-1.000000000000000E+20
  9
$PLIMMIN
 10
0.0
 20
0.0
  9
$PLIMMAX
 10
12.0
 20
9.0
  9
$UNITMODE
 70
     0
  9
$VISRETAIN
 70
     1
  9
$PLINEGEN
 70
     0
  9
$PSLTSCALE
 70
     1
  9
$TREEDEPTH
 70
  3020
  9
$CMLSTYLE
  2
Standard
  9
$CMLJUST
 70
     0
  9
$CMLSCALE
 40
1.0
  9
$PROXYGRAPHICS
 70
     1
  9
$MEASUREMENT
 70
     0
  9
$CELWEIGHT
370
    -1
  9
$ENDCAPS
280
     0
  9
$JOINSTYLE
280
     0
  9
$LWDISPLAY
290
     1
  9
$INSUNITS
 70
     1
  9
$HYPERLINKBASE
  1

  9
$STYLESHEET
  1

  9
$XEDIT
290
     1
  9
$CEPSNTYPE
380
     0
  9
$PSTYLEMODE
290
     1
  9
$FINGERPRINTGUID
  2
{C55281B3-F18C-D541-9D2D-139F35BCAC35}
  9
$VERSIONGUID
  2
{EE0B3301-141E-8545-92A3-59DA5A0AD9C7}
  9
$EXTNAMES
290
     1
  9
$PSVPSCALE
 40
0.0
  9
$OLESTARTUP
290
     0
  9
$SORTENTS
280
   127
  9
$INDEXCTL
280
     0
  9
$HIDETEXT
280
     1
  9
$XCLIPFRAME
280
     2
  9
$HALOGAP
280
     0
  9
$OBSCOLOR
 70
   257
  9
$OBSLTYPE
280
     0
  9
$INTERSECTIONDISPLAY
280
     0
  9
$INTERSECTIONCOLOR
 70
   257
  9
$DIMASSOC
280
     2
  9
$PROJECTNAME
  1

  9
$CAMERADISPLAY
290
     0
  9
$LENSLENGTH
 40
50.0
  9
$CAMERAHEIGHT
 40
0.0
  9
$STEPSPERSEC
 40
2.0
  9
$STEPSIZE
 40
6.0
  9
$3DDWFPREC
 40
2.0
  9
$PSOLWIDTH
 40
0.25
  9
$PSOLHEIGHT
 40
4.0
  9
$LOFTANG1
 40
1.570796326794896
  9
$LOFTANG2
 40
1.570796326794896
  9
$LOFTMAG1
 40
0.0
  9
$LOFTMAG2
 40
0.0
  9
$LOFTPARAM
 70
     7
  9
$LOFTNORMALS
280
     1
  9
$LATITUDE
 40
37.795
  9
$LONGITUDE
 40
-122.394
  9
$NORTHDIRECTION
 40
0.0
  9
$TIMEZONE
 70
 -8000
  9
$LIGHTGLYPHDISPLAY
280
     1
  9
$TILEMODELIGHTSYNCH
280
     1
  9
$CMATERIAL
347
11
  9
$SOLIDHIST
280
     0
  9
$SHOWHIST
280
     1
  9
$DWFFRAME
280
     2
  9
$DGNFRAME
280
     0
  9
$REALWORLDSCALE
290
     1
  9
$INTERFERECOLOR
 62
     1
  9
$INTERFEREOBJVS
345
33
  9
$INTERFEREVPVS
346
30
  9
$CSHADOW
280
     0
  9
$SHADOWPLANELOCATION
 40
0.0
  0
ENDSEC
  0
SECTION
  2
CLASSES
  0
CLASS
  1
ACDBDICTIONARYWDFLT
  2
AcDbDictionaryWithDefault
  3
ObjectDBX Classes
 90
        0
 91
        1
280
     0
281
     0
  0
CLASS
  1
MATERIAL
  2
AcDbMaterial
  3
ObjectDBX Classes
 90
     1153
 91
        3
280
     0
281
     0
  0
CLASS
  1
VISUALSTYLE
  2
AcDbVisualStyle
  3
ObjectDBX Classes
 90
     4095
 91
       24
280
     0
281
     0
  0
CLASS
  1
SCALE
  2
AcDbScale
  3
ObjectDBX Classes
 90
     1153
 91
       17
280
     0
281
     0
  0
CLASS
  1
TABLESTYLE
  2
AcDbTableStyle
  3
ObjectDBX Classes
 90
     4095
 91
        1
280
     0
281
     0
  0
CLASS
  1
MLEADERSTYLE
  2
AcDbMLeaderStyle
  3
ACDB_MLEADERSTYLE_CLASS
 90
     4095
 91
        1
280
     0
281
     0
  0
CLASS
  1
ACDBSECTIONVIEWSTYLE
  2
AcDbSectionViewStyle
  3
ObjectDBX Classes
 90
     1025
 91
        1
280
     0
281
     0
  0
CLASS
  1
ACDBDETAILVIEWSTYLE
  2
AcDbDetailViewStyle
  3
ObjectDBX Classes
 90
     1025
 91
        1
280
     0
281
     0
  0
CLASS
  1
DICTIONARYVAR
  2
AcDbDictionaryVar
  3
ObjectDBX Classes
 90
        0
 91
        5
280
     0
281
     0
  0
CLASS
  1
CELLSTYLEMAP
  2
AcDbCellStyleMap
  3
ObjectDBX Classes
 90
     1152
 91
        1
280
     0
281
     0
  0
ENDSEC
  0
SECTION
  2
TABLES
  0
TABLE
  2
VPORT
  5
8
330
0
100
AcDbSymbolTable
 70
     1
  0
VPORT
  5
57
330
8
100
AcDbSymbolTableRecord
100
AcDbViewportTableRecord
  2
*Active
 70
     0
 10
0.0
 20
0.0
 11
1.0
 21
1.0
 12
0.0
 22
0.0
 13
0.0
 23
0.0
 14
1.0
 24
1.0
 15
0.0
 25
0.0
 16
0.0
 26
0.0
 36
1.0
 17
4.5
 27
-8.00819253711087
 37
0.0
 40
5.099999999999999
 41
2.8
 42
50.0
 43
0.0
 44
0.0
 50
0.0
 51
0.0
 71
     0
 72
   100
 73
     1
 74
     1
 75
     0
 76
     0
 77
     0
 78
     0
281
     0
 65
     1
110
0.0
120
0.0
130
0.0
111
1.0
121
0.0
131
0.0
112
0.0
122
1.0
132
0.0
 79
     0
146
0.0
 60
     3
 61
     5
292
     1
282
     1
141
0.0
142
0.0
 63
   250
421
  3355443
  0
ENDTAB
  0
TABLE
  2
LTYPE
  5
5
330
0
100
AcDbSymbolTable
 70
     1
  0
LTYPE
  5
5B
330
5
100
AcDbSymbolTableRecord
100
AcDbLinetypeTableRecord
  2
ByBlock
 70
     0
  3

 72
    65
 73
     0
 40
0.0
  0
LTYPE
  5
5C
330
5
100
AcDbSymbolTableRecord
100
AcDbLinetypeTableRecord
  2
ByLayer
 70
     0
  3

 72
    65
 73
     0
 40
0.0
  0
LTYPE
  5
5D
330
5
100
AcDbSymbolTableRecord
100
AcDbLinetypeTableRecord
  2
Continuous
 70
     0
  3
Solid line
 72
    65
 73
     0
 40
0.0
  0
ENDTAB
  0
TABLE
  2
LAYER
  5
2
330
0
100
AcDbSymbolTable
 70
     2
  0
LAYER
  5
54
330
2
100
AcDbSymbolTableRecord
100
AcDbLayerTableRecord
  2
0
 70
     0
 62
     7
  6
Continuous
370
    -3
390
F
347
21
348
0
  0
LAYER
  5
78
330
2
100
AcDbSymbolTableRecord
100
AcDbLayerTableRecord
  2
Layer 1
 70
     0
 62
     7
  6
Continuous
370
     0
390
F
347
21
348
0
  0
ENDTAB
  0
TABLE
  2
STYLE
  5
3
330
0
100
AcDbSymbolTable
 70
     2
  0
STYLE
  5
55
330
3
100
AcDbSymbolTableRecord
100
AcDbTextStyleTableRecord
  2
Standard
 70
     0
 40
0.0
 41
1.0
 50
0.0
 71
     0
 42
0.2
  3
txt
  4

  0
STYLE
  5
5A
330
3
100
AcDbSymbolTableRecord
100
AcDbTextStyleTableRecord
  2
Annotative
 70
     0
 40
0.0
 41
1.0
 50
0.0
 71
     0
 42
0.2
  3
txt
  4

1001
AcadAnnotative
1000
AnnotativeData
1002
{
1070
     1
1070
     1
1002
}
  0
ENDTAB
  0
TABLE
  2
VIEW
  5
6
330
0
100
AcDbSymbolTable
 70
     0
  0
ENDTAB
  0
TABLE
  2
UCS
  5
7
330
0
100
AcDbSymbolTable
 70
     0
  0
ENDTAB
  0
TABLE
  2
APPID
  5
9
330
0
100
AcDbSymbolTable
 70
     2
  0
APPID
  5
56
330
9
100
AcDbSymbolTableRecord
100
AcDbRegAppTableRecord
  2
ACAD
 70
     0
  0
APPID
  5
5E
330
9
100
AcDbSymbolTableRecord
100
AcDbRegAppTableRecord
  2
AcadAnnotative
 70
     0
  0
ENDTAB
  0
TABLE
  2
DIMSTYLE
  5
A
330
0
100
AcDbSymbolTable
 70
     2
100
AcDbDimStyleTable
 71
     0
  0
DIMSTYLE
105
58
330
A
100
AcDbSymbolTableRecord
100
AcDbDimStyleTableRecord
  2
Standard
 70
     0
340
55
  0
DIMSTYLE
105
59
330
A
100
AcDbSymbolTableRecord
100
AcDbDimStyleTableRecord
  2
Annotative
 70
     0
340
55
1001
AcadAnnotative
1000
AnnotativeData
1002
{
1070
     1
1070
     1
1002
}
  0
ENDTAB
  0
TABLE
  2
BLOCK_RECORD
  5
1
330
0
100
AcDbSymbolTable
 70
     1
  0
BLOCK_RECORD
  5
70
330
1
100
AcDbSymbolTableRecord
100
AcDbBlockTableRecord
  2
*Model_Space
340
73
 70
     0
280
     1
281
     0
  0
BLOCK_RECORD
  5
6C
330
1
100
AcDbSymbolTableRecord
100
AcDbBlockTableRecord
  2
*Paper_Space
340
6F
 70
     0
280
     1
281
     0
  0
BLOCK_RECORD
  5
74
330
1
100
AcDbSymbolTableRecord
100
AcDbBlockTableRecord
  2
*Paper_Space0
340
77
 70
     0
280
     1
281
     0
  0
ENDTAB
  0
ENDSEC
  0
SECTION
  2
BLOCKS
  0
BLOCK
  5
71
330
70
100
AcDbEntity
  8
0
100
AcDbBlockBegin
  2
*Model_Space
 70
     0
 10
0.0
 20
0.0
 30
0.0
  3
*Model_Space
  1

  0
ENDBLK
  5
72
330
70
100
AcDbEntity
  8
0
100
AcDbBlockEnd
  0
BLOCK
  5
6D
330
6C
100
AcDbEntity
 67
     1
  8
0
100
AcDbBlockBegin
  2
*Paper_Space
 70
     0
 10
0.0
 20
0.0
 30
0.0
  3
*Paper_Space
  1

  0
ENDBLK
  5
6E
330
6C
100
AcDbEntity
 67
     1
  8
0
100
AcDbBlockEnd
  0
BLOCK
  5
75
330
74
100
AcDbEntity
 67
     1
  8
0
100
AcDbBlockBegin
  2
*Paper_Space0
 70
     0
 10
0.0
 20
0.0
 30
0.0
  3
*Paper_Space0
  1

  0
ENDBLK
  5
76
330
74
100
AcDbEntity
 67
     1
  8
0
100
AcDbBlockEnd
  0
ENDSEC
  0
SECTION
  2
ENTITIES
  0
SPLINE
  5
79
330
70
100
AcDbEntity
  8
Layer 1
100
AcDbSpline
210
0.0
220
0.0
230
1.0
 70
     9
 71
     3
 72
    44
 73
    40
 74
     0
 42
0.0000000001
 43
0.0000000001
 40
0.0
 40
0.0
 40
0.0
 40
0.0
 40
1.0
 40
1.0
 40
1.0
 40
2.0
 40
2.0
 40
2.0
 40
3.0
 40
3.0
 40
3.0
 40
4.0
 40
4.0
 40
4.0
 40
5.0
 40
5.0
 40
5.0
 40
6.0
 40
6.0
 40
6.0
 40
7.0
 40
7.0
 40
7.0
 40
8.0
 40
8.0
 40
8.0
 40
9.0
 40
9.0
 40
9.0
 40
10.0
 40
10.0
 40
10.0
 40
11.0
 40
11.0
 40
11.0
 40
12.0
 40
12.0
 40
12.0
 40
13.0
 40
13.0
 40
13.0
 40
13.0
 10
9.999507414659799
 20
-7.600618175224881
 30
0.0
 10
9.999507414659799
 20
-7.600618175224881
 30
0.0
 10
9.810984762099122
 20
-7.600618175224881
 30
0.0
 10
9.810984762099122
 20
-7.600618175224881
 30
0.0
 10
9.817418492587876
 20
-7.51829356162577
 30
0.0
 10
9.770605806644905
 20
-7.468940962660225
 30
0.0
 10
9.675032061817747
 20
-7.468940962660225
 30
0.0
 10
9.540941834267767
 20
-7.468940962660225
 30
0.0
 10
9.412015380695265
 20
-7.572302342419789
 30
0.0
 10
9.345562783140367
 20
-7.754940830606882
 30
0.0
 10
9.278686541368818
 20
-7.938468581193496
 30
0.0
 10
9.328632632693217
 20
-8.042676273247682
 30
0.0
 10
9.467970582153004
 20
-8.042676273247682
 30
0.0
 10
9.591395517741172
 20
-8.042676273247682
 30
0.0
 10
9.690608307821294
 20
-7.973598838599122
 30
0.0
 10
9.732934660077969
 20
-7.8646929907503
 30
0.0
 10
9.732934660077969
 20
-7.8646929907503
 30
0.0
 10
9.544328059584939
 20
-7.8646929907503
 30
0.0
 10
9.544328059584939
 20
-7.8646929907503
 30
0.0
 10
9.544328059584939
 20
-7.8646929907503
 30
0.0
 10
9.595119487065201
 20
-7.724931397073835
 30
0.0
 10
9.595119487065201
 20
-7.724931397073835
 30
0.0
 10
9.595119487065201
 20
-7.724931397073835
 30
0.0
 10
9.962513708384019
 20
-7.724931397073835
 30
0.0
 10
9.962513708384019
 20
-7.724931397073835
 30
0.0
 10
9.962513708384019
 20
-7.724931397073835
 30
0.0
 10
9.922218700862154
 20
-7.835614793582938
 30
0.0
 10
9.922218700862154
 20
-7.835614793582938
 30
0.0
 10
9.838073588497838
 20
-8.066675620508627
 30
0.0
 10
9.628896816165958
 20
-8.206944806334124
 30
0.0
 10
9.407275250934464
 20
-8.206944806334124
 30
0.0
 10
9.160003687818944
 20
-8.206944806334124
 30
0.0
 10
9.055626147622609
 20
-8.034548942030925
 30
0.0
 10
9.156786334505188
 20
-7.756676405301024
 30
0.0
 10
9.260401510339255
 20
-7.471903543760718
 30
0.0
 10
9.499970362593456
 20
-7.304713427401186
 30
0.0
 10
9.731834551708844
 20
-7.304713427401186
 30
0.0
 10
9.930261108007824
 20
-7.304713427401186
 30
0.0
 10
10.03878626174486
 20
-7.426868406478054
 30
0.0
 10
9.999507414659799
 20
-7.600618175224881
 30
0.0
  0
SPLINE
  5
7A
330
70
100
AcDbEntity
  8
Layer 1
100
AcDbSpline
210
0.0
220
0.0
230
1.0
 70
     9
 71
     3
 72
    44
 73
    40
 74
     0
 42
0.0000000001
 43
0.0000000001
 40
0.0
 40
0.0
 40
0.0
 40
0.0
 40
1.0
 40
1.0
 40
1.0
 40
2.0
 40
2.0
 40
2.0
 40
3.0
 40
3.0
 40
3.0
 40
4.0
 40
4.0
 40
4.0
 40
5.0
 40
5.0
 40
5.0
 40
6.0
 40
6.0
 40
6.0
 40
7.0
 40
7.0
 40
7.0
 40
8.0
 40
8.0
 40
8.0
 40
9.0
 40
9.0
 40
9.0
 40
10.0
 40
10.0
 40
10.0
 40
11.0
 40
11.0
 40
11.0
 40
12.0
 40
12.0
 40
12.0
 40
13.0
 40
13.0
 40
13.0
 40
13.0
 10
9.354366578509546
 20
-9.513691010898936
 30
0.0
 10
9.354366578509546
 20
-9.639146315083154
 30
0.0
 10
9.268443917484924
 20
-9.715249996440585
 30
0.0
 10
9.148152387278186
 20
-9.715249996440585
 30
0.0
 10
9.013807387514942
 20
-9.715249996440585
 30
0.0
 10
8.923059672658432
 20
-9.621707596348212
 30
0.0
 10
8.923059672658432
 20
-9.470856090354496
 30
0.0
 10
8.923059672658432
 20
-9.316279638897993
 30
0.0
 10
9.020072246000305
 20
-9.225446999970371
 30
0.0
 10
9.146036118472288
 20
-9.225446999970371
 30
0.0
 10
9.253798907847061
 20
-9.225446999970371
 30
0.0
 10
9.336927859774631
 20
-9.291815649592914
 30
0.0
 10
9.349965168894337
 20
-9.386118461770061
 30
0.0
 10
9.349965168894337
 20
-9.386118461770061
 30
0.0
 10
9.247535025500457
 20
-9.386118461770061
 30
0.0
 10
9.247535025500457
 20
-9.386118461770061
 30
0.0
 10
9.234752488594013
 20
-9.341422044632988
 30
0.0
 10
9.19953633097854
 20
-9.314587014308774
 30
0.0
 10
9.147643818990419
 20
-9.314587014308774
 30
0.0
 10
9.074758467085503
 20
-9.314587014308774
 30
0.0
 10
9.025236019977784
 20
-9.370712063908689
 30
0.0
 10
9.025236019977784
 20
-9.469924853988787
 30
0.0
 10
9.025236019977784
 20
-9.569561288285587
 30
0.0
 10
9.07289599435411
 20
-9.62610998210218
 30
0.0
 10
9.148575055356104
 20
-9.62610998210218
 30
0.0
 10
9.215620169131094
 20
-9.62610998210218
 30
0.0
 10
9.255915176652958
 20
-9.588608683677394
 30
0.0
 10
9.257270057235347
 20
-9.529436128905899
 30
0.0
 10
9.257270057235347
 20
-9.529436128905899
 30
0.0
 10
9.154839913841467
 20
-9.529436128905899
 30
0.0
 10
9.154839913841467
 20
-9.529436128905899
 30
0.0
 10
9.154839913841467
 20
-9.529436128905899
 30
0.0
 10
9.154839913841467
 20
-9.453587219761731
 30
0.0
 10
9.154839913841467
 20
-9.453587219761731
 30
0.0
 10
9.154839913841467
 20
-9.453587219761731
 30
0.0
 10
9.354366578509546
 20
-9.453587219761731
 30
0.0
 10
9.354366578509546
 20
-9.453587219761731
 30
0.0
 10
9.354366578509546
 20
-9.453587219761731
 30
0.0
 10
9.354366578509546
 20
-9.513691010898936
 30
0.0
 10
9.354366578509546
 20
-9.513691010898936
 30
0.0
  0
SPLINE
  5
7B
330
70
100
AcDbEntity
  8
Layer 1
100
AcDbSpline
210
0.0
220
0.0
230
1.0
 70
    11
 71
     3
 72
    41
 73
    37
 74
     0
 42
0.0000000001
 43
0.0000000001
 40
0.0
 40
0.0
 40
0.0
 40
0.0
 40
1.0
 40
1.0
 40
1.0
 40
2.0
 40
2.0
 40
2.0
 40
3.0
 40
3.0
 40
3.0
 40
4.0
 40
4.0
 40
4.0
 40
5.0
 40
5.0
 40
5.0
 40
6.0
 40
6.0
 40
6.0
 40
7.0
 40
7.0
 40
7.0
 40
8.0
 40
8.0
 40
8.0
 40
9.0
 40
9.0
 40
9.0
 40
10.0
 40
10.0
 40
10.0
 40
11.0
 40
11.0
 40
11.0
 40
12.0
 40
12.0
 40
12.0
 40
12.0
 10
8.698560450397508
 20
-8.194924633789948
 30
0.0
 10
8.698560450397508
 20
-8.194924633789948
 30
0.0
 10
8.517826408907971
 20
-7.642140189153122
 30
0.0
 10
8.517826408907971
 20
-7.642140189153122
 30
0.0
 10
8.517826408907971
 20
-7.642140189153122
 30
0.0
 10
8.511392678419193
 20
-7.642140189153122
 30
0.0
 10
8.511392678419193
 20
-7.642140189153122
 30
0.0
 10
8.511392678419193
 20
-7.642140189153122
 30
0.0
 10
8.310257337094222
 20
-8.194924633789948
 30
0.0
 10
8.310257337094222
 20
-8.194924633789948
 30
0.0
 10
8.310257337094222
 20
-8.194924633789948
 30
0.0
 10
8.12469726563404
 20
-8.194924633789948
 30
0.0
 10
8.12469726563404
 20
-8.194924633789948
 30
0.0
 10
8.12469726563404
 20
-8.194924633789948
 30
0.0
 10
8.444347564644203
 20
-7.316692602117957
 30
0.0
 10
8.444347564644203
 20
-7.316692602117957
 30
0.0
 10
8.444347564644203
 20
-7.316692602117957
 30
0.0
 10
8.607219243182118
 20
-7.316692602117957
 30
0.0
 10
8.607219243182118
 20
-7.316692602117957
 30
0.0
 10
8.607219243182118
 20
-7.316692602117957
 30
0.0
 10
8.78499070357116
 20
-7.869010452433181
 30
0.0
 10
8.78499070357116
 20
-7.869010452433181
 30
0.0
 10
8.78499070357116
 20
-7.869010452433181
 30
0.0
 10
8.792694390571215
 20
-7.869010452433181
 30
0.0
 10
8.792694390571215
 20
-7.869010452433181
 30
0.0
 10
8.792694390571215
 20
-7.869010452433181
 30
0.0
 10
8.993744807825096
 20
-7.316692602117957
 30
0.0
 10
8.993744807825096
 20
-7.316692602117957
 30
0.0
 10
8.993744807825096
 20
-7.316692602117957
 30
0.0
 10
9.178457590851923
 20
-7.316692602117957
 30
0.0
 10
9.178457590851923
 20
-7.316692602117957
 30
0.0
 10
9.178457590851923
 20
-7.316692602117957
 30
0.0
 10
8.858808267980521
 20
-8.194924633789948
 30
0.0
 10
8.858808267980521
 20
-8.194924633789948
 30
0.0
 10
8.858808267980521
 20
-8.194924633789948
 30
0.0
 10
8.698560450397508
 20
-8.194924633789948
 30
0.0
 10
8.698560450397508
 20
-8.194924633789948
 30
0.0
  0
SPLINE
  5
7C
330
70
100
AcDbEntity
  8
Layer 1
100
AcDbSpline
210
0.0
220
0.0
230
1.0
 70
    11
 71
     3
 72
    41
 73
    37
 74
     0
 42
0.0000000001
 43
0.0000000001
 40
0.0
 40
0.0
 40
0.0
 40
0.0
 40
1.0
 40
1.0
 40
1.0
 40
2.0
 40
2.0
 40
2.0
 40
3.0
 40
3.0
 40
3.0
 40
4.0
 40
4.0
 40
4.0
 40
5.0
 40
5.0
 40
5.0
 40
6.0
 40
6.0
 40
6.0
 40
7.0
 40
7.0
 40
7.0
 40
8.0
 40
8.0
 40
8.0
 40
9.0
 40
9.0
 40
9.0
 40
10.0
 40
10.0
 40
10.0
 40
11.0
 40
11.0
 40
11.0
 40
12.0
 40
12.0
 40
12.0
 40
12.0
 10
8.821645689701325
 20
-9.708731341880719
 30
0.0
 10
8.821645689701325
 20
-9.708731341880719
 30
0.0
 10
8.734621944168818
 20
-9.708731341880719
 30
0.0
 10
8.734621944168818
 20
-9.708731341880719
 30
0.0
 10
8.734621944168818
 20
-9.708731341880719
 30
0.0
 10
8.527222720497244
 20
-9.408636030411393
 30
0.0
 10
8.527222720497244
 20
-9.408636030411393
 30
0.0
 10
8.527222720497244
 20
-9.408636030411393
 30
0.0
 10
8.523667623176656
 20
-9.408636030411393
 30
0.0
 10
8.523667623176656
 20
-9.408636030411393
 30
0.0
 10
8.523667623176656
 20
-9.408636030411393
 30
0.0
 10
8.523667623176656
 20
-9.708731341880719
 30
0.0
 10
8.523667623176656
 20
-9.708731341880719
 30
0.0
 10
8.523667623176656
 20
-9.708731341880719
 30
0.0
 10
8.422930104371996
 20
-9.708731341880719
 30
0.0
 10
8.422930104371996
 20
-9.708731341880719
 30
0.0
 10
8.422930104371996
 20
-9.708731341880719
 30
0.0
 10
8.422930104371996
 20
-9.231965654530236
 30
0.0
 10
8.422930104371996
 20
-9.231965654530236
 30
0.0
 10
8.422930104371996
 20
-9.231965654530236
 30
0.0
 10
8.511307754348106
 20
-9.231965654530236
 30
0.0
 10
8.511307754348106
 20
-9.231965654530236
 30
0.0
 10
8.511307754348106
 20
-9.231965654530236
 30
0.0
 10
8.717184201572637
 20
-9.531806193786298
 30
0.0
 10
8.717184201572637
 20
-9.531806193786298
 30
0.0
 10
8.717184201572637
 20
-9.531806193786298
 30
0.0
 10
8.721331815113343
 20
-9.531806193786298
 30
0.0
 10
8.721331815113343
 20
-9.531806193786298
 30
0.0
 10
8.721331815113343
 20
-9.531806193786298
 30
0.0
 10
8.721331815113343
 20
-9.231965654530236
 30
0.0
 10
8.721331815113343
 20
-9.231965654530236
 30
0.0
 10
8.721331815113343
 20
-9.231965654530236
 30
0.0
 10
8.821645689701325
 20
-9.231965654530236
 30
0.0
 10
8.821645689701325
 20
-9.231965654530236
 30
0.0
 10
8.821645689701325
 20
-9.231965654530236
 30
0.0
 10
8.821645689701325
 20
-9.708731341880719
 30
0.0
 10
8.821645689701325
 20
-9.708731341880719
 30
0.0
  0
SPLINE
  5
7D
330
70
100
AcDbEntity
  8
Layer 1
100
AcDbSpline
210
0.0
220
0.0
230
1.0
 70
    11
 71
     3
 72
    17
 73
    13
 74
     0
 42
0.0000000001
 43
0.0000000001
 40
0.0
 40
0.0
 40
0.0
 40
0.0
 40
1.0
 40
1.0
 40
1.0
 40
2.0
 40
2.0
 40
2.0
 40
3.0
 40
3.0
 40
3.0
 40
4.0
 40
4.0
 40
4.0
 40
4.0
 10
8.313388790198157
 20
-9.708731341880719
 30
0.0
 10
8.313388790198157
 20
-9.708731341880719
 30
0.0
 10
8.212652247532256
 20
-9.708731341880719
 30
0.0
 10
8.212652247532256
 20
-9.708731341880719
 30
0.0
 10
8.212652247532256
 20
-9.708731341880719
 30
0.0
 10
8.212652247532256
 20
-9.231965654530236
 30
0.0
 10
8.212652247532256
 20
-9.231965654530236
 30
0.0
 10
8.212652247532256
 20
-9.231965654530236
 30
0.0
 10
8.313388790198157
 20
-9.231965654530236
 30
0.0
 10
8.313388790198157
 20
-9.231965654530236
 30
0.0
 10
8.313388790198157
 20
-9.231965654530236
 30
0.0
 10
8.313388790198157
 20
-9.708731341880719
 30
0.0
 10
8.313388790198157
 20
-9.708731341880719
 30
0.0
  0
SPLINE
  5
7E
330
70
100
AcDbEntity
  8
Layer 1
100
AcDbSpline
210
0.0
220
0.0
230
1.0
 70
    11
 71
     3
 72
    29
 73
    25
 74
     0
 42
0.0000000001
 43
0.0000000001
 40
0.0
 40
0.0
 40
0.0
 40
0.0
 40
1.0
 40
1.0
 40
1.0
 40
2.0
 40
2.0
 40
2.0
 40
3.0
 40
3.0
 40
3.0
 40
4.0
 40
4.0
 40
4.0
 40
5.0
 40
5.0
 40
5.0
 40
6.0
 40
6.0
 40
6.0
 40
7.0
 40
7.0
 40
7.0
 40
8.0
 40
8.0
 40
8.0
 40
8.0
 10
8.12122709238454
 20
-9.31509460645778
 30
0.0
 10
8.12122709238454
 20
-9.31509460645778
 30
0.0
 10
7.975285564293774
 20
-9.31509460645778
 30
0.0
 10
7.975285564293774
 20
-9.31509460645778
 30
0.0
 10
7.975285564293774
 20
-9.31509460645778
 30
0.0
 10
7.975285564293774
 20
-9.708731341880719
 30
0.0
 10
7.975285564293774
 20
-9.708731341880719
 30
0.0
 10
7.975285564293774
 20
-9.708731341880719
 30
0.0
 10
7.875649129996999
 20
-9.708731341880719
 30
0.0
 10
7.875649129996999
 20
-9.708731341880719
 30
0.0
 10
7.875649129996999
 20
-9.708731341880719
 30
0.0
 10
7.875649129996999
 20
-9.31509460645778
 30
0.0
 10
7.875649129996999
 20
-9.31509460645778
 30
0.0
 10
7.875649129996999
 20
-9.31509460645778
 30
0.0
 10
7.729706625767498
 20
-9.31509460645778
 30
0.0
 10
7.729706625767498
 20
-9.31509460645778
 30
0.0
 10
7.729706625767498
 20
-9.31509460645778
 30
0.0
 10
7.729706625767498
 20
-9.231965654530236
 30
0.0
 10
7.729706625767498
 20
-9.231965654530236
 30
0.0
 10
7.729706625767498
 20
-9.231965654530236
 30
0.0
 10
8.12122709238454
 20
-9.231965654530236
 30
0.0
 10
8.12122709238454
 20
-9.231965654530236
 30
0.0
 10
8.12122709238454
 20
-9.231965654530236
 30
0.0
 10
8.12122709238454
 20
-9.31509460645778
 30
0.0
 10
8.12122709238454
 20
-9.31509460645778
 30
0.0
  0
SPLINE
  5
7F
330
70
100
AcDbEntity
  8
Layer 1
100
AcDbSpline
210
0.0
220
0.0
230
1.0
 70
    11
 71
     3
 72
    29
 73
    25
 74
     0
 42
0.0000000001
 43
0.0000000001
 40
0.0
 40
0.0
 40
0.0
 40
0.0
 40
1.0
 40
1.0
 40
1.0
 40
2.0
 40
2.0
 40
2.0
 40
3.0
 40
3.0
 40
3.0
 40
4.0
 40
4.0
 40
4.0
 40
5.0
 40
5.0
 40
5.0
 40
6.0
 40
6.0
 40
6.0
 40
7.0
 40
7.0
 40
7.0
 40
8.0
 40
8.0
 40
8.0
 40
8.0
 10
7.39710589398621
 20
-8.194924633789948
 30
0.0
 10
7.39710589398621
 20
-8.194924633789948
 30
0.0
 10
7.213662091331924
 20
-8.194924633789948
 30
0.0
 10
7.213662091331924
 20
-8.194924633789948
 30
0.0
 10
7.213662091331924
 20
-8.194924633789948
 30
0.0
 10
7.477610008820091
 20
-7.469744324849923
 30
0.0
 10
7.477610008820091
 20
-7.469744324849923
 30
0.0
 10
7.477610008820091
 20
-7.469744324849923
 30
0.0
 10
7.208921961571124
 20
-7.469744324849923
 30
0.0
 10
7.208921961571124
 20
-7.469744324849923
 30
0.0
 10
7.208921961571124
 20
-7.469744324849923
 30
0.0
 10
7.26462336695436
 20
-7.316692602117957
 30
0.0
 10
7.26462336695436
 20
-7.316692602117957
 30
0.0
 10
7.26462336695436
 20
-7.316692602117957
 30
0.0
 10
7.985443264106581
 20
-7.316692602117957
 30
0.0
 10
7.985443264106581
 20
-7.316692602117957
 30
0.0
 10
7.985443264106581
 20
-7.316692602117957
 30
0.0
 10
7.929741858723344
 20
-7.469744324849923
 30
0.0
 10
7.929741858723344
 20
-7.469744324849923
 30
0.0
 10
7.929741858723344
 20
-7.469744324849923
 30
0.0
 10
7.661053811474377
 20
-7.469744324849923
 30
0.0
 10
7.661053811474377
 20
-7.469744324849923
 30
0.0
 10
7.661053811474377
 20
-7.469744324849923
 30
0.0
 10
7.39710589398621
 20
-8.194924633789948
 30
0.0
 10
7.39710589398621
 20
-8.194924633789948
 30
0.0
  0
SPLINE
  5
80
330
70
100
AcDbEntity
  8
Layer 1
100
AcDbSpline
210
0.0
220
0.0
230
1.0
 70
    11
 71
     3
 72
    41
 73
    37
 74
     0
 42
0.0000000001
 43
0.0000000001
 40
0.0
 40
0.0
 40
0.0
 40
0.0
 40
1.0
 40
1.0
 40
1.0
 40
2.0
 40
2.0
 40
2.0
 40
3.0
 40
3.0
 40
3.0
 40
4.0
 40
4.0
 40
4.0
 40
5.0
 40
5.0
 40
5.0
 40
6.0
 40
6.0
 40
6.0
 40
7.0
 40
7.0
 40
7.0
 40
8.0
 40
8.0
 40
8.0
 40
9.0
 40
9.0
 40
9.0
 40
10.0
 40
10.0
 40
10.0
 40
11.0
 40
11.0
 40
11.0
 40
12.0
 40
12.0
 40
12.0
 40
12.0
 10
7.638112598616366
 20
-9.708731341880719
 30
0.0
 10
7.638112598616366
 20
-9.708731341880719
 30
0.0
 10
7.55108885308386
 20
-9.708731341880719
 30
0.0
 10
7.55108885308386
 20
-9.708731341880719
 30
0.0
 10
7.55108885308386
 20
-9.708731341880719
 30
0.0
 10
7.343604705341198
 20
-9.408636030411393
 30
0.0
 10
7.343604705341198
 20
-9.408636030411393
 30
0.0
 10
7.343604705341198
 20
-9.408636030411393
 30
0.0
 10
7.340133555952938
 20
-9.408636030411393
 30
0.0
 10
7.340133555952938
 20
-9.408636030411393
 30
0.0
 10
7.340133555952938
 20
-9.408636030411393
 30
0.0
 10
7.340133555952938
 20
-9.708731341880719
 30
0.0
 10
7.340133555952938
 20
-9.708731341880719
 30
0.0
 10
7.340133555952938
 20
-9.708731341880719
 30
0.0
 10
7.239312089215925
 20
-9.708731341880719
 30
0.0
 10
7.239312089215925
 20
-9.708731341880719
 30
0.0
 10
7.239312089215925
 20
-9.708731341880719
 30
0.0
 10
7.239312089215925
 20
-9.231965654530236
 30
0.0
 10
7.239312089215925
 20
-9.231965654530236
 30
0.0
 10
7.239312089215925
 20
-9.231965654530236
 30
0.0
 10
7.327859587334235
 20
-9.231965654530236
 30
0.0
 10
7.327859587334235
 20
-9.231965654530236
 30
0.0
 10
7.327859587334235
 20
-9.231965654530236
 30
0.0
 10
7.533566186416591
 20
-9.531806193786298
 30
0.0
 10
7.533566186416591
 20
-9.531806193786298
 30
0.0
 10
7.533566186416591
 20
-9.531806193786298
 30
0.0
 10
7.537798724028384
 20
-9.531806193786298
 30
0.0
 10
7.537798724028384
 20
-9.531806193786298
 30
0.0
 10
7.537798724028384
 20
-9.531806193786298
 30
0.0
 10
7.537798724028384
 20
-9.231965654530236
 30
0.0
 10
7.537798724028384
 20
-9.231965654530236
 30
0.0
 10
7.537798724028384
 20
-9.231965654530236
 30
0.0
 10
7.638112598616366
 20
-9.231965654530236
 30
0.0
 10
7.638112598616366
 20
-9.231965654530236
 30
0.0
 10
7.638112598616366
 20
-9.231965654530236
 30
0.0
 10
7.638112598616366
 20
-9.708731341880719
 30
0.0
 10
7.638112598616366
 20
-9.708731341880719
 30
0.0
  0
SPLINE
  5
81
330
70
100
AcDbEntity
  8
Layer 1
100
AcDbSpline
210
0.0
220
0.0
230
1.0
 70
    11
 71
     3
 72
    29
 73
    25
 74
     0
 42
0.0000000001
 43
0.0000000001
 40
0.0
 40
0.0
 40
0.0
 40
0.0
 40
1.0
 40
1.0
 40
1.0
 40
2.0
 40
2.0
 40
2.0
 40
3.0
 40
3.0
 40
3.0
 40
4.0
 40
4.0
 40
4.0
 40
5.0
 40
5.0
 40
5.0
 40
6.0
 40
6.0
 40
6.0
 40
7.0
 40
7.0
 40
7.0
 40
8.0
 40
8.0
 40
8.0
 40
8.0
 10
7.122321860255295
 20
-7.469744324849923
 30
0.0
 10
7.122321860255295
 20
-7.469744324849923
 30
0.0
 10
6.853675786972492
 20
-7.469744324849923
 30
0.0
 10
6.853675786972492
 20
-7.469744324849923
 30
0.0
 10
6.853675786972492
 20
-7.469744324849923
 30
0.0
 10
6.589727869484325
 20
-8.194924633789948
 30
0.0
 10
6.589727869484325
 20
-8.194924633789948
 30
0.0
 10
6.589727869484325
 20
-8.194924633789948
 30
0.0
 10
6.406285042968798
 20
-8.194924633789948
 30
0.0
 10
6.406285042968798
 20
-8.194924633789948
 30
0.0
 10
6.406285042968798
 20
-8.194924633789948
 30
0.0
 10
6.670232960456965
 20
-7.469744324849923
 30
0.0
 10
6.670232960456965
 20
-7.469744324849923
 30
0.0
 10
6.670232960456965
 20
-7.469744324849923
 30
0.0
 10
6.401543937069239
 20
-7.469744324849923
 30
0.0
 10
6.401543937069239
 20
-7.469744324849923
 30
0.0
 10
6.401543937069239
 20
-7.469744324849923
 30
0.0
 10
6.457245342452475
 20
-7.316692602117957
 30
0.0
 10
6.457245342452475
 20
-7.316692602117957
 30
0.0
 10
6.457245342452475
 20
-7.316692602117957
 30
0.0
 10
7.178023265638532
 20
-7.316692602117957
 30
0.0
 10
7.178023265638532
 20
-7.316692602117957
 30
0.0
 10
7.178023265638532
 20
-7.316692602117957
 30
0.0
 10
7.122321860255295
 20
-7.469744324849923
 30
0.0
 10
7.122321860255295
 20
-7.469744324849923
 30
0.0
  0
SPLINE
  5
82
330
70
100
AcDbEntity
  8
Layer 1
100
AcDbSpline
210
0.0
220
0.0
230
1.0
 70
    11
 71
     3
 72
    17
 73
    13
 74
     0
 42
0.0000000001
 43
0.0000000001
 40
0.0
 40
0.0
 40
0.0
 40
0.0
 40
1.0
 40
1.0
 40
1.0
 40
2.0
 40
2.0
 40
2.0
 40
3.0
 40
3.0
 40
3.0
 40
4.0
 40
4.0
 40
4.0
 40
4.0
 10
7.129855699113199
 20
-9.708731341880719
 30
0.0
 10
7.129855699113199
 20
-9.708731341880719
 30
0.0
 10
7.029034232376185
 20
-9.708731341880719
 30
0.0
 10
7.029034232376185
 20
-9.708731341880719
 30
0.0
 10
7.029034232376185
 20
-9.708731341880719
 30
0.0
 10
7.029034232376185
 20
-9.231965654530236
 30
0.0
 10
7.029034232376185
 20
-9.231965654530236
 30
0.0
 10
7.029034232376185
 20
-9.231965654530236
 30
0.0
 10
7.129855699113199
 20
-9.231965654530236
 30
0.0
 10
7.129855699113199
 20
-9.231965654530236
 30
0.0
 10
7.129855699113199
 20
-9.231965654530236
 30
0.0
 10
7.129855699113199
 20
-9.708731341880719
 30
0.0
 10
7.129855699113199
 20
-9.708731341880719
 30
0.0
  0
SPLINE
  5
83
330
70
100
AcDbEntity
  8
Layer 1
100
AcDbSpline
210
0.0
220
0.0
230
1.0
 70
    11
 71
     3
 72
    53
 73
    49
 74
     0
 42
0.0000000001
 43
0.0000000001
 40
0.0
 40
0.0
 40
0.0
 40
0.0
 40
1.0
 40
1.0
 40
1.0
 40
2.0
 40
2.0
 40
2.0
 40
3.0
 40
3.0
 40
3.0
 40
4.0
 40
4.0
 40
4.0
 40
5.0
 40
5.0
 40
5.0
 40
6.0
 40
6.0
 40
6.0
 40
7.0
 40
7.0
 40
7.0
 40
8.0
 40
8.0
 40
8.0
 40
9.0
 40
9.0
 40
9.0
 40
10.0
 40
10.0
 40
10.0
 40
11.0
 40
11.0
 40
11.0
 40
12.0
 40
12.0
 40
12.0
 40
13.0
 40
13.0
 40
13.0
 40
14.0
 40
14.0
 40
14.0
 40
15.0
 40
15.0
 40
15.0
 40
16.0
 40
16.0
 40
16.0
 40
16.0
 10
6.837210278569424
 20
-9.708731341880719
 30
0.0
 10
6.837210278569424
 20
-9.708731341880719
 30
0.0
 10
6.801825248950535
 20
-9.600036340001501
 30
0.0
 10
6.801825248950535
 20
-9.600036340001501
 30
0.0
 10
6.801825248950535
 20
-9.600036340001501
 30
0.0
 10
6.629726130826762
 20
-9.600036340001501
 30
0.0
 10
6.629726130826762
 20
-9.600036340001501
 30
0.0
 10
6.629726130826762
 20
-9.600036340001501
 30
0.0
 10
6.594341101207874
 20
-9.708731341880719
 30
0.0
 10
6.594341101207874
 20
-9.708731341880719
 30
0.0
 10
6.594341101207874
 20
-9.708731341880719
 30
0.0
 10
6.486324515758572
 20
-9.708731341880719
 30
0.0
 10
6.486324515758572
 20
-9.708731341880719
 30
0.0
 10
6.486324515758572
 20
-9.708731341880719
 30
0.0
 10
6.650973742956794
 20
-9.231965654530236
 30
0.0
 10
6.650973742956794
 20
-9.231965654530236
 30
0.0
 10
6.650973742956794
 20
-9.231965654530236
 30
0.0
 10
6.780831432894981
 20
-9.231965654530236
 30
0.0
 10
6.780831432894981
 20
-9.231965654530236
 30
0.0
 10
6.780831432894981
 20
-9.231965654530236
 30
0.0
 10
6.840841514712362
 20
-9.40600143193026
 30
0.0
 10
6.840841514712362
 20
-9.40600143193026
 30
0.0
 10
6.840841514712362
 20
-9.40600143193026
 30
0.0
 10
6.738830134841438
 20
-9.405691019808347
 30
0.0
 10
6.738830134841438
 20
-9.405691019808347
 30
0.0
 10
6.738830134841438
 20
-9.405691019808347
 30
0.0
 10
6.717765060657281
 20
-9.340914452483957
 30
0.0
 10
6.717765060657281
 20
-9.340914452483957
 30
0.0
 10
6.717765060657281
 20
-9.340914452483957
 30
0.0
 10
6.714040115194519
 20
-9.340914452483957
 30
0.0
 10
6.714040115194519
 20
-9.340914452483957
 30
0.0
 10
6.714040115194519
 20
-9.340914452483957
 30
0.0
 10
6.655376128710763
 20
-9.521309773827901
 30
0.0
 10
6.655376128710763
 20
-9.521309773827901
 30
0.0
 10
6.655376128710763
 20
-9.521309773827901
 30
0.0
 10
6.776430023279772
 20
-9.521309773827901
 30
0.0
 10
6.776430023279772
 20
-9.521309773827901
 30
0.0
 10
6.776430023279772
 20
-9.521309773827901
 30
0.0
 10
6.75985616347566
 20
-9.470344593650477
 30
0.0
 10
6.75985616347566
 20
-9.470344593650477
 30
0.0
 10
6.75985616347566
 20
-9.470344593650477
 30
0.0
 10
6.86302914845684
 20
-9.470347522066731
 30
0.0
 10
6.86302914845684
 20
-9.470347522066731
 30
0.0
 10
6.86302914845684
 20
-9.470347522066731
 30
0.0
 10
6.94522784015746
 20
-9.708731341880719
 30
0.0
 10
6.94522784015746
 20
-9.708731341880719
 30
0.0
 10
6.94522784015746
 20
-9.708731341880719
 30
0.0
 10
6.837210278569424
 20
-9.708731341880719
 30
0.0
 10
6.837210278569424
 20
-9.708731341880719
 30
0.0
  0
SPLINE
  5
84
330
70
100
AcDbEntity
  8
Layer 1
100
AcDbSpline
210
0.0
220
0.0
230
1.0
 70
     9
 71
     3
 72
    53
 73
    49
 74
     0
 42
0.0000000001
 43
0.0000000001
 40
0.0
 40
0.0
 40
0.0
 40
0.0
 40
1.0
 40
1.0
 40
1.0
 40
2.0
 40
2.0
 40
2.0
 40
3.0
 40
3.0
 40
3.0
 40
4.0
 40
4.0
 40
4.0
 40
5.0
 40
5.0
 40
5.0
 40
6.0
 40
6.0
 40
6.0
 40
7.0
 40
7.0
 40
7.0
 40
8.0
 40
8.0
 40
8.0
 40
9.0
 40
9.0
 40
9.0
 40
10.0
 40
10.0
 40
10.0
 40
11.0
 40
11.0
 40
11.0
 40
12.0
 40
12.0
 40
12.0
 40
13.0
 40
13.0
 40
13.0
 40
14.0
 40
14.0
 40
14.0
 40
15.0
 40
15.0
 40
15.0
 40
16.0
 40
16.0
 40
16.0
 40
16.0
 10
6.301695680664098
 20
-9.554154890424216
 30
0.0
 10
6.301695680664098
 20
-9.554154890424216
 30
0.0
 10
6.216958052079664
 20
-9.554154890424216
 30
0.0
 10
6.216958052079664
 20
-9.554154890424216
 30
0.0
 10
6.216958052079664
 20
-9.554154890424216
 30
0.0
 10
6.216958052079664
 20
-9.708731341880719
 30
0.0
 10
6.216958052079664
 20
-9.708731341880719
 30
0.0
 10
6.216958052079664
 20
-9.708731341880719
 30
0.0
 10
6.116136585342675
 20
-9.708731341880719
 30
0.0
 10
6.116136585342675
 20
-9.708731341880719
 30
0.0
 10
6.116136585342675
 20
-9.708731341880719
 30
0.0
 10
6.116136585342675
 20
-9.431111625086561
 30
0.0
 10
6.116136585342675
 20
-9.431111625086561
 30
0.0
 10
6.116136585342675
 20
-9.431111625086561
 30
0.0
 10
6.216958052079664
 20
-9.431111625086561
 30
0.0
 10
6.216958052079664
 20
-9.431111625086561
 30
0.0
 10
6.216958052079664
 20
-9.431111625086561
 30
0.0
 10
6.216958052079664
 20
-9.473396003377072
 30
0.0
 10
6.216958052079664
 20
-9.473396003377072
 30
0.0
 10
6.216958052079664
 20
-9.473396003377072
 30
0.0
 10
6.285442970508104
 20
-9.473396003377072
 30
0.0
 10
6.285442970508104
 20
-9.473396003377072
 30
0.0
 10
6.343175720626176
 20
-9.473396003377072
 30
0.0
 10
6.371280707461664
 20
-9.44080468285526
 30
0.0
 10
6.371280707461664
 20
-9.393568352695611
 30
0.0
 10
6.371280707461664
 20
-9.346078226461459
 30
0.0
 10
6.343175720626176
 20
-9.314418142305333
 30
0.0
 10
6.284934402220364
 20
-9.314418142305333
 30
0.0
 10
6.284934402220364
 20
-9.314418142305333
 30
0.0
 10
6.216958052079664
 20
-9.314418142305333
 30
0.0
 10
6.216958052079664
 20
-9.314418142305333
 30
0.0
 10
6.216958052079664
 20
-9.314418142305333
 30
0.0
 10
6.216958052079664
 20
-9.357384841580772
 30
0.0
 10
6.216958052079664
 20
-9.357384841580772
 30
0.0
 10
6.216958052079664
 20
-9.357384841580772
 30
0.0
 10
6.116136585342675
 20
-9.356688854653384
 30
0.0
 10
6.116136585342675
 20
-9.356688854653384
 30
0.0
 10
6.116136585342675
 20
-9.356688854653384
 30
0.0
 10
6.116136585342675
 20
-9.231965654530236
 30
0.0
 10
6.116136585342675
 20
-9.231965654530236
 30
0.0
 10
6.116136585342675
 20
-9.231965654530236
 30
0.0
 10
6.304235593686674
 20
-9.231965654530236
 30
0.0
 10
6.304235593686674
 20
-9.231965654530236
 30
0.0
 10
6.412506951349213
 20
-9.231965654530236
 30
0.0
 10
6.475149679370259
 20
-9.298756972230723
 30
0.0
 10
6.475149679370259
 20
-9.393568352695611
 30
0.0
 10
6.475149679370259
 20
-9.488718453306091
 30
0.0
 10
6.411405866841353
 20
-9.554154890424216
 30
0.0
 10
6.301695680664098
 20
-9.554154890424216
 30
0.0
  0
SPLINE
  5
85
330
70
100
AcDbEntity
  8
Layer 1
100
AcDbSpline
210
0.0
220
0.0
230
1.0
 70
     9
 71
     3
 72
    35
 73
    31
 74
     0
 42
0.0000000001
 43
0.0000000001
 40
0.0
 40
0.0
 40
0.0
 40
0.0
 40
1.0
 40
1.0
 40
1.0
 40
2.0
 40
2.0
 40
2.0
 40
3.0
 40
3.0
 40
3.0
 40
4.0
 40
4.0
 40
4.0
 40
5.0
 40
5.0
 40
5.0
 40
6.0
 40
6.0
 40
6.0
 40
7.0
 40
7.0
 40
7.0
 40
8.0
 40
8.0
 40
8.0
 40
9.0
 40
9.0
 40
9.0
 40
10.0
 40
10.0
 40
10.0
 40
10.0
 10
5.649190853798144
 20
-8.207326476584638
 30
0.0
 10
5.430193149521553
 20
-8.207326476584638
 30
0.0
 10
5.331996519878227
 20
-8.07916141123567
 30
0.0
 10
5.401919290682649
 20
-7.887083661354381
 30
0.0
 10
5.401919290682649
 20
-7.887083661354381
 30
0.0
 10
5.609531312601297
 20
-7.316692602117957
 30
0.0
 10
5.609531312601297
 20
-7.316692602117957
 30
0.0
 10
5.609531312601297
 20
-7.316692602117957
 30
0.0
 10
5.79509040792272
 20
-7.316692602117957
 30
0.0
 10
5.79509040792272
 20
-7.316692602117957
 30
0.0
 10
5.79509040792272
 20
-7.316692602117957
 30
0.0
 10
5.593277626306567
 20
-7.871169671344002
 30
0.0
 10
5.593277626306567
 20
-7.871169671344002
 30
0.0
 10
5.556749538213655
 20
-7.971482569793225
 30
0.0
 10
5.601150185310062
 20
-8.043946229758956
 30
0.0
 10
5.708659178610332
 20
-8.043946229758956
 30
0.0
 10
5.816676740198368
 20
-8.043946229758956
 30
0.0
 10
5.913308619428486
 20
-7.971482569793225
 30
0.0
 10
5.949835731382663
 20
-7.871169671344002
 30
0.0
 10
5.949835731382663
 20
-7.871169671344002
 30
0.0
 10
6.151648512998816
 20
-7.316692602117957
 30
0.0
 10
6.151648512998816
 20
-7.316692602117957
 30
0.0
 10
6.151648512998816
 20
-7.316692602117957
 30
0.0
 10
6.337207608320239
 20
-7.316692602117957
 30
0.0
 10
6.337207608320239
 20
-7.316692602117957
 30
0.0
 10
6.337207608320239
 20
-7.316692602117957
 30
0.0
 10
6.129596562540326
 20
-7.887083661354381
 30
0.0
 10
6.129596562540326
 20
-7.887083661354381
 30
0.0
 10
6.05967281559717
 20
-8.07916141123567
 30
0.0
 10
5.867341269641378
 20
-8.207326476584638
 30
0.0
 10
5.649190853798144
 20
-8.207326476584638
 30
0.0
  0
SPLINE
  5
86
330
70
100
AcDbEntity
  8
Layer 1
100
AcDbSpline
210
0.0
220
0.0
230
1.0
 70
    11
 71
     3
 72
    17
 73
    13
 74
     0
 42
0.0000000001
 43
0.0000000001
 40
0.0
 40
0.0
 40
0.0
 40
0.0
 40
1.0
 40
1.0
 40
1.0
 40
2.0
 40
2.0
 40
2.0
 40
3.0
 40
3.0
 40
3.0
 40
4.0
 40
4.0
 40
4.0
 40
4.0
 10
5.891383567007247
 20
-9.582930484579668
 30
0.0
 10
5.839035198223755
 20
-9.582930484579668
 30
0.0
 10
5.796597566149809
 20
-9.540493828644457
 30
0.0
 10
5.796597566149809
 20
-9.488144483722205
 30
0.0
 10
5.796597566149809
 20
-9.435796114938712
 30
0.0
 10
5.839035198223755
 20
-9.393358482864767
 30
0.0
 10
5.891383567007247
 20
-9.393358482864767
 30
0.0
 10
5.943731935790739
 20
-9.393358482864767
 30
0.0
 10
5.986169567864686
 20
-9.435796114938712
 30
0.0
 10
5.986169567864686
 20
-9.488144483722205
 30
0.0
 10
5.986169567864686
 20
-9.540493828644457
 30
0.0
 10
5.943731935790739
 20
-9.582930484579668
 30
0.0
 10
5.891383567007247
 20
-9.582930484579668
 30
0.0
  0
SPLINE
  5
87
330
70
100
AcDbEntity
  8
Layer 1
100
AcDbSpline
210
0.0
220
0.0
230
1.0
 70
    11
 71
     3
 72
    41
 73
    37
 74
     0
 42
0.0000000001
 43
0.0000000001
 40
0.0
 40
0.0
 40
0.0
 40
0.0
 40
1.0
 40
1.0
 40
1.0
 40
2.0
 40
2.0
 40
2.0
 40
3.0
 40
3.0
 40
3.0
 40
4.0
 40
4.0
 40
4.0
 40
5.0
 40
5.0
 40
5.0
 40
6.0
 40
6.0
 40
6.0
 40
7.0
 40
7.0
 40
7.0
 40
8.0
 40
8.0
 40
8.0
 40
9.0
 40
9.0
 40
9.0
 40
10.0
 40
10.0
 40
10.0
 40
11.0
 40
11.0
 40
11.0
 40
12.0
 40
12.0
 40
12.0
 40
12.0
 10
5.64969844594715
 20
-9.708731341880719
 30
0.0
 10
5.64969844594715
 20
-9.708731341880719
 30
0.0
 10
5.562675676553403
 20
-9.708731341880719
 30
0.0
 10
5.562675676553403
 20
-9.708731341880719
 30
0.0
 10
5.562675676553403
 20
-9.708731341880719
 30
0.0
 10
5.355275476743094
 20
-9.408636030411393
 30
0.0
 10
5.355275476743094
 20
-9.408636030411393
 30
0.0
 10
5.355275476743094
 20
-9.408636030411393
 30
0.0
 10
5.351720379422482
 20
-9.408636030411393
 30
0.0
 10
5.351720379422482
 20
-9.408636030411393
 30
0.0
 10
5.351720379422482
 20
-9.408636030411393
 30
0.0
 10
5.351720379422482
 20
-9.708731341880719
 30
0.0
 10
5.351720379422482
 20
-9.708731341880719
 30
0.0
 10
5.351720379422482
 20
-9.708731341880719
 30
0.0
 10
5.250982860617821
 20
-9.708731341880719
 30
0.0
 10
5.250982860617821
 20
-9.708731341880719
 30
0.0
 10
5.250982860617821
 20
-9.708731341880719
 30
0.0
 10
5.250982860617821
 20
-9.231965654530236
 30
0.0
 10
5.250982860617821
 20
-9.231965654530236
 30
0.0
 10
5.250982860617821
 20
-9.231965654530236
 30
0.0
 10
5.339360510593956
 20
-9.231965654530236
 30
0.0
 10
5.339360510593956
 20
-9.231965654530236
 30
0.0
 10
5.339360510593956
 20
-9.231965654530236
 30
0.0
 10
5.545236957818486
 20
-9.531806193786298
 30
0.0
 10
5.545236957818486
 20
-9.531806193786298
 30
0.0
 10
5.545236957818486
 20
-9.531806193786298
 30
0.0
 10
5.549384571359192
 20
-9.531806193786298
 30
0.0
 10
5.549384571359192
 20
-9.531806193786298
 30
0.0
 10
5.549384571359192
 20
-9.531806193786298
 30
0.0
 10
5.549384571359192
 20
-9.231965654530236
 30
0.0
 10
5.549384571359192
 20
-9.231965654530236
 30
0.0
 10
5.549384571359192
 20
-9.231965654530236
 30
0.0
 10
5.64969844594715
 20
-9.231965654530236
 30
0.0
 10
5.64969844594715
 20
-9.231965654530236
 30
0.0
 10
5.64969844594715
 20
-9.231965654530236
 30
0.0
 10
5.64969844594715
 20
-9.708731341880719
 30
0.0
 10
5.64969844594715
 20
-9.708731341880719
 30
0.0
  0
SPLINE
  5
88
330
70
100
AcDbEntity
  8
Layer 1
100
AcDbSpline
210
0.0
220
0.0
230
1.0
 70
     9
 71
     3
 72
    44
 73
    40
 74
     0
 42
0.0000000001
 43
0.0000000001
 40
0.0
 40
0.0
 40
0.0
 40
0.0
 40
1.0
 40
1.0
 40
1.0
 40
2.0
 40
2.0
 40
2.0
 40
3.0
 40
3.0
 40
3.0
 40
4.0
 40
4.0
 40
4.0
 40
5.0
 40
5.0
 40
5.0
 40
6.0
 40
6.0
 40
6.0
 40
7.0
 40
7.0
 40
7.0
 40
8.0
 40
8.0
 40
8.0
 40
9.0
 40
9.0
 40
9.0
 40
10.0
 40
10.0
 40
10.0
 40
11.0
 40
11.0
 40
11.0
 40
12.0
 40
12.0
 40
12.0
 40
13.0
 40
13.0
 40
13.0
 40
13.0
 10
5.148637641295029
 20
-9.513691010898936
 30
0.0
 10
5.148637641295029
 20
-9.639146315083154
 30
0.0
 10
5.062714980270407
 20
-9.715249996440585
 30
0.0
 10
4.942423450063667
 20
-9.715249996440585
 30
0.0
 10
4.808079426439184
 20
-9.715249996440585
 30
0.0
 10
4.717288761477726
 20
-9.621707596348212
 30
0.0
 10
4.717288761477726
 20
-9.470856090354496
 30
0.0
 10
4.717288761477726
 20
-9.316279638897993
 30
0.0
 10
4.814343308785788
 20
-9.225446999970371
 30
0.0
 10
4.940307181257771
 20
-9.225446999970371
 30
0.0
 10
5.048069970632544
 20
-9.225446999970371
 30
0.0
 10
5.131198922560113
 20
-9.291815649592914
 30
0.0
 10
5.14423623167982
 20
-9.386118461770061
 30
0.0
 10
5.14423623167982
 20
-9.386118461770061
 30
0.0
 10
5.04180608828594
 20
-9.386118461770061
 30
0.0
 10
5.04180608828594
 20
-9.386118461770061
 30
0.0
 10
5.029023551379496
 20
-9.341422044632988
 30
0.0
 10
4.993807393764023
 20
-9.314587014308774
 30
0.0
 10
4.941914881775901
 20
-9.314587014308774
 30
0.0
 10
4.869029529870986
 20
-9.314587014308774
 30
0.0
 10
4.819507082763266
 20
-9.370712063908689
 30
0.0
 10
4.819507082763266
 20
-9.469924853988787
 30
0.0
 10
4.819507082763266
 20
-9.569561288285587
 30
0.0
 10
4.867167057139592
 20
-9.62610998210218
 30
0.0
 10
4.942846118141586
 20
-9.62610998210218
 30
0.0
 10
5.009891231916577
 20
-9.62610998210218
 30
0.0
 10
5.05018623943844
 20
-9.588608683677394
 30
0.0
 10
5.051541120020829
 20
-9.529436128905899
 30
0.0
 10
5.051541120020829
 20
-9.529436128905899
 30
0.0
 10
4.949110976626949
 20
-9.529436128905899
 30
0.0
 10
4.949110976626949
 20
-9.529436128905899
 30
0.0
 10
4.949110976626949
 20
-9.529436128905899
 30
0.0
 10
4.949110976626949
 20
-9.453587219761731
 30
0.0
 10
4.949110976626949
 20
-9.453587219761731
 30
0.0
 10
4.949110976626949
 20
-9.453587219761731
 30
0.0
 10
5.148637641295029
 20
-9.453587219761731
 30
0.0
 10
5.148637641295029
 20
-9.453587219761731
 30
0.0
 10
5.148637641295029
 20
-9.453587219761731
 30
0.0
 10
5.148637641295029
 20
-9.513691010898936
 30
0.0
 10
5.148637641295029
 20
-9.513691010898936
 30
0.0
  0
SPLINE
  5
89
330
70
100
AcDbEntity
  8
Layer 1
100
AcDbSpline
210
0.0
220
0.0
230
1.0
 70
    11
 71
     3
 72
    17
 73
    13
 74
     0
 42
0.0000000001
 43
0.0000000001
 40
0.0
 40
0.0
 40
0.0
 40
0.0
 40
1.0
 40
1.0
 40
1.0
 40
2.0
 40
2.0
 40
2.0
 40
3.0
 40
3.0
 40
3.0
 40
4.0
 40
4.0
 40
4.0
 40
4.0
 10
4.61617054856131
 20
-9.708731341880719
 30
0.0
 10
4.61617054856131
 20
-9.708731341880719
 30
0.0
 10
4.515349081824322
 20
-9.708731341880719
 30
0.0
 10
4.515349081824322
 20
-9.708731341880719
 30
0.0
 10
4.515349081824322
 20
-9.708731341880719
 30
0.0
 10
4.515349081824322
 20
-9.231965654530236
 30
0.0
 10
4.515349081824322
 20
-9.231965654530236
 30
0.0
 10
4.515349081824322
 20
-9.231965654530236
 30
0.0
 10
4.61617054856131
 20
-9.231965654530236
 30
0.0
 10
4.61617054856131
 20
-9.231965654530236
 30
0.0
 10
4.61617054856131
 20
-9.231965654530236
 30
0.0
 10
4.61617054856131
 20
-9.708731341880719
 30
0.0
 10
4.61617054856131
 20
-9.708731341880719
 30
0.0
  0
SPLINE
  5
8A
330
70
100
AcDbEntity
  8
Layer 1
100
AcDbSpline
210
0.0
220
0.0
230
1.0
 70
     9
 71
     3
 72
    53
 73
    49
 74
     0
 42
0.0000000001
 43
0.0000000001
 40
0.0
 40
0.0
 40
0.0
 40
0.0
 40
1.0
 40
1.0
 40
1.0
 40
2.0
 40
2.0
 40
2.0
 40
3.0
 40
3.0
 40
3.0
 40
4.0
 40
4.0
 40
4.0
 40
5.0
 40
5.0
 40
5.0
 40
6.0
 40
6.0
 40
6.0
 40
7.0
 40
7.0
 40
7.0
 40
8.0
 40
8.0
 40
8.0
 40
9.0
 40
9.0
 40
9.0
 40
10.0
 40
10.0
 40
10.0
 40
11.0
 40
11.0
 40
11.0
 40
12.0
 40
12.0
 40
12.0
 40
13.0
 40
13.0
 40
13.0
 40
14.0
 40
14.0
 40
14.0
 40
15.0
 40
15.0
 40
15.0
 40
16.0
 40
16.0
 40
16.0
 40
16.0
 10
4.236248562549286
 20
-9.715503792515088
 30
0.0
 10
4.120527313961184
 20
-9.715503792515088
 30
0.0
 10
4.046709749551824
 20
-9.662172452012251
 30
0.0
 10
4.044170812667996
 20
-9.55906486832719
 30
0.0
 10
4.044170812667996
 20
-9.55906486832719
 30
0.0
 10
4.141690978158887
 20
-9.55906486832719
 30
0.0
 10
4.141690978158887
 20
-9.55906486832719
 30
0.0
 10
4.144992279404984
 20
-9.60680879063587
 30
0.0
 10
4.182662449833186
 20
-9.631019960005156
 30
0.0
 10
4.235062553970325
 20
-9.631019960005156
 30
0.0
 10
4.286277625667265
 20
-9.631019960005156
 30
0.0
 10
4.319334564371918
 20
-9.60723243485255
 30
0.0
 10
4.319546386480257
 20
-9.572271049450337
 30
0.0
 10
4.319334564371918
 20
-9.540187321077558
 30
0.0
 10
4.290468189312895
 20
-9.525288515365192
 30
0.0
 10
4.238533703358598
 20
-9.512674850462138
 30
0.0
 10
4.238533703358598
 20
-9.512674850462138
 30
0.0
 10
4.186641191370477
 20
-9.499638517481166
 30
0.0
 10
4.186641191370477
 20
-9.499638517481166
 30
0.0
 10
4.106094126431672
 20
-9.480337326014856
 30
0.0
 10
4.056529705357787
 20
-9.440127242564079
 30
0.0
 10
4.056741527466126
 20
-9.36978082754298
 30
0.0
 10
4.056275909283272
 20
-9.283180726227175
 30
0.0
 10
4.132887182789709
 20
-9.225446999970371
 30
0.0
 10
4.237390644884562
 20
-9.225446999970371
 30
0.0
 10
4.343545733741216
 20
-9.225446999970371
 30
0.0
 10
4.413384556613284
 20
-9.284111962592861
 30
0.0
 10
4.414781411161836
 20
-9.369103387251799
 30
0.0
 10
4.414781411161836
 20
-9.369103387251799
 30
0.0
 10
4.318192482036629
 20
-9.369103387251799
 30
0.0
 10
4.318192482036629
 20
-9.369103387251799
 30
0.0
 10
4.314467536573854
 20
-9.331602088827013
 30
0.0
 10
4.284880771118726
 20
-9.309761960476862
 30
0.0
 10
4.236671230627217
 20
-9.309761960476862
 30
0.0
 10
4.187318631661658
 20
-9.309761960476862
 30
0.0
 10
4.16010290722569
 20
-9.332279529118219
 30
0.0
 10
4.16010290722569
 20
-9.363008376908611
 30
0.0
 10
4.159383492968332
 20
-9.3972932981584
 30
0.0
 10
4.194091082296028
 20
-9.412614771948684
 30
0.0
 10
4.235528172153181
 20
-9.422180931680133
 30
0.0
 10
4.235528172153181
 20
-9.422180931680133
 30
0.0
 10
4.278363092697619
 20
-9.432423555564026
 30
0.0
 10
4.278363092697619
 20
-9.432423555564026
 30
0.0
 10
4.361238248550661
 20
-9.451047306739155
 30
0.0
 10
4.42104529350844
 20
-9.493204786992412
 30
0.0
 10
4.421299089582943
 20
-9.57252484552484
 30
0.0
 10
4.42104529350844
 20
-9.659801410993091
 30
0.0
 10
4.352646275289822
 20
-9.715503792515088
 30
0.0
 10
4.236248562549286
 20
-9.715503792515088
 30
0.0
  0
SPLINE
  5
8B
330
70
100
AcDbEntity
  8
Layer 1
100
AcDbSpline
210
0.0
220
0.0
230
1.0
 70
    11
 71
     3
 72
    41
 73
    37
 74
     0
 42
0.0000000001
 43
0.0000000001
 40
0.0
 40
0.0
 40
0.0
 40
0.0
 40
1.0
 40
1.0
 40
1.0
 40
2.0
 40
2.0
 40
2.0
 40
3.0
 40
3.0
 40
3.0
 40
4.0
 40
4.0
 40
4.0
 40
5.0
 40
5.0
 40
5.0
 40
6.0
 40
6.0
 40
6.0
 40
7.0
 40
7.0
 40
7.0
 40
8.0
 40
8.0
 40
8.0
 40
9.0
 40
9.0
 40
9.0
 40
10.0
 40
10.0
 40
10.0
 40
11.0
 40
11.0
 40
11.0
 40
12.0
 40
12.0
 40
12.0
 40
12.0
 10
3.953549995848725
 20
-9.708731341880719
 30
0.0
 10
3.953549995848725
 20
-9.708731341880719
 30
0.0
 10
3.631360759954746
 20
-9.708731341880719
 30
0.0
 10
3.631360759954746
 20
-9.708731341880719
 30
0.0
 10
3.631360759954746
 20
-9.708731341880719
 30
0.0
 10
3.631360759954746
 20
-9.231965654530236
 30
0.0
 10
3.631360759954746
 20
-9.231965654530236
 30
0.0
 10
3.631360759954746
 20
-9.231965654530236
 30
0.0
 10
3.952618759483028
 20
-9.231965654530236
 30
0.0
 10
3.952618759483028
 20
-9.231965654530236
 30
0.0
 10
3.952618759483028
 20
-9.231965654530236
 30
0.0
 10
3.952618759483028
 20
-9.31509460645778
 30
0.0
 10
3.952618759483028
 20
-9.31509460645778
 30
0.0
 10
3.952618759483028
 20
-9.31509460645778
 30
0.0
 10
3.732139276586824
 20
-9.31509460645778
 30
0.0
 10
3.732139276586824
 20
-9.31509460645778
 30
0.0
 10
3.732139276586824
 20
-9.31509460645778
 30
0.0
 10
3.732139276586824
 20
-9.428699586239998
 30
0.0
 10
3.732139276586824
 20
-9.428699586239998
 30
0.0
 10
3.732139276586824
 20
-9.428699586239998
 30
0.0
 10
3.936068327008872
 20
-9.428699586239998
 30
0.0
 10
3.936068327008872
 20
-9.428699586239998
 30
0.0
 10
3.936068327008872
 20
-9.428699586239998
 30
0.0
 10
3.936068327008872
 20
-9.511828538167542
 30
0.0
 10
3.936068327008872
 20
-9.511828538167542
 30
0.0
 10
3.936068327008872
 20
-9.511828538167542
 30
0.0
 10
3.732139276586824
 20
-9.511828538167542
 30
0.0
 10
3.732139276586824
 20
-9.511828538167542
 30
0.0
 10
3.732139276586824
 20
-9.511828538167542
 30
0.0
 10
3.732139276586824
 20
-9.625602389953174
 30
0.0
 10
3.732139276586824
 20
-9.625602389953174
 30
0.0
 10
3.732139276586824
 20
-9.625602389953174
 30
0.0
 10
3.953549995848725
 20
-9.625602389953174
 30
0.0
 10
3.953549995848725
 20
-9.625602389953174
 30
0.0
 10
3.953549995848725
 20
-9.625602389953174
 30
0.0
 10
3.953549995848725
 20
-9.708731341880719
 30
0.0
 10
3.953549995848725
 20
-9.708731341880719
 30
0.0
  0
SPLINE
  5
8C
330
70
100
AcDbEntity
  8
Layer 1
100
AcDbSpline
210
0.0
220
0.0
230
1.0
 70
     9
 71
     3
 72
    47
 73
    43
 74
     0
 42
0.0000000001
 43
0.0000000001
 40
0.0
 40
0.0
 40
0.0
 40
0.0
 40
1.0
 40
1.0
 40
1.0
 40
2.0
 40
2.0
 40
2.0
 40
3.0
 40
3.0
 40
3.0
 40
4.0
 40
4.0
 40
4.0
 40
5.0
 40
5.0
 40
5.0
 40
6.0
 40
6.0
 40
6.0
 40
7.0
 40
7.0
 40
7.0
 40
8.0
 40
8.0
 40
8.0
 40
9.0
 40
9.0
 40
9.0
 40
10.0
 40
10.0
 40
10.0
 40
11.0
 40
11.0
 40
11.0
 40
12.0
 40
12.0
 40
12.0
 40
13.0
 40
13.0
 40
13.0
 40
14.0
 40
14.0
 40
14.0
 40
14.0
 10
3.296981503374404
 20
-9.708731341880719
 30
0.0
 10
3.296981503374404
 20
-9.708731341880719
 30
0.0
 10
3.127971864388377
 20
-9.708731341880719
 30
0.0
 10
3.127971864388377
 20
-9.708731341880719
 30
0.0
 10
3.127971864388377
 20
-9.708731341880719
 30
0.0
 10
3.127971864388377
 20
-9.530136996527035
 30
0.0
 10
3.127971864388377
 20
-9.530136996527035
 30
0.0
 10
3.127971864388377
 20
-9.530136996527035
 30
0.0
 10
3.228793331125378
 20
-9.529846107180093
 30
0.0
 10
3.228793331125378
 20
-9.529846107180093
 30
0.0
 10
3.228793331125378
 20
-9.529846107180093
 30
0.0
 10
3.228793331125378
 20
-9.622385036639393
 30
0.0
 10
3.228793331125378
 20
-9.622385036639393
 30
0.0
 10
3.228793331125378
 20
-9.622385036639393
 30
0.0
 10
3.292790939728774
 20
-9.622385036639393
 30
0.0
 10
3.292790939728774
 20
-9.622385036639393
 30
0.0
 10
3.382438546216184
 20
-9.622385036639393
 30
0.0
 10
3.429674876375833
 20
-9.576249790987629
 30
0.0
 10
3.429674876375833
 20
-9.469924853988787
 30
0.0
 10
3.429674876375833
 20
-9.36393961327432
 30
0.0
 10
3.382438546216184
 20
-9.318311959771536
 30
0.0
 10
3.293044735803277
 20
-9.318311959771536
 30
0.0
 10
3.293044735803277
 20
-9.318311959771536
 30
0.0
 10
3.228793331125378
 20
-9.318311959771536
 30
0.0
 10
3.228793331125378
 20
-9.318311959771536
 30
0.0
 10
3.228793331125378
 20
-9.318311959771536
 30
0.0
 10
3.228793331125378
 20
-9.444973771448429
 30
0.0
 10
3.228793331125378
 20
-9.444973771448429
 30
0.0
 10
3.228793331125378
 20
-9.444973771448429
 30
0.0
 10
3.127971864388377
 20
-9.445106526318163
 30
0.0
 10
3.127971864388377
 20
-9.445106526318163
 30
0.0
 10
3.127971864388377
 20
-9.445106526318163
 30
0.0
 10
3.127971864388377
 20
-9.231965654530236
 30
0.0
 10
3.127971864388377
 20
-9.231965654530236
 30
0.0
 10
3.127971864388377
 20
-9.231965654530236
 30
0.0
 10
3.298377381784196
 20
-9.231965654530236
 30
0.0
 10
3.298377381784196
 20
-9.231965654530236
 30
0.0
 10
3.442245591173963
 20
-9.231965654530236
 30
0.0
 10
3.530242547038318
 20
-9.321359464943144
 30
0.0
 10
3.530242547038318
 20
-9.469924853988787
 30
0.0
 10
3.530242547038318
 20
-9.618829939318805
 30
0.0
 10
3.442245591173963
 20
-9.708731341880719
 30
0.0
 10
3.296981503374404
 20
-9.708731341880719
 30
0.0
  0
SPLINE
  5
8D
330
70
100
AcDbEntity
  8
Layer 1
100
AcDbSpline
210
0.0
220
0.0
230
1.0
 70
    11
 71
     3
 72
    17
 73
    13
 74
     0
 42
0.0000000001
 43
0.0000000001
 40
0.0
 40
0.0
 40
0.0
 40
0.0
 40
1.0
 40
1.0
 40
1.0
 40
2.0
 40
2.0
 40
2.0
 40
3.0
 40
3.0
 40
3.0
 40
4.0
 40
4.0
 40
4.0
 40
4.0
 10
3.028419378023929
 20
-8.591481000208457
 30
0.0
 10
3.028419378023929
 20
-8.591481000208457
 30
0.0
 10
5.918641265409405
 20
-8.591481000208457
 30
0.0
 10
5.918641265409405
 20
-8.591481000208457
 30
0.0
 10
5.918641265409405
 20
-8.591481000208457
 30
0.0
 10
5.918641265409405
 20
-8.678166025595373
 30
0.0
 10
5.918641265409405
 20
-8.678166025595373
 30
0.0
 10
5.918641265409405
 20
-8.678166025595373
 30
0.0
 10
3.028419378023929
 20
-8.678166025595373
 30
0.0
 10
3.028419378023929
 20
-8.678166025595373
 30
0.0
 10
3.028419378023929
 20
-8.678166025595373
 30
0.0
 10
3.028419378023929
 20
-8.591481000208457
 30
0.0
 10
3.028419378023929
 20
-8.591481000208457
 30
0.0
  0
SPLINE
  5
8E
330
70
100
AcDbEntity
  8
Layer 1
100
AcDbSpline
210
0.0
220
0.0
230
1.0
 70
     9
 71
     3
 72
    17
 73
    13
 74
     0
 42
0.0000000001
 43
0.0000000001
 40
0.0
 40
0.0
 40
0.0
 40
0.0
 40
1.0
 40
1.0
 40
1.0
 40
2.0
 40
2.0
 40
2.0
 40
3.0
 40
3.0
 40
3.0
 40
4.0
 40
4.0
 40
4.0
 40
4.0
 10
2.900627197676739
 20
-9.582930484579668
 30
0.0
 10
2.848278828893247
 20
-9.582930484579668
 30
0.0
 10
2.805842172958035
 20
-9.540493828644457
 30
0.0
 10
2.805842172958035
 20
-9.488144483722205
 30
0.0
 10
2.805842172958035
 20
-9.435796114938712
 30
0.0
 10
2.848278828893247
 20
-9.393358482864767
 30
0.0
 10
2.900627197676739
 20
-9.393358482864767
 30
0.0
 10
2.952976542598965
 20
-9.393358482864767
 30
0.0
 10
2.995413198534177
 20
-9.435796114938712
 30
0.0
 10
2.995413198534177
 20
-9.488144483722205
 30
0.0
 10
2.995413198534177
 20
-9.540493828644457
 30
0.0
 10
2.952976542598965
 20
-9.582930484579668
 30
0.0
 10
2.900627197676739
 20
-9.582930484579668
 30
0.0
  0
SPLINE
  5
8F
330
70
100
AcDbEntity
  8
Layer 1
100
AcDbSpline
210
0.0
220
0.0
230
1.0
 70
     9
 71
     3
 72
    44
 73
    40
 74
     0
 42
0.0000000001
 43
0.0000000001
 40
0.0
 40
0.0
 40
0.0
 40
0.0
 40
1.0
 40
1.0
 40
1.0
 40
2.0
 40
2.0
 40
2.0
 40
3.0
 40
3.0
 40
3.0
 40
4.0
 40
4.0
 40
4.0
 40
5.0
 40
5.0
 40
5.0
 40
6.0
 40
6.0
 40
6.0
 40
7.0
 40
7.0
 40
7.0
 40
8.0
 40
8.0
 40
8.0
 40
9.0
 40
9.0
 40
9.0
 40
10.0
 40
10.0
 40
10.0
 40
11.0
 40
11.0
 40
11.0
 40
12.0
 40
12.0
 40
12.0
 40
13.0
 40
13.0
 40
13.0
 40
13.0
 10
2.668982639779667
 20
-9.513691010898936
 30
0.0
 10
2.668982639779667
 20
-9.639146315083154
 30
0.0
 10
2.583059978755032
 20
-9.715249996440585
 30
0.0
 10
2.462683524477218
 20
-9.715249996440585
 30
0.0
 10
2.328381474818898
 20
-9.715249996440585
 30
0.0
 10
2.237591785996199
 20
-9.621707596348212
 30
0.0
 10
2.237591785996199
 20
-9.470856090354496
 30
0.0
 10
2.237591785996199
 20
-9.316279638897993
 30
0.0
 10
2.334688307270412
 20
-9.225446999970371
 30
0.0
 10
2.460610205776232
 20
-9.225446999970371
 30
0.0
 10
2.568414969117182
 20
-9.225446999970371
 30
0.0
 10
2.651501947078574
 20
-9.291815649592914
 30
0.0
 10
2.664538280059546
 20
-9.386118461770061
 30
0.0
 10
2.664538280059546
 20
-9.386118461770061
 30
0.0
 10
2.562109112804414
 20
-9.386118461770061
 30
0.0
 10
2.562109112804414
 20
-9.386118461770061
 30
0.0
 10
2.549283625793034
 20
-9.341422044632988
 30
0.0
 10
2.514152392248661
 20
-9.314587014308774
 30
0.0
 10
2.462260856399287
 20
-9.314587014308774
 30
0.0
 10
2.389374528355624
 20
-9.314587014308774
 30
0.0
 10
2.339767157176816
 20
-9.370712063908689
 30
0.0
 10
2.339767157176816
 20
-9.469924853988787
 30
0.0
 10
2.339767157176816
 20
-9.569561288285587
 30
0.0
 10
2.387512055624231
 20
-9.62610998210218
 30
0.0
 10
2.463192092764984
 20
-9.62610998210218
 30
0.0
 10
2.530237206539974
 20
-9.62610998210218
 30
0.0
 10
2.570489263956915
 20
-9.588608683677394
 30
0.0
 10
2.571886118505454
 20
-9.529436128905899
 30
0.0
 10
2.571886118505454
 20
-9.529436128905899
 30
0.0
 10
2.469455975111587
 20
-9.529436128905899
 30
0.0
 10
2.469455975111587
 20
-9.529436128905899
 30
0.0
 10
2.469455975111587
 20
-9.529436128905899
 30
0.0
 10
2.469455975111587
 20
-9.453587219761731
 30
0.0
 10
2.469455975111587
 20
-9.453587219761731
 30
0.0
 10
2.469455975111587
 20
-9.453587219761731
 30
0.0
 10
2.668982639779667
 20
-9.453587219761731
 30
0.0
 10
2.668982639779667
 20
-9.453587219761731
 30
0.0
 10
2.668982639779667
 20
-9.453587219761731
 30
0.0
 10
2.668982639779667
 20
-9.513691010898936
 30
0.0
 10
2.668982639779667
 20
-9.513691010898936
 30
0.0
  0
SPLINE
  5
90
330
70
100
AcDbEntity
  8
Layer 1
100
AcDbSpline
210
0.0
220
0.0
230
1.0
 70
    11
 71
     3
 72
    41
 73
    37
 74
     0
 42
0.0000000001
 43
0.0000000001
 40
0.0
 40
0.0
 40
0.0
 40
0.0
 40
1.0
 40
1.0
 40
1.0
 40
2.0
 40
2.0
 40
2.0
 40
3.0
 40
3.0
 40
3.0
 40
4.0
 40
4.0
 40
4.0
 40
5.0
 40
5.0
 40
5.0
 40
6.0
 40
6.0
 40
6.0
 40
7.0
 40
7.0
 40
7.0
 40
8.0
 40
8.0
 40
8.0
 40
9.0
 40
9.0
 40
9.0
 40
10.0
 40
10.0
 40
10.0
 40
11.0
 40
11.0
 40
11.0
 40
12.0
 40
12.0
 40
12.0
 40
12.0
 10
2.136261750971445
 20
-9.708731341880719
 30
0.0
 10
2.136261750971445
 20
-9.708731341880719
 30
0.0
 10
2.04915405750661
 20
-9.708731341880719
 30
0.0
 10
2.04915405750661
 20
-9.708731341880719
 30
0.0
 10
2.04915405750661
 20
-9.708731341880719
 30
0.0
 10
1.841753857696277
 20
-9.408636030411393
 30
0.0
 10
1.841753857696277
 20
-9.408636030411393
 30
0.0
 10
1.841753857696277
 20
-9.408636030411393
 30
0.0
 10
1.838283684446764
 20
-9.408636030411393
 30
0.0
 10
1.838283684446764
 20
-9.408636030411393
 30
0.0
 10
1.838283684446764
 20
-9.408636030411393
 30
0.0
 10
1.838283684446764
 20
-9.708731341880719
 30
0.0
 10
1.838283684446764
 20
-9.708731341880719
 30
0.0
 10
1.838283684446764
 20
-9.708731341880719
 30
0.0
 10
1.737461241571016
 20
-9.708731341880719
 30
0.0
 10
1.737461241571016
 20
-9.708731341880719
 30
0.0
 10
1.737461241571016
 20
-9.708731341880719
 30
0.0
 10
1.737461241571016
 20
-9.231965654530236
 30
0.0
 10
1.737461241571016
 20
-9.231965654530236
 30
0.0
 10
1.737461241571016
 20
-9.231965654530236
 30
0.0
 10
1.825923815618226
 20
-9.231965654530236
 30
0.0
 10
1.825923815618226
 20
-9.231965654530236
 30
0.0
 10
1.825923815618226
 20
-9.231965654530236
 30
0.0
 10
2.031715338771669
 20
-9.531806193786298
 30
0.0
 10
2.031715338771669
 20
-9.531806193786298
 30
0.0
 10
2.031715338771669
 20
-9.531806193786298
 30
0.0
 10
2.035905902417299
 20
-9.531806193786298
 30
0.0
 10
2.035905902417299
 20
-9.531806193786298
 30
0.0
 10
2.035905902417299
 20
-9.531806193786298
 30
0.0
 10
2.035905902417299
 20
-9.231965654530236
 30
0.0
 10
2.035905902417299
 20
-9.231965654530236
 30
0.0
 10
2.035905902417299
 20
-9.231965654530236
 30
0.0
 10
2.136261750971445
 20
-9.231965654530236
 30
0.0
 10
2.136261750971445
 20
-9.231965654530236
 30
0.0
 10
2.136261750971445
 20
-9.231965654530236
 30
0.0
 10
2.136261750971445
 20
-9.708731341880719
 30
0.0
 10
2.136261750971445
 20
-9.708731341880719
 30
0.0
  0
SPLINE
  5
91
330
70
100
AcDbEntity
  8
Layer 1
100
AcDbSpline
210
0.0
220
0.0
230
1.0
 70
    11
 71
     3
 72
    17
 73
    13
 74
     0
 42
0.0000000001
 43
0.0000000001
 40
0.0
 40
0.0
 40
0.0
 40
0.0
 40
1.0
 40
1.0
 40
1.0
 40
2.0
 40
2.0
 40
2.0
 40
3.0
 40
3.0
 40
3.0
 40
4.0
 40
4.0
 40
4.0
 40
4.0
 10
1.627920903535937
 20
-9.708731341880719
 30
0.0
 10
1.627920903535937
 20
-9.708731341880719
 30
0.0
 10
1.527141410765112
 20
-9.708731341880719
 30
0.0
 10
1.527141410765112
 20
-9.708731341880719
 30
0.0
 10
1.527141410765112
 20
-9.708731341880719
 30
0.0
 10
1.527141410765112
 20
-9.231965654530236
 30
0.0
 10
1.527141410765112
 20
-9.231965654530236
 30
0.0
 10
1.527141410765112
 20
-9.231965654530236
 30
0.0
 10
1.627920903535937
 20
-9.231965654530236
 30
0.0
 10
1.627920903535937
 20
-9.231965654530236
 30
0.0
 10
1.627920903535937
 20
-9.231965654530236
 30
0.0
 10
1.627920903535937
 20
-9.708731341880719
 30
0.0
 10
1.627920903535937
 20
-9.708731341880719
 30
0.0
  0
SPLINE
  5
92
330
70
100
AcDbEntity
  8
Layer 1
100
AcDbSpline
210
0.0
220
0.0
230
1.0
 70
    11
 71
     3
 72
    29
 73
    25
 74
     0
 42
0.0000000001
 43
0.0000000001
 40
0.0
 40
0.0
 40
0.0
 40
0.0
 40
1.0
 40
1.0
 40
1.0
 40
2.0
 40
2.0
 40
2.0
 40
3.0
 40
3.0
 40
3.0
 40
4.0
 40
4.0
 40
4.0
 40
5.0
 40
5.0
 40
5.0
 40
6.0
 40
6.0
 40
6.0
 40
7.0
 40
7.0
 40
7.0
 40
8.0
 40
8.0
 40
8.0
 40
8.0
 10
1.435843153654647
 20
-9.31509460645778
 30
0.0
 10
1.435843153654647
 20
-9.31509460645778
 30
0.0
 10
1.289901625563894
 20
-9.31509460645778
 30
0.0
 10
1.289901625563894
 20
-9.31509460645778
 30
0.0
 10
1.289901625563894
 20
-9.31509460645778
 30
0.0
 10
1.289901625563894
 20
-9.708731341880719
 30
0.0
 10
1.289901625563894
 20
-9.708731341880719
 30
0.0
 10
1.289901625563894
 20
-9.708731341880719
 30
0.0
 10
1.190265191267106
 20
-9.708731341880719
 30
0.0
 10
1.190265191267106
 20
-9.708731341880719
 30
0.0
 10
1.190265191267106
 20
-9.708731341880719
 30
0.0
 10
1.190265191267106
 20
-9.31509460645778
 30
0.0
 10
1.190265191267106
 20
-9.31509460645778
 30
0.0
 10
1.190265191267106
 20
-9.31509460645778
 30
0.0
 10
1.044280713071442
 20
-9.31509460645778
 30
0.0
 10
1.044280713071442
 20
-9.31509460645778
 30
0.0
 10
1.044280713071442
 20
-9.31509460645778
 30
0.0
 10
1.044280713071442
 20
-9.231965654530236
 30
0.0
 10
1.044280713071442
 20
-9.231965654530236
 30
0.0
 10
1.044280713071442
 20
-9.231965654530236
 30
0.0
 10
1.435843153654647
 20
-9.231965654530236
 30
0.0
 10
1.435843153654647
 20
-9.231965654530236
 30
0.0
 10
1.435843153654647
 20
-9.231965654530236
 30
0.0
 10
1.435843153654647
 20
-9.31509460645778
 30
0.0
 10
1.435843153654647
 20
-9.31509460645778
 30
0.0
  0
SPLINE
  5
93
330
70
100
AcDbEntity
  8
Layer 1
100
AcDbSpline
210
0.0
220
0.0
230
1.0
 70
    11
 71
     3
 72
    53
 73
    49
 74
     0
 42
0.0000000001
 43
0.0000000001
 40
0.0
 40
0.0
 40
0.0
 40
0.0
 40
1.0
 40
1.0
 40
1.0
 40
2.0
 40
2.0
 40
2.0
 40
3.0
 40
3.0
 40
3.0
 40
4.0
 40
4.0
 40
4.0
 40
5.0
 40
5.0
 40
5.0
 40
6.0
 40
6.0
 40
6.0
 40
7.0
 40
7.0
 40
7.0
 40
8.0
 40
8.0
 40
8.0
 40
9.0
 40
9.0
 40
9.0
 40
10.0
 40
10.0
 40
10.0
 40
11.0
 40
11.0
 40
11.0
 40
12.0
 40
12.0
 40
12.0
 40
13.0
 40
13.0
 40
13.0
 40
14.0
 40
14.0
 40
14.0
 40
15.0
 40
15.0
 40
15.0
 40
16.0
 40
16.0
 40
16.0
 40
16.0
 10
0.7156196772775098
 20
-7.9946990537782
 30
0.0
 10
0.7156196772775098
 20
-7.9946990537782
 30
0.0
 10
0.5775507081902384
 20
-8.194903158737487
 30
0.0
 10
0.5775507081902384
 20
-8.194903158737487
 30
0.0
 10
0.5775507081902384
 20
-8.194903158737487
 30
0.0
 10
0.3787005076745926
 20
-8.194903158737487
 30
0.0
 10
0.3787005076745926
 20
-8.194903158737487
 30
0.0
 10
0.3787005076745926
 20
-8.194903158737487
 30
0.0
 10
0.6919385512484269
 20
-7.753090071540478
 30
0.0
 10
0.6919385512484269
 20
-7.753090071540478
 30
0.0
 10
0.6919385512484269
 20
-7.753090071540478
 30
0.0
 10
0.8801986224858637
 20
-7.75580861795394
 30
0.0
 10
0.8801986224858637
 20
-7.75580861795394
 30
0.0
 10
0.8801986224858637
 20
-7.75580861795394
 30
0.0
 10
0.8155099076488138
 20
-7.849730736019333
 30
0.0
 10
0.8155099076488138
 20
-7.849730736019333
 30
0.0
 10
0.8155099076488138
 20
-7.849730736019333
 30
0.0
 10
1.038316505320507
 20
-7.849730736019333
 30
0.0
 10
1.038316505320507
 20
-7.849730736019333
 30
0.0
 10
1.038316505320507
 20
-7.849730736019333
 30
0.0
 10
1.051267914230392
 20
-7.517382824173788
 30
0.0
 10
1.051267914230392
 20
-7.517382824173788
 30
0.0
 10
1.051267914230392
 20
-7.517382824173788
 30
0.0
 10
1.044411515663682
 20
-7.517382824173788
 30
0.0
 10
1.044411515663682
 20
-7.517382824173788
 30
0.0
 10
1.044411515663682
 20
-7.517382824173788
 30
0.0
 10
0.9623485072490641
 20
-7.636532272045238
 30
0.0
 10
0.9623485072490641
 20
-7.636532272045238
 30
0.0
 10
0.9623485072490641
 20
-7.636532272045238
 30
0.0
 10
0.7755750953250021
 20
-7.635124679970481
 30
0.0
 10
0.7755750953250021
 20
-7.635124679970481
 30
0.0
 10
0.7755750953250021
 20
-7.635124679970481
 30
0.0
 10
1.00132279904474
 20
-7.316713101031659
 30
0.0
 10
1.00132279904474
 20
-7.316713101031659
 30
0.0
 10
1.00132279904474
 20
-7.316713101031659
 30
0.0
 10
1.24046800708225
 20
-7.316713101031659
 30
0.0
 10
1.24046800708225
 20
-7.316713101031659
 30
0.0
 10
1.24046800708225
 20
-7.316713101031659
 30
0.0
 10
1.223368008492911
 20
-8.194903158737487
 30
0.0
 10
1.223368008492911
 20
-8.194903158737487
 30
0.0
 10
1.223368008492911
 20
-8.194903158737487
 30
0.0
 10
1.024517807977266
 20
-8.194903158737487
 30
0.0
 10
1.024517807977266
 20
-8.194903158737487
 30
0.0
 10
1.024517807977266
 20
-8.194903158737487
 30
0.0
 10
1.032306419048407
 20
-7.9946990537782
 30
0.0
 10
1.032306419048407
 20
-7.9946990537782
 30
0.0
 10
1.032306419048407
 20
-7.9946990537782
 30
0.0
 10
0.7156196772775098
 20
-7.9946990537782
 30
0.0
 10
0.7156196772775098
 20
-7.9946990537782
 30
0.0
  0
SPLINE
  5
94
330
70
100
AcDbEntity
  8
Layer 1
100
AcDbSpline
210
0.0
220
0.0
230
1.0
 70
    11
 71
     3
 72
    29
 73
    25
 74
     0
 42
0.0000000001
 43
0.0000000001
 40
0.0
 40
0.0
 40
0.0
 40
0.0
 40
1.0
 40
1.0
 40
1.0
 40
2.0
 40
2.0
 40
2.0
 40
3.0
 40
3.0
 40
3.0
 40
4.0
 40
4.0
 40
4.0
 40
5.0
 40
5.0
 40
5.0
 40
6.0
 40
6.0
 40
6.0
 40
7.0
 40
7.0
 40
7.0
 40
8.0
 40
8.0
 40
8.0
 40
8.0
 10
0.9711405889532645
 20
-9.31509460645778
 30
0.0
 10
0.9711405889532645
 20
-9.31509460645778
 30
0.0
 10
0.8251570868963476
 20
-9.31509460645778
 30
0.0
 10
0.8251570868963476
 20
-9.31509460645778
 30
0.0
 10
0.8251570868963476
 20
-9.31509460645778
 30
0.0
 10
0.8251570868963476
 20
-9.708731341880719
 30
0.0
 10
0.8251570868963476
 20
-9.708731341880719
 30
0.0
 10
0.8251570868963476
 20
-9.708731341880719
 30
0.0
 10
0.7255196764608122
 20
-9.708731341880719
 30
0.0
 10
0.7255196764608122
 20
-9.708731341880719
 30
0.0
 10
0.7255196764608122
 20
-9.708731341880719
 30
0.0
 10
0.7255196764608122
 20
-9.31509460645778
 30
0.0
 10
0.7255196764608122
 20
-9.31509460645778
 30
0.0
 10
0.7255196764608122
 20
-9.31509460645778
 30
0.0
 10
0.5795781483700592
 20
-9.31509460645778
 30
0.0
 10
0.5795781483700592
 20
-9.31509460645778
 30
0.0
 10
0.5795781483700592
 20
-9.31509460645778
 30
0.0
 10
0.5795781483700592
 20
-9.231965654530236
 30
0.0
 10
0.5795781483700592
 20
-9.231965654530236
 30
0.0
 10
0.5795781483700592
 20
-9.231965654530236
 30
0.0
 10
0.9711405889532645
 20
-9.231965654530236
 30
0.0
 10
0.9711405889532645
 20
-9.231965654530236
 30
0.0
 10
0.9711405889532645
 20
-9.231965654530236
 30
0.0
 10
0.9711405889532645
 20
-9.31509460645778
 30
0.0
 10
0.9711405889532645
 20
-9.31509460645778
 30
0.0
  0
SPLINE
  5
95
330
70
100
AcDbEntity
  8
Layer 1
100
AcDbSpline
210
0.0
220
0.0
230
1.0
 70
     9
 71
     3
 72
    35
 73
    31
 74
     0
 42
0.0000000001
 43
0.0000000001
 40
0.0
 40
0.0
 40
0.0
 40
0.0
 40
1.0
 40
1.0
 40
1.0
 40
2.0
 40
2.0
 40
2.0
 40
3.0
 40
3.0
 40
3.0
 40
4.0
 40
4.0
 40
4.0
 40
5.0
 40
5.0
 40
5.0
 40
6.0
 40
6.0
 40
6.0
 40
7.0
 40
7.0
 40
7.0
 40
8.0
 40
8.0
 40
8.0
 40
9.0
 40
9.0
 40
9.0
 40
10.0
 40
10.0
 40
10.0
 40
10.0
 10
0.4882379172934306
 20
-9.541626149592248
 30
0.0
 10
0.4882379172934306
 20
-9.645918765717523
 30
0.0
 10
0.4090877069031649
 20
-9.715503792515088
 30
0.0
 10
0.2905727492179848
 20
-9.715503792515088
 30
0.0
 10
0.1716360995936207
 20
-9.715503792515088
 30
0.0
 10
0.0929505312474501
 20
-9.645918765717523
 30
0.0
 10
0.0929505312474501
 20
-9.541626149592248
 30
0.0
 10
0.0929505312474501
 20
-9.541626149592248
 30
0.0
 10
0.0929505312474501
 20
-9.231965654530236
 30
0.0
 10
0.0929505312474501
 20
-9.231965654530236
 30
0.0
 10
0.0929505312474501
 20
-9.231965654530236
 30
0.0
 10
0.1937300240182746
 20
-9.231965654530236
 30
0.0
 10
0.1937300240182746
 20
-9.231965654530236
 30
0.0
 10
0.1937300240182746
 20
-9.231965654530236
 30
0.0
 10
0.1937300240182746
 20
-9.532991226226512
 30
0.0
 10
0.1937300240182746
 20
-9.532991226226512
 30
0.0
 10
0.1937300240182746
 20
-9.587423651237207
 30
0.0
 10
0.2321625588087449
 20
-9.626787422393363
 30
0.0
 10
0.2905727492179848
 20
-9.626787422393363
 30
0.0
 10
0.3492377118404748
 20
-9.626787422393363
 30
0.0
 10
0.3874164505564421
 20
-9.587423651237207
 30
0.0
 10
0.3874164505564421
 20
-9.532991226226512
 30
0.0
 10
0.3874164505564421
 20
-9.532991226226512
 30
0.0
 10
0.3874164505564421
 20
-9.231965654530236
 30
0.0
 10
0.3874164505564421
 20
-9.231965654530236
 30
0.0
 10
0.3874164505564421
 20
-9.231965654530236
 30
0.0
 10
0.4882379172934306
 20
-9.231965654530236
 30
0.0
 10
0.4882379172934306
 20
-9.231965654530236
 30
0.0
 10
0.4882379172934306
 20
-9.231965654530236
 30
0.0
 10
0.4882379172934306
 20
-9.541626149592248
 30
0.0
 10
0.4882379172934306
 20
-9.541626149592248
 30
0.0
  0
SPLINE
  5
96
330
70
100
AcDbEntity
  8
Layer 1
100
AcDbSpline
210
0.0
220
0.0
230
1.0
 70
     9
 71
     3
 72
    35
 73
    31
 74
     0
 42
0.0000000001
 43
0.0000000001
 40
0.0
 40
0.0
 40
0.0
 40
0.0
 40
1.0
 40
1.0
 40
1.0
 40
2.0
 40
2.0
 40
2.0
 40
3.0
 40
3.0
 40
3.0
 40
4.0
 40
4.0
 40
4.0
 40
5.0
 40
5.0
 40
5.0
 40
6.0
 40
6.0
 40
6.0
 40
7.0
 40
7.0
 40
7.0
 40
8.0
 40
8.0
 40
8.0
 40
9.0
 40
9.0
 40
9.0
 40
10.0
 40
10.0
 40
10.0
 40
10.0
 10
-0.2114192917998328
 20
-9.62610998210218
 30
0.0
 10
-0.1576223331141541
 20
-9.62610998210218
 30
0.0
 10
-0.1175811216668055
 20
-9.596735038755392
 30
0.0
 10
-0.1080579120402692
 20
-9.545774739271715
 30
0.0
 10
-0.1080579120402692
 20
-9.545774739271715
 30
0.0
 10
-0.006050436724321
 20
-9.546197407349634
 30
0.0
 10
-0.006050436724321
 20
-9.546197407349634
 30
0.0
 10
-0.0170134510043201
 20
-9.633982541105675
 30
0.0
 10
-0.0907880653087558
 20
-9.715249996440585
 30
0.0
 10
-0.213026992317964
 20
-9.715249996440585
 30
0.0
 10
-0.3405995414468382
 20
-9.715249996440585
 30
0.0
 10
-0.4351141757323123
 20
-9.625856186027677
 30
0.0
 10
-0.4351141757323123
 20
-9.470348498205465
 30
0.0
 10
-0.4351141757323123
 20
-9.314418142305333
 30
0.0
 10
-0.3389908647899599
 20
-9.225446999970371
 30
0.0
 10
-0.213026992317964
 20
-9.225446999970371
 30
0.0
 10
-0.1026823159544392
 20
-9.225446999970371
 30
0.0
 10
-0.0193415419185562
 20
-9.288768144421332
 30
0.0
 10
-0.006050436724321
 20
-9.398900998676531
 30
0.0
 10
-0.006050436724321
 20
-9.398900998676531
 30
0.0
 10
-0.1080579120402692
 20
-9.398900998676531
 30
0.0
 10
-0.1080579120402692
 20
-9.398900998676531
 30
0.0
 10
-0.1157186489354116
 20
-9.346500894539378
 30
0.0
 10
-0.1555480382744337
 20
-9.314587014308774
 30
0.0
 10
-0.2106998775424876
 20
-9.314587014308774
 30
0.0
 10
-0.2844744918469233
 20
-9.314587014308774
 30
0.0
 10
-0.3328958544467721
 20
-9.371219656057695
 30
0.0
 10
-0.3328958544467721
 20
-9.470348498205465
 30
0.0
 10
-0.3328958544467721
 20
-9.572271049450337
 30
0.0
 10
-0.283797051555742
 20
-9.62610998210218
 30
0.0
 10
-0.2114192917998328
 20
-9.62610998210218
 30
0.0
  0
SPLINE
  5
97
330
70
100
AcDbEntity
  8
Layer 1
100
AcDbSpline
210
0.0
220
0.0
230
1.0
 70
    11
 71
     3
 72
    53
 73
    49
 74
     0
 42
0.0000000001
 43
0.0000000001
 40
0.0
 40
0.0
 40
0.0
 40
0.0
 40
1.0
 40
1.0
 40
1.0
 40
2.0
 40
2.0
 40
2.0
 40
3.0
 40
3.0
 40
3.0
 40
4.0
 40
4.0
 40
4.0
 40
5.0
 40
5.0
 40
5.0
 40
6.0
 40
6.0
 40
6.0
 40
7.0
 40
7.0
 40
7.0
 40
8.0
 40
8.0
 40
8.0
 40
9.0
 40
9.0
 40
9.0
 40
10.0
 40
10.0
 40
10.0
 40
11.0
 40
11.0
 40
11.0
 40
12.0
 40
12.0
 40
12.0
 40
13.0
 40
13.0
 40
13.0
 40
14.0
 40
14.0
 40
14.0
 40
15.0
 40
15.0
 40
15.0
 40
16.0
 40
16.0
 40
16.0
 40
16.0
 10
-0.7821070972156955
 20
-7.910193746215831
 30
0.0
 10
-0.7821070972156955
 20
-7.910193746215831
 30
0.0
 10
-0.8857222730497747
 20
-8.194924633789948
 30
0.0
 10
-0.8857222730497747
 20
-8.194924633789948
 30
0.0
 10
-0.8857222730497747
 20
-8.194924633789948
 30
0.0
 10
-1.071281368371197
 20
-8.194924633789948
 30
0.0
 10
-1.071281368371197
 20
-8.194924633789948
 30
0.0
 10
-1.071281368371197
 20
-8.194924633789948
 30
0.0
 10
-0.8801729242667811
 20
-7.669858625044374
 30
0.0
 10
-0.8801729242667811
 20
-7.669858625044374
 30
0.0
 10
-0.8801729242667811
 20
-7.669858625044374
 30
0.0
 10
-0.69511263584564
 20
-7.671189102158045
 30
0.0
 10
-0.69511263584564
 20
-7.671189102158045
 30
0.0
 10
-0.69511263584564
 20
-7.671189102158045
 30
0.0
 10
-0.7279284682795025
 20
-7.76137456109566
 30
0.0
 10
-0.7279284682795025
 20
-7.76137456109566
 30
0.0
 10
-0.7279284682795025
 20
-7.76137456109566
 30
0.0
 10
-0.6018806478751787
 20
-7.76137456109566
 30
0.0
 10
-0.6018806478751787
 20
-7.76137456109566
 30
0.0
 10
-0.4956416110861963
 20
-7.76137456109566
 30
0.0
 10
-0.4219089707479245
 20
-7.701312743924618
 30
0.0
 10
-0.3902479104530635
 20
-7.614289974530871
 30
0.0
 10
-0.3583769803273702
 20
-7.526800610815522
 30
0.0
 10
-0.3890628780128635
 20
-7.468475344477383
 30
0.0
 10
-0.4962341273062899
 20
-7.468475344477383
 30
0.0
 10
-0.4962341273062899
 20
-7.468475344477383
 30
0.0
 10
-0.6213507113449294
 20
-7.468475344477383
 30
0.0
 10
-0.6213507113449294
 20
-7.468475344477383
 30
0.0
 10
-0.6213507113449294
 20
-7.468475344477383
 30
0.0
 10
-0.6556883440870883
 20
-7.54735125987943
 30
0.0
 10
-0.6556883440870883
 20
-7.54735125987943
 30
0.0
 10
-0.6556883440870883
 20
-7.54735125987943
 30
0.0
 10
-0.8348761817996242
 20
-7.545405815354443
 30
0.0
 10
-0.8348761817996242
 20
-7.545405815354443
 30
0.0
 10
-0.8348761817996242
 20
-7.545405815354443
 30
0.0
 10
-0.7516320454997942
 20
-7.316692602117957
 30
0.0
 10
-0.7516320454997942
 20
-7.316692602117957
 30
0.0
 10
-0.7516320454997942
 20
-7.316692602117957
 30
0.0
 10
-0.4053165643075923
 20
-7.316692602117957
 30
0.0
 10
-0.4053165643075923
 20
-7.316692602117957
 30
0.0
 10
-0.2060436957140155
 20
-7.316692602117957
 30
0.0
 10
-0.1356543305880046
 20
-7.439777841421775
 30
0.0
 10
-0.1991863210085588
 20
-7.614289974530871
 30
0.0
 10
-0.2630150576085397
 20
-7.789690393900754
 30
0.0
 10
-0.4242790356283245
 20
-7.910193746215831
 30
0.0
 10
-0.6260918172444765
 20
-7.910193746215831
 30
0.0
 10
-0.6260918172444765
 20
-7.910193746215831
 30
0.0
 10
-0.7821070972156955
 20
-7.910193746215831
 30
0.0
 10
-0.7821070972156955
 20
-7.910193746215831
 30
0.0
  0
SPLINE
  5
98
330
70
100
AcDbEntity
  8
Layer 1
100
AcDbSpline
210
0.0
220
0.0
230
1.0
 70
    11
 71
     3
 72
    23
 73
    19
 74
     0
 42
0.0000000001
 43
0.0000000001
 40
0.0
 40
0.0
 40
0.0
 40
0.0
 40
1.0
 40
1.0
 40
1.0
 40
2.0
 40
2.0
 40
2.0
 40
3.0
 40
3.0
 40
3.0
 40
4.0
 40
4.0
 40
4.0
 40
5.0
 40
5.0
 40
5.0
 40
6.0
 40
6.0
 40
6.0
 40
6.0
 10
0.2164594147679458
 20
-7.316692602117957
 30
0.0
 10
0.2164594147679458
 20
-7.316692602117957
 30
0.0
 10
-0.0474885027202213
 20
-8.041871934919223
 30
0.0
 10
-0.0474885027202213
 20
-8.041871934919223
 30
0.0
 10
-0.0474885027202213
 20
-8.041871934919223
 30
0.0
 10
0.328793461900116
 20
-8.041871934919223
 30
0.0
 10
0.328793461900116
 20
-8.041871934919223
 30
0.0
 10
0.328793461900116
 20
-8.041871934919223
 30
0.0
 10
0.2730920565168794
 20
-8.194924633789948
 30
0.0
 10
0.2730920565168794
 20
-8.194924633789948
 30
0.0
 10
0.2730920565168794
 20
-8.194924633789948
 30
0.0
 10
-0.2887490034248811
 20
-8.194924633789948
 30
0.0
 10
-0.2887490034248811
 20
-8.194924633789948
 30
0.0
 10
-0.2887490034248811
 20
-8.194924633789948
 30
0.0
 10
0.0309003194465226
 20
-7.316692602117957
 30
0.0
 10
0.0309003194465226
 20
-7.316692602117957
 30
0.0
 10
0.0309003194465226
 20
-7.316692602117957
 30
0.0
 10
0.2164594147679458
 20
-7.316692602117957
 30
0.0
 10
0.2164594147679458
 20
-7.316692602117957
 30
0.0
  0
SPLINE
  5
99
330
70
100
AcDbEntity
  8
Layer 1
100
AcDbSpline
210
0.0
220
0.0
230
1.0
 70
     9
 71
     3
 72
    53
 73
    49
 74
     0
 42
0.0000000001
 43
0.0000000001
 40
0.0
 40
0.0
 40
0.0
 40
0.0
 40
1.0
 40
1.0
 40
1.0
 40
2.0
 40
2.0
 40
2.0
 40
3.0
 40
3.0
 40
3.0
 40
4.0
 40
4.0
 40
4.0
 40
5.0
 40
5.0
 40
5.0
 40
6.0
 40
6.0
 40
6.0
 40
7.0
 40
7.0
 40
7.0
 40
8.0
 40
8.0
 40
8.0
 40
9.0
 40
9.0
 40
9.0
 40
10.0
 40
10.0
 40
10.0
 40
11.0
 40
11.0
 40
11.0
 40
12.0
 40
12.0
 40
12.0
 40
13.0
 40
13.0
 40
13.0
 40
14.0
 40
14.0
 40
14.0
 40
15.0
 40
15.0
 40
15.0
 40
16.0
 40
16.0
 40
16.0
 40
16.0
 10
1.373581119745381
 20
-7.919209363693349
 30
0.0
 10
1.373581119745381
 20
-7.919209363693349
 30
0.0
 10
1.553130128794716
 20
-7.919209363693349
 30
0.0
 10
1.553130128794716
 20
-7.919209363693349
 30
0.0
 10
1.527141410765112
 20
-8.007121395486617
 30
0.0
 10
1.580345853230685
 20
-8.051733864691362
 30
0.0
 10
1.676765910352464
 20
-8.051733864691362
 30
0.0
 10
1.771068722529599
 20
-8.051733864691362
 30
0.0
 10
1.847848868039464
 20
-8.007968683919973
 30
0.0
 10
1.871679343297008
 20
-7.943632355170974
 30
0.0
 10
1.892842031355965
 20
-7.884417826433313
 30
0.0
 10
1.849669366804682
 20
-7.856990279888981
 30
0.0
 10
1.762476749268759
 20
-7.833837244922632
 30
0.0
 10
1.762476749268759
 20
-7.833837244922632
 30
0.0
 10
1.675664825844604
 20
-7.809837897661686
 30
0.0
 10
1.675664825844604
 20
-7.809837897661686
 30
0.0
 10
1.540389565854411
 20
-7.774283996039381
 30
0.0
 10
1.476053237105424
 20
-7.700042787413344
 30
0.0
 10
1.5235863134445
 20
-7.570523817620747
 30
0.0
 10
1.580811471413539
 20
-7.411038364400003
 30
0.0
 10
1.76052935246629
 20
-7.304713427401186
 30
0.0
 10
1.95294582249317
 20
-7.304713427401186
 30
0.0
 10
2.148324873620544
 20
-7.304713427401186
 30
0.0
 10
2.237591785996199
 20
-7.41281591306031
 30
0.0
 10
2.183286259022755
 20
-7.569254837248207
 30
0.0
 10
2.183286259022755
 20
-7.569254837248207
 30
0.0
 10
2.005430850701385
 20
-7.569254837248207
 30
0.0
 10
2.005430850701385
 20
-7.569254837248207
 30
0.0
 10
2.023715881730936
 20
-7.500219376565811
 30
0.0
 10
1.98392846635809
 20
-7.459882395077784
 30
0.0
 10
1.895212096236365
 20
-7.459882395077784
 30
0.0
 10
1.804295509376414
 20
-7.459882395077784
 30
0.0
 10
1.73902794426173
 20
-7.501489333077111
 30
0.0
 10
1.71845679628412
 20
-7.558122950964793
 30
0.0
 10
1.694246603053569
 20
-7.621146373097568
 30
0.0
 10
1.747746815559821
 20
-7.649463182041421
 30
0.0
 10
1.817627612398066
 20
-7.667028798813614
 30
0.0
 10
1.817627612398066
 20
-7.667028798813614
 30
0.0
 10
1.889667628147119
 20
-7.685906346063246
 30
0.0
 10
1.889667628147119
 20
-7.685906346063246
 30
0.0
 10
2.029725968003023
 20
-7.720233241279174
 30
0.0
 10
2.11158593955804
 20
-7.797817725117485
 30
0.0
 10
2.058804165170386
 20
-7.944013049282753
 30
0.0
 10
1.999843432507228
 20
-8.10485338308586
 30
0.0
 10
1.836590083718798
 20
-8.207326476584638
 30
0.0
 10
1.622333485341767
 20
-8.207326476584638
 30
0.0
 10
1.409261919404937
 20
-8.207326476584638
 30
0.0
 10
1.309202817030217
 20
-8.109170844768742
 30
0.0
 10
1.373581119745381
 20
-7.919209363693349
 30
0.0
  0
SPLINE
  5
9A
330
70
100
AcDbEntity
  8
Layer 1
100
AcDbSpline
210
0.0
220
0.0
230
1.0
 70
    11
 71
     3
 72
    53
 73
    49
 74
     0
 42
0.0000000001
 43
0.0000000001
 40
0.0
 40
0.0
 40
0.0
 40
0.0
 40
1.0
 40
1.0
 40
1.0
 40
2.0
 40
2.0
 40
2.0
 40
3.0
 40
3.0
 40
3.0
 40
4.0
 40
4.0
 40
4.0
 40
5.0
 40
5.0
 40
5.0
 40
6.0
 40
6.0
 40
6.0
 40
7.0
 40
7.0
 40
7.0
 40
8.0
 40
8.0
 40
8.0
 40
9.0
 40
9.0
 40
9.0
 40
10.0
 40
10.0
 40
10.0
 40
11.0
 40
11.0
 40
11.0
 40
12.0
 40
12.0
 40
12.0
 40
13.0
 40
13.0
 40
13.0
 40
14.0
 40
14.0
 40
14.0
 40
15.0
 40
15.0
 40
15.0
 40
16.0
 40
16.0
 40
16.0
 40
16.0
 10
1.998234755850338
 20
-6.119529685693174
 30
0.0
 10
1.998234755850338
 20
-6.119529685693174
 30
0.0
 10
2.227136363865219
 20
-6.119529685693174
 30
0.0
 10
2.227136363865219
 20
-6.119529685693174
 30
0.0
 10
2.227136363865219
 20
-6.119529685693174
 30
0.0
 10
2.25405631826052
 20
-6.709603606646421
 30
0.0
 10
2.25405631826052
 20
-6.709603606646421
 30
0.0
 10
2.25405631826052
 20
-6.709603606646421
 30
0.0
 10
2.264299918283161
 20
-6.709603606646421
 30
0.0
 10
2.264299918283161
 20
-6.709603606646421
 30
0.0
 10
2.264299918283161
 20
-6.709603606646421
 30
0.0
 10
2.720833177801624
 20
-6.119529685693174
 30
0.0
 10
2.720833177801624
 20
-6.119529685693174
 30
0.0
 10
2.720833177801624
 20
-6.119529685693174
 30
0.0
 10
2.949649861745418
 20
-6.119529685693174
 30
0.0
 10
2.949649861745418
 20
-6.119529685693174
 30
0.0
 10
2.949649861745418
 20
-6.119529685693174
 30
0.0
 10
2.630000538874014
 20
-6.997719743398975
 30
0.0
 10
2.630000538874014
 20
-6.997719743398975
 30
0.0
 10
2.630000538874014
 20
-6.997719743398975
 30
0.0
 10
2.450027885608
 20
-6.997719743398975
 30
0.0
 10
2.450027885608
 20
-6.997719743398975
 30
0.0
 10
2.450027885608
 20
-6.997719743398975
 30
0.0
 10
2.658105525709515
 20
-6.426100701617441
 30
0.0
 10
2.658105525709515
 20
-6.426100701617441
 30
0.0
 10
2.658105525709515
 20
-6.426100701617441
 30
0.0
 10
2.65082450678738
 20
-6.426100701617441
 30
0.0
 10
2.65082450678738
 20
-6.426100701617441
 30
0.0
 10
2.65082450678738
 20
-6.426100701617441
 30
0.0
 10
2.217147536055841
 20
-6.993402281716119
 30
0.0
 10
2.217147536055841
 20
-6.993402281716119
 30
0.0
 10
2.217147536055841
 20
-6.993402281716119
 30
0.0
 10
2.094654812972117
 20
-6.993402281716119
 30
0.0
 10
2.094654812972117
 20
-6.993402281716119
 30
0.0
 10
2.094654812972117
 20
-6.993402281716119
 30
0.0
 10
2.07467715735336
 20
-6.42394245884538
 30
0.0
 10
2.07467715735336
 20
-6.42394245884538
 30
0.0
 10
2.07467715735336
 20
-6.42394245884538
 30
0.0
 10
2.067397114569985
 20
-6.42394245884538
 30
0.0
 10
2.067397114569985
 20
-6.42394245884538
 30
0.0
 10
2.067397114569985
 20
-6.42394245884538
 30
0.0
 10
1.858558086244948
 20
-6.997719743398975
 30
0.0
 10
1.858558086244948
 20
-6.997719743398975
 30
0.0
 10
1.858558086244948
 20
-6.997719743398975
 30
0.0
 10
1.678585432978934
 20
-6.997719743398975
 30
0.0
 10
1.678585432978934
 20
-6.997719743398975
 30
0.0
 10
1.678585432978934
 20
-6.997719743398975
 30
0.0
 10
1.998234755850338
 20
-6.119529685693174
 30
0.0
 10
1.998234755850338
 20
-6.119529685693174
 30
0.0
  0
SPLINE
  5
9B
330
70
100
AcDbEntity
  8
Layer 1
100
AcDbSpline
210
0.0
220
0.0
230
1.0
 70
    11
 71
     3
 72
    53
 73
    49
 74
     0
 42
0.0000000001
 43
0.0000000001
 40
0.0
 40
0.0
 40
0.0
 40
0.0
 40
1.0
 40
1.0
 40
1.0
 40
2.0
 40
2.0
 40
2.0
 40
3.0
 40
3.0
 40
3.0
 40
4.0
 40
4.0
 40
4.0
 40
5.0
 40
5.0
 40
5.0
 40
6.0
 40
6.0
 40
6.0
 40
7.0
 40
7.0
 40
7.0
 40
8.0
 40
8.0
 40
8.0
 40
9.0
 40
9.0
 40
9.0
 40
10.0
 40
10.0
 40
10.0
 40
11.0
 40
11.0
 40
11.0
 40
12.0
 40
12.0
 40
12.0
 40
13.0
 40
13.0
 40
13.0
 40
14.0
 40
14.0
 40
14.0
 40
15.0
 40
15.0
 40
15.0
 40
16.0
 40
16.0
 40
16.0
 40
16.0
 10
3.395770649237836
 20
-6.652547320680822
 30
0.0
 10
3.395770649237836
 20
-6.652547320680822
 30
0.0
 10
3.408723034286468
 20
-6.320199408835277
 30
0.0
 10
3.408723034286468
 20
-6.320199408835277
 30
0.0
 10
3.408723034286468
 20
-6.320199408835277
 30
0.0
 10
3.401865659581011
 20
-6.320199408835277
 30
0.0
 10
3.401865659581011
 20
-6.320199408835277
 30
0.0
 10
3.401865659581011
 20
-6.320199408835277
 30
0.0
 10
3.319802651166393
 20
-6.439348856706752
 30
0.0
 10
3.319802651166393
 20
-6.439348856706752
 30
0.0
 10
3.319802651166393
 20
-6.439348856706752
 30
0.0
 10
3.133029239242318
 20
-6.43794126463197
 30
0.0
 10
3.133029239242318
 20
-6.43794126463197
 30
0.0
 10
3.133029239242318
 20
-6.43794126463197
 30
0.0
 10
3.358777919100816
 20
-6.119529685693174
 30
0.0
 10
3.358777919100816
 20
-6.119529685693174
 30
0.0
 10
3.358777919100816
 20
-6.119529685693174
 30
0.0
 10
3.597922150999579
 20
-6.119529685693174
 30
0.0
 10
3.597922150999579
 20
-6.119529685693174
 30
0.0
 10
3.597922150999579
 20
-6.119529685693174
 30
0.0
 10
3.580822152410241
 20
-6.997719743398975
 30
0.0
 10
3.580822152410241
 20
-6.997719743398975
 30
0.0
 10
3.580822152410241
 20
-6.997719743398975
 30
0.0
 10
3.381972928033342
 20
-6.997719743398975
 30
0.0
 10
3.381972928033342
 20
-6.997719743398975
 30
0.0
 10
3.381972928033342
 20
-6.997719743398975
 30
0.0
 10
3.389760562965736
 20
-6.797515638439714
 30
0.0
 10
3.389760562965736
 20
-6.797515638439714
 30
0.0
 10
3.389760562965736
 20
-6.797515638439714
 30
0.0
 10
3.073073821194839
 20
-6.797515638439714
 30
0.0
 10
3.073073821194839
 20
-6.797515638439714
 30
0.0
 10
3.073073821194839
 20
-6.797515638439714
 30
0.0
 10
2.935004852107567
 20
-6.997719743398975
 30
0.0
 10
2.935004852107567
 20
-6.997719743398975
 30
0.0
 10
2.935004852107567
 20
-6.997719743398975
 30
0.0
 10
2.736155627730668
 20
-6.997719743398975
 30
0.0
 10
2.736155627730668
 20
-6.997719743398975
 30
0.0
 10
2.736155627730668
 20
-6.997719743398975
 30
0.0
 10
3.049393671304503
 20
-6.555906656201967
 30
0.0
 10
3.049393671304503
 20
-6.555906656201967
 30
0.0
 10
3.049393671304503
 20
-6.555906656201967
 30
0.0
 10
3.237652766403193
 20
-6.558624226476695
 30
0.0
 10
3.237652766403193
 20
-6.558624226476695
 30
0.0
 10
3.237652766403193
 20
-6.558624226476695
 30
0.0
 10
3.17296405156613
 20
-6.652547320680822
 30
0.0
 10
3.17296405156613
 20
-6.652547320680822
 30
0.0
 10
3.17296405156613
 20
-6.652547320680822
 30
0.0
 10
3.395770649237836
 20
-6.652547320680822
 30
0.0
 10
3.395770649237836
 20
-6.652547320680822
 30
0.0
  0
SPLINE
  5
9C
330
70
100
AcDbEntity
  8
Layer 1
100
AcDbSpline
210
0.0
220
0.0
230
1.0
 70
    11
 71
     3
 72
    53
 73
    49
 74
     0
 42
0.0000000001
 43
0.0000000001
 40
0.0
 40
0.0
 40
0.0
 40
0.0
 40
1.0
 40
1.0
 40
1.0
 40
2.0
 40
2.0
 40
2.0
 40
3.0
 40
3.0
 40
3.0
 40
4.0
 40
4.0
 40
4.0
 40
5.0
 40
5.0
 40
5.0
 40
6.0
 40
6.0
 40
6.0
 40
7.0
 40
7.0
 40
7.0
 40
8.0
 40
8.0
 40
8.0
 40
9.0
 40
9.0
 40
9.0
 40
10.0
 40
10.0
 40
10.0
 40
11.0
 40
11.0
 40
11.0
 40
12.0
 40
12.0
 40
12.0
 40
13.0
 40
13.0
 40
13.0
 40
14.0
 40
14.0
 40
14.0
 40
15.0
 40
15.0
 40
15.0
 40
16.0
 40
16.0
 40
16.0
 40
16.0
 10
3.064735644008502
 20
-7.623262641903465
 30
0.0
 10
3.064735644008502
 20
-7.623262641903465
 30
0.0
 10
2.631015723172052
 20
-8.190607172107068
 30
0.0
 10
2.631015723172052
 20
-8.190607172107068
 30
0.0
 10
2.631015723172052
 20
-8.190607172107068
 30
0.0
 10
2.508523000088328
 20
-8.190607172107068
 30
0.0
 10
2.508523000088328
 20
-8.190607172107068
 30
0.0
 10
2.508523000088328
 20
-8.190607172107068
 30
0.0
 10
2.488630268540646
 20
-7.621146373097568
 30
0.0
 10
2.488630268540646
 20
-7.621146373097568
 30
0.0
 10
2.488630268540646
 20
-7.621146373097568
 30
0.0
 10
2.481349249618523
 20
-7.621146373097568
 30
0.0
 10
2.481349249618523
 20
-7.621146373097568
 30
0.0
 10
2.481349249618523
 20
-7.621146373097568
 30
0.0
 10
2.272511197432234
 20
-8.194924633789948
 30
0.0
 10
2.272511197432234
 20
-8.194924633789948
 30
0.0
 10
2.272511197432234
 20
-8.194924633789948
 30
0.0
 10
2.09253854416622
 20
-8.194924633789948
 30
0.0
 10
2.09253854416622
 20
-8.194924633789948
 30
0.0
 10
2.09253854416622
 20
-8.194924633789948
 30
0.0
 10
2.412187867037636
 20
-7.316692602117957
 30
0.0
 10
2.412187867037636
 20
-7.316692602117957
 30
0.0
 10
2.412187867037636
 20
-7.316692602117957
 30
0.0
 10
2.641089475052517
 20
-7.316692602117957
 30
0.0
 10
2.641089475052517
 20
-7.316692602117957
 30
0.0
 10
2.641089475052517
 20
-7.316692602117957
 30
0.0
 10
2.667967455481642
 20
-7.906808497037395
 30
0.0
 10
2.667967455481642
 20
-7.906808497037395
 30
0.0
 10
2.667967455481642
 20
-7.906808497037395
 30
0.0
 10
2.678210079365524
 20
-7.906808497037395
 30
0.0
 10
2.678210079365524
 20
-7.906808497037395
 30
0.0
 10
2.678210079365524
 20
-7.906808497037395
 30
0.0
 10
3.13478628898891
 20
-7.316692602117957
 30
0.0
 10
3.13478628898891
 20
-7.316692602117957
 30
0.0
 10
3.13478628898891
 20
-7.316692602117957
 30
0.0
 10
3.363602972932716
 20
-7.316692602117957
 30
0.0
 10
3.363602972932716
 20
-7.316692602117957
 30
0.0
 10
3.363602972932716
 20
-7.316692602117957
 30
0.0
 10
3.0439536500613
 20
-8.194924633789948
 30
0.0
 10
3.0439536500613
 20
-8.194924633789948
 30
0.0
 10
3.0439536500613
 20
-8.194924633789948
 30
0.0
 10
2.863980996795298
 20
-8.194924633789948
 30
0.0
 10
2.863980996795298
 20
-8.194924633789948
 30
0.0
 10
2.863980996795298
 20
-8.194924633789948
 30
0.0
 10
3.07201568679189
 20
-7.623262641903465
 30
0.0
 10
3.07201568679189
 20
-7.623262641903465
 30
0.0
 10
3.07201568679189
 20
-7.623262641903465
 30
0.0
 10
3.064735644008502
 20
-7.623262641903465
 30
0.0
 10
3.064735644008502
 20
-7.623262641903465
 30
0.0
  0
SPLINE
  5
9D
330
70
100
AcDbEntity
  8
Layer 1
100
AcDbSpline
210
0.0
220
0.0
230
1.0
 70
    11
 71
     3
 72
    53
 73
    49
 74
     0
 42
0.0000000001
 43
0.0000000001
 40
0.0
 40
0.0
 40
0.0
 40
0.0
 40
1.0
 40
1.0
 40
1.0
 40
2.0
 40
2.0
 40
2.0
 40
3.0
 40
3.0
 40
3.0
 40
4.0
 40
4.0
 40
4.0
 40
5.0
 40
5.0
 40
5.0
 40
6.0
 40
6.0
 40
6.0
 40
7.0
 40
7.0
 40
7.0
 40
8.0
 40
8.0
 40
8.0
 40
9.0
 40
9.0
 40
9.0
 40
10.0
 40
10.0
 40
10.0
 40
11.0
 40
11.0
 40
11.0
 40
12.0
 40
12.0
 40
12.0
 40
13.0
 40
13.0
 40
13.0
 40
14.0
 40
14.0
 40
14.0
 40
15.0
 40
15.0
 40
15.0
 40
16.0
 40
16.0
 40
16.0
 40
16.0
 10
3.492953070721884
 20
-7.9946990537782
 30
0.0
 10
3.492953070721884
 20
-7.9946990537782
 30
0.0
 10
3.354884101634613
 20
-8.194903158737487
 30
0.0
 10
3.354884101634613
 20
-8.194903158737487
 30
0.0
 10
3.354884101634613
 20
-8.194903158737487
 30
0.0
 10
3.156033901118967
 20
-8.194903158737487
 30
0.0
 10
3.156033901118967
 20
-8.194903158737487
 30
0.0
 10
3.156033901118967
 20
-8.194903158737487
 30
0.0
 10
3.469271944692801
 20
-7.753090071540478
 30
0.0
 10
3.469271944692801
 20
-7.753090071540478
 30
0.0
 10
3.469271944692801
 20
-7.753090071540478
 30
0.0
 10
3.657532015930238
 20
-7.75580861795394
 30
0.0
 10
3.657532015930238
 20
-7.75580861795394
 30
0.0
 10
3.657532015930238
 20
-7.75580861795394
 30
0.0
 10
3.592843301093175
 20
-7.849730736019333
 30
0.0
 10
3.592843301093175
 20
-7.849730736019333
 30
0.0
 10
3.592843301093175
 20
-7.849730736019333
 30
0.0
 10
3.815649898764882
 20
-7.849730736019333
 30
0.0
 10
3.815649898764882
 20
-7.849730736019333
 30
0.0
 10
3.815649898764882
 20
-7.849730736019333
 30
0.0
 10
3.828601307674766
 20
-7.517382824173788
 30
0.0
 10
3.828601307674766
 20
-7.517382824173788
 30
0.0
 10
3.828601307674766
 20
-7.517382824173788
 30
0.0
 10
3.821744909108057
 20
-7.517382824173788
 30
0.0
 10
3.821744909108057
 20
-7.517382824173788
 30
0.0
 10
3.821744909108057
 20
-7.517382824173788
 30
0.0
 10
3.739681900693438
 20
-7.636532272045238
 30
0.0
 10
3.739681900693438
 20
-7.636532272045238
 30
0.0
 10
3.739681900693438
 20
-7.636532272045238
 30
0.0
 10
3.552908488769364
 20
-7.635124679970481
 30
0.0
 10
3.552908488769364
 20
-7.635124679970481
 30
0.0
 10
3.552908488769364
 20
-7.635124679970481
 30
0.0
 10
3.778656192489115
 20
-7.316713101031659
 30
0.0
 10
3.778656192489115
 20
-7.316713101031659
 30
0.0
 10
3.778656192489115
 20
-7.316713101031659
 30
0.0
 10
4.017801400526624
 20
-7.316713101031659
 30
0.0
 10
4.017801400526624
 20
-7.316713101031659
 30
0.0
 10
4.017801400526624
 20
-7.316713101031659
 30
0.0
 10
4.000701401937286
 20
-8.194903158737487
 30
0.0
 10
4.000701401937286
 20
-8.194903158737487
 30
0.0
 10
4.000701401937286
 20
-8.194903158737487
 30
0.0
 10
3.801851201421641
 20
-8.194903158737487
 30
0.0
 10
3.801851201421641
 20
-8.194903158737487
 30
0.0
 10
3.801851201421641
 20
-8.194903158737487
 30
0.0
 10
3.809639812492782
 20
-7.9946990537782
 30
0.0
 10
3.809639812492782
 20
-7.9946990537782
 30
0.0
 10
3.809639812492782
 20
-7.9946990537782
 30
0.0
 10
3.492953070721884
 20
-7.9946990537782
 30
0.0
 10
3.492953070721884
 20
-7.9946990537782
 30
0.0
  0
SPLINE
  5
9E
330
70
100
AcDbEntity
  8
Layer 1
100
AcDbSpline
210
0.0
220
0.0
230
1.0
 70
    11
 71
     3
 72
    62
 73
    58
 74
     0
 42
0.0000000001
 43
0.0000000001
 40
0.0
 40
0.0
 40
0.0
 40
0.0
 40
1.0
 40
1.0
 40
1.0
 40
2.0
 40
2.0
 40
2.0
 40
3.0
 40
3.0
 40
3.0
 40
4.0
 40
4.0
 40
4.0
 40
5.0
 40
5.0
 40
5.0
 40
6.0
 40
6.0
 40
6.0
 40
7.0
 40
7.0
 40
7.0
 40
8.0
 40
8.0
 40
8.0
 40
9.0
 40
9.0
 40
9.0
 40
10.0
 40
10.0
 40
10.0
 40
11.0
 40
11.0
 40
11.0
 40
12.0
 40
12.0
 40
12.0
 40
13.0
 40
13.0
 40
13.0
 40
14.0
 40
14.0
 40
14.0
 40
15.0
 40
15.0
 40
15.0
 40
16.0
 40
16.0
 40
16.0
 40
17.0
 40
17.0
 40
17.0
 40
18.0
 40
18.0
 40
18.0
 40
19.0
 40
19.0
 40
19.0
 40
19.0
 10
3.871355208703107
 20
-6.491634752610353
 30
0.0
 10
3.871355208703107
 20
-6.491634752610353
 30
0.0
 10
4.056719076274918
 20
-6.49217846189304
 30
0.0
 10
4.056719076274918
 20
-6.49217846189304
 30
0.0
 10
4.056719076274918
 20
-6.49217846189304
 30
0.0
 10
4.040360943134134
 20
-6.537122818272159
 30
0.0
 10
4.040360943134134
 20
-6.537122818272159
 30
0.0
 10
4.040360943134134
 20
-6.537122818272159
 30
0.0
 10
4.166409739677204
 20
-6.537122818272159
 30
0.0
 10
4.166409739677204
 20
-6.537122818272159
 30
0.0
 10
4.2726487764662
 20
-6.537122818272159
 30
0.0
 10
4.340413304498548
 20
-6.493484535538022
 30
0.0
 10
4.372158312725736
 20
-6.406376842073187
 30
0.0
 10
4.403988245024012
 20
-6.318930428462762
 30
0.0
 10
4.369407553733569
 20
-6.271270454086409
 30
0.0
 10
4.262236304440143
 20
-6.271270454086409
 30
0.0
 10
4.262236304440143
 20
-6.271270454086409
 30
0.0
 10
4.137119720401503
 20
-6.271270454086409
 30
0.0
 10
4.137119720401503
 20
-6.271270454086409
 30
0.0
 10
4.137119720401503
 20
-6.271270454086409
 30
0.0
 10
4.110993366808417
 20
-6.343054721483465
 30
0.0
 10
4.110993366808417
 20
-6.343054721483465
 30
0.0
 10
4.110993366808417
 20
-6.343054721483465
 30
0.0
 10
3.926219087040471
 20
-6.340904287821381
 30
0.0
 10
3.926219087040471
 20
-6.340904287821381
 30
0.0
 10
3.926219087040471
 20
-6.340904287821381
 30
0.0
 10
4.006796412280474
 20
-6.119529685693174
 30
0.0
 10
4.006796412280474
 20
-6.119529685693174
 30
0.0
 10
4.006796412280474
 20
-6.119529685693174
 30
0.0
 10
4.353111893472664
 20
-6.119529685693174
 30
0.0
 10
4.353111893472664
 20
-6.119529685693174
 30
0.0
 10
4.55238476206624
 20
-6.119529685693174
 30
0.0
 10
4.626794842695718
 20
-6.231821758859167
 30
0.0
 10
4.563304826241315
 20
-6.406376842073187
 30
0.0
 10
4.519539645469952
 20
-6.526499500276486
 30
0.0
 10
4.432515899937444
 20
-6.613522269670258
 30
0.0
 10
4.317134347633681
 20
-6.656399164180861
 30
0.0
 10
4.317134347633681
 20
-6.656399164180861
 30
0.0
 10
4.379269483505696
 20
-6.997719743398975
 30
0.0
 10
4.379269483505696
 20
-6.997719743398975
 30
0.0
 10
4.379269483505696
 20
-6.997719743398975
 30
0.0
 10
4.17440919671795
 20
-6.997719743398975
 30
0.0
 10
4.17440919671795
 20
-6.997719743398975
 30
0.0
 10
4.17440919671795
 20
-6.997719743398975
 30
0.0
 10
4.121501500431792
 20
-6.686366623747744
 30
0.0
 10
4.121501500431792
 20
-6.686366623747744
 30
0.0
 10
4.121501500431792
 20
-6.686366623747744
 30
0.0
 10
3.986056392299436
 20
-6.686366623747744
 30
0.0
 10
3.986056392299436
 20
-6.686366623747744
 30
0.0
 10
3.986056392299436
 20
-6.686366623747744
 30
0.0
 10
3.872706184730493
 20
-6.997719743398975
 30
0.0
 10
3.872706184730493
 20
-6.997719743398975
 30
0.0
 10
3.872706184730493
 20
-6.997719743398975
 30
0.0
 10
3.687147089409058
 20
-6.997719743398975
 30
0.0
 10
3.687147089409058
 20
-6.997719743398975
 30
0.0
 10
3.687147089409058
 20
-6.997719743398975
 30
0.0
 10
3.871355208703107
 20
-6.491634752610353
 30
0.0
 10
3.871355208703107
 20
-6.491634752610353
 30
0.0
  0
SPLINE
  5
9F
330
70
100
AcDbEntity
  8
Layer 1
100
AcDbSpline
210
0.0
220
0.0
230
1.0
 70
    11
 71
     3
 72
    17
 73
    13
 74
     0
 42
0.0000000001
 43
0.0000000001
 40
0.0
 40
0.0
 40
0.0
 40
0.0
 40
1.0
 40
1.0
 40
1.0
 40
2.0
 40
2.0
 40
2.0
 40
3.0
 40
3.0
 40
3.0
 40
4.0
 40
4.0
 40
4.0
 40
4.0
 10
4.722008392324823
 20
-6.506773688454737
 30
0.0
 10
4.722008392324823
 20
-6.506773688454737
 30
0.0
 10
5.008400668048225
 20
-6.506773688454737
 30
0.0
 10
5.008400668048225
 20
-6.506773688454737
 30
0.0
 10
5.008400668048225
 20
-6.506773688454737
 30
0.0
 10
4.970632883745211
 20
-6.610475740637411
 30
0.0
 10
4.970632883745211
 20
-6.610475740637411
 30
0.0
 10
4.970632883745211
 20
-6.610475740637411
 30
0.0
 10
4.684240608021809
 20
-6.610475740637411
 30
0.0
 10
4.684240608021809
 20
-6.610475740637411
 30
0.0
 10
4.684240608021809
 20
-6.610475740637411
 30
0.0
 10
4.722008392324823
 20
-6.506773688454737
 30
0.0
 10
4.722008392324823
 20
-6.506773688454737
 30
0.0
  0
SPLINE
  5
A0
330
70
100
AcDbEntity
  8
Layer 1
100
AcDbSpline
210
0.0
220
0.0
230
1.0
 70
     9
 71
     3
 72
    35
 73
    31
 74
     0
 42
0.0000000001
 43
0.0000000001
 40
0.0
 40
0.0
 40
0.0
 40
0.0
 40
1.0
 40
1.0
 40
1.0
 40
2.0
 40
2.0
 40
2.0
 40
3.0
 40
3.0
 40
3.0
 40
4.0
 40
4.0
 40
4.0
 40
5.0
 40
5.0
 40
5.0
 40
6.0
 40
6.0
 40
6.0
 40
7.0
 40
7.0
 40
7.0
 40
8.0
 40
8.0
 40
8.0
 40
9.0
 40
9.0
 40
9.0
 40
10.0
 40
10.0
 40
10.0
 40
10.0
 10
5.043202942834492
 20
-7.468940962660225
 30
0.0
 10
4.907334190485445
 20
-7.468940962660225
 30
0.0
 10
4.780270209644337
 20
-7.57314865471441
 30
0.0
 10
4.713817612089465
 20
-7.755829116867667
 30
0.0
 10
4.645418593870847
 20
-7.943632355170974
 30
0.0
 10
4.699892016708973
 20
-8.042676273247682
 30
0.0
 10
4.833135931964331
 20
-8.042676273247682
 30
0.0
 10
4.932095902108685
 20
-8.042676273247682
 30
0.0
 10
5.025510428025047
 20
-7.988625518487474
 30
0.0
 10
5.077233091870994
 20
-7.894787348354459
 30
0.0
 10
5.077233091870994
 20
-7.894787348354459
 30
0.0
 10
5.26465465992381
 20
-7.895591686682892
 30
0.0
 10
5.26465465992381
 20
-7.895591686682892
 30
0.0
 10
5.185631347570809
 20
-8.057278332780596
 30
0.0
 10
4.995289172383636
 20
-8.206944806334124
 30
0.0
 10
4.770281381834971
 20
-8.206944806334124
 30
0.0
 10
4.53545363548033
 20
-8.206944806334124
 30
0.0
 10
4.421426963758941
 20
-8.042252629031002
 30
0.0
 10
4.525718603745468
 20
-7.755829116867667
 30
0.0
 10
4.630265015945218
 20
-7.468475344477383
 30
0.0
 10
4.866870310960166
 20
-7.304713427401186
 30
0.0
 10
5.098650552143226
 20
-7.304713427401186
 30
0.0
 10
5.301817238203006
 20
-7.304713427401186
 30
0.0
 10
5.412797380891535
 20
-7.421322962250061
 30
0.0
 10
5.36344478192599
 20
-7.624151904303011
 30
0.0
 10
5.36344478192599
 20
-7.624151904303011
 30
0.0
 10
5.17576941779867
 20
-7.624151904303011
 30
0.0
 10
5.17576941779867
 20
-7.624151904303011
 30
0.0
 10
5.196763233854223
 20
-7.527647899248878
 30
0.0
 10
5.144785797795015
 20
-7.468940962660225
 30
0.0
 10
5.043202942834492
 20
-7.468940962660225
 30
0.0
  0
SPLINE
  5
A1
330
70
100
AcDbEntity
  8
Layer 1
100
AcDbSpline
210
0.0
220
0.0
230
1.0
 70
    11
 71
     3
 72
    41
 73
    37
 74
     0
 42
0.0000000001
 43
0.0000000001
 40
0.0
 40
0.0
 40
0.0
 40
0.0
 40
1.0
 40
1.0
 40
1.0
 40
2.0
 40
2.0
 40
2.0
 40
3.0
 40
3.0
 40
3.0
 40
4.0
 40
4.0
 40
4.0
 40
5.0
 40
5.0
 40
5.0
 40
6.0
 40
6.0
 40
6.0
 40
7.0
 40
7.0
 40
7.0
 40
8.0
 40
8.0
 40
8.0
 40
9.0
 40
9.0
 40
9.0
 40
10.0
 40
10.0
 40
10.0
 40
11.0
 40
11.0
 40
11.0
 40
12.0
 40
12.0
 40
12.0
 40
12.0
 10
5.365899770877477
 20
-6.119529685693174
 30
0.0
 10
5.365899770877477
 20
-6.119529685693174
 30
0.0
 10
5.528772425554152
 20
-6.119529685693174
 30
0.0
 10
5.528772425554152
 20
-6.119529685693174
 30
0.0
 10
5.528772425554152
 20
-6.119529685693174
 30
0.0
 10
5.706585859909359
 20
-6.671805562042234
 30
0.0
 10
5.706585859909359
 20
-6.671805562042234
 30
0.0
 10
5.706585859909359
 20
-6.671805562042234
 30
0.0
 10
5.714288570770652
 20
-6.671805562042234
 30
0.0
 10
5.714288570770652
 20
-6.671805562042234
 30
0.0
 10
5.714288570770652
 20
-6.671805562042234
 30
0.0
 10
5.915297014058372
 20
-6.119529685693174
 30
0.0
 10
5.915297014058372
 20
-6.119529685693174
 30
0.0
 10
5.915297014058372
 20
-6.119529685693174
 30
0.0
 10
6.100009797085198
 20
-6.119529685693174
 30
0.0
 10
6.100009797085198
 20
-6.119529685693174
 30
0.0
 10
6.100009797085198
 20
-6.119529685693174
 30
0.0
 10
5.780360474213794
 20
-6.997719743398975
 30
0.0
 10
5.780360474213794
 20
-6.997719743398975
 30
0.0
 10
5.780360474213794
 20
-6.997719743398975
 30
0.0
 10
5.620112656630781
 20
-6.997719743398975
 30
0.0
 10
5.620112656630781
 20
-6.997719743398975
 30
0.0
 10
5.620112656630781
 20
-6.997719743398975
 30
0.0
 10
5.439463539212334
 20
-6.444936274900909
 30
0.0
 10
5.439463539212334
 20
-6.444936274900909
 30
0.0
 10
5.439463539212334
 20
-6.444936274900909
 30
0.0
 10
5.433029808723555
 20
-6.444936274900909
 30
0.0
 10
5.433029808723555
 20
-6.444936274900909
 30
0.0
 10
5.433029808723555
 20
-6.444936274900909
 30
0.0
 10
5.231809543327496
 20
-6.997719743398975
 30
0.0
 10
5.231809543327496
 20
-6.997719743398975
 30
0.0
 10
5.231809543327496
 20
-6.997719743398975
 30
0.0
 10
5.046250448006073
 20
-6.997719743398975
 30
0.0
 10
5.046250448006073
 20
-6.997719743398975
 30
0.0
 10
5.046250448006073
 20
-6.997719743398975
 30
0.0
 10
5.365899770877477
 20
-6.119529685693174
 30
0.0
 10
5.365899770877477
 20
-6.119529685693174
 30
0.0
  0
SPLINE
  5
A2
330
70
100
AcDbEntity
  8
Layer 1
100
AcDbSpline
210
0.0
220
0.0
230
1.0
 70
    11
 71
     3
 72
    17
 73
    13
 74
     0
 42
0.0000000001
 43
0.0000000001
 40
0.0
 40
0.0
 40
0.0
 40
0.0
 40
1.0
 40
1.0
 40
1.0
 40
2.0
 40
2.0
 40
2.0
 40
3.0
 40
3.0
 40
3.0
 40
4.0
 40
4.0
 40
4.0
 40
4.0
 10
6.439468879710678
 20
-6.119529685693174
 30
0.0
 10
6.439468879710678
 20
-6.119529685693174
 30
0.0
 10
6.119818580700539
 20
-6.997719743398975
 30
0.0
 10
6.119818580700539
 20
-6.997719743398975
 30
0.0
 10
6.119818580700539
 20
-6.997719743398975
 30
0.0
 10
5.934259485379116
 20
-6.997719743398975
 30
0.0
 10
5.934259485379116
 20
-6.997719743398975
 30
0.0
 10
5.934259485379116
 20
-6.997719743398975
 30
0.0
 10
6.253909784389255
 20
-6.119529685693174
 30
0.0
 10
6.253909784389255
 20
-6.119529685693174
 30
0.0
 10
6.253909784389255
 20
-6.119529685693174
 30
0.0
 10
6.439468879710678
 20
-6.119529685693174
 30
0.0
 10
6.439468879710678
 20
-6.119529685693174
 30
0.0
  0
SPLINE
  5
A3
330
70
100
AcDbEntity
  8
Layer 1
100
AcDbSpline
210
0.0
220
0.0
230
1.0
 70
     9
 71
     3
 72
    35
 73
    31
 74
     0
 42
0.0000000001
 43
0.0000000001
 40
0.0
 40
0.0
 40
0.0
 40
0.0
 40
1.0
 40
1.0
 40
1.0
 40
2.0
 40
2.0
 40
2.0
 40
3.0
 40
3.0
 40
3.0
 40
4.0
 40
4.0
 40
4.0
 40
5.0
 40
5.0
 40
5.0
 40
6.0
 40
6.0
 40
6.0
 40
7.0
 40
7.0
 40
7.0
 40
8.0
 40
8.0
 40
8.0
 40
9.0
 40
9.0
 40
9.0
 40
10.0
 40
10.0
 40
10.0
 40
10.0
 10
6.990686621656802
 20
-6.107509513148973
 30
0.0
 10
7.193769359784255
 20
-6.107509513148973
 30
0.0
 10
7.304749502472784
 20
-6.224119047997848
 30
0.0
 10
7.25531197943615
 20
-6.426947013912037
 30
0.0
 10
7.25531197943615
 20
-6.426947013912037
 30
0.0
 10
7.067635639170096
 20
-6.426947013912037
 30
0.0
 10
7.067635639170096
 20
-6.426947013912037
 30
0.0
 10
7.088630431364385
 20
-6.330484982824095
 30
0.0
 10
7.036737919376264
 20
-6.27177804623544
 30
0.0
 10
6.935154088276981
 20
-6.27177804623544
 30
0.0
 10
6.799286312066694
 20
-6.27177804623544
 30
0.0
 10
6.672222331225586
 20
-6.375985738289626
 30
0.0
 10
6.605726783565791
 20
-6.558625202615454
 30
0.0
 10
6.537411713279525
 20
-6.746427464780026
 30
0.0
 10
6.591759214219134
 20
-6.845471382856707
 30
0.0
 10
6.72508805354558
 20
-6.845471382856707
 30
0.0
 10
6.8240470475512
 20
-6.845471382856707
 30
0.0
 10
6.917376649396474
 20
-6.79146260206269
 30
0.0
 10
6.969184237313507
 20
-6.697582457963486
 30
0.0
 10
6.969184237313507
 20
-6.697582457963486
 30
0.0
 10
7.156521857433972
 20
-6.698386796291944
 30
0.0
 10
7.156521857433972
 20
-6.698386796291944
 30
0.0
 10
7.077540519047134
 20
-6.860116392494571
 30
0.0
 10
6.887240317826151
 20
-7.009740892081936
 30
0.0
 10
6.662317451348548
 20
-7.009740892081936
 30
0.0
 10
6.427405757061579
 20
-7.009740892081936
 30
0.0
 10
6.313378109201443
 20
-6.84504773864003
 30
0.0
 10
6.417627775221792
 20
-6.558625202615454
 30
0.0
 10
6.522217137526467
 20
-6.271270454086409
 30
0.0
 10
6.758864406507578
 20
-6.107509513148973
 30
0.0
 10
6.990686621656802
 20
-6.107509513148973
 30
0.0
  0
SPLINE
  5
A4
330
70
100
AcDbEntity
  8
Layer 1
100
AcDbSpline
210
0.0
220
0.0
230
1.0
 70
    11
 71
     3
 72
    17
 73
    13
 74
     0
 42
0.0000000001
 43
0.0000000001
 40
0.0
 40
0.0
 40
0.0
 40
0.0
 40
1.0
 40
1.0
 40
1.0
 40
2.0
 40
2.0
 40
2.0
 40
3.0
 40
3.0
 40
3.0
 40
4.0
 40
4.0
 40
4.0
 40
4.0
 10
8.290956145627912
 20
-7.316692602117957
 30
0.0
 10
8.290956145627912
 20
-7.316692602117957
 30
0.0
 10
7.971306822756509
 20
-8.194924633789948
 30
0.0
 10
7.971306822756509
 20
-8.194924633789948
 30
0.0
 10
7.971306822756509
 20
-8.194924633789948
 30
0.0
 10
7.785746751296326
 20
-8.194924633789948
 30
0.0
 10
7.785746751296326
 20
-8.194924633789948
 30
0.0
 10
7.785746751296326
 20
-8.194924633789948
 30
0.0
 10
8.105397050306489
 20
-7.316692602117957
 30
0.0
 10
8.105397050306489
 20
-7.316692602117957
 30
0.0
 10
8.105397050306489
 20
-7.316692602117957
 30
0.0
 10
8.290956145627912
 20
-7.316692602117957
 30
0.0
 10
8.290956145627912
 20
-7.316692602117957
 30
0.0
  0
SPLINE
  5
A5
330
70
100
AcDbEntity
  8
Layer 1
100
AcDbSpline
210
0.0
220
0.0
230
1.0
 70
     9
 71
     3
 72
    23
 73
    19
 74
     0
 42
0.0000000001
 43
0.0000000001
 40
0.0
 40
0.0
 40
0.0
 40
0.0
 40
1.0
 40
1.0
 40
1.0
 40
2.0
 40
2.0
 40
2.0
 40
3.0
 40
3.0
 40
3.0
 40
4.0
 40
4.0
 40
4.0
 40
5.0
 40
5.0
 40
5.0
 40
6.0
 40
6.0
 40
6.0
 40
6.0
 10
-0.6714960734049479
 20
-5.689540439181857
 30
0.0
 10
-1.185479058159722
 20
-5.689540439181857
 30
0.0
 10
-1.630908542209201
 20
-6.200656467013888
 30
0.0
 10
-1.779925028483072
 20
-6.961393568250867
 30
0.0
 10
-1.779925028483072
 20
-6.961393568250867
 30
0.0
 10
-2.408260769314236
 20
-10.16861216227213
 30
0.0
 10
-2.408260769314236
 20
-10.16861216227213
 30
0.0
 10
-2.408260769314236
 20
-10.16861216227213
 30
0.0
 10
9.551699320475259
 20
-10.16861216227213
 30
0.0
 10
9.551699320475259
 20
-10.16861216227213
 30
0.0
 10
10.10799068874783
 20
-10.16861216227213
 30
0.0
 10
10.59017774793836
 20
-9.614894443088106
 30
0.0
 10
10.75161743164062
 20
-8.790786743164062
 30
0.0
 10
10.75161743164062
 20
-8.790786743164062
 30
0.0
 10
11.35922241210937
 20
-5.689540439181857
 30
0.0
 10
11.35922241210937
 20
-5.689540439181857
 30
0.0
 10
11.35922241210937
 20
-5.689540439181857
 30
0.0
 10
-0.6714960734049479
 20
-5.689540439181857
 30
0.0
 10
-0.6714960734049479
 20
-5.689540439181857
 30
0.0
  0
HATCH
  5
A6
330
70
100
AcDbEntity
  8
Layer 1
 62
   250
420
  2301728
440
 33554687
100
AcDbHatch
 10
0.0
 20
0.0
 30
0.0
210
0.0
220
0.0
230
1.0
  2
SOLID
 70
     1
 71
     1
 91
       45
 92
        1
 93
        1
 72
     4
 94
        3
 73
     0
 74
     0
 95
       44
 96
       40
 40
0.0
 40
0.0
 40
0.0
 40
0.0
 40
1.0
 40
1.0
 40
1.0
 40
2.0
 40
2.0
 40
2.0
 40
3.0
 40
3.0
 40
3.0
 40
4.0
 40
4.0
 40
4.0
 40
5.0
 40
5.0
 40
5.0
 40
6.0
 40
6.0
 40
6.0
 40
7.0
 40
7.0
 40
7.0
 40
8.0
 40
8.0
 40
8.0
 40
9.0
 40
9.0
 40
9.0
 40
10.0
 40
10.0
 40
10.0
 40
11.0
 40
11.0
 40
11.0
 40
12.0
 40
12.0
 40
12.0
 40
13.0
 40
13.0
 40
13.0
 40
13.0
 10
9.999507414659799
 20
-7.600618175224881
 10
9.999507414659799
 20
-7.600618175224881
 10
9.810984762099122
 20
-7.600618175224881
 10
9.810984762099122
 20
-7.600618175224881
 10
9.817418492587876
 20
-7.51829356162577
 10
9.770605806644905
 20
-7.468940962660225
 10
9.675032061817747
 20
-7.468940962660225
 10
9.540941834267767
 20
-7.468940962660225
 10
9.412015380695265
 20
-7.572302342419789
 10
9.345562783140367
 20
-7.754940830606882
 10
9.278686541368818
 20
-7.938468581193496
 10
9.328632632693217
 20
-8.042676273247682
 10
9.467970582153004
 20
-8.042676273247682
 10
9.591395517741172
 20
-8.042676273247682
 10
9.690608307821294
 20
-7.973598838599122
 10
9.732934660077969
 20
-7.8646929907503
 10
9.732934660077969
 20
-7.8646929907503
 10
9.544328059584939
 20
-7.8646929907503
 10
9.544328059584939
 20
-7.8646929907503
 10
9.544328059584939
 20
-7.8646929907503
 10
9.595119487065201
 20
-7.724931397073835
 10
9.595119487065201
 20
-7.724931397073835
 10
9.595119487065201
 20
-7.724931397073835
 10
9.962513708384019
 20
-7.724931397073835
 10
9.962513708384019
 20
-7.724931397073835
 10
9.962513708384019
 20
-7.724931397073835
 10
9.922218700862154
 20
-7.835614793582938
 10
9.922218700862154
 20
-7.835614793582938
 10
9.838073588497838
 20
-8.066675620508627
 10
9.628896816165958
 20
-8.206944806334124
 10
9.407275250934464
 20
-8.206944806334124
 10
9.160003687818944
 20
-8.206944806334124
 10
9.055626147622609
 20
-8.034548942030925
 10
9.156786334505188
 20
-7.756676405301024
 10
9.260401510339255
 20
-7.471903543760718
 10
9.499970362593456
 20
-7.304713427401186
 10
9.731834551708844
 20
-7.304713427401186
 10
9.930261108007824
 20
-7.304713427401186
 10
10.03878626174486
 20
-7.426868406478054
 10
9.999507414659799
 20
-7.600618175224881
 97
        0
 97
        1
330
79
 92
        1
 93
        1
 72
     4
 94
        3
 73
     0
 74
     0
 95
       44
 96
       40
 40
0.0
 40
0.0
 40
0.0
 40
0.0
 40
1.0
 40
1.0
 40
1.0
 40
2.0
 40
2.0
 40
2.0
 40
3.0
 40
3.0
 40
3.0
 40
4.0
 40
4.0
 40
4.0
 40
5.0
 40
5.0
 40
5.0
 40
6.0
 40
6.0
 40
6.0
 40
7.0
 40
7.0
 40
7.0
 40
8.0
 40
8.0
 40
8.0
 40
9.0
 40
9.0
 40
9.0
 40
10.0
 40
10.0
 40
10.0
 40
11.0
 40
11.0
 40
11.0
 40
12.0
 40
12.0
 40
12.0
 40
13.0
 40
13.0
 40
13.0
 40
13.0
 10
9.354366578509546
 20
-9.513691010898936
 10
9.354366578509546
 20
-9.639146315083154
 10
9.268443917484924
 20
-9.715249996440585
 10
9.148152387278186
 20
-9.715249996440585
 10
9.013807387514942
 20
-9.715249996440585
 10
8.923059672658432
 20
-9.621707596348212
 10
8.923059672658432
 20
-9.470856090354496
 10
8.923059672658432
 20
-9.316279638897993
 10
9.020072246000305
 20
-9.225446999970371
 10
9.146036118472288
 20
-9.225446999970371
 10
9.253798907847061
 20
-9.225446999970371
 10
9.336927859774631
 20
-9.291815649592914
 10
9.349965168894337
 20
-9.386118461770061
 10
9.349965168894337
 20
-9.386118461770061
 10
9.247535025500457
 20
-9.386118461770061
 10
9.247535025500457
 20
-9.386118461770061
 10
9.234752488594013
 20
-9.341422044632988
 10
9.19953633097854
 20
-9.314587014308774
 10
9.147643818990419
 20
-9.314587014308774
 10
9.074758467085503
 20
-9.314587014308774
 10
9.025236019977784
 20
-9.370712063908689
 10
9.025236019977784
 20
-9.469924853988787
 10
9.025236019977784
 20
-9.569561288285587
 10
9.07289599435411
 20
-9.62610998210218
 10
9.148575055356104
 20
-9.62610998210218
 10
9.215620169131094
 20
-9.62610998210218
 10
9.255915176652958
 20
-9.588608683677394
 10
9.257270057235347
 20
-9.529436128905899
 10
9.257270057235347
 20
-9.529436128905899
 10
9.154839913841467
 20
-9.529436128905899
 10
9.154839913841467
 20
-9.529436128905899
 10
9.154839913841467
 20
-9.529436128905899
 10
9.154839913841467
 20
-9.453587219761731
 10
9.154839913841467
 20
-9.453587219761731
 10
9.154839913841467
 20
-9.453587219761731
 10
9.354366578509546
 20
-9.453587219761731
 10
9.354366578509546
 20
-9.453587219761731
 10
9.354366578509546
 20
-9.453587219761731
 10
9.354366578509546
 20
-9.513691010898936
 10
9.354366578509546
 20
-9.513691010898936
 97
        0
 97
        1
330
7A
 92
        1
 93
        1
 72
     4
 94
        3
 73
     0
 74
     0
 95
       41
 96
       37
 40
0.0
 40
0.0
 40
0.0
 40
0.0
 40
1.0
 40
1.0
 40
1.0
 40
2.0
 40
2.0
 40
2.0
 40
3.0
 40
3.0
 40
3.0
 40
4.0
 40
4.0
 40
4.0
 40
5.0
 40
5.0
 40
5.0
 40
6.0
 40
6.0
 40
6.0
 40
7.0
 40
7.0
 40
7.0
 40
8.0
 40
8.0
 40
8.0
 40
9.0
 40
9.0
 40
9.0
 40
10.0
 40
10.0
 40
10.0
 40
11.0
 40
11.0
 40
11.0
 40
12.0
 40
12.0
 40
12.0
 40
12.0
 10
8.698560450397508
 20
-8.194924633789948
 10
8.698560450397508
 20
-8.194924633789948
 10
8.517826408907971
 20
-7.642140189153122
 10
8.517826408907971
 20
-7.642140189153122
 10
8.517826408907971
 20
-7.642140189153122
 10
8.511392678419193
 20
-7.642140189153122
 10
8.511392678419193
 20
-7.642140189153122
 10
8.511392678419193
 20
-7.642140189153122
 10
8.310257337094222
 20
-8.194924633789948
 10
8.310257337094222
 20
-8.194924633789948
 10
8.310257337094222
 20
-8.194924633789948
 10
8.12469726563404
 20
-8.194924633789948
 10
8.12469726563404
 20
-8.194924633789948
 10
8.12469726563404
 20
-8.194924633789948
 10
8.444347564644203
 20
-7.316692602117957
 10
8.444347564644203
 20
-7.316692602117957
 10
8.444347564644203
 20
-7.316692602117957
 10
8.607219243182118
 20
-7.316692602117957
 10
8.607219243182118
 20
-7.316692602117957
 10
8.607219243182118
 20
-7.316692602117957
 10
8.78499070357116
 20
-7.869010452433181
 10
8.78499070357116
 20
-7.869010452433181
 10
8.78499070357116
 20
-7.869010452433181
 10
8.792694390571215
 20
-7.869010452433181
 10
8.792694390571215
 20
-7.869010452433181
 10
8.792694390571215
 20
-7.869010452433181
 10
8.993744807825096
 20
-7.316692602117957
 10
8.993744807825096
 20
-7.316692602117957
 10
8.993744807825096
 20
-7.316692602117957
 10
9.178457590851923
 20
-7.316692602117957
 10
9.178457590851923
 20
-7.316692602117957
 10
9.178457590851923
 20
-7.316692602117957
 10
8.858808267980521
 20
-8.194924633789948
 10
8.858808267980521
 20
-8.194924633789948
 10
8.858808267980521
 20
-8.194924633789948
 10
8.698560450397508
 20
-8.194924633789948
 10
8.698560450397508
 20
-8.194924633789948
 97
        0
 97
        1
330
7B
 92
        1
 93
        1
 72
     4
 94
        3
 73
     0
 74
     0
 95
       41
 96
       37
 40
0.0
 40
0.0
 40
0.0
 40
0.0
 40
1.0
 40
1.0
 40
1.0
 40
2.0
 40
2.0
 40
2.0
 40
3.0
 40
3.0
 40
3.0
 40
4.0
 40
4.0
 40
4.0
 40
5.0
 40
5.0
 40
5.0
 40
6.0
 40
6.0
 40
6.0
 40
7.0
 40
7.0
 40
7.0
 40
8.0
 40
8.0
 40
8.0
 40
9.0
 40
9.0
 40
9.0
 40
10.0
 40
10.0
 40
10.0
 40
11.0
 40
11.0
 40
11.0
 40
12.0
 40
12.0
 40
12.0
 40
12.0
 10
8.821645689701325
 20
-9.708731341880719
 10
8.821645689701325
 20
-9.708731341880719
 10
8.734621944168818
 20
-9.708731341880719
 10
8.734621944168818
 20
-9.708731341880719
 10
8.734621944168818
 20
-9.708731341880719
 10
8.527222720497244
 20
-9.408636030411393
 10
8.527222720497244
 20
-9.408636030411393
 10
8.527222720497244
 20
-9.408636030411393
 10
8.523667623176656
 20
-9.408636030411393
 10
8.523667623176656
 20
-9.408636030411393
 10
8.523667623176656
 20
-9.408636030411393
 10
8.523667623176656
 20
-9.708731341880719
 10
8.523667623176656
 20
-9.708731341880719
 10
8.523667623176656
 20
-9.708731341880719
 10
8.422930104371996
 20
-9.708731341880719
 10
8.422930104371996
 20
-9.708731341880719
 10
8.422930104371996
 20
-9.708731341880719
 10
8.422930104371996
 20
-9.231965654530236
 10
8.422930104371996
 20
-9.231965654530236
 10
8.422930104371996
 20
-9.231965654530236
 10
8.511307754348106
 20
-9.231965654530236
 10
8.511307754348106
 20
-9.231965654530236
 10
8.511307754348106
 20
-9.231965654530236
 10
8.717184201572637
 20
-9.531806193786298
 10
8.717184201572637
 20
-9.531806193786298
 10
8.717184201572637
 20
-9.531806193786298
 10
8.721331815113343
 20
-9.531806193786298
 10
8.721331815113343
 20
-9.531806193786298
 10
8.721331815113343
 20
-9.531806193786298
 10
8.721331815113343
 20
-9.231965654530236
 10
8.721331815113343
 20
-9.231965654530236
 10
8.721331815113343
 20
-9.231965654530236
 10
8.821645689701325
 20
-9.231965654530236
 10
8.821645689701325
 20
-9.231965654530236
 10
8.821645689701325
 20
-9.231965654530236
 10
8.821645689701325
 20
-9.708731341880719
 10
8.821645689701325
 20
-9.708731341880719
 97
        0
 97
        1
330
7C
 92
        1
 93
        1
 72
     4
 94
        3
 73
     0
 74
     0
 95
       17
 96
       13
 40
0.0
 40
0.0
 40
0.0
 40
0.0
 40
1.0
 40
1.0
 40
1.0
 40
2.0
 40
2.0
 40
2.0
 40
3.0
 40
3.0
 40
3.0
 40
4.0
 40
4.0
 40
4.0
 40
4.0
 10
8.313388790198157
 20
-9.708731341880719
 10
8.313388790198157
 20
-9.708731341880719
 10
8.212652247532256
 20
-9.708731341880719
 10
8.212652247532256
 20
-9.708731341880719
 10
8.212652247532256
 20
-9.708731341880719
 10
8.212652247532256
 20
-9.231965654530236
 10
8.212652247532256
 20
-9.231965654530236
 10
8.212652247532256
 20
-9.231965654530236
 10
8.313388790198157
 20
-9.231965654530236
 10
8.313388790198157
 20
-9.231965654530236
 10
8.313388790198157
 20
-9.231965654530236
 10
8.313388790198157
 20
-9.708731341880719
 10
8.313388790198157
 20
-9.708731341880719
 97
        0
 97
        1
330
7D
 92
        1
 93
        1
 72
     4
 94
        3
 73
     0
 74
     0
 95
       29
 96
       25
 40
0.0
 40
0.0
 40
0.0
 40
0.0
 40
1.0
 40
1.0
 40
1.0
 40
2.0
 40
2.0
 40
2.0
 40
3.0
 40
3.0
 40
3.0
 40
4.0
 40
4.0
 40
4.0
 40
5.0
 40
5.0
 40
5.0
 40
6.0
 40
6.0
 40
6.0
 40
7.0
 40
7.0
 40
7.0
 40
8.0
 40
8.0
 40
8.0
 40
8.0
 10
8.12122709238454
 20
-9.31509460645778
 10
8.12122709238454
 20
-9.31509460645778
 10
7.975285564293774
 20
-9.31509460645778
 10
7.975285564293774
 20
-9.31509460645778
 10
7.975285564293774
 20
-9.31509460645778
 10
7.975285564293774
 20
-9.708731341880719
 10
7.975285564293774
 20
-9.708731341880719
 10
7.975285564293774
 20
-9.708731341880719
 10
7.875649129996999
 20
-9.708731341880719
 10
7.875649129996999
 20
-9.708731341880719
 10
7.875649129996999
 20
-9.708731341880719
 10
7.875649129996999
 20
-9.31509460645778
 10
7.875649129996999
 20
-9.31509460645778
 10
7.875649129996999
 20
-9.31509460645778
 10
7.729706625767498
 20
-9.31509460645778
 10
7.729706625767498
 20
-9.31509460645778
 10
7.729706625767498
 20
-9.31509460645778
 10
7.729706625767498
 20
-9.231965654530236
 10
7.729706625767498
 20
-9.231965654530236
 10
7.729706625767498
 20
-9.231965654530236
 10
8.12122709238454
 20
-9.231965654530236
 10
8.12122709238454
 20
-9.231965654530236
 10
8.12122709238454
 20
-9.231965654530236
 10
8.12122709238454
 20
-9.31509460645778
 10
8.12122709238454
 20
-9.31509460645778
 97
        0
 97
        1
330
7E
 92
        1
 93
        1
 72
     4
 94
        3
 73
     0
 74
     0
 95
       29
 96
       25
 40
0.0
 40
0.0
 40
0.0
 40
0.0
 40
1.0
 40
1.0
 40
1.0
 40
2.0
 40
2.0
 40
2.0
 40
3.0
 40
3.0
 40
3.0
 40
4.0
 40
4.0
 40
4.0
 40
5.0
 40
5.0
 40
5.0
 40
6.0
 40
6.0
 40
6.0
 40
7.0
 40
7.0
 40
7.0
 40
8.0
 40
8.0
 40
8.0
 40
8.0
 10
7.39710589398621
 20
-8.194924633789948
 10
7.39710589398621
 20
-8.194924633789948
 10
7.213662091331924
 20
-8.194924633789948
 10
7.213662091331924
 20
-8.194924633789948
 10
7.213662091331924
 20
-8.194924633789948
 10
7.477610008820091
 20
-7.469744324849923
 10
7.477610008820091
 20
-7.469744324849923
 10
7.477610008820091
 20
-7.469744324849923
 10
7.208921961571124
 20
-7.469744324849923
 10
7.208921961571124
 20
-7.469744324849923
 10
7.208921961571124
 20
-7.469744324849923
 10
7.26462336695436
 20
-7.316692602117957
 10
7.26462336695436
 20
-7.316692602117957
 10
7.26462336695436
 20
-7.316692602117957
 10
7.985443264106581
 20
-7.316692602117957
 10
7.985443264106581
 20
-7.316692602117957
 10
7.985443264106581
 20
-7.316692602117957
 10
7.929741858723344
 20
-7.469744324849923
 10
7.929741858723344
 20
-7.469744324849923
 10
7.929741858723344
 20
-7.469744324849923
 10
7.661053811474377
 20
-7.469744324849923
 10
7.661053811474377
 20
-7.469744324849923
 10
7.661053811474377
 20
-7.469744324849923
 10
7.39710589398621
 20
-8.194924633789948
 10
7.39710589398621
 20
-8.194924633789948
 97
        0
 97
        1
330
7F
 92
        1
 93
        1
 72
     4
 94
        3
 73
     0
 74
     0
 95
       41
 96
       37
 40
0.0
 40
0.0
 40
0.0
 40
0.0
 40
1.0
 40
1.0
 40
1.0
 40
2.0
 40
2.0
 40
2.0
 40
3.0
 40
3.0
 40
3.0
 40
4.0
 40
4.0
 40
4.0
 40
5.0
 40
5.0
 40
5.0
 40
6.0
 40
6.0
 40
6.0
 40
7.0
 40
7.0
 40
7.0
 40
8.0
 40
8.0
 40
8.0
 40
9.0
 40
9.0
 40
9.0
 40
10.0
 40
10.0
 40
10.0
 40
11.0
 40
11.0
 40
11.0
 40
12.0
 40
12.0
 40
12.0
 40
12.0
 10
7.638112598616366
 20
-9.708731341880719
 10
7.638112598616366
 20
-9.708731341880719
 10
7.55108885308386
 20
-9.708731341880719
 10
7.55108885308386
 20
-9.708731341880719
 10
7.55108885308386
 20
-9.708731341880719
 10
7.343604705341198
 20
-9.408636030411393
 10
7.343604705341198
 20
-9.408636030411393
 10
7.343604705341198
 20
-9.408636030411393
 10
7.340133555952938
 20
-9.408636030411393
 10
7.340133555952938
 20
-9.408636030411393
 10
7.340133555952938
 20
-9.408636030411393
 10
7.340133555952938
 20
-9.708731341880719
 10
7.340133555952938
 20
-9.708731341880719
 10
7.340133555952938
 20
-9.708731341880719
 10
7.239312089215925
 20
-9.708731341880719
 10
7.239312089215925
 20
-9.708731341880719
 10
7.239312089215925
 20
-9.708731341880719
 10
7.239312089215925
 20
-9.231965654530236
 10
7.239312089215925
 20
-9.231965654530236
 10
7.239312089215925
 20
-9.231965654530236
 10
7.327859587334235
 20
-9.231965654530236
 10
7.327859587334235
 20
-9.231965654530236
 10
7.327859587334235
 20
-9.231965654530236
 10
7.533566186416591
 20
-9.531806193786298
 10
7.533566186416591
 20
-9.531806193786298
 10
7.533566186416591
 20
-9.531806193786298
 10
7.537798724028384
 20
-9.531806193786298
 10
7.537798724028384
 20
-9.531806193786298
 10
7.537798724028384
 20
-9.531806193786298
 10
7.537798724028384
 20
-9.231965654530236
 10
7.537798724028384
 20
-9.231965654530236
 10
7.537798724028384
 20
-9.231965654530236
 10
7.638112598616366
 20
-9.231965654530236
 10
7.638112598616366
 20
-9.231965654530236
 10
7.638112598616366
 20
-9.231965654530236
 10
7.638112598616366
 20
-9.708731341880719
 10
7.638112598616366
 20
-9.708731341880719
 97
        0
 97
        1
330
80
 92
        1
 93
        1
 72
     4
 94
        3
 73
     0
 74
     0
 95
       29
 96
       25
 40
0.0
 40
0.0
 40
0.0
 40
0.0
 40
1.0
 40
1.0
 40
1.0
 40
2.0
 40
2.0
 40
2.0
 40
3.0
 40
3.0
 40
3.0
 40
4.0
 40
4.0
 40
4.0
 40
5.0
 40
5.0
 40
5.0
 40
6.0
 40
6.0
 40
6.0
 40
7.0
 40
7.0
 40
7.0
 40
8.0
 40
8.0
 40
8.0
 40
8.0
 10
7.122321860255295
 20
-7.469744324849923
 10
7.122321860255295
 20
-7.469744324849923
 10
6.853675786972492
 20
-7.469744324849923
 10
6.853675786972492
 20
-7.469744324849923
 10
6.853675786972492
 20
-7.469744324849923
 10
6.589727869484325
 20
-8.194924633789948
 10
6.589727869484325
 20
-8.194924633789948
 10
6.589727869484325
 20
-8.194924633789948
 10
6.406285042968798
 20
-8.194924633789948
 10
6.406285042968798
 20
-8.194924633789948
 10
6.406285042968798
 20
-8.194924633789948
 10
6.670232960456965
 20
-7.469744324849923
 10
6.670232960456965
 20
-7.469744324849923
 10
6.670232960456965
 20
-7.469744324849923
 10
6.401543937069239
 20
-7.469744324849923
 10
6.401543937069239
 20
-7.469744324849923
 10
6.401543937069239
 20
-7.469744324849923
 10
6.457245342452475
 20
-7.316692602117957
 10
6.457245342452475
 20
-7.316692602117957
 10
6.457245342452475
 20
-7.316692602117957
 10
7.178023265638532
 20
-7.316692602117957
 10
7.178023265638532
 20
-7.316692602117957
 10
7.178023265638532
 20
-7.316692602117957
 10
7.122321860255295
 20
-7.469744324849923
 10
7.122321860255295
 20
-7.469744324849923
 97
        0
 97
        1
330
81
 92
        1
 93
        1
 72
     4
 94
        3
 73
     0
 74
     0
 95
       17
 96
       13
 40
0.0
 40
0.0
 40
0.0
 40
0.0
 40
1.0
 40
1.0
 40
1.0
 40
2.0
 40
2.0
 40
2.0
 40
3.0
 40
3.0
 40
3.0
 40
4.0
 40
4.0
 40
4.0
 40
4.0
 10
7.129855699113199
 20
-9.708731341880719
 10
7.129855699113199
 20
-9.708731341880719
 10
7.029034232376185
 20
-9.708731341880719
 10
7.029034232376185
 20
-9.708731341880719
 10
7.029034232376185
 20
-9.708731341880719
 10
7.029034232376185
 20
-9.231965654530236
 10
7.029034232376185
 20
-9.231965654530236
 10
7.029034232376185
 20
-9.231965654530236
 10
7.129855699113199
 20
-9.231965654530236
 10
7.129855699113199
 20
-9.231965654530236
 10
7.129855699113199
 20
-9.231965654530236
 10
7.129855699113199
 20
-9.708731341880719
 10
7.129855699113199
 20
-9.708731341880719
 97
        0
 97
        1
330
82
 92
        1
 93
        1
 72
     4
 94
        3
 73
     0
 74
     0
 95
       53
 96
       49
 40
0.0
 40
0.0
 40
0.0
 40
0.0
 40
1.0
 40
1.0
 40
1.0
 40
2.0
 40
2.0
 40
2.0
 40
3.0
 40
3.0
 40
3.0
 40
4.0
 40
4.0
 40
4.0
 40
5.0
 40
5.0
 40
5.0
 40
6.0
 40
6.0
 40
6.0
 40
7.0
 40
7.0
 40
7.0
 40
8.0
 40
8.0
 40
8.0
 40
9.0
 40
9.0
 40
9.0
 40
10.0
 40
10.0
 40
10.0
 40
11.0
 40
11.0
 40
11.0
 40
12.0
 40
12.0
 40
12.0
 40
13.0
 40
13.0
 40
13.0
 40
14.0
 40
14.0
 40
14.0
 40
15.0
 40
15.0
 40
15.0
 40
16.0
 40
16.0
 40
16.0
 40
16.0
 10
6.837210278569424
 20
-9.708731341880719
 10
6.837210278569424
 20
-9.708731341880719
 10
6.801825248950535
 20
-9.600036340001501
 10
6.801825248950535
 20
-9.600036340001501
 10
6.801825248950535
 20
-9.600036340001501
 10
6.629726130826762
 20
-9.600036340001501
 10
6.629726130826762
 20
-9.600036340001501
 10
6.629726130826762
 20
-9.600036340001501
 10
6.594341101207874
 20
-9.708731341880719
 10
6.594341101207874
 20
-9.708731341880719
 10
6.594341101207874
 20
-9.708731341880719
 10
6.486324515758572
 20
-9.708731341880719
 10
6.486324515758572
 20
-9.708731341880719
 10
6.486324515758572
 20
-9.708731341880719
 10
6.650973742956794
 20
-9.231965654530236
 10
6.650973742956794
 20
-9.231965654530236
 10
6.650973742956794
 20
-9.231965654530236
 10
6.780831432894981
 20
-9.231965654530236
 10
6.780831432894981
 20
-9.231965654530236
 10
6.780831432894981
 20
-9.231965654530236
 10
6.840841514712362
 20
-9.40600143193026
 10
6.840841514712362
 20
-9.40600143193026
 10
6.840841514712362
 20
-9.40600143193026
 10
6.738830134841438
 20
-9.405691019808347
 10
6.738830134841438
 20
-9.405691019808347
 10
6.738830134841438
 20
-9.405691019808347
 10
6.717765060657281
 20
-9.340914452483957
 10
6.717765060657281
 20
-9.340914452483957
 10
6.717765060657281
 20
-9.340914452483957
 10
6.714040115194519
 20
-9.340914452483957
 10
6.714040115194519
 20
-9.340914452483957
 10
6.714040115194519
 20
-9.340914452483957
 10
6.655376128710763
 20
-9.521309773827901
 10
6.655376128710763
 20
-9.521309773827901
 10
6.655376128710763
 20
-9.521309773827901
 10
6.776430023279772
 20
-9.521309773827901
 10
6.776430023279772
 20
-9.521309773827901
 10
6.776430023279772
 20
-9.521309773827901
 10
6.75985616347566
 20
-9.470344593650477
 10
6.75985616347566
 20
-9.470344593650477
 10
6.75985616347566
 20
-9.470344593650477
 10
6.86302914845684
 20
-9.470347522066731
 10
6.86302914845684
 20
-9.470347522066731
 10
6.86302914845684
 20
-9.470347522066731
 10
6.94522784015746
 20
-9.708731341880719
 10
6.94522784015746
 20
-9.708731341880719
 10
6.94522784015746
 20
-9.708731341880719
 10
6.837210278569424
 20
-9.708731341880719
 10
6.837210278569424
 20
-9.708731341880719
 97
        0
 97
        1
330
83
 92
        1
 93
        1
 72
     4
 94
        3
 73
     0
 74
     0
 95
       53
 96
       49
 40
0.0
 40
0.0
 40
0.0
 40
0.0
 40
1.0
 40
1.0
 40
1.0
 40
2.0
 40
2.0
 40
2.0
 40
3.0
 40
3.0
 40
3.0
 40
4.0
 40
4.0
 40
4.0
 40
5.0
 40
5.0
 40
5.0
 40
6.0
 40
6.0
 40
6.0
 40
7.0
 40
7.0
 40
7.0
 40
8.0
 40
8.0
 40
8.0
 40
9.0
 40
9.0
 40
9.0
 40
10.0
 40
10.0
 40
10.0
 40
11.0
 40
11.0
 40
11.0
 40
12.0
 40
12.0
 40
12.0
 40
13.0
 40
13.0
 40
13.0
 40
14.0
 40
14.0
 40
14.0
 40
15.0
 40
15.0
 40
15.0
 40
16.0
 40
16.0
 40
16.0
 40
16.0
 10
6.301695680664098
 20
-9.554154890424216
 10
6.301695680664098
 20
-9.554154890424216
 10
6.216958052079664
 20
-9.554154890424216
 10
6.216958052079664
 20
-9.554154890424216
 10
6.216958052079664
 20
-9.554154890424216
 10
6.216958052079664
 20
-9.708731341880719
 10
6.216958052079664
 20
-9.708731341880719
 10
6.216958052079664
 20
-9.708731341880719
 10
6.116136585342675
 20
-9.708731341880719
 10
6.116136585342675
 20
-9.708731341880719
 10
6.116136585342675
 20
-9.708731341880719
 10
6.116136585342675
 20
-9.431111625086561
 10
6.116136585342675
 20
-9.431111625086561
 10
6.116136585342675
 20
-9.431111625086561
 10
6.216958052079664
 20
-9.431111625086561
 10
6.216958052079664
 20
-9.431111625086561
 10
6.216958052079664
 20
-9.431111625086561
 10
6.216958052079664
 20
-9.473396003377072
 10
6.216958052079664
 20
-9.473396003377072
 10
6.216958052079664
 20
-9.473396003377072
 10
6.285442970508104
 20
-9.473396003377072
 10
6.285442970508104
 20
-9.473396003377072
 10
6.343175720626176
 20
-9.473396003377072
 10
6.371280707461664
 20
-9.44080468285526
 10
6.371280707461664
 20
-9.393568352695611
 10
6.371280707461664
 20
-9.346078226461459
 10
6.343175720626176
 20
-9.314418142305333
 10
6.284934402220364
 20
-9.314418142305333
 10
6.284934402220364
 20
-9.314418142305333
 10
6.216958052079664
 20
-9.314418142305333
 10
6.216958052079664
 20
-9.314418142305333
 10
6.216958052079664
 20
-9.314418142305333
 10
6.216958052079664
 20
-9.357384841580772
 10
6.216958052079664
 20
-9.357384841580772
 10
6.216958052079664
 20
-9.357384841580772
 10
6.116136585342675
 20
-9.356688854653384
 10
6.116136585342675
 20
-9.356688854653384
 10
6.116136585342675
 20
-9.356688854653384
 10
6.116136585342675
 20
-9.231965654530236
 10
6.116136585342675
 20
-9.231965654530236
 10
6.116136585342675
 20
-9.231965654530236
 10
6.304235593686674
 20
-9.231965654530236
 10
6.304235593686674
 20
-9.231965654530236
 10
6.412506951349213
 20
-9.231965654530236
 10
6.475149679370259
 20
-9.298756972230723
 10
6.475149679370259
 20
-9.393568352695611
 10
6.475149679370259
 20
-9.488718453306091
 10
6.411405866841353
 20
-9.554154890424216
 10
6.301695680664098
 20
-9.554154890424216
 97
        0
 97
        1
330
84
 92
        1
 93
        1
 72
     4
 94
        3
 73
     0
 74
     0
 95
       35
 96
       31
 40
0.0
 40
0.0
 40
0.0
 40
0.0
 40
1.0
 40
1.0
 40
1.0
 40
2.0
 40
2.0
 40
2.0
 40
3.0
 40
3.0
 40
3.0
 40
4.0
 40
4.0
 40
4.0
 40
5.0
 40
5.0
 40
5.0
 40
6.0
 40
6.0
 40
6.0
 40
7.0
 40
7.0
 40
7.0
 40
8.0
 40
8.0
 40
8.0
 40
9.0
 40
9.0
 40
9.0
 40
10.0
 40
10.0
 40
10.0
 40
10.0
 10
5.649190853798144
 20
-8.207326476584638
 10
5.430193149521553
 20
-8.207326476584638
 10
5.331996519878227
 20
-8.07916141123567
 10
5.401919290682649
 20
-7.887083661354381
 10
5.401919290682649
 20
-7.887083661354381
 10
5.609531312601297
 20
-7.316692602117957
 10
5.609531312601297
 20
-7.316692602117957
 10
5.609531312601297
 20
-7.316692602117957
 10
5.79509040792272
 20
-7.316692602117957
 10
5.79509040792272
 20
-7.316692602117957
 10
5.79509040792272
 20
-7.316692602117957
 10
5.593277626306567
 20
-7.871169671344002
 10
5.593277626306567
 20
-7.871169671344002
 10
5.556749538213655
 20
-7.971482569793225
 10
5.601150185310062
 20
-8.043946229758956
 10
5.708659178610332
 20
-8.043946229758956
 10
5.816676740198368
 20
-8.043946229758956
 10
5.913308619428486
 20
-7.971482569793225
 10
5.949835731382663
 20
-7.871169671344002
 10
5.949835731382663
 20
-7.871169671344002
 10
6.151648512998816
 20
-7.316692602117957
 10
6.151648512998816
 20
-7.316692602117957
 10
6.151648512998816
 20
-7.316692602117957
 10
6.337207608320239
 20
-7.316692602117957
 10
6.337207608320239
 20
-7.316692602117957
 10
6.337207608320239
 20
-7.316692602117957
 10
6.129596562540326
 20
-7.887083661354381
 10
6.129596562540326
 20
-7.887083661354381
 10
6.05967281559717
 20
-8.07916141123567
 10
5.867341269641378
 20
-8.207326476584638
 10
5.649190853798144
 20
-8.207326476584638
 97
        0
 97
        1
330
85
 92
        1
 93
        1
 72
     4
 94
        3
 73
     0
 74
     0
 95
       17
 96
       13
 40
0.0
 40
0.0
 40
0.0
 40
0.0
 40
1.0
 40
1.0
 40
1.0
 40
2.0
 40
2.0
 40
2.0
 40
3.0
 40
3.0
 40
3.0
 40
4.0
 40
4.0
 40
4.0
 40
4.0
 10
5.891383567007247
 20
-9.582930484579668
 10
5.839035198223755
 20
-9.582930484579668
 10
5.796597566149809
 20
-9.540493828644457
 10
5.796597566149809
 20
-9.488144483722205
 10
5.796597566149809
 20
-9.435796114938712
 10
5.839035198223755
 20
-9.393358482864767
 10
5.891383567007247
 20
-9.393358482864767
 10
5.943731935790739
 20
-9.393358482864767
 10
5.986169567864686
 20
-9.435796114938712
 10
5.986169567864686
 20
-9.488144483722205
 10
5.986169567864686
 20
-9.540493828644457
 10
5.943731935790739
 20
-9.582930484579668
 10
5.891383567007247
 20
-9.582930484579668
 97
        0
 97
        1
330
86
 92
        1
 93
        1
 72
     4
 94
        3
 73
     0
 74
     0
 95
       41
 96
       37
 40
0.0
 40
0.0
 40
0.0
 40
0.0
 40
1.0
 40
1.0
 40
1.0
 40
2.0
 40
2.0
 40
2.0
 40
3.0
 40
3.0
 40
3.0
 40
4.0
 40
4.0
 40
4.0
 40
5.0
 40
5.0
 40
5.0
 40
6.0
 40
6.0
 40
6.0
 40
7.0
 40
7.0
 40
7.0
 40
8.0
 40
8.0
 40
8.0
 40
9.0
 40
9.0
 40
9.0
 40
10.0
 40
10.0
 40
10.0
 40
11.0
 40
11.0
 40
11.0
 40
12.0
 40
12.0
 40
12.0
 40
12.0
 10
5.64969844594715
 20
-9.708731341880719
 10
5.64969844594715
 20
-9.708731341880719
 10
5.562675676553403
 20
-9.708731341880719
 10
5.562675676553403
 20
-9.708731341880719
 10
5.562675676553403
 20
-9.708731341880719
 10
5.355275476743094
 20
-9.408636030411393
 10
5.355275476743094
 20
-9.408636030411393
 10
5.355275476743094
 20
-9.408636030411393
 10
5.351720379422482
 20
-9.408636030411393
 10
5.351720379422482
 20
-9.408636030411393
 10
5.351720379422482
 20
-9.408636030411393
 10
5.351720379422482
 20
-9.708731341880719
 10
5.351720379422482
 20
-9.708731341880719
 10
5.351720379422482
 20
-9.708731341880719
 10
5.250982860617821
 20
-9.708731341880719
 10
5.250982860617821
 20
-9.708731341880719
 10
5.250982860617821
 20
-9.708731341880719
 10
5.250982860617821
 20
-9.231965654530236
 10
5.250982860617821
 20
-9.231965654530236
 10
5.250982860617821
 20
-9.231965654530236
 10
5.339360510593956
 20
-9.231965654530236
 10
5.339360510593956
 20
-9.231965654530236
 10
5.339360510593956
 20
-9.231965654530236
 10
5.545236957818486
 20
-9.531806193786298
 10
5.545236957818486
 20
-9.531806193786298
 10
5.545236957818486
 20
-9.531806193786298
 10
5.549384571359192
 20
-9.531806193786298
 10
5.549384571359192
 20
-9.531806193786298
 10
5.549384571359192
 20
-9.531806193786298
 10
5.549384571359192
 20
-9.231965654530236
 10
5.549384571359192
 20
-9.231965654530236
 10
5.549384571359192
 20
-9.231965654530236
 10
5.64969844594715
 20
-9.231965654530236
 10
5.64969844594715
 20
-9.231965654530236
 10
5.64969844594715
 20
-9.231965654530236
 10
5.64969844594715
 20
-9.708731341880719
 10
5.64969844594715
 20
-9.708731341880719
 97
        0
 97
        1
330
87
 92
        1
 93
        1
 72
     4
 94
        3
 73
     0
 74
     0
 95
       44
 96
       40
 40
0.0
 40
0.0
 40
0.0
 40
0.0
 40
1.0
 40
1.0
 40
1.0
 40
2.0
 40
2.0
 40
2.0
 40
3.0
 40
3.0
 40
3.0
 40
4.0
 40
4.0
 40
4.0
 40
5.0
 40
5.0
 40
5.0
 40
6.0
 40
6.0
 40
6.0
 40
7.0
 40
7.0
 40
7.0
 40
8.0
 40
8.0
 40
8.0
 40
9.0
 40
9.0
 40
9.0
 40
10.0
 40
10.0
 40
10.0
 40
11.0
 40
11.0
 40
11.0
 40
12.0
 40
12.0
 40
12.0
 40
13.0
 40
13.0
 40
13.0
 40
13.0
 10
5.148637641295029
 20
-9.513691010898936
 10
5.148637641295029
 20
-9.639146315083154
 10
5.062714980270407
 20
-9.715249996440585
 10
4.942423450063667
 20
-9.715249996440585
 10
4.808079426439184
 20
-9.715249996440585
 10
4.717288761477726
 20
-9.621707596348212
 10
4.717288761477726
 20
-9.470856090354496
 10
4.717288761477726
 20
-9.316279638897993
 10
4.814343308785788
 20
-9.225446999970371
 10
4.940307181257771
 20
-9.225446999970371
 10
5.048069970632544
 20
-9.225446999970371
 10
5.131198922560113
 20
-9.291815649592914
 10
5.14423623167982
 20
-9.386118461770061
 10
5.14423623167982
 20
-9.386118461770061
 10
5.04180608828594
 20
-9.386118461770061
 10
5.04180608828594
 20
-9.386118461770061
 10
5.029023551379496
 20
-9.341422044632988
 10
4.993807393764023
 20
-9.314587014308774
 10
4.941914881775901
 20
-9.314587014308774
 10
4.869029529870986
 20
-9.314587014308774
 10
4.819507082763266
 20
-9.370712063908689
 10
4.819507082763266
 20
-9.469924853988787
 10
4.819507082763266
 20
-9.569561288285587
 10
4.867167057139592
 20
-9.62610998210218
 10
4.942846118141586
 20
-9.62610998210218
 10
5.009891231916577
 20
-9.62610998210218
 10
5.05018623943844
 20
-9.588608683677394
 10
5.051541120020829
 20
-9.529436128905899
 10
5.051541120020829
 20
-9.529436128905899
 10
4.949110976626949
 20
-9.529436128905899
 10
4.949110976626949
 20
-9.529436128905899
 10
4.949110976626949
 20
-9.529436128905899
 10
4.949110976626949
 20
-9.453587219761731
 10
4.949110976626949
 20
-9.453587219761731
 10
4.949110976626949
 20
-9.453587219761731
 10
5.148637641295029
 20
-9.453587219761731
 10
5.148637641295029
 20
-9.453587219761731
 10
5.148637641295029
 20
-9.453587219761731
 10
5.148637641295029
 20
-9.513691010898936
 10
5.148637641295029
 20
-9.513691010898936
 97
        0
 97
        1
330
88
 92
        1
 93
        1
 72
     4
 94
        3
 73
     0
 74
     0
 95
       17
 96
       13
 40
0.0
 40
0.0
 40
0.0
 40
0.0
 40
1.0
 40
1.0
 40
1.0
 40
2.0
 40
2.0
 40
2.0
 40
3.0
 40
3.0
 40
3.0
 40
4.0
 40
4.0
 40
4.0
 40
4.0
 10
4.61617054856131
 20
-9.708731341880719
 10
4.61617054856131
 20
-9.708731341880719
 10
4.515349081824322
 20
-9.708731341880719
 10
4.515349081824322
 20
-9.708731341880719
 10
4.515349081824322
 20
-9.708731341880719
 10
4.515349081824322
 20
-9.231965654530236
 10
4.515349081824322
 20
-9.231965654530236
 10
4.515349081824322
 20
-9.231965654530236
 10
4.61617054856131
 20
-9.231965654530236
 10
4.61617054856131
 20
-9.231965654530236
 10
4.61617054856131
 20
-9.231965654530236
 10
4.61617054856131
 20
-9.708731341880719
 10
4.61617054856131
 20
-9.708731341880719
 97
        0
 97
        1
330
89
 92
        1
 93
        1
 72
     4
 94
        3
 73
     0
 74
     0
 95
       53
 96
       49
 40
0.0
 40
0.0
 40
0.0
 40
0.0
 40
1.0
 40
1.0
 40
1.0
 40
2.0
 40
2.0
 40
2.0
 40
3.0
 40
3.0
 40
3.0
 40
4.0
 40
4.0
 40
4.0
 40
5.0
 40
5.0
 40
5.0
 40
6.0
 40
6.0
 40
6.0
 40
7.0
 40
7.0
 40
7.0
 40
8.0
 40
8.0
 40
8.0
 40
9.0
 40
9.0
 40
9.0
 40
10.0
 40
10.0
 40
10.0
 40
11.0
 40
11.0
 40
11.0
 40
12.0
 40
12.0
 40
12.0
 40
13.0
 40
13.0
 40
13.0
 40
14.0
 40
14.0
 40
14.0
 40
15.0
 40
15.0
 40
15.0
 40
16.0
 40
16.0
 40
16.0
 40
16.0
 10
4.236248562549286
 20
-9.715503792515088
 10
4.120527313961184
 20
-9.715503792515088
 10
4.046709749551824
 20
-9.662172452012251
 10
4.044170812667996
 20
-9.55906486832719
 10
4.044170812667996
 20
-9.55906486832719
 10
4.141690978158887
 20
-9.55906486832719
 10
4.141690978158887
 20
-9.55906486832719
 10
4.144992279404984
 20
-9.60680879063587
 10
4.182662449833186
 20
-9.631019960005156
 10
4.235062553970325
 20
-9.631019960005156
 10
4.286277625667265
 20
-9.631019960005156
 10
4.319334564371918
 20
-9.60723243485255
 10
4.319546386480257
 20
-9.572271049450337
 10
4.319334564371918
 20
-9.540187321077558
 10
4.290468189312895
 20
-9.525288515365192
 10
4.238533703358598
 20
-9.512674850462138
 10
4.238533703358598
 20
-9.512674850462138
 10
4.186641191370477
 20
-9.499638517481166
 10
4.186641191370477
 20
-9.499638517481166
 10
4.106094126431672
 20
-9.480337326014856
 10
4.056529705357787
 20
-9.440127242564079
 10
4.056741527466126
 20
-9.36978082754298
 10
4.056275909283272
 20
-9.283180726227175
 10
4.132887182789709
 20
-9.225446999970371
 10
4.237390644884562
 20
-9.225446999970371
 10
4.343545733741216
 20
-9.225446999970371
 10
4.413384556613284
 20
-9.284111962592861
 10
4.414781411161836
 20
-9.369103387251799
 10
4.414781411161836
 20
-9.369103387251799
 10
4.318192482036629
 20
-9.369103387251799
 10
4.318192482036629
 20
-9.369103387251799
 10
4.314467536573854
 20
-9.331602088827013
 10
4.284880771118726
 20
-9.309761960476862
 10
4.236671230627217
 20
-9.309761960476862
 10
4.187318631661658
 20
-9.309761960476862
 10
4.16010290722569
 20
-9.332279529118219
 10
4.16010290722569
 20
-9.363008376908611
 10
4.159383492968332
 20
-9.3972932981584
 10
4.194091082296028
 20
-9.412614771948684
 10
4.235528172153181
 20
-9.422180931680133
 10
4.235528172153181
 20
-9.422180931680133
 10
4.278363092697619
 20
-9.432423555564026
 10
4.278363092697619
 20
-9.432423555564026
 10
4.361238248550661
 20
-9.451047306739155
 10
4.42104529350844
 20
-9.493204786992412
 10
4.421299089582943
 20
-9.57252484552484
 10
4.42104529350844
 20
-9.659801410993091
 10
4.352646275289822
 20
-9.715503792515088
 10
4.236248562549286
 20
-9.715503792515088
 97
        0
 97
        1
330
8A
 92
        1
 93
        1
 72
     4
 94
        3
 73
     0
 74
     0
 95
       41
 96
       37
 40
0.0
 40
0.0
 40
0.0
 40
0.0
 40
1.0
 40
1.0
 40
1.0
 40
2.0
 40
2.0
 40
2.0
 40
3.0
 40
3.0
 40
3.0
 40
4.0
 40
4.0
 40
4.0
 40
5.0
 40
5.0
 40
5.0
 40
6.0
 40
6.0
 40
6.0
 40
7.0
 40
7.0
 40
7.0
 40
8.0
 40
8.0
 40
8.0
 40
9.0
 40
9.0
 40
9.0
 40
10.0
 40
10.0
 40
10.0
 40
11.0
 40
11.0
 40
11.0
 40
12.0
 40
12.0
 40
12.0
 40
12.0
 10
3.953549995848725
 20
-9.708731341880719
 10
3.953549995848725
 20
-9.708731341880719
 10
3.631360759954746
 20
-9.708731341880719
 10
3.631360759954746
 20
-9.708731341880719
 10
3.631360759954746
 20
-9.708731341880719
 10
3.631360759954746
 20
-9.231965654530236
 10
3.631360759954746
 20
-9.231965654530236
 10
3.631360759954746
 20
-9.231965654530236
 10
3.952618759483028
 20
-9.231965654530236
 10
3.952618759483028
 20
-9.231965654530236
 10
3.952618759483028
 20
-9.231965654530236
 10
3.952618759483028
 20
-9.31509460645778
 10
3.952618759483028
 20
-9.31509460645778
 10
3.952618759483028
 20
-9.31509460645778
 10
3.732139276586824
 20
-9.31509460645778
 10
3.732139276586824
 20
-9.31509460645778
 10
3.732139276586824
 20
-9.31509460645778
 10
3.732139276586824
 20
-9.428699586239998
 10
3.732139276586824
 20
-9.428699586239998
 10
3.732139276586824
 20
-9.428699586239998
 10
3.936068327008872
 20
-9.428699586239998
 10
3.936068327008872
 20
-9.428699586239998
 10
3.936068327008872
 20
-9.428699586239998
 10
3.936068327008872
 20
-9.511828538167542
 10
3.936068327008872
 20
-9.511828538167542
 10
3.936068327008872
 20
-9.511828538167542
 10
3.732139276586824
 20
-9.511828538167542
 10
3.732139276586824
 20
-9.511828538167542
 10
3.732139276586824
 20
-9.511828538167542
 10
3.732139276586824
 20
-9.625602389953174
 10
3.732139276586824
 20
-9.625602389953174
 10
3.732139276586824
 20
-9.625602389953174
 10
3.953549995848725
 20
-9.625602389953174
 10
3.953549995848725
 20
-9.625602389953174
 10
3.953549995848725
 20
-9.625602389953174
 10
3.953549995848725
 20
-9.708731341880719
 10
3.953549995848725
 20
-9.708731341880719
 97
        0
 97
        1
330
8B
 92
        1
 93
        1
 72
     4
 94
        3
 73
     0
 74
     0
 95
       47
 96
       43
 40
0.0
 40
0.0
 40
0.0
 40
0.0
 40
1.0
 40
1.0
 40
1.0
 40
2.0
 40
2.0
 40
2.0
 40
3.0
 40
3.0
 40
3.0
 40
4.0
 40
4.0
 40
4.0
 40
5.0
 40
5.0
 40
5.0
 40
6.0
 40
6.0
 40
6.0
 40
7.0
 40
7.0
 40
7.0
 40
8.0
 40
8.0
 40
8.0
 40
9.0
 40
9.0
 40
9.0
 40
10.0
 40
10.0
 40
10.0
 40
11.0
 40
11.0
 40
11.0
 40
12.0
 40
12.0
 40
12.0
 40
13.0
 40
13.0
 40
13.0
 40
14.0
 40
14.0
 40
14.0
 40
14.0
 10
3.296981503374404
 20
-9.708731341880719
 10
3.296981503374404
 20
-9.708731341880719
 10
3.127971864388377
 20
-9.708731341880719
 10
3.127971864388377
 20
-9.708731341880719
 10
3.127971864388377
 20
-9.708731341880719
 10
3.127971864388377
 20
-9.530136996527035
 10
3.127971864388377
 20
-9.530136996527035
 10
3.127971864388377
 20
-9.530136996527035
 10
3.228793331125378
 20
-9.529846107180093
 10
3.228793331125378
 20
-9.529846107180093
 10
3.228793331125378
 20
-9.529846107180093
 10
3.228793331125378
 20
-9.622385036639393
 10
3.228793331125378
 20
-9.622385036639393
 10
3.228793331125378
 20
-9.622385036639393
 10
3.292790939728774
 20
-9.622385036639393
 10
3.292790939728774
 20
-9.622385036639393
 10
3.382438546216184
 20
-9.622385036639393
 10
3.429674876375833
 20
-9.576249790987629
 10
3.429674876375833
 20
-9.469924853988787
 10
3.429674876375833
 20
-9.36393961327432
 10
3.382438546216184
 20
-9.318311959771536
 10
3.293044735803277
 20
-9.318311959771536
 10
3.293044735803277
 20
-9.318311959771536
 10
3.228793331125378
 20
-9.318311959771536
 10
3.228793331125378
 20
-9.318311959771536
 10
3.228793331125378
 20
-9.318311959771536
 10
3.228793331125378
 20
-9.444973771448429
 10
3.228793331125378
 20
-9.444973771448429
 10
3.228793331125378
 20
-9.444973771448429
 10
3.127971864388377
 20
-9.445106526318163
 10
3.127971864388377
 20
-9.445106526318163
 10
3.127971864388377
 20
-9.445106526318163
 10
3.127971864388377
 20
-9.231965654530236
 10
3.127971864388377
 20
-9.231965654530236
 10
3.127971864388377
 20
-9.231965654530236
 10
3.298377381784196
 20
-9.231965654530236
 10
3.298377381784196
 20
-9.231965654530236
 10
3.442245591173963
 20
-9.231965654530236
 10
3.530242547038318
 20
-9.321359464943144
 10
3.530242547038318
 20
-9.469924853988787
 10
3.530242547038318
 20
-9.618829939318805
 10
3.442245591173963
 20
-9.708731341880719
 10
3.296981503374404
 20
-9.708731341880719
 97
        0
 97
        1
330
8C
 92
        1
 93
        1
 72
     4
 94
        3
 73
     0
 74
     0
 95
       17
 96
       13
 40
0.0
 40
0.0
 40
0.0
 40
0.0
 40
1.0
 40
1.0
 40
1.0
 40
2.0
 40
2.0
 40
2.0
 40
3.0
 40
3.0
 40
3.0
 40
4.0
 40
4.0
 40
4.0
 40
4.0
 10
3.028419378023929
 20
-8.591481000208457
 10
3.028419378023929
 20
-8.591481000208457
 10
5.918641265409405
 20
-8.591481000208457
 10
5.918641265409405
 20
-8.591481000208457
 10
5.918641265409405
 20
-8.591481000208457
 10
5.918641265409405
 20
-8.678166025595373
 10
5.918641265409405
 20
-8.678166025595373
 10
5.918641265409405
 20
-8.678166025595373
 10
3.028419378023929
 20
-8.678166025595373
 10
3.028419378023929
 20
-8.678166025595373
 10
3.028419378023929
 20
-8.678166025595373
 10
3.028419378023929
 20
-8.591481000208457
 10
3.028419378023929
 20
-8.591481000208457
 97
        0
 97
        1
330
8D
 92
        1
 93
        1
 72
     4
 94
        3
 73
     0
 74
     0
 95
       17
 96
       13
 40
0.0
 40
0.0
 40
0.0
 40
0.0
 40
1.0
 40
1.0
 40
1.0
 40
2.0
 40
2.0
 40
2.0
 40
3.0
 40
3.0
 40
3.0
 40
4.0
 40
4.0
 40
4.0
 40
4.0
 10
2.900627197676739
 20
-9.582930484579668
 10
2.848278828893247
 20
-9.582930484579668
 10
2.805842172958035
 20
-9.540493828644457
 10
2.805842172958035
 20
-9.488144483722205
 10
2.805842172958035
 20
-9.435796114938712
 10
2.848278828893247
 20
-9.393358482864767
 10
2.900627197676739
 20
-9.393358482864767
 10
2.952976542598965
 20
-9.393358482864767
 10
2.995413198534177
 20
-9.435796114938712
 10
2.995413198534177
 20
-9.488144483722205
 10
2.995413198534177
 20
-9.540493828644457
 10
2.952976542598965
 20
-9.582930484579668
 10
2.900627197676739
 20
-9.582930484579668
 97
        0
 97
        1
330
8E
 92
        1
 93
        1
 72
     4
 94
        3
 73
     0
 74
     0
 95
       44
 96
       40
 40
0.0
 40
0.0
 40
0.0
 40
0.0
 40
1.0
 40
1.0
 40
1.0
 40
2.0
 40
2.0
 40
2.0
 40
3.0
 40
3.0
 40
3.0
 40
4.0
 40
4.0
 40
4.0
 40
5.0
 40
5.0
 40
5.0
 40
6.0
 40
6.0
 40
6.0
 40
7.0
 40
7.0
 40
7.0
 40
8.0
 40
8.0
 40
8.0
 40
9.0
 40
9.0
 40
9.0
 40
10.0
 40
10.0
 40
10.0
 40
11.0
 40
11.0
 40
11.0
 40
12.0
 40
12.0
 40
12.0
 40
13.0
 40
13.0
 40
13.0
 40
13.0
 10
2.668982639779667
 20
-9.513691010898936
 10
2.668982639779667
 20
-9.639146315083154
 10
2.583059978755032
 20
-9.715249996440585
 10
2.462683524477218
 20
-9.715249996440585
 10
2.328381474818898
 20
-9.715249996440585
 10
2.237591785996199
 20
-9.621707596348212
 10
2.237591785996199
 20
-9.470856090354496
 10
2.237591785996199
 20
-9.316279638897993
 10
2.334688307270412
 20
-9.225446999970371
 10
2.460610205776232
 20
-9.225446999970371
 10
2.568414969117182
 20
-9.225446999970371
 10
2.651501947078574
 20
-9.291815649592914
 10
2.664538280059546
 20
-9.386118461770061
 10
2.664538280059546
 20
-9.386118461770061
 10
2.562109112804414
 20
-9.386118461770061
 10
2.562109112804414
 20
-9.386118461770061
 10
2.549283625793034
 20
-9.341422044632988
 10
2.514152392248661
 20
-9.314587014308774
 10
2.462260856399287
 20
-9.314587014308774
 10
2.389374528355624
 20
-9.314587014308774
 10
2.339767157176816
 20
-9.370712063908689
 10
2.339767157176816
 20
-9.469924853988787
 10
2.339767157176816
 20
-9.569561288285587
 10
2.387512055624231
 20
-9.62610998210218
 10
2.463192092764984
 20
-9.62610998210218
 10
2.530237206539974
 20
-9.62610998210218
 10
2.570489263956915
 20
-9.588608683677394
 10
2.571886118505454
 20
-9.529436128905899
 10
2.571886118505454
 20
-9.529436128905899
 10
2.469455975111587
 20
-9.529436128905899
 10
2.469455975111587
 20
-9.529436128905899
 10
2.469455975111587
 20
-9.529436128905899
 10
2.469455975111587
 20
-9.453587219761731
 10
2.469455975111587
 20
-9.453587219761731
 10
2.469455975111587
 20
-9.453587219761731
 10
2.668982639779667
 20
-9.453587219761731
 10
2.668982639779667
 20
-9.453587219761731
 10
2.668982639779667
 20
-9.453587219761731
 10
2.668982639779667
 20
-9.513691010898936
 10
2.668982639779667
 20
-9.513691010898936
 97
        0
 97
        1
330
8F
 92
        1
 93
        1
 72
     4
 94
        3
 73
     0
 74
     0
 95
       41
 96
       37
 40
0.0
 40
0.0
 40
0.0
 40
0.0
 40
1.0
 40
1.0
 40
1.0
 40
2.0
 40
2.0
 40
2.0
 40
3.0
 40
3.0
 40
3.0
 40
4.0
 40
4.0
 40
4.0
 40
5.0
 40
5.0
 40
5.0
 40
6.0
 40
6.0
 40
6.0
 40
7.0
 40
7.0
 40
7.0
 40
8.0
 40
8.0
 40
8.0
 40
9.0
 40
9.0
 40
9.0
 40
10.0
 40
10.0
 40
10.0
 40
11.0
 40
11.0
 40
11.0
 40
12.0
 40
12.0
 40
12.0
 40
12.0
 10
2.136261750971445
 20
-9.708731341880719
 10
2.136261750971445
 20
-9.708731341880719
 10
2.04915405750661
 20
-9.708731341880719
 10
2.04915405750661
 20
-9.708731341880719
 10
2.04915405750661
 20
-9.708731341880719
 10
1.841753857696277
 20
-9.408636030411393
 10
1.841753857696277
 20
-9.408636030411393
 10
1.841753857696277
 20
-9.408636030411393
 10
1.838283684446764
 20
-9.408636030411393
 10
1.838283684446764
 20
-9.408636030411393
 10
1.838283684446764
 20
-9.408636030411393
 10
1.838283684446764
 20
-9.708731341880719
 10
1.838283684446764
 20
-9.708731341880719
 10
1.838283684446764
 20
-9.708731341880719
 10
1.737461241571016
 20
-9.708731341880719
 10
1.737461241571016
 20
-9.708731341880719
 10
1.737461241571016
 20
-9.708731341880719
 10
1.737461241571016
 20
-9.231965654530236
 10
1.737461241571016
 20
-9.231965654530236
 10
1.737461241571016
 20
-9.231965654530236
 10
1.825923815618226
 20
-9.231965654530236
 10
1.825923815618226
 20
-9.231965654530236
 10
1.825923815618226
 20
-9.231965654530236
 10
2.031715338771669
 20
-9.531806193786298
 10
2.031715338771669
 20
-9.531806193786298
 10
2.031715338771669
 20
-9.531806193786298
 10
2.035905902417299
 20
-9.531806193786298
 10
2.035905902417299
 20
-9.531806193786298
 10
2.035905902417299
 20
-9.531806193786298
 10
2.035905902417299
 20
-9.231965654530236
 10
2.035905902417299
 20
-9.231965654530236
 10
2.035905902417299
 20
-9.231965654530236
 10
2.136261750971445
 20
-9.231965654530236
 10
2.136261750971445
 20
-9.231965654530236
 10
2.136261750971445
 20
-9.231965654530236
 10
2.136261750971445
 20
-9.708731341880719
 10
2.136261750971445
 20
-9.708731341880719
 97
        0
 97
        1
330
90
 92
        1
 93
        1
 72
     4
 94
        3
 73
     0
 74
     0
 95
       17
 96
       13
 40
0.0
 40
0.0
 40
0.0
 40
0.0
 40
1.0
 40
1.0
 40
1.0
 40
2.0
 40
2.0
 40
2.0
 40
3.0
 40
3.0
 40
3.0
 40
4.0
 40
4.0
 40
4.0
 40
4.0
 10
1.627920903535937
 20
-9.708731341880719
 10
1.627920903535937
 20
-9.708731341880719
 10
1.527141410765112
 20
-9.708731341880719
 10
1.527141410765112
 20
-9.708731341880719
 10
1.527141410765112
 20
-9.708731341880719
 10
1.527141410765112
 20
-9.231965654530236
 10
1.527141410765112
 20
-9.231965654530236
 10
1.527141410765112
 20
-9.231965654530236
 10
1.627920903535937
 20
-9.231965654530236
 10
1.627920903535937
 20
-9.231965654530236
 10
1.627920903535937
 20
-9.231965654530236
 10
1.627920903535937
 20
-9.708731341880719
 10
1.627920903535937
 20
-9.708731341880719
 97
        0
 97
        1
330
91
 92
        1
 93
        1
 72
     4
 94
        3
 73
     0
 74
     0
 95
       29
 96
       25
 40
0.0
 40
0.0
 40
0.0
 40
0.0
 40
1.0
 40
1.0
 40
1.0
 40
2.0
 40
2.0
 40
2.0
 40
3.0
 40
3.0
 40
3.0
 40
4.0
 40
4.0
 40
4.0
 40
5.0
 40
5.0
 40
5.0
 40
6.0
 40
6.0
 40
6.0
 40
7.0
 40
7.0
 40
7.0
 40
8.0
 40
8.0
 40
8.0
 40
8.0
 10
1.435843153654647
 20
-9.31509460645778
 10
1.435843153654647
 20
-9.31509460645778
 10
1.289901625563894
 20
-9.31509460645778
 10
1.289901625563894
 20
-9.31509460645778
 10
1.289901625563894
 20
-9.31509460645778
 10
1.289901625563894
 20
-9.708731341880719
 10
1.289901625563894
 20
-9.708731341880719
 10
1.289901625563894
 20
-9.708731341880719
 10
1.190265191267106
 20
-9.708731341880719
 10
1.190265191267106
 20
-9.708731341880719
 10
1.190265191267106
 20
-9.708731341880719
 10
1.190265191267106
 20
-9.31509460645778
 10
1.190265191267106
 20
-9.31509460645778
 10
1.190265191267106
 20
-9.31509460645778
 10
1.044280713071442
 20
-9.31509460645778
 10
1.044280713071442
 20
-9.31509460645778
 10
1.044280713071442
 20
-9.31509460645778
 10
1.044280713071442
 20
-9.231965654530236
 10
1.044280713071442
 20
-9.231965654530236
 10
1.044280713071442
 20
-9.231965654530236
 10
1.435843153654647
 20
-9.231965654530236
 10
1.435843153654647
 20
-9.231965654530236
 10
1.435843153654647
 20
-9.231965654530236
 10
1.435843153654647
 20
-9.31509460645778
 10
1.435843153654647
 20
-9.31509460645778
 97
        0
 97
        1
330
92
 92
        1
 93
        1
 72
     4
 94
        3
 73
     0
 74
     0
 95
       53
 96
       49
 40
0.0
 40
0.0
 40
0.0
 40
0.0
 40
1.0
 40
1.0
 40
1.0
 40
2.0
 40
2.0
 40
2.0
 40
3.0
 40
3.0
 40
3.0
 40
4.0
 40
4.0
 40
4.0
 40
5.0
 40
5.0
 40
5.0
 40
6.0
 40
6.0
 40
6.0
 40
7.0
 40
7.0
 40
7.0
 40
8.0
 40
8.0
 40
8.0
 40
9.0
 40
9.0
 40
9.0
 40
10.0
 40
10.0
 40
10.0
 40
11.0
 40
11.0
 40
11.0
 40
12.0
 40
12.0
 40
12.0
 40
13.0
 40
13.0
 40
13.0
 40
14.0
 40
14.0
 40
14.0
 40
15.0
 40
15.0
 40
15.0
 40
16.0
 40
16.0
 40
16.0
 40
16.0
 10
0.7156196772775098
 20
-7.9946990537782
 10
0.7156196772775098
 20
-7.9946990537782
 10
0.5775507081902384
 20
-8.194903158737487
 10
0.5775507081902384
 20
-8.194903158737487
 10
0.5775507081902384
 20
-8.194903158737487
 10
0.3787005076745926
 20
-8.194903158737487
 10
0.3787005076745926
 20
-8.194903158737487
 10
0.3787005076745926
 20
-8.194903158737487
 10
0.6919385512484269
 20
-7.753090071540478
 10
0.6919385512484269
 20
-7.753090071540478
 10
0.6919385512484269
 20
-7.753090071540478
 10
0.8801986224858637
 20
-7.75580861795394
 10
0.8801986224858637
 20
-7.75580861795394
 10
0.8801986224858637
 20
-7.75580861795394
 10
0.8155099076488138
 20
-7.849730736019333
 10
0.8155099076488138
 20
-7.849730736019333
 10
0.8155099076488138
 20
-7.849730736019333
 10
1.038316505320507
 20
-7.849730736019333
 10
1.038316505320507
 20
-7.849730736019333
 10
1.038316505320507
 20
-7.849730736019333
 10
1.051267914230392
 20
-7.517382824173788
 10
1.051267914230392
 20
-7.517382824173788
 10
1.051267914230392
 20
-7.517382824173788
 10
1.044411515663682
 20
-7.517382824173788
 10
1.044411515663682
 20
-7.517382824173788
 10
1.044411515663682
 20
-7.517382824173788
 10
0.9623485072490641
 20
-7.636532272045238
 10
0.9623485072490641
 20
-7.636532272045238
 10
0.9623485072490641
 20
-7.636532272045238
 10
0.7755750953250021
 20
-7.635124679970481
 10
0.7755750953250021
 20
-7.635124679970481
 10
0.7755750953250021
 20
-7.635124679970481
 10
1.00132279904474
 20
-7.316713101031659
 10
1.00132279904474
 20
-7.316713101031659
 10
1.00132279904474
 20
-7.316713101031659
 10
1.24046800708225
 20
-7.316713101031659
 10
1.24046800708225
 20
-7.316713101031659
 10
1.24046800708225
 20
-7.316713101031659
 10
1.223368008492911
 20
-8.194903158737487
 10
1.223368008492911
 20
-8.194903158737487
 10
1.223368008492911
 20
-8.194903158737487
 10
1.024517807977266
 20
-8.194903158737487
 10
1.024517807977266
 20
-8.194903158737487
 10
1.024517807977266
 20
-8.194903158737487
 10
1.032306419048407
 20
-7.9946990537782
 10
1.032306419048407
 20
-7.9946990537782
 10
1.032306419048407
 20
-7.9946990537782
 10
0.7156196772775098
 20
-7.9946990537782
 10
0.7156196772775098
 20
-7.9946990537782
 97
        0
 97
        1
330
93
 92
        1
 93
        1
 72
     4
 94
        3
 73
     0
 74
     0
 95
       29
 96
       25
 40
0.0
 40
0.0
 40
0.0
 40
0.0
 40
1.0
 40
1.0
 40
1.0
 40
2.0
 40
2.0
 40
2.0
 40
3.0
 40
3.0
 40
3.0
 40
4.0
 40
4.0
 40
4.0
 40
5.0
 40
5.0
 40
5.0
 40
6.0
 40
6.0
 40
6.0
 40
7.0
 40
7.0
 40
7.0
 40
8.0
 40
8.0
 40
8.0
 40
8.0
 10
0.9711405889532645
 20
-9.31509460645778
 10
0.9711405889532645
 20
-9.31509460645778
 10
0.8251570868963476
 20
-9.31509460645778
 10
0.8251570868963476
 20
-9.31509460645778
 10
0.8251570868963476
 20
-9.31509460645778
 10
0.8251570868963476
 20
-9.708731341880719
 10
0.8251570868963476
 20
-9.708731341880719
 10
0.8251570868963476
 20
-9.708731341880719
 10
0.7255196764608122
 20
-9.708731341880719
 10
0.7255196764608122
 20
-9.708731341880719
 10
0.7255196764608122
 20
-9.708731341880719
 10
0.7255196764608122
 20
-9.31509460645778
 10
0.7255196764608122
 20
-9.31509460645778
 10
0.7255196764608122
 20
-9.31509460645778
 10
0.5795781483700592
 20
-9.31509460645778
 10
0.5795781483700592
 20
-9.31509460645778
 10
0.5795781483700592
 20
-9.31509460645778
 10
0.5795781483700592
 20
-9.231965654530236
 10
0.5795781483700592
 20
-9.231965654530236
 10
0.5795781483700592
 20
-9.231965654530236
 10
0.9711405889532645
 20
-9.231965654530236
 10
0.9711405889532645
 20
-9.231965654530236
 10
0.9711405889532645
 20
-9.231965654530236
 10
0.9711405889532645
 20
-9.31509460645778
 10
0.9711405889532645
 20
-9.31509460645778
 97
        0
 97
        1
330
94
 92
        1
 93
        1
 72
     4
 94
        3
 73
     0
 74
     0
 95
       35
 96
       31
 40
0.0
 40
0.0
 40
0.0
 40
0.0
 40
1.0
 40
1.0
 40
1.0
 40
2.0
 40
2.0
 40
2.0
 40
3.0
 40
3.0
 40
3.0
 40
4.0
 40
4.0
 40
4.0
 40
5.0
 40
5.0
 40
5.0
 40
6.0
 40
6.0
 40
6.0
 40
7.0
 40
7.0
 40
7.0
 40
8.0
 40
8.0
 40
8.0
 40
9.0
 40
9.0
 40
9.0
 40
10.0
 40
10.0
 40
10.0
 40
10.0
 10
0.4882379172934306
 20
-9.541626149592248
 10
0.4882379172934306
 20
-9.645918765717523
 10
0.4090877069031649
 20
-9.715503792515088
 10
0.2905727492179848
 20
-9.715503792515088
 10
0.1716360995936207
 20
-9.715503792515088
 10
0.0929505312474501
 20
-9.645918765717523
 10
0.0929505312474501
 20
-9.541626149592248
 10
0.0929505312474501
 20
-9.541626149592248
 10
0.0929505312474501
 20
-9.231965654530236
 10
0.0929505312474501
 20
-9.231965654530236
 10
0.0929505312474501
 20
-9.231965654530236
 10
0.1937300240182746
 20
-9.231965654530236
 10
0.1937300240182746
 20
-9.231965654530236
 10
0.1937300240182746
 20
-9.231965654530236
 10
0.1937300240182746
 20
-9.532991226226512
 10
0.1937300240182746
 20
-9.532991226226512
 10
0.1937300240182746
 20
-9.587423651237207
 10
0.2321625588087449
 20
-9.626787422393363
 10
0.2905727492179848
 20
-9.626787422393363
 10
0.3492377118404748
 20
-9.626787422393363
 10
0.3874164505564421
 20
-9.587423651237207
 10
0.3874164505564421
 20
-9.532991226226512
 10
0.3874164505564421
 20
-9.532991226226512
 10
0.3874164505564421
 20
-9.231965654530236
 10
0.3874164505564421
 20
-9.231965654530236
 10
0.3874164505564421
 20
-9.231965654530236
 10
0.4882379172934306
 20
-9.231965654530236
 10
0.4882379172934306
 20
-9.231965654530236
 10
0.4882379172934306
 20
-9.231965654530236
 10
0.4882379172934306
 20
-9.541626149592248
 10
0.4882379172934306
 20
-9.541626149592248
 97
        0
 97
        1
330
95
 92
        1
 93
        1
 72
     4
 94
        3
 73
     0
 74
     0
 95
       35
 96
       31
 40
0.0
 40
0.0
 40
0.0
 40
0.0
 40
1.0
 40
1.0
 40
1.0
 40
2.0
 40
2.0
 40
2.0
 40
3.0
 40
3.0
 40
3.0
 40
4.0
 40
4.0
 40
4.0
 40
5.0
 40
5.0
 40
5.0
 40
6.0
 40
6.0
 40
6.0
 40
7.0
 40
7.0
 40
7.0
 40
8.0
 40
8.0
 40
8.0
 40
9.0
 40
9.0
 40
9.0
 40
10.0
 40
10.0
 40
10.0
 40
10.0
 10
-0.2114192917998328
 20
-9.62610998210218
 10
-0.1576223331141541
 20
-9.62610998210218
 10
-0.1175811216668055
 20
-9.596735038755392
 10
-0.1080579120402692
 20
-9.545774739271715
 10
-0.1080579120402692
 20
-9.545774739271715
 10
-0.006050436724321
 20
-9.546197407349634
 10
-0.006050436724321
 20
-9.546197407349634
 10
-0.0170134510043201
 20
-9.633982541105675
 10
-0.0907880653087558
 20
-9.715249996440585
 10
-0.213026992317964
 20
-9.715249996440585
 10
-0.3405995414468382
 20
-9.715249996440585
 10
-0.4351141757323123
 20
-9.625856186027677
 10
-0.4351141757323123
 20
-9.470348498205465
 10
-0.4351141757323123
 20
-9.314418142305333
 10
-0.3389908647899599
 20
-9.225446999970371
 10
-0.213026992317964
 20
-9.225446999970371
 10
-0.1026823159544392
 20
-9.225446999970371
 10
-0.0193415419185562
 20
-9.288768144421332
 10
-0.006050436724321
 20
-9.398900998676531
 10
-0.006050436724321
 20
-9.398900998676531
 10
-0.1080579120402692
 20
-9.398900998676531
 10
-0.1080579120402692
 20
-9.398900998676531
 10
-0.1157186489354116
 20
-9.346500894539378
 10
-0.1555480382744337
 20
-9.314587014308774
 10
-0.2106998775424876
 20
-9.314587014308774
 10
-0.2844744918469233
 20
-9.314587014308774
 10
-0.3328958544467721
 20
-9.371219656057695
 10
-0.3328958544467721
 20
-9.470348498205465
 10
-0.3328958544467721
 20
-9.572271049450337
 10
-0.283797051555742
 20
-9.62610998210218
 10
-0.2114192917998328
 20
-9.62610998210218
 97
        0
 97
        1
330
96
 92
        1
 93
        1
 72
     4
 94
        3
 73
     0
 74
     0
 95
       53
 96
       49
 40
0.0
 40
0.0
 40
0.0
 40
0.0
 40
1.0
 40
1.0
 40
1.0
 40
2.0
 40
2.0
 40
2.0
 40
3.0
 40
3.0
 40
3.0
 40
4.0
 40
4.0
 40
4.0
 40
5.0
 40
5.0
 40
5.0
 40
6.0
 40
6.0
 40
6.0
 40
7.0
 40
7.0
 40
7.0
 40
8.0
 40
8.0
 40
8.0
 40
9.0
 40
9.0
 40
9.0
 40
10.0
 40
10.0
 40
10.0
 40
11.0
 40
11.0
 40
11.0
 40
12.0
 40
12.0
 40
12.0
 40
13.0
 40
13.0
 40
13.0
 40
14.0
 40
14.0
 40
14.0
 40
15.0
 40
15.0
 40
15.0
 40
16.0
 40
16.0
 40
16.0
 40
16.0
 10
-0.7821070972156955
 20
-7.910193746215831
 10
-0.7821070972156955
 20
-7.910193746215831
 10
-0.8857222730497747
 20
-8.194924633789948
 10
-0.8857222730497747
 20
-8.194924633789948
 10
-0.8857222730497747
 20
-8.194924633789948
 10
-1.071281368371197
 20
-8.194924633789948
 10
-1.071281368371197
 20
-8.194924633789948
 10
-1.071281368371197
 20
-8.194924633789948
 10
-0.8801729242667811
 20
-7.669858625044374
 10
-0.8801729242667811
 20
-7.669858625044374
 10
-0.8801729242667811
 20
-7.669858625044374
 10
-0.69511263584564
 20
-7.671189102158045
 10
-0.69511263584564
 20
-7.671189102158045
 10
-0.69511263584564
 20
-7.671189102158045
 10
-0.7279284682795025
 20
-7.76137456109566
 10
-0.7279284682795025
 20
-7.76137456109566
 10
-0.7279284682795025
 20
-7.76137456109566
 10
-0.6018806478751787
 20
-7.76137456109566
 10
-0.6018806478751787
 20
-7.76137456109566
 10
-0.4956416110861963
 20
-7.76137456109566
 10
-0.4219089707479245
 20
-7.701312743924618
 10
-0.3902479104530635
 20
-7.614289974530871
 10
-0.3583769803273702
 20
-7.526800610815522
 10
-0.3890628780128635
 20
-7.468475344477383
 10
-0.4962341273062899
 20
-7.468475344477383
 10
-0.4962341273062899
 20
-7.468475344477383
 10
-0.6213507113449294
 20
-7.468475344477383
 10
-0.6213507113449294
 20
-7.468475344477383
 10
-0.6213507113449294
 20
-7.468475344477383
 10
-0.6556883440870883
 20
-7.54735125987943
 10
-0.6556883440870883
 20
-7.54735125987943
 10
-0.6556883440870883
 20
-7.54735125987943
 10
-0.8348761817996242
 20
-7.545405815354443
 10
-0.8348761817996242
 20
-7.545405815354443
 10
-0.8348761817996242
 20
-7.545405815354443
 10
-0.7516320454997942
 20
-7.316692602117957
 10
-0.7516320454997942
 20
-7.316692602117957
 10
-0.7516320454997942
 20
-7.316692602117957
 10
-0.4053165643075923
 20
-7.316692602117957
 10
-0.4053165643075923
 20
-7.316692602117957
 10
-0.2060436957140155
 20
-7.316692602117957
 10
-0.1356543305880046
 20
-7.439777841421775
 10
-0.1991863210085588
 20
-7.614289974530871
 10
-0.2630150576085397
 20
-7.789690393900754
 10
-0.4242790356283245
 20
-7.910193746215831
 10
-0.6260918172444765
 20
-7.910193746215831
 10
-0.6260918172444765
 20
-7.910193746215831
 10
-0.7821070972156955
 20
-7.910193746215831
 10
-0.7821070972156955
 20
-7.910193746215831
 97
        0
 97
        1
330
97
 92
        1
 93
        1
 72
     4
 94
        3
 73
     0
 74
     0
 95
       23
 96
       19
 40
0.0
 40
0.0
 40
0.0
 40
0.0
 40
1.0
 40
1.0
 40
1.0
 40
2.0
 40
2.0
 40
2.0
 40
3.0
 40
3.0
 40
3.0
 40
4.0
 40
4.0
 40
4.0
 40
5.0
 40
5.0
 40
5.0
 40
6.0
 40
6.0
 40
6.0
 40
6.0
 10
0.2164594147679458
 20
-7.316692602117957
 10
0.2164594147679458
 20
-7.316692602117957
 10
-0.0474885027202213
 20
-8.041871934919223
 10
-0.0474885027202213
 20
-8.041871934919223
 10
-0.0474885027202213
 20
-8.041871934919223
 10
0.328793461900116
 20
-8.041871934919223
 10
0.328793461900116
 20
-8.041871934919223
 10
0.328793461900116
 20
-8.041871934919223
 10
0.2730920565168794
 20
-8.194924633789948
 10
0.2730920565168794
 20
-8.194924633789948
 10
0.2730920565168794
 20
-8.194924633789948
 10
-0.2887490034248811
 20
-8.194924633789948
 10
-0.2887490034248811
 20
-8.194924633789948
 10
-0.2887490034248811
 20
-8.194924633789948
 10
0.0309003194465226
 20
-7.316692602117957
 10
0.0309003194465226
 20
-7.316692602117957
 10
0.0309003194465226
 20
-7.316692602117957
 10
0.2164594147679458
 20
-7.316692602117957
 10
0.2164594147679458
 20
-7.316692602117957
 97
        0
 97
        1
330
98
 92
        1
 93
        1
 72
     4
 94
        3
 73
     0
 74
     0
 95
       53
 96
       49
 40
0.0
 40
0.0
 40
0.0
 40
0.0
 40
1.0
 40
1.0
 40
1.0
 40
2.0
 40
2.0
 40
2.0
 40
3.0
 40
3.0
 40
3.0
 40
4.0
 40
4.0
 40
4.0
 40
5.0
 40
5.0
 40
5.0
 40
6.0
 40
6.0
 40
6.0
 40
7.0
 40
7.0
 40
7.0
 40
8.0
 40
8.0
 40
8.0
 40
9.0
 40
9.0
 40
9.0
 40
10.0
 40
10.0
 40
10.0
 40
11.0
 40
11.0
 40
11.0
 40
12.0
 40
12.0
 40
12.0
 40
13.0
 40
13.0
 40
13.0
 40
14.0
 40
14.0
 40
14.0
 40
15.0
 40
15.0
 40
15.0
 40
16.0
 40
16.0
 40
16.0
 40
16.0
 10
1.373581119745381
 20
-7.919209363693349
 10
1.373581119745381
 20
-7.919209363693349
 10
1.553130128794716
 20
-7.919209363693349
 10
1.553130128794716
 20
-7.919209363693349
 10
1.527141410765112
 20
-8.007121395486617
 10
1.580345853230685
 20
-8.051733864691362
 10
1.676765910352464
 20
-8.051733864691362
 10
1.771068722529599
 20
-8.051733864691362
 10
1.847848868039464
 20
-8.007968683919973
 10
1.871679343297008
 20
-7.943632355170974
 10
1.892842031355965
 20
-7.884417826433313
 10
1.849669366804682
 20
-7.856990279888981
 10
1.762476749268759
 20
-7.833837244922632
 10
1.762476749268759
 20
-7.833837244922632
 10
1.675664825844604
 20
-7.809837897661686
 10
1.675664825844604
 20
-7.809837897661686
 10
1.540389565854411
 20
-7.774283996039381
 10
1.476053237105424
 20
-7.700042787413344
 10
1.5235863134445
 20
-7.570523817620747
 10
1.580811471413539
 20
-7.411038364400003
 10
1.76052935246629
 20
-7.304713427401186
 10
1.95294582249317
 20
-7.304713427401186
 10
2.148324873620544
 20
-7.304713427401186
 10
2.237591785996199
 20
-7.41281591306031
 10
2.183286259022755
 20
-7.569254837248207
 10
2.183286259022755
 20
-7.569254837248207
 10
2.005430850701385
 20
-7.569254837248207
 10
2.005430850701385
 20
-7.569254837248207
 10
2.023715881730936
 20
-7.500219376565811
 10
1.98392846635809
 20
-7.459882395077784
 10
1.895212096236365
 20
-7.459882395077784
 10
1.804295509376414
 20
-7.459882395077784
 10
1.73902794426173
 20
-7.501489333077111
 10
1.71845679628412
 20
-7.558122950964793
 10
1.694246603053569
 20
-7.621146373097568
 10
1.747746815559821
 20
-7.649463182041421
 10
1.817627612398066
 20
-7.667028798813614
 10
1.817627612398066
 20
-7.667028798813614
 10
1.889667628147119
 20
-7.685906346063246
 10
1.889667628147119
 20
-7.685906346063246
 10
2.029725968003023
 20
-7.720233241279174
 10
2.11158593955804
 20
-7.797817725117485
 10
2.058804165170386
 20
-7.944013049282753
 10
1.999843432507228
 20
-8.10485338308586
 10
1.836590083718798
 20
-8.207326476584638
 10
1.622333485341767
 20
-8.207326476584638
 10
1.409261919404937
 20
-8.207326476584638
 10
1.309202817030217
 20
-8.109170844768742
 10
1.373581119745381
 20
-7.919209363693349
 97
        0
 97
        1
330
99
 92
        1
 93
        1
 72
     4
 94
        3
 73
     0
 74
     0
 95
       53
 96
       49
 40
0.0
 40
0.0
 40
0.0
 40
0.0
 40
1.0
 40
1.0
 40
1.0
 40
2.0
 40
2.0
 40
2.0
 40
3.0
 40
3.0
 40
3.0
 40
4.0
 40
4.0
 40
4.0
 40
5.0
 40
5.0
 40
5.0
 40
6.0
 40
6.0
 40
6.0
 40
7.0
 40
7.0
 40
7.0
 40
8.0
 40
8.0
 40
8.0
 40
9.0
 40
9.0
 40
9.0
 40
10.0
 40
10.0
 40
10.0
 40
11.0
 40
11.0
 40
11.0
 40
12.0
 40
12.0
 40
12.0
 40
13.0
 40
13.0
 40
13.0
 40
14.0
 40
14.0
 40
14.0
 40
15.0
 40
15.0
 40
15.0
 40
16.0
 40
16.0
 40
16.0
 40
16.0
 10
1.998234755850338
 20
-6.119529685693174
 10
1.998234755850338
 20
-6.119529685693174
 10
2.227136363865219
 20
-6.119529685693174
 10
2.227136363865219
 20
-6.119529685693174
 10
2.227136363865219
 20
-6.119529685693174
 10
2.25405631826052
 20
-6.709603606646421
 10
2.25405631826052
 20
-6.709603606646421
 10
2.25405631826052
 20
-6.709603606646421
 10
2.264299918283161
 20
-6.709603606646421
 10
2.264299918283161
 20
-6.709603606646421
 10
2.264299918283161
 20
-6.709603606646421
 10
2.720833177801624
 20
-6.119529685693174
 10
2.720833177801624
 20
-6.119529685693174
 10
2.720833177801624
 20
-6.119529685693174
 10
2.949649861745418
 20
-6.119529685693174
 10
2.949649861745418
 20
-6.119529685693174
 10
2.949649861745418
 20
-6.119529685693174
 10
2.630000538874014
 20
-6.997719743398975
 10
2.630000538874014
 20
-6.997719743398975
 10
2.630000538874014
 20
-6.997719743398975
 10
2.450027885608
 20
-6.997719743398975
 10
2.450027885608
 20
-6.997719743398975
 10
2.450027885608
 20
-6.997719743398975
 10
2.658105525709515
 20
-6.426100701617441
 10
2.658105525709515
 20
-6.426100701617441
 10
2.658105525709515
 20
-6.426100701617441
 10
2.65082450678738
 20
-6.426100701617441
 10
2.65082450678738
 20
-6.426100701617441
 10
2.65082450678738
 20
-6.426100701617441
 10
2.217147536055841
 20
-6.993402281716119
 10
2.217147536055841
 20
-6.993402281716119
 10
2.217147536055841
 20
-6.993402281716119
 10
2.094654812972117
 20
-6.993402281716119
 10
2.094654812972117
 20
-6.993402281716119
 10
2.094654812972117
 20
-6.993402281716119
 10
2.07467715735336
 20
-6.42394245884538
 10
2.07467715735336
 20
-6.42394245884538
 10
2.07467715735336
 20
-6.42394245884538
 10
2.067397114569985
 20
-6.42394245884538
 10
2.067397114569985
 20
-6.42394245884538
 10
2.067397114569985
 20
-6.42394245884538
 10
1.858558086244948
 20
-6.997719743398975
 10
1.858558086244948
 20
-6.997719743398975
 10
1.858558086244948
 20
-6.997719743398975
 10
1.678585432978934
 20
-6.997719743398975
 10
1.678585432978934
 20
-6.997719743398975
 10
1.678585432978934
 20
-6.997719743398975
 10
1.998234755850338
 20
-6.119529685693174
 10
1.998234755850338
 20
-6.119529685693174
 97
        0
 97
        1
330
9A
 92
        1
 93
        1
 72
     4
 94
        3
 73
     0
 74
     0
 95
       53
 96
       49
 40
0.0
 40
0.0
 40
0.0
 40
0.0
 40
1.0
 40
1.0
 40
1.0
 40
2.0
 40
2.0
 40
2.0
 40
3.0
 40
3.0
 40
3.0
 40
4.0
 40
4.0
 40
4.0
 40
5.0
 40
5.0
 40
5.0
 40
6.0
 40
6.0
 40
6.0
 40
7.0
 40
7.0
 40
7.0
 40
8.0
 40
8.0
 40
8.0
 40
9.0
 40
9.0
 40
9.0
 40
10.0
 40
10.0
 40
10.0
 40
11.0
 40
11.0
 40
11.0
 40
12.0
 40
12.0
 40
12.0
 40
13.0
 40
13.0
 40
13.0
 40
14.0
 40
14.0
 40
14.0
 40
15.0
 40
15.0
 40
15.0
 40
16.0
 40
16.0
 40
16.0
 40
16.0
 10
3.395770649237836
 20
-6.652547320680822
 10
3.395770649237836
 20
-6.652547320680822
 10
3.408723034286468
 20
-6.320199408835277
 10
3.408723034286468
 20
-6.320199408835277
 10
3.408723034286468
 20
-6.320199408835277
 10
3.401865659581011
 20
-6.320199408835277
 10
3.401865659581011
 20
-6.320199408835277
 10
3.401865659581011
 20
-6.320199408835277
 10
3.319802651166393
 20
-6.439348856706752
 10
3.319802651166393
 20
-6.439348856706752
 10
3.319802651166393
 20
-6.439348856706752
 10
3.133029239242318
 20
-6.43794126463197
 10
3.133029239242318
 20
-6.43794126463197
 10
3.133029239242318
 20
-6.43794126463197
 10
3.358777919100816
 20
-6.119529685693174
 10
3.358777919100816
 20
-6.119529685693174
 10
3.358777919100816
 20
-6.119529685693174
 10
3.597922150999579
 20
-6.119529685693174
 10
3.597922150999579
 20
-6.119529685693174
 10
3.597922150999579
 20
-6.119529685693174
 10
3.580822152410241
 20
-6.997719743398975
 10
3.580822152410241
 20
-6.997719743398975
 10
3.580822152410241
 20
-6.997719743398975
 10
3.381972928033342
 20
-6.997719743398975
 10
3.381972928033342
 20
-6.997719743398975
 10
3.381972928033342
 20
-6.997719743398975
 10
3.389760562965736
 20
-6.797515638439714
 10
3.389760562965736
 20
-6.797515638439714
 10
3.389760562965736
 20
-6.797515638439714
 10
3.073073821194839
 20
-6.797515638439714
 10
3.073073821194839
 20
-6.797515638439714
 10
3.073073821194839
 20
-6.797515638439714
 10
2.935004852107567
 20
-6.997719743398975
 10
2.935004852107567
 20
-6.997719743398975
 10
2.935004852107567
 20
-6.997719743398975
 10
2.736155627730668
 20
-6.997719743398975
 10
2.736155627730668
 20
-6.997719743398975
 10
2.736155627730668
 20
-6.997719743398975
 10
3.049393671304503
 20
-6.555906656201967
 10
3.049393671304503
 20
-6.555906656201967
 10
3.049393671304503
 20
-6.555906656201967
 10
3.237652766403193
 20
-6.558624226476695
 10
3.237652766403193
 20
-6.558624226476695
 10
3.237652766403193
 20
-6.558624226476695
 10
3.17296405156613
 20
-6.652547320680822
 10
3.17296405156613
 20
-6.652547320680822
 10
3.17296405156613
 20
-6.652547320680822
 10
3.395770649237836
 20
-6.652547320680822
 10
3.395770649237836
 20
-6.652547320680822
 97
        0
 97
        1
330
9B
 92
        1
 93
        1
 72
     4
 94
        3
 73
     0
 74
     0
 95
       53
 96
       49
 40
0.0
 40
0.0
 40
0.0
 40
0.0
 40
1.0
 40
1.0
 40
1.0
 40
2.0
 40
2.0
 40
2.0
 40
3.0
 40
3.0
 40
3.0
 40
4.0
 40
4.0
 40
4.0
 40
5.0
 40
5.0
 40
5.0
 40
6.0
 40
6.0
 40
6.0
 40
7.0
 40
7.0
 40
7.0
 40
8.0
 40
8.0
 40
8.0
 40
9.0
 40
9.0
 40
9.0
 40
10.0
 40
10.0
 40
10.0
 40
11.0
 40
11.0
 40
11.0
 40
12.0
 40
12.0
 40
12.0
 40
13.0
 40
13.0
 40
13.0
 40
14.0
 40
14.0
 40
14.0
 40
15.0
 40
15.0
 40
15.0
 40
16.0
 40
16.0
 40
16.0
 40
16.0
 10
3.064735644008502
 20
-7.623262641903465
 10
3.064735644008502
 20
-7.623262641903465
 10
2.631015723172052
 20
-8.190607172107068
 10
2.631015723172052
 20
-8.190607172107068
 10
2.631015723172052
 20
-8.190607172107068
 10
2.508523000088328
 20
-8.190607172107068
 10
2.508523000088328
 20
-8.190607172107068
 10
2.508523000088328
 20
-8.190607172107068
 10
2.488630268540646
 20
-7.621146373097568
 10
2.488630268540646
 20
-7.621146373097568
 10
2.488630268540646
 20
-7.621146373097568
 10
2.481349249618523
 20
-7.621146373097568
 10
2.481349249618523
 20
-7.621146373097568
 10
2.481349249618523
 20
-7.621146373097568
 10
2.272511197432234
 20
-8.194924633789948
 10
2.272511197432234
 20
-8.194924633789948
 10
2.272511197432234
 20
-8.194924633789948
 10
2.09253854416622
 20
-8.194924633789948
 10
2.09253854416622
 20
-8.194924633789948
 10
2.09253854416622
 20
-8.194924633789948
 10
2.412187867037636
 20
-7.316692602117957
 10
2.412187867037636
 20
-7.316692602117957
 10
2.412187867037636
 20
-7.316692602117957
 10
2.641089475052517
 20
-7.316692602117957
 10
2.641089475052517
 20
-7.316692602117957
 10
2.641089475052517
 20
-7.316692602117957
 10
2.667967455481642
 20
-7.906808497037395
 10
2.667967455481642
 20
-7.906808497037395
 10
2.667967455481642
 20
-7.906808497037395
 10
2.678210079365524
 20
-7.906808497037395
 10
2.678210079365524
 20
-7.906808497037395
 10
2.678210079365524
 20
-7.906808497037395
 10
3.13478628898891
 20
-7.316692602117957
 10
3.13478628898891
 20
-7.316692602117957
 10
3.13478628898891
 20
-7.316692602117957
 10
3.363602972932716
 20
-7.316692602117957
 10
3.363602972932716
 20
-7.316692602117957
 10
3.363602972932716
 20
-7.316692602117957
 10
3.0439536500613
 20
-8.194924633789948
 10
3.0439536500613
 20
-8.194924633789948
 10
3.0439536500613
 20
-8.194924633789948
 10
2.863980996795298
 20
-8.194924633789948
 10
2.863980996795298
 20
-8.194924633789948
 10
2.863980996795298
 20
-8.194924633789948
 10
3.07201568679189
 20
-7.623262641903465
 10
3.07201568679189
 20
-7.623262641903465
 10
3.07201568679189
 20
-7.623262641903465
 10
3.064735644008502
 20
-7.623262641903465
 10
3.064735644008502
 20
-7.623262641903465
 97
        0
 97
        1
330
9C
 92
        1
 93
        1
 72
     4
 94
        3
 73
     0
 74
     0
 95
       53
 96
       49
 40
0.0
 40
0.0
 40
0.0
 40
0.0
 40
1.0
 40
1.0
 40
1.0
 40
2.0
 40
2.0
 40
2.0
 40
3.0
 40
3.0
 40
3.0
 40
4.0
 40
4.0
 40
4.0
 40
5.0
 40
5.0
 40
5.0
 40
6.0
 40
6.0
 40
6.0
 40
7.0
 40
7.0
 40
7.0
 40
8.0
 40
8.0
 40
8.0
 40
9.0
 40
9.0
 40
9.0
 40
10.0
 40
10.0
 40
10.0
 40
11.0
 40
11.0
 40
11.0
 40
12.0
 40
12.0
 40
12.0
 40
13.0
 40
13.0
 40
13.0
 40
14.0
 40
14.0
 40
14.0
 40
15.0
 40
15.0
 40
15.0
 40
16.0
 40
16.0
 40
16.0
 40
16.0
 10
3.492953070721884
 20
-7.9946990537782
 10
3.492953070721884
 20
-7.9946990537782
 10
3.354884101634613
 20
-8.194903158737487
 10
3.354884101634613
 20
-8.194903158737487
 10
3.354884101634613
 20
-8.194903158737487
 10
3.156033901118967
 20
-8.194903158737487
 10
3.156033901118967
 20
-8.194903158737487
 10
3.156033901118967
 20
-8.194903158737487
 10
3.469271944692801
 20
-7.753090071540478
 10
3.469271944692801
 20
-7.753090071540478
 10
3.469271944692801
 20
-7.753090071540478
 10
3.657532015930238
 20
-7.75580861795394
 10
3.657532015930238
 20
-7.75580861795394
 10
3.657532015930238
 20
-7.75580861795394
 10
3.592843301093175
 20
-7.849730736019333
 10
3.592843301093175
 20
-7.849730736019333
 10
3.592843301093175
 20
-7.849730736019333
 10
3.815649898764882
 20
-7.849730736019333
 10
3.815649898764882
 20
-7.849730736019333
 10
3.815649898764882
 20
-7.849730736019333
 10
3.828601307674766
 20
-7.517382824173788
 10
3.828601307674766
 20
-7.517382824173788
 10
3.828601307674766
 20
-7.517382824173788
 10
3.821744909108057
 20
-7.517382824173788
 10
3.821744909108057
 20
-7.517382824173788
 10
3.821744909108057
 20
-7.517382824173788
 10
3.739681900693438
 20
-7.636532272045238
 10
3.739681900693438
 20
-7.636532272045238
 10
3.739681900693438
 20
-7.636532272045238
 10
3.552908488769364
 20
-7.635124679970481
 10
3.552908488769364
 20
-7.635124679970481
 10
3.552908488769364
 20
-7.635124679970481
 10
3.778656192489115
 20
-7.316713101031659
 10
3.778656192489115
 20
-7.316713101031659
 10
3.778656192489115
 20
-7.316713101031659
 10
4.017801400526624
 20
-7.316713101031659
 10
4.017801400526624
 20
-7.316713101031659
 10
4.017801400526624
 20
-7.316713101031659
 10
4.000701401937286
 20
-8.194903158737487
 10
4.000701401937286
 20
-8.194903158737487
 10
4.000701401937286
 20
-8.194903158737487
 10
3.801851201421641
 20
-8.194903158737487
 10
3.801851201421641
 20
-8.194903158737487
 10
3.801851201421641
 20
-8.194903158737487
 10
3.809639812492782
 20
-7.9946990537782
 10
3.809639812492782
 20
-7.9946990537782
 10
3.809639812492782
 20
-7.9946990537782
 10
3.492953070721884
 20
-7.9946990537782
 10
3.492953070721884
 20
-7.9946990537782
 97
        0
 97
        1
330
9D
 92
        1
 93
        1
 72
     4
 94
        3
 73
     0
 74
     0
 95
       62
 96
       58
 40
0.0
 40
0.0
 40
0.0
 40
0.0
 40
1.0
 40
1.0
 40
1.0
 40
2.0
 40
2.0
 40
2.0
 40
3.0
 40
3.0
 40
3.0
 40
4.0
 40
4.0
 40
4.0
 40
5.0
 40
5.0
 40
5.0
 40
6.0
 40
6.0
 40
6.0
 40
7.0
 40
7.0
 40
7.0
 40
8.0
 40
8.0
 40
8.0
 40
9.0
 40
9.0
 40
9.0
 40
10.0
 40
10.0
 40
10.0
 40
11.0
 40
11.0
 40
11.0
 40
12.0
 40
12.0
 40
12.0
 40
13.0
 40
13.0
 40
13.0
 40
14.0
 40
14.0
 40
14.0
 40
15.0
 40
15.0
 40
15.0
 40
16.0
 40
16.0
 40
16.0
 40
17.0
 40
17.0
 40
17.0
 40
18.0
 40
18.0
 40
18.0
 40
19.0
 40
19.0
 40
19.0
 40
19.0
 10
3.871355208703107
 20
-6.491634752610353
 10
3.871355208703107
 20
-6.491634752610353
 10
4.056719076274918
 20
-6.49217846189304
 10
4.056719076274918
 20
-6.49217846189304
 10
4.056719076274918
 20
-6.49217846189304
 10
4.040360943134134
 20
-6.537122818272159
 10
4.040360943134134
 20
-6.537122818272159
 10
4.040360943134134
 20
-6.537122818272159
 10
4.166409739677204
 20
-6.537122818272159
 10
4.166409739677204
 20
-6.537122818272159
 10
4.2726487764662
 20
-6.537122818272159
 10
4.340413304498548
 20
-6.493484535538022
 10
4.372158312725736
 20
-6.406376842073187
 10
4.403988245024012
 20
-6.318930428462762
 10
4.369407553733569
 20
-6.271270454086409
 10
4.262236304440143
 20
-6.271270454086409
 10
4.262236304440143
 20
-6.271270454086409
 10
4.137119720401503
 20
-6.271270454086409
 10
4.137119720401503
 20
-6.271270454086409
 10
4.137119720401503
 20
-6.271270454086409
 10
4.110993366808417
 20
-6.343054721483465
 10
4.110993366808417
 20
-6.343054721483465
 10
4.110993366808417
 20
-6.343054721483465
 10
3.926219087040471
 20
-6.340904287821381
 10
3.926219087040471
 20
-6.340904287821381
 10
3.926219087040471
 20
-6.340904287821381
 10
4.006796412280474
 20
-6.119529685693174
 10
4.006796412280474
 20
-6.119529685693174
 10
4.006796412280474
 20
-6.119529685693174
 10
4.353111893472664
 20
-6.119529685693174
 10
4.353111893472664
 20
-6.119529685693174
 10
4.55238476206624
 20
-6.119529685693174
 10
4.626794842695718
 20
-6.231821758859167
 10
4.563304826241315
 20
-6.406376842073187
 10
4.519539645469952
 20
-6.526499500276486
 10
4.432515899937444
 20
-6.613522269670258
 10
4.317134347633681
 20
-6.656399164180861
 10
4.317134347633681
 20
-6.656399164180861
 10
4.379269483505696
 20
-6.997719743398975
 10
4.379269483505696
 20
-6.997719743398975
 10
4.379269483505696
 20
-6.997719743398975
 10
4.17440919671795
 20
-6.997719743398975
 10
4.17440919671795
 20
-6.997719743398975
 10
4.17440919671795
 20
-6.997719743398975
 10
4.121501500431792
 20
-6.686366623747744
 10
4.121501500431792
 20
-6.686366623747744
 10
4.121501500431792
 20
-6.686366623747744
 10
3.986056392299436
 20
-6.686366623747744
 10
3.986056392299436
 20
-6.686366623747744
 10
3.986056392299436
 20
-6.686366623747744
 10
3.872706184730493
 20
-6.997719743398975
 10
3.872706184730493
 20
-6.997719743398975
 10
3.872706184730493
 20
-6.997719743398975
 10
3.687147089409058
 20
-6.997719743398975
 10
3.687147089409058
 20
-6.997719743398975
 10
3.687147089409058
 20
-6.997719743398975
 10
3.871355208703107
 20
-6.491634752610353
 10
3.871355208703107
 20
-6.491634752610353
 97
        0
 97
        1
330
9E
 92
        1
 93
        1
 72
     4
 94
        3
 73
     0
 74
     0
 95
       17
 96
       13
 40
0.0
 40
0.0
 40
0.0
 40
0.0
 40
1.0
 40
1.0
 40
1.0
 40
2.0
 40
2.0
 40
2.0
 40
3.0
 40
3.0
 40
3.0
 40
4.0
 40
4.0
 40
4.0
 40
4.0
 10
4.722008392324823
 20
-6.506773688454737
 10
4.722008392324823
 20
-6.506773688454737
 10
5.008400668048225
 20
-6.506773688454737
 10
5.008400668048225
 20
-6.506773688454737
 10
5.008400668048225
 20
-6.506773688454737
 10
4.970632883745211
 20
-6.610475740637411
 10
4.970632883745211
 20
-6.610475740637411
 10
4.970632883745211
 20
-6.610475740637411
 10
4.684240608021809
 20
-6.610475740637411
 10
4.684240608021809
 20
-6.610475740637411
 10
4.684240608021809
 20
-6.610475740637411
 10
4.722008392324823
 20
-6.506773688454737
 10
4.722008392324823
 20
-6.506773688454737
 97
        0
 97
        1
330
9F
 92
        1
 93
        1
 72
     4
 94
        3
 73
     0
 74
     0
 95
       35
 96
       31
 40
0.0
 40
0.0
 40
0.0
 40
0.0
 40
1.0
 40
1.0
 40
1.0
 40
2.0
 40
2.0
 40
2.0
 40
3.0
 40
3.0
 40
3.0
 40
4.0
 40
4.0
 40
4.0
 40
5.0
 40
5.0
 40
5.0
 40
6.0
 40
6.0
 40
6.0
 40
7.0
 40
7.0
 40
7.0
 40
8.0
 40
8.0
 40
8.0
 40
9.0
 40
9.0
 40
9.0
 40
10.0
 40
10.0
 40
10.0
 40
10.0
 10
5.043202942834492
 20
-7.468940962660225
 10
4.907334190485445
 20
-7.468940962660225
 10
4.780270209644337
 20
-7.57314865471441
 10
4.713817612089465
 20
-7.755829116867667
 10
4.645418593870847
 20
-7.943632355170974
 10
4.699892016708973
 20
-8.042676273247682
 10
4.833135931964331
 20
-8.042676273247682
 10
4.932095902108685
 20
-8.042676273247682
 10
5.025510428025047
 20
-7.988625518487474
 10
5.077233091870994
 20
-7.894787348354459
 10
5.077233091870994
 20
-7.894787348354459
 10
5.26465465992381
 20
-7.895591686682892
 10
5.26465465992381
 20
-7.895591686682892
 10
5.185631347570809
 20
-8.057278332780596
 10
4.995289172383636
 20
-8.206944806334124
 10
4.770281381834971
 20
-8.206944806334124
 10
4.53545363548033
 20
-8.206944806334124
 10
4.421426963758941
 20
-8.042252629031002
 10
4.525718603745468
 20
-7.755829116867667
 10
4.630265015945218
 20
-7.468475344477383
 10
4.866870310960166
 20
-7.304713427401186
 10
5.098650552143226
 20
-7.304713427401186
 10
5.301817238203006
 20
-7.304713427401186
 10
5.412797380891535
 20
-7.421322962250061
 10
5.36344478192599
 20
-7.624151904303011
 10
5.36344478192599
 20
-7.624151904303011
 10
5.17576941779867
 20
-7.624151904303011
 10
5.17576941779867
 20
-7.624151904303011
 10
5.196763233854223
 20
-7.527647899248878
 10
5.144785797795015
 20
-7.468940962660225
 10
5.043202942834492
 20
-7.468940962660225
 97
        0
 97
        1
330
A0
 92
        1
 93
        1
 72
     4
 94
        3
 73
     0
 74
     0
 95
       41
 96
       37
 40
0.0
 40
0.0
 40
0.0
 40
0.0
 40
1.0
 40
1.0
 40
1.0
 40
2.0
 40
2.0
 40
2.0
 40
3.0
 40
3.0
 40
3.0
 40
4.0
 40
4.0
 40
4.0
 40
5.0
 40
5.0
 40
5.0
 40
6.0
 40
6.0
 40
6.0
 40
7.0
 40
7.0
 40
7.0
 40
8.0
 40
8.0
 40
8.0
 40
9.0
 40
9.0
 40
9.0
 40
10.0
 40
10.0
 40
10.0
 40
11.0
 40
11.0
 40
11.0
 40
12.0
 40
12.0
 40
12.0
 40
12.0
 10
5.365899770877477
 20
-6.119529685693174
 10
5.365899770877477
 20
-6.119529685693174
 10
5.528772425554152
 20
-6.119529685693174
 10
5.528772425554152
 20
-6.119529685693174
 10
5.528772425554152
 20
-6.119529685693174
 10
5.706585859909359
 20
-6.671805562042234
 10
5.706585859909359
 20
-6.671805562042234
 10
5.706585859909359
 20
-6.671805562042234
 10
5.714288570770652
 20
-6.671805562042234
 10
5.714288570770652
 20
-6.671805562042234
 10
5.714288570770652
 20
-6.671805562042234
 10
5.915297014058372
 20
-6.119529685693174
 10
5.915297014058372
 20
-6.119529685693174
 10
5.915297014058372
 20
-6.119529685693174
 10
6.100009797085198
 20
-6.119529685693174
 10
6.100009797085198
 20
-6.119529685693174
 10
6.100009797085198
 20
-6.119529685693174
 10
5.780360474213794
 20
-6.997719743398975
 10
5.780360474213794
 20
-6.997719743398975
 10
5.780360474213794
 20
-6.997719743398975
 10
5.620112656630781
 20
-6.997719743398975
 10
5.620112656630781
 20
-6.997719743398975
 10
5.620112656630781
 20
-6.997719743398975
 10
5.439463539212334
 20
-6.444936274900909
 10
5.439463539212334
 20
-6.444936274900909
 10
5.439463539212334
 20
-6.444936274900909
 10
5.433029808723555
 20
-6.444936274900909
 10
5.433029808723555
 20
-6.444936274900909
 10
5.433029808723555
 20
-6.444936274900909
 10
5.231809543327496
 20
-6.997719743398975
 10
5.231809543327496
 20
-6.997719743398975
 10
5.231809543327496
 20
-6.997719743398975
 10
5.046250448006073
 20
-6.997719743398975
 10
5.046250448006073
 20
-6.997719743398975
 10
5.046250448006073
 20
-6.997719743398975
 10
5.365899770877477
 20
-6.119529685693174
 10
5.365899770877477
 20
-6.119529685693174
 97
        0
 97
        1
330
A1
 92
        1
 93
        1
 72
     4
 94
        3
 73
     0
 74
     0
 95
       17
 96
       13
 40
0.0
 40
0.0
 40
0.0
 40
0.0
 40
1.0
 40
1.0
 40
1.0
 40
2.0
 40
2.0
 40
2.0
 40
3.0
 40
3.0
 40
3.0
 40
4.0
 40
4.0
 40
4.0
 40
4.0
 10
6.439468879710678
 20
-6.119529685693174
 10
6.439468879710678
 20
-6.119529685693174
 10
6.119818580700539
 20
-6.997719743398975
 10
6.119818580700539
 20
-6.997719743398975
 10
6.119818580700539
 20
-6.997719743398975
 10
5.934259485379116
 20
-6.997719743398975
 10
5.934259485379116
 20
-6.997719743398975
 10
5.934259485379116
 20
-6.997719743398975
 10
6.253909784389255
 20
-6.119529685693174
 10
6.253909784389255
 20
-6.119529685693174
 10
6.253909784389255
 20
-6.119529685693174
 10
6.439468879710678
 20
-6.119529685693174
 10
6.439468879710678
 20
-6.119529685693174
 97
        0
 97
        1
330
A2
 92
        1
 93
        1
 72
     4
 94
        3
 73
     0
 74
     0
 95
       35
 96
       31
 40
0.0
 40
0.0
 40
0.0
 40
0.0
 40
1.0
 40
1.0
 40
1.0
 40
2.0
 40
2.0
 40
2.0
 40
3.0
 40
3.0
 40
3.0
 40
4.0
 40
4.0
 40
4.0
 40
5.0
 40
5.0
 40
5.0
 40
6.0
 40
6.0
 40
6.0
 40
7.0
 40
7.0
 40
7.0
 40
8.0
 40
8.0
 40
8.0
 40
9.0
 40
9.0
 40
9.0
 40
10.0
 40
10.0
 40
10.0
 40
10.0
 10
6.990686621656802
 20
-6.107509513148973
 10
7.193769359784255
 20
-6.107509513148973
 10
7.304749502472784
 20
-6.224119047997848
 10
7.25531197943615
 20
-6.426947013912037
 10
7.25531197943615
 20
-6.426947013912037
 10
7.067635639170096
 20
-6.426947013912037
 10
7.067635639170096
 20
-6.426947013912037
 10
7.088630431364385
 20
-6.330484982824095
 10
7.036737919376264
 20
-6.27177804623544
 10
6.935154088276981
 20
-6.27177804623544
 10
6.799286312066694
 20
-6.27177804623544
 10
6.672222331225586
 20
-6.375985738289626
 10
6.605726783565791
 20
-6.558625202615454
 10
6.537411713279525
 20
-6.746427464780026
 10
6.591759214219134
 20
-6.845471382856707
 10
6.72508805354558
 20
-6.845471382856707
 10
6.8240470475512
 20
-6.845471382856707
 10
6.917376649396474
 20
-6.79146260206269
 10
6.969184237313507
 20
-6.697582457963486
 10
6.969184237313507
 20
-6.697582457963486
 10
7.156521857433972
 20
-6.698386796291944
 10
7.156521857433972
 20
-6.698386796291944
 10
7.077540519047134
 20
-6.860116392494571
 10
6.887240317826151
 20
-7.009740892081936
 10
6.662317451348548
 20
-7.009740892081936
 10
6.427405757061579
 20
-7.009740892081936
 10
6.313378109201443
 20
-6.84504773864003
 10
6.417627775221792
 20
-6.558625202615454
 10
6.522217137526467
 20
-6.271270454086409
 10
6.758864406507578
 20
-6.107509513148973
 10
6.990686621656802
 20
-6.107509513148973
 97
        0
 97
        1
330
A3
 92
        1
 93
        1
 72
     4
 94
        3
 73
     0
 74
     0
 95
       17
 96
       13
 40
0.0
 40
0.0
 40
0.0
 40
0.0
 40
1.0
 40
1.0
 40
1.0
 40
2.0
 40
2.0
 40
2.0
 40
3.0
 40
3.0
 40
3.0
 40
4.0
 40
4.0
 40
4.0
 40
4.0
 10
8.290956145627912
 20
-7.316692602117957
 10
8.290956145627912
 20
-7.316692602117957
 10
7.971306822756509
 20
-8.194924633789948
 10
7.971306822756509
 20
-8.194924633789948
 10
7.971306822756509
 20
-8.194924633789948
 10
7.785746751296326
 20
-8.194924633789948
 10
7.785746751296326
 20
-8.194924633789948
 10
7.785746751296326
 20
-8.194924633789948
 10
8.105397050306489
 20
-7.316692602117957
 10
8.105397050306489
 20
-7.316692602117957
 10
8.105397050306489
 20
-7.316692602117957
 10
8.290956145627912
 20
-7.316692602117957
 10
8.290956145627912
 20
-7.316692602117957
 97
        0
 97
        1
330
A4
 92
        1
 93
        1
 72
     4
 94
        3
 73
     0
 74
     0
 95
       23
 96
       19
 40
0.0
 40
0.0
 40
0.0
 40
0.0
 40
1.0
 40
1.0
 40
1.0
 40
2.0
 40
2.0
 40
2.0
 40
3.0
 40
3.0
 40
3.0
 40
4.0
 40
4.0
 40
4.0
 40
5.0
 40
5.0
 40
5.0
 40
6.0
 40
6.0
 40
6.0
 40
6.0
 10
-0.6714960734049479
 20
-5.689540439181857
 10
-1.185479058159722
 20
-5.689540439181857
 10
-1.630908542209201
 20
-6.200656467013888
 10
-1.779925028483072
 20
-6.961393568250867
 10
-1.779925028483072
 20
-6.961393568250867
 10
-2.408260769314236
 20
-10.16861216227213
 10
-2.408260769314236
 20
-10.16861216227213
 10
-2.408260769314236
 20
-10.16861216227213
 10
9.551699320475259
 20
-10.16861216227213
 10
9.551699320475259
 20
-10.16861216227213
 10
10.10799068874783
 20
-10.16861216227213
 10
10.59017774793836
 20
-9.614894443088106
 10
10.75161743164062
 20
-8.790786743164062
 10
10.75161743164062
 20
-8.790786743164062
 10
11.35922241210937
 20
-5.689540439181857
 10
11.35922241210937
 20
-5.689540439181857
 10
11.35922241210937
 20
-5.689540439181857
 10
-0.6714960734049479
 20
-5.689540439181857
 10
-0.6714960734049479
 20
-5.689540439181857
 97
        0
 97
        1
330
A5
 75
     2
 76
     1
 98
        1
 10
0.0
 20
0.0
450
        0
451
        0
460
0.0
461
0.0
452
        0
462
0.0
453
        0
470

  0
ENDSEC
  0
SECTION
  2
OBJECTS
  0
DICTIONARY
  5
C
330
0
100
AcDbDictionary
281
     1
  3
ACAD_COLOR
350
63
  3
ACAD_DETAILVIEWSTYLE
350
6A
  3
ACAD_GROUP
350
D
  3
ACAD_LAYOUT
350
62
  3
ACAD_MATERIAL
350
10
  3
ACAD_MLEADERSTYLE
350
66
  3
ACAD_MLINESTYLE
350
5F
  3
ACAD_PLOTSETTINGS
350
61
  3
ACAD_PLOTSTYLENAME
350
E
  3
ACAD_SCALELIST
350
42
  3
ACAD_SECTIONVIEWSTYLE
350
68
  3
ACAD_TABLESTYLE
350
64
  3
ACAD_VISUALSTYLE
350
29
  3
ACDB_RECOMPOSE_DATA
350
AF
  3
AcDbVariableDictionary
350
A7
  0
DICTIONARY
  5
63
102
{ACAD_REACTORS
330
C
102
}
330
C
100
AcDbDictionary
281
     1
  0
DICTIONARY
  5
6A
102
{ACAD_REACTORS
330
C
102
}
330
C
100
AcDbDictionary
281
     1
  3
Imperial24
350
6B
  0
DICTIONARY
  5
D
102
{ACAD_REACTORS
330
C
102
}
330
C
100
AcDbDictionary
281
     1
  0
DICTIONARY
  5
62
102
{ACAD_REACTORS
330
C
102
}
330
C
100
AcDbDictionary
281
     1
  3
Layout1
350
6F
  3
Layout2
350
77
  3
Model
350
73
  0
DICTIONARY
  5
10
102
{ACAD_REACTORS
330
C
102
}
330
C
100
AcDbDictionary
281
     1
  3
ByBlock
350
19
  3
ByLayer
350
11
  3
Global
350
21
  0
DICTIONARY
  5
66
102
{ACAD_REACTORS
330
C
102
}
330
C
100
AcDbDictionary
281
     1
  3
Standard
350
67
  0
DICTIONARY
  5
5F
102
{ACAD_REACTORS
330
C
102
}
330
C
100
AcDbDictionary
281
     1
  3
Standard
350
60
  0
DICTIONARY
  5
61
102
{ACAD_REACTORS
330
C
102
}
330
C
100
AcDbDictionary
281
     1
  0
ACDBDICTIONARYWDFLT
  5
E
102
{ACAD_REACTORS
330
C
102
}
330
C
100
AcDbDictionary
281
     1
  3
Normal
350
F
100
AcDbDictionaryWithDefault
340
F
  0
DICTIONARY
  5
42
102
{ACAD_REACTORS
330
C
102
}
330
C
100
AcDbDictionary
281
     1
  3
A0
350
43
  3
A1
350
44
  3
A2
350
45
  3
A3
350
46
  3
A4
350
47
  3
A5
350
48
  3
A6
350
49
  3
A7
350
4A
  3
A8
350
4B
  3
A9
350
4C
  3
B0
350
4D
  3
B1
350
4E
  3
B2
350
4F
  3
B3
350
50
  3
B4
350
51
  3
B5
350
52
  3
B6
350
53
  0
DICTIONARY
  5
68
102
{ACAD_REACTORS
330
C
102
}
330
C
100
AcDbDictionary
281
     1
  3
Imperial24
350
69
  0
DICTIONARY
  5
64
102
{ACAD_REACTORS
330
C
102
}
330
C
100
AcDbDictionary
281
     1
  3
Standard
350
65
  0
DICTIONARY
  5
29
102
{ACAD_REACTORS
330
C
102
}
330
C
100
AcDbDictionary
281
     1
  3
2dWireframe
350
2F
  3
Basic
350
2E
  3
Brighten
350
35
  3
ColorChange
350
39
  3
Conceptual
350
32
  3
Dim
350
34
  3
EdgeColorOff
350
41
  3
Facepattern
350
38
  3
Flat
350
2A
  3
FlatWithEdges
350
2B
  3
Gouraud
350
2C
  3
GouraudWithEdges
350
2D
  3
Hidden
350
31
  3
JitterOff
350
3F
  3
Linepattern
350
37
  3
OverhangOff
350
40
  3
Realistic
350
33
  3
Shaded
350
3E
  3
Shaded with edges
350
3D
  3
Shades of Gray
350
3A
  3
Sketchy
350
3B
  3
Thicken
350
36
  3
Wireframe
350
30
  3
X-Ray
350
3C
  0
XRECORD
  5
AF
102
{ACAD_REACTORS
330
C
102
}
330
C
100
AcDbXrecord
280
     1
 90
        1
330
65
  0
DICTIONARY
  5
A7
102
{ACAD_REACTORS
330
C
102
}
330
C
100
AcDbDictionary
281
     1
  3
CANNOSCALE
350
AC
  3
CMLEADERSTYLE
350
A9
  3
CTABLESTYLE
350
A8
  3
CVIEWDETAILSTYLE
350
AA
  3
CVIEWSECTIONSTYLE
350
AB
  0
ACDBDETAILVIEWSTYLE
  5
6B
102
{ACAD_REACTORS
330
6A
102
}
330
6A
100
AcDbModelDocViewStyle
 70
     0
  3
Imperial24
290
     1
300
Imperial24
 90
        0
100
AcDbDetailViewStyle
 70
     0
 71
     0
 90
        3
 71
     1
340
55
 62
   256
 40
0.24
340
0
 62
   256
 40
0.24
300

 40
0.36
280
     3
 71
     2
340
5D
 90
       25
 62
   256
 71
     3
340
55
 62
   256
 40
0.24
 90
        1
 40
0.75
 90
        1
300
%<\AcVar ViewType \f "%tc1">% %<\AcVar ViewDetailId>%\PSCALE %<\AcVar ViewScale \f "%sn">%
 71
     4
340
5D
 90
       25
 62
   256
340
5D
 90
       25
 62
   256
280
     0
  0
LAYOUT
  5
6F
102
{ACAD_REACTORS
330
62
102
}
330
62
100
AcDbPlotSettings
  1

  2

  4

  6

 40
0.0
 41
0.0
 42
0.0
 43
0.0
 44
0.0
 45
0.0
 46
0.0
 47
0.0
 48
0.0
 49
0.0
140
0.0
141
0.0
142
1.0
143
1.0
 70
   688
 72
     0
 73
     0
 74
     5
  7

 75
    16
147
1.0
 76
     0
 77
     2
 78
   300
148
0.0
149
0.0
100
AcDbLayout
  1
Layout1
 70
     1
 71
     1
 10
0.0
 20
0.0
 11
12.0
 21
9.0
 12
0.0
 22
0.0
 32
0.0
 14
0.0
 24
0.0
 34
0.0
 15
0.0
 25
0.0
 35
0.0
146
0.0
 13
0.0
 23
0.0
 33
0.0
 16
1.0
 26
0.0
 36
0.0
 17
0.0
 27
1.0
 37
0.0
 76
     0
330
6C
  0
LAYOUT
  5
77
102
{ACAD_REACTORS
330
62
102
}
330
62
100
AcDbPlotSettings
  1

  2

  4

  6

 40
0.0
 41
0.0
 42
0.0
 43
0.0
 44
0.0
 45
0.0
 46
0.0
 47
0.0
 48
0.0
 49
0.0
140
0.0
141
0.0
142
1.0
143
1.0
 70
   688
 72
     0
 73
     0
 74
     5
  7

 75
    16
147
1.0
 76
     0
 77
     2
 78
   300
148
0.0
149
0.0
100
AcDbLayout
  1
Layout2
 70
     1
 71
     2
 10
0.0
 20
0.0
 11
12.0
 21
9.0
 12
0.0
 22
0.0
 32
0.0
 14
0.0
 24
0.0
 34
0.0
 15
0.0
 25
0.0
 35
0.0
146
0.0
 13
0.0
 23
0.0
 33
0.0
 16
1.0
 26
0.0
 36
0.0
 17
0.0
 27
1.0
 37
0.0
 76
     0
330
74
  0
LAYOUT
  5
73
102
{ACAD_REACTORS
330
62
102
}
330
62
100
AcDbPlotSettings
  1

  2

  4

  6

 40
0.0
 41
0.0
 42
0.0
 43
0.0
 44
0.0
 45
0.0
 46
0.0
 47
0.0
 48
0.0
 49
0.0
140
0.0
141
0.0
142
1.0
143
1.0
 70
  1712
 72
     0
 73
     0
 74
     0
  7

 75
     0
147
1.0
 76
     0
 77
     2
 78
   300
148
0.0
149
0.0
100
AcDbLayout
  1
Model
 70
     1
 71
     0
 10
0.0
 20
0.0
 11
12.0
 21
9.0
 12
0.0
 22
0.0
 32
0.0
 14
0.0
 24
0.0
 34
0.0
 15
0.0
 25
0.0
 35
0.0
146
0.0
 13
0.0
 23
0.0
 33
0.0
 16
1.0
 26
0.0
 36
0.0
 17
0.0
 27
1.0
 37
0.0
 76
     0
330
70
  0
MATERIAL
  5
19
102
{ACAD_XDICTIONARY
360
1A
102
}
102
{ACAD_REACTORS
330
10
102
}
330
10
100
AcDbMaterial
  1
ByBlock
 72
     0
 43
0.0208333333333333
 43
0.0
 43
0.0
 43
0.0
 43
0.0
 43
0.0208333333333333
 43
0.0
 43
0.0
 43
0.0
 43
0.0
 43
1.0
 43
0.0
 43
0.0
 43
0.0
 43
0.0
 43
1.0
 77
     0
 47
0.0208333333333333
 47
0.0
 47
0.0
 47
0.0
 47
0.0
 47
0.0208333333333333
 47
0.0
 47
0.0
 47
0.0
 47
0.0
 47
1.0
 47
0.0
 47
0.0
 47
0.0
 47
0.0
 47
1.0
171
     0
 49
0.0208333333333333
 49
0.0
 49
0.0
 49
0.0
 49
0.0
 49
0.0208333333333333
 49
0.0
 49
0.0
 49
0.0
 49
0.0
 49
1.0
 49
0.0
 49
0.0
 49
0.0
 49
0.0
 49
1.0
175
     0
142
0.0208333333333333
142
0.0
142
0.0
142
0.0
142
0.0
142
0.0208333333333333
142
0.0
142
0.0
142
0.0
142
0.0
142
1.0
142
0.0
142
0.0
142
0.0
142
0.0
142
1.0
179
     0
144
0.0208333333333333
144
0.0
144
0.0
144
0.0
144
0.0
144
0.0208333333333333
144
0.0
144
0.0
144
0.0
144
0.0
144
1.0
144
0.0
144
0.0
144
0.0
144
0.0
144
1.0
147
0.0208333333333333
147
0.0
147
0.0
147
0.0
147
0.0
147
0.0208333333333333
147
0.0
147
0.0
147
0.0
147
0.0
147
1.0
147
0.0
147
0.0
147
0.0
147
0.0
147
1.0
  0
MATERIAL
  5
11
102
{ACAD_XDICTIONARY
360
12
102
}
102
{ACAD_REACTORS
330
10
102
}
330
10
100
AcDbMaterial
  1
ByLayer
 72
     0
 43
0.0208333333333333
 43
0.0
 43
0.0
 43
0.0
 43
0.0
 43
0.0208333333333333
 43
0.0
 43
0.0
 43
0.0
 43
0.0
 43
1.0
 43
0.0
 43
0.0
 43
0.0
 43
0.0
 43
1.0
 77
     0
 47
0.0208333333333333
 47
0.0
 47
0.0
 47
0.0
 47
0.0
 47
0.0208333333333333
 47
0.0
 47
0.0
 47
0.0
 47
0.0
 47
1.0
 47
0.0
 47
0.0
 47
0.0
 47
0.0
 47
1.0
171
     0
 49
0.0208333333333333
 49
0.0
 49
0.0
 49
0.0
 49
0.0
 49
0.0208333333333333
 49
0.0
 49
0.0
 49
0.0
 49
0.0
 49
1.0
 49
0.0
 49
0.0
 49
0.0
 49
0.0
 49
1.0
175
     0
142
0.0208333333333333
142
0.0
142
0.0
142
0.0
142
0.0
142
0.0208333333333333
142
0.0
142
0.0
142
0.0
142
0.0
142
1.0
142
0.0
142
0.0
142
0.0
142
0.0
142
1.0
179
     0
144
0.0208333333333333
144
0.0
144
0.0
144
0.0
144
0.0
144
0.0208333333333333
144
0.0
144
0.0
144
0.0
144
0.0
144
1.0
144
0.0
144
0.0
144
0.0
144
0.0
144
1.0
147
0.0208333333333333
147
0.0
147
0.0
147
0.0
147
0.0
147
0.0208333333333333
147
0.0
147
0.0
147
0.0
147
0.0
147
1.0
147
0.0
147
0.0
147
0.0
147
0.0
147
1.0
  0
MATERIAL
  5
21
102
{ACAD_XDICTIONARY
360
22
102
}
102
{ACAD_REACTORS
330
10
102
}
330
10
100
AcDbMaterial
  1
Global
 72
     0
 43
0.0208333333333333
 43
0.0
 43
0.0
 43
0.0
 43
0.0
 43
0.0208333333333333
 43
0.0
 43
0.0
 43
0.0
 43
0.0
 43
1.0
 43
0.0
 43
0.0
 43
0.0
 43
0.0
 43
1.0
 77
     0
 47
0.0208333333333333
 47
0.0
 47
0.0
 47
0.0
 47
0.0
 47
0.0208333333333333
 47
0.0
 47
0.0
 47
0.0
 47
0.0
 47
1.0
 47
0.0
 47
0.0
 47
0.0
 47
0.0
 47
1.0
171
     0
 49
0.0208333333333333
 49
0.0
 49
0.0
 49
0.0
 49
0.0
 49
0.0208333333333333
 49
0.0
 49
0.0
 49
0.0
 49
0.0
 49
1.0
 49
0.0
 49
0.0
 49
0.0
 49
0.0
 49
1.0
175
     0
142
0.0208333333333333
142
0.0
142
0.0
142
0.0
142
0.0
142
0.0208333333333333
142
0.0
142
0.0
142
0.0
142
0.0
142
1.0
142
0.0
142
0.0
142
0.0
142
0.0
142
1.0
179
     0
144
0.0208333333333333
144
0.0
144
0.0
144
0.0
144
0.0
144
0.0208333333333333
144
0.0
144
0.0
144
0.0
144
0.0
144
1.0
144
0.0
144
0.0
144
0.0
144
0.0
144
1.0
147
0.0208333333333333
147
0.0
147
0.0
147
0.0
147
0.0
147
0.0208333333333333
147
0.0
147
0.0
147
0.0
147
0.0
147
1.0
147
0.0
147
0.0
147
0.0
147
0.0
147
1.0
  0
MLEADERSTYLE
  5
67
102
{ACAD_REACTORS
330
66
102
}
330
66
100
AcDbMLeaderStyle
179
     2
170
     2
171
     1
172
     0
 90
        2
 40
0.0
 41
0.0
173
     1
 91
-1056964608
340
5B
 92
       -2
290
     1
 42
0.09
291
     1
 43
0.36
  3
Standard
 44
0.18
300

342
55
174
     1
178
     6
175
     1
176
     0
 93
-1056964608
 45
0.18
292
     0
297
     0
 46
0.18
 94
-1056964608
 47
1.0
 49
1.0
140
1.0
293
     1
141
0.0
294
     1
177
     0
142
1.0
295
     1
296
     0
143
0.125
271
     0
272
     9
273
     9
298
     1
  0
MLINESTYLE
  5
60
102
{ACAD_REACTORS
330
5F
102
}
330
5F
100
AcDbMlineStyle
  2
STANDARD
 70
     0
  3

 62
   256
 51
90.0
 52
90.0
 71
     2
 49
0.5
 62
   256
  6
BYLAYER
 49
-0.5
 62
   256
  6
BYLAYER
  0
ACDBPLACEHOLDER
  5
F
102
{ACAD_REACTORS
330
E
102
}
330
E
  0
SCALE
  5
43
102
{ACAD_REACTORS
330
42
102
}
330
42
100
AcDbScale
 70
     0
300
1:1
140
1.0
141
1.0
290
     1
  0
SCALE
  5
44
102
{ACAD_REACTORS
330
42
102
}
330
42
100
AcDbScale
 70
     0
300
1/128" = 1'-0"
140
0.0078125
141
12.0
290
     0
  0
SCALE
  5
45
102
{ACAD_REACTORS
330
42
102
}
330
42
100
AcDbScale
 70
     0
300
1/64" = 1'-0"
140
0.015625
141
12.0
290
     0
  0
SCALE
  5
46
102
{ACAD_REACTORS
330
42
102
}
330
42
100
AcDbScale
 70
     0
300
1/32" = 1'-0"
140
0.03125
141
12.0
290
     0
  0
SCALE
  5
47
102
{ACAD_REACTORS
330
42
102
}
330
42
100
AcDbScale
 70
     0
300
1/16" = 1'-0"
140
0.0625
141
12.0
290
     0
  0
SCALE
  5
48
102
{ACAD_REACTORS
330
42
102
}
330
42
100
AcDbScale
 70
     0
300
3/32" = 1'-0"
140
0.09375
141
12.0
290
     0
  0
SCALE
  5
49
102
{ACAD_REACTORS
330
42
102
}
330
42
100
AcDbScale
 70
     0
300
1/8" = 1'-0"
140
0.125
141
12.0
290
     0
  0
SCALE
  5
4A
102
{ACAD_REACTORS
330
42
102
}
330
42
100
AcDbScale
 70
     0
300
3/16" = 1'-0"
140
0.1875
141
12.0
290
     0
  0
SCALE
  5
4B
102
{ACAD_REACTORS
330
42
102
}
330
42
100
AcDbScale
 70
     0
300
1/4" = 1'-0"
140
0.25
141
12.0
290
     0
  0
SCALE
  5
4C
102
{ACAD_REACTORS
330
42
102
}
330
42
100
AcDbScale
 70
     0
300
3/8" = 1'-0"
140
0.375
141
12.0
290
     0
  0
SCALE
  5
4D
102
{ACAD_REACTORS
330
42
102
}
330
42
100
AcDbScale
 70
     0
300
1/2" = 1'-0"
140
0.5
141
12.0
290
     0
  0
SCALE
  5
4E
102
{ACAD_REACTORS
330
42
102
}
330
42
100
AcDbScale
 70
     0
300
3/4" = 1'-0"
140
0.75
141
12.0
290
     0
  0
SCALE
  5
4F
102
{ACAD_REACTORS
330
42
102
}
330
42
100
AcDbScale
 70
     0
300
1" = 1'-0"
140
1.0
141
12.0
290
     0
  0
SCALE
  5
50
102
{ACAD_REACTORS
330
42
102
}
330
42
100
AcDbScale
 70
     0
300
1-1/2" = 1'-0"
140
1.5
141
12.0
290
     0
  0
SCALE
  5
51
102
{ACAD_REACTORS
330
42
102
}
330
42
100
AcDbScale
 70
     0
300
3" = 1'-0"
140
3.0
141
12.0
290
     0
  0
SCALE
  5
52
102
{ACAD_REACTORS
330
42
102
}
330
42
100
AcDbScale
 70
     0
300
6" = 1'-0"
140
6.0
141
12.0
290
     0
  0
SCALE
  5
53
102
{ACAD_REACTORS
330
42
102
}
330
42
100
AcDbScale
 70
     0
300
1'-0" = 1'-0"
140
12.0
141
12.0
290
     0
  0
ACDBSECTIONVIEWSTYLE
  5
69
102
{ACAD_REACTORS
330
68
102
}
330
68
100
AcDbModelDocViewStyle
 70
     0
  3
Imperial24
290
     1
300
Imperial24
 90
        0
100
AcDbSectionViewStyle
 70
     0
 71
     0
 90
       78
 71
     1
340
55
 62
   256
 40
0.24
340
0
340
0
 62
   256
 40
0.24
300
I, O, Q, S, X, Z
 40
0.48
 90
        3
 40
0.18
 90
        1
 71
     2
340
5D
 90
       25
 62
   256
340
5D
 90
       50
 62
   256
 40
0.24
 40
0.0
 40
0.24
 71
     3
340
55
 62
   256
 40
0.24
 90
        1
 40
0.75
 90
        1
300
%<\AcVar ViewType \f "%tc1">% %<\AcVar ViewSectionStartId>%-%<\AcVar ViewSectionEndId>%\PSCALE %<\AcVar ViewScale \f "%sn">%
 71
     4
 62
   256
 62
   257
300
ANSI31
 40
1.0
 90
        0
290
     0
290
     0
 90
        6
 40
0.0
 40
1.570796326794896
 40
0.2617993877991494
 40
1.308996938995747
 40
-0.2617993877991494
 40
1.832595714594046
  0
TABLESTYLE
  5
65
102
{ACAD_XDICTIONARY
360
AD
102
}
102
{ACAD_REACTORS
330
64
102
}
330
64
100
AcDbTableStyle
280
     0
  3
Standard
 70
     0
 71
     0
 40
0.06
 41
0.06
280
     0
281
     0
  7
Standard
140
0.18
170
     2
 62
     0
 63
     7
283
     0
 90
      512
 91
        0
  1

274
    -2
284
     1
 64
     0
275
    -2
285
     1
 65
     0
276
    -2
286
     1
 66
     0
277
    -2
287
     1
 67
     0
278
    -2
288
     1
 68
     0
279
    -2
289
     1
 69
     0
  7
Standard
140
0.25
170
     5
 62
     0
 63
     7
283
     0
 90
      512
 91
        0
  1

274
    -2
284
     1
 64
     0
275
    -2
285
     1
 65
     0
276
    -2
286
     1
 66
     0
277
    -2
287
     1
 67
     0
278
    -2
288
     1
 68
     0
279
    -2
289
     1
 69
     0
  7
Standard
140
0.18
170
     5
 62
     0
 63
     7
283
     0
 90
      512
 91
        0
  1

274
    -2
284
     1
 64
     0
275
    -2
285
     1
 65
     0
276
    -2
286
     1
 66
     0
277
    -2
287
     1
 67
     0
278
    -2
288
     1
 68
     0
279
    -2
289
     1
 69
     0
  0
VISUALSTYLE
  5
2F
102
{ACAD_REACTORS
330
29
102
}
330
29
100
AcDbVisualStyle
  2
2dWireframe
 70
     4
177
     3
291
     0
 70
    58
 90
        0
176
     1
 90
        2
176
     1
 90
        0
176
     1
 90
        0
176
     1
 40
0.6
176
     1
 40
30.0
176
     1
 62
     7
420
 16777215
176
     1
 90
        1
176
     1
 90
        4
176
     1
 62
     7
176
     1
 62
   257
176
     1
 90
        1
176
     1
 90
        1
176
     1
 40
1.0
176
     1
 90
        0
176
     1
 62
   257
176
     1
 40
1.0
176
     1
 90
        1
176
     1
 90
        6
176
     1
 90
        2
176
     1
 62
     7
176
     1
 90
        5
176
     1
 90
        0
176
     1
 90
        0
176
     1
290
     0
176
     1
 90
        1
176
     1
 40
0.0
176
     1
 90
        0
176
     1
290
     1
176
     1
290
     1
176
     1
290
     0
176
     1
290
     0
176
     1
290
     0
176
     1
290
     0
176
     1
290
     0
176
     1
290
     0
176
     1
290
     0
176
     1
 90
       50
176
     1
 40
0.0
176
     1
 40
1.0
176
     1
 90
        0
176
     1
 62
    18
420
        0
176
     1
 90
       50
176
     1
 90
        3
176
     1
 62
     5
420
      255
176
     1
290
     0
176
     1
 90
       50
176
     1
 90
       50
176
     1
 90
       50
176
     1
290
     0
176
     1
 90
       50
176
     1
 62
   256
176
     0
 40
1.0
176
     0
 90
        2
176
     1
  1
strokes_ogs.tif
176
     1
290
     0
176
     1
 40
1.0
176
     1
 40
1.0
176
     1
  0
VISUALSTYLE
  5
2E
102
{ACAD_REACTORS
330
29
102
}
330
29
100
AcDbVisualStyle
  2
Basic
 70
     7
177
     3
291
     1
 70
    58
 90
        1
176
     1
 90
        0
176
     1
 90
        1
176
     1
 90
        0
176
     1
 40
0.6
176
     1
 40
30.0
176
     1
 62
     7
420
 16777215
176
     1
 90
        0
176
     1
 90
        4
176
     1
 62
     7
176
     1
 62
   257
176
     1
 90
        1
176
     1
 90
        1
176
     1
 40
1.0
176
     1
 90
        8
176
     1
 62
     7
176
     1
 40
1.0
176
     1
 90
        1
176
     1
 90
        6
176
     1
 90
        2
176
     1
 62
     7
176
     1
 90
        5
176
     1
 90
        0
176
     1
 90
        0
176
     1
290
     0
176
     1
 90
        1
176
     1
 40
0.0
176
     1
 90
        0
176
     1
290
     0
176
     1
290
     1
176
     1
290
     1
176
     1
290
     0
176
     1
290
     0
176
     1
290
     0
176
     1
290
     0
176
     1
290
     0
176
     1
290
     0
176
     1
 90
       50
176
     1
 40
0.0
176
     1
 40
1.0
176
     1
 90
        0
176
     1
 62
    18
420
        0
176
     1
 90
       50
176
     1
 90
        3
176
     1
 62
     5
420
      255
176
     1
290
     0
176
     1
 90
       50
176
     1
 90
       50
176
     1
 90
       50
176
     1
290
     0
176
     1
 90
       50
176
     1
 62
   256
176
     0
 40
1.0
176
     0
 90
        2
176
     1
  1
strokes_ogs.tif
176
     1
290
     0
176
     1
 40
1.0
176
     1
 40
1.0
176
     1
  0
VISUALSTYLE
  5
35
102
{ACAD_REACTORS
330
29
102
}
330
29
100
AcDbVisualStyle
  2
Brighten
 70
    12
177
     3
291
     1
 70
    58
 90
        2
176
     1
 90
        2
176
     1
 90
        0
176
     1
 90
        0
176
     1
 40
0.6
176
     1
 40
30.0
176
     1
 62
     7
420
 16777215
176
     1
 90
        1
176
     1
 90
        4
176
     1
 62
     7
176
     1
 62
   257
176
     1
 90
        1
176
     1
 90
        1
176
     1
 40
1.0
176
     1
 90
        8
176
     1
 62
     7
176
     1
 40
1.0
176
     1
 90
        1
176
     1
 90
        6
176
     1
 90
        2
176
     1
 62
     7
176
     1
 90
        5
176
     1
 90
        0
176
     1
 90
        0
176
     1
290
     0
176
     1
 90
        1
176
     1
 40
50.0
176
     1
 90
        0
176
     1
290
     0
176
     1
290
     1
176
     1
290
     1
176
     1
290
     0
176
     1
290
     0
176
     1
290
     0
176
     1
290
     0
176
     1
290
     0
176
     1
290
     0
176
     1
 90
       50
176
     1
 40
0.0
176
     1
 40
1.0
176
     1
 90
        0
176
     1
 62
    18
420
        0
176
     1
 90
       50
176
     1
 90
        3
176
     1
 62
     5
420
      255
176
     1
290
     0
176
     1
 90
       50
176
     1
 90
       50
176
     1
 90
       50
176
     1
290
     0
176
     1
 90
       50
176
     1
 62
   256
176
     0
 40
1.0
176
     0
 90
        2
176
     1
  1
strokes_ogs.tif
176
     1
290
     0
176
     1
 40
1.0
176
     1
 40
1.0
176
     1
  0
VISUALSTYLE
  5
39
102
{ACAD_REACTORS
330
29
102
}
330
29
100
AcDbVisualStyle
  2
ColorChange
 70
    16
177
     3
291
     1
 70
    58
 90
        2
176
     1
 90
        2
176
     1
 90
        3
176
     1
 90
        0
176
     1
 40
0.6
176
     1
 40
30.0
176
     1
 62
     8
420
  8421504
176
     1
 90
        1
176
     1
 90
        4
176
     1
 62
     7
176
     1
 62
   257
176
     1
 90
        1
176
     1
 90
        1
176
     1
 40
1.0
176
     1
 90
        8
176
     1
 62
     8
420
  8421504
176
     1
 40
1.0
176
     1
 90
        1
176
     1
 90
        6
176
     1
 90
        2
176
     1
 62
     7
176
     1
 90
        5
176
     1
 90
        0
176
     1
 90
        0
176
     1
290
     0
176
     1
 90
        1
176
     1
 40
0.0
176
     1
 90
        0
176
     1
290
     0
176
     1
290
     1
176
     1
290
     1
176
     1
290
     0
176
     1
290
     0
176
     1
290
     0
176
     1
290
     0
176
     1
290
     0
176
     1
290
     0
176
     1
 90
       50
176
     1
 40
0.0
176
     1
 40
1.0
176
     1
 90
        0
176
     1
 62
    18
420
        0
176
     1
 90
       50
176
     1
 90
        3
176
     1
 62
     5
420
      255
176
     1
290
     0
176
     1
 90
       50
176
     1
 90
       50
176
     1
 90
       50
176
     1
290
     0
176
     1
 90
       50
176
     1
 62
   256
176
     0
 40
1.0
176
     0
 90
        2
176
     1
  1
strokes_ogs.tif
176
     1
290
     0
176
     1
 40
1.0
176
     1
 40
1.0
176
     1
  0
VISUALSTYLE
  5
32
102
{ACAD_REACTORS
330
29
102
}
330
29
100
AcDbVisualStyle
  2
Conceptual
 70
     9
177
     3
291
     0
 70
    58
 90
        3
176
     1
 90
        2
176
     1
 90
        0
176
     1
 90
        0
176
     1
 40
0.6
176
     1
 40
30.0
176
     1
 62
     7
420
 16777215
176
     1
 90
        2
176
     1
 90
        2
176
     1
 62
     7
176
     1
 62
   257
176
     1
 90
        1
176
     1
 90
        1
176
     1
 40
179.0
176
     1
 90
        8
176
     1
 62
     7
176
     1
 40
1.0
176
     1
 90
        1
176
     1
 90
        6
176
     1
 90
        2
176
     1
 62
     7
176
     1
 90
        3
176
     1
 90
        0
176
     1
 90
        0
176
     1
290
     0
176
     1
 90
        1
176
     1
 40
0.0
176
     1
 90
        0
176
     1
290
     0
176
     1
290
     1
176
     1
290
     1
176
     1
290
     0
176
     1
290
     0
176
     1
290
     0
176
     1
290
     0
176
     1
290
     0
176
     1
290
     0
176
     1
 90
       50
176
     1
 40
0.0
176
     1
 40
1.0
176
     1
 90
        0
176
     1
 62
    18
420
        0
176
     1
 90
       50
176
     1
 90
        3
176
     1
 62
     5
420
      255
176
     1
290
     0
176
     1
 90
       50
176
     1
 90
       50
176
     1
 90
       50
176
     1
290
     0
176
     1
 90
       50
176
     1
 62
   256
176
     0
 40
1.0
176
     0
 90
        2
176
     1
  1
strokes_ogs.tif
176
     1
290
     0
176
     1
 40
1.0
176
     1
 40
1.0
176
     1
  0
VISUALSTYLE
  5
34
102
{ACAD_REACTORS
330
29
102
}
330
29
100
AcDbVisualStyle
  2
Dim
 70
    11
177
     3
291
     1
 70
    58
 90
        2
176
     1
 90
        2
176
     1
 90
        0
176
     1
 90
        0
176
     1
 40
0.6
176
     1
 40
30.0
176
     1
 62
     7
420
 16777215
176
     1
 90
        1
176
     1
 90
        4
176
     1
 62
     7
176
     1
 62
   257
176
     1
 90
        1
176
     1
 90
        1
176
     1
 40
1.0
176
     1
 90
        8
176
     1
 62
     7
176
     1
 40
1.0
176
     1
 90
        1
176
     1
 90
        6
176
     1
 90
        2
176
     1
 62
     7
176
     1
 90
        5
176
     1
 90
        0
176
     1
 90
        0
176
     1
290
     0
176
     1
 90
        1
176
     1
 40
-50.0
176
     1
 90
        0
176
     1
290
     0
176
     1
290
     1
176
     1
290
     1
176
     1
290
     0
176
     1
290
     0
176
     1
290
     0
176
     1
290
     0
176
     1
290
     0
176
     1
290
     0
176
     1
 90
       50
176
     1
 40
0.0
176
     1
 40
1.0
176
     1
 90
        0
176
     1
 62
    18
420
        0
176
     1
 90
       50
176
     1
 90
        3
176
     1
 62
     5
420
      255
176
     1
290
     0
176
     1
 90
       50
176
     1
 90
       50
176
     1
 90
       50
176
     1
290
     0
176
     1
 90
       50
176
     1
 62
   256
176
     0
 40
1.0
176
     0
 90
        2
176
     1
  1
strokes_ogs.tif
176
     1
290
     0
176
     1
 40
1.0
176
     1
 40
1.0
176
     1
  0
VISUALSTYLE
  5
41
102
{ACAD_REACTORS
330
29
102
}
330
29
100
AcDbVisualStyle
  2
EdgeColorOff
 70
    22
177
     3
291
     1
 70
    58
 90
        2
176
     0
 90
        2
176
     0
 90
        0
176
     0
 90
        0
176
     0
 40
0.6
176
     0
 40
30.0
176
     0
 62
     7
420
 16777215
176
     0
 90
        1
176
     0
 90
        4
176
     0
 62
     7
176
     0
 62
   257
176
     0
 90
        1
176
     0
 90
        1
176
     0
 40
1.0
176
     0
 90
        8
176
     2
 62
     7
176
     0
 40
1.0
176
     0
 90
        1
176
     0
 90
        6
176
     0
 90
        2
176
     0
 62
     7
176
     0
 90
        5
176
     0
 90
        0
176
     0
 90
        0
176
     0
290
     0
176
     0
 90
        1
176
     0
 40
0.0
176
     0
 90
        0
176
     0
290
     0
176
     0
290
     1
176
     0
290
     1
176
     0
290
     0
176
     0
290
     0
176
     0
290
     0
176
     0
290
     0
176
     0
290
     0
176
     0
290
     0
176
     0
 90
       50
176
     0
 40
0.0
176
     0
 40
1.0
176
     0
 90
        0
176
     0
 62
    18
420
        0
176
     0
 90
       50
176
     0
 90
        3
176
     0
 62
     5
420
      255
176
     0
290
     0
176
     0
 90
       50
176
     0
 90
       50
176
     0
 90
       50
176
     0
290
     0
176
     0
 90
       50
176
     0
 62
   256
176
     0
 40
1.0
176
     0
 90
        2
176
     0
  1
strokes_ogs.tif
176
     0
290
     0
176
     0
 40
1.0
176
     0
 40
1.0
176
     0
  0
VISUALSTYLE
  5
38
102
{ACAD_REACTORS
330
29
102
}
330
29
100
AcDbVisualStyle
  2
Facepattern
 70
    15
177
     3
291
     1
 70
    58
 90
        2
176
     1
 90
        2
176
     1
 90
        0
176
     1
 90
        0
176
     1
 40
0.6
176
     1
 40
30.0
176
     1
 62
     7
420
 16777215
176
     1
 90
        1
176
     1
 90
        4
176
     1
 62
     7
176
     1
 62
   257
176
     1
 90
        1
176
     1
 90
        1
176
     1
 40
1.0
176
     1
 90
        8
176
     1
 62
     7
176
     1
 40
1.0
176
     1
 90
        1
176
     1
 90
        6
176
     1
 90
        2
176
     1
 62
     7
176
     1
 90
        5
176
     1
 90
        0
176
     1
 90
        0
176
     1
290
     0
176
     1
 90
        1
176
     1
 40
0.0
176
     1
 90
        0
176
     1
290
     0
176
     1
290
     1
176
     1
290
     1
176
     1
290
     0
176
     1
290
     0
176
     1
290
     0
176
     1
290
     0
176
     1
290
     0
176
     1
290
     0
176
     1
 90
       50
176
     1
 40
0.0
176
     1
 40
1.0
176
     1
 90
        0
176
     1
 62
    18
420
        0
176
     1
 90
       50
176
     1
 90
        3
176
     1
 62
     5
420
      255
176
     1
290
     0
176
     1
 90
       50
176
     1
 90
       50
176
     1
 90
       50
176
     1
290
     0
176
     1
 90
       50
176
     1
 62
   256
176
     0
 40
1.0
176
     0
 90
        2
176
     1
  1
strokes_ogs.tif
176
     1
290
     0
176
     1
 40
1.0
176
     1
 40
1.0
176
     1
  0
VISUALSTYLE
  5
2A
102
{ACAD_REACTORS
330
29
102
}
330
29
100
AcDbVisualStyle
  2
Flat
 70
     0
177
     3
291
     1
 70
    58
 90
        2
176
     1
 90
        1
176
     1
 90
        1
176
     1
 90
        2
176
     1
 40
0.6
176
     1
 40
30.0
176
     1
 62
     7
420
 16777215
176
     1
 90
        0
176
     1
 90
        0
176
     1
 62
     7
176
     1
 62
   257
176
     1
 90
        1
176
     1
 90
        1
176
     1
 40
1.0
176
     1
 90
        8
176
     1
 62
     7
176
     1
 40
1.0
176
     1
 90
        1
176
     1
 90
        6
176
     1
 90
        2
176
     1
 62
     7
176
     1
 90
        5
176
     1
 90
        0
176
     1
 90
        0
176
     1
290
     0
176
     1
 90
       13
176
     1
 40
0.0
176
     1
 90
        0
176
     1
290
     0
176
     1
290
     1
176
     1
290
     1
176
     1
290
     0
176
     1
290
     0
176
     1
290
     0
176
     1
290
     0
176
     1
290
     0
176
     1
290
     0
176
     1
 90
       50
176
     1
 40
0.0
176
     1
 40
1.0
176
     1
 90
        0
176
     1
 62
    18
420
        0
176
     1
 90
       50
176
     1
 90
        3
176
     1
 62
     5
420
      255
176
     1
290
     0
176
     1
 90
       50
176
     1
 90
       50
176
     1
 90
       50
176
     1
290
     0
176
     1
 90
       50
176
     1
 62
   256
176
     0
 40
1.0
176
     0
 90
        2
176
     1
  1
strokes_ogs.tif
176
     1
290
     0
176
     1
 40
1.0
176
     1
 40
1.0
176
     1
  0
VISUALSTYLE
  5
2B
102
{ACAD_REACTORS
330
29
102
}
330
29
100
AcDbVisualStyle
  2
FlatWithEdges
 70
     1
177
     3
291
     1
 70
    58
 90
        2
176
     1
 90
        1
176
     1
 90
        1
176
     1
 90
        2
176
     1
 40
0.6
176
     1
 40
30.0
176
     1
 62
     7
420
 16777215
176
     1
 90
        1
176
     1
 90
        0
176
     1
 62
     7
176
     1
 62
   257
176
     1
 90
        1
176
     1
 90
        1
176
     1
 40
1.0
176
     1
 90
        0
176
     1
 62
   257
176
     1
 40
1.0
176
     1
 90
        1
176
     1
 90
        6
176
     1
 90
        2
176
     1
 62
     7
176
     1
 90
        5
176
     1
 90
        0
176
     1
 90
        0
176
     1
290
     0
176
     1
 90
       13
176
     1
 40
0.0
176
     1
 90
        0
176
     1
290
     0
176
     1
290
     1
176
     1
290
     1
176
     1
290
     0
176
     1
290
     0
176
     1
290
     0
176
     1
290
     0
176
     1
290
     0
176
     1
290
     0
176
     1
 90
       50
176
     1
 40
0.0
176
     1
 40
1.0
176
     1
 90
        0
176
     1
 62
    18
420
        0
176
     1
 90
       50
176
     1
 90
        3
176
     1
 62
     5
420
      255
176
     1
290
     0
176
     1
 90
       50
176
     1
 90
       50
176
     1
 90
       50
176
     1
290
     0
176
     1
 90
       50
176
     1
 62
   256
176
     0
 40
1.0
176
     0
 90
        2
176
     1
  1
strokes_ogs.tif
176
     1
290
     0
176
     1
 40
1.0
176
     1
 40
1.0
176
     1
  0
VISUALSTYLE
  5
2C
102
{ACAD_REACTORS
330
29
102
}
330
29
100
AcDbVisualStyle
  2
Gouraud
 70
     2
177
     3
291
     1
 70
    58
 90
        2
176
     1
 90
        2
176
     1
 90
        1
176
     1
 90
        2
176
     1
 40
0.6
176
     1
 40
30.0
176
     1
 62
     7
420
 16777215
176
     1
 90
        0
176
     1
 90
        0
176
     1
 62
     7
176
     1
 62
   257
176
     1
 90
        1
176
     1
 90
        1
176
     1
 40
1.0
176
     1
 90
        0
176
     1
 62
     7
176
     1
 40
1.0
176
     1
 90
        1
176
     1
 90
        6
176
     1
 90
        2
176
     1
 62
     7
176
     1
 90
        5
176
     1
 90
        0
176
     1
 90
        0
176
     1
290
     0
176
     1
 90
       13
176
     1
 40
0.0
176
     1
 90
        0
176
     1
290
     0
176
     1
290
     1
176
     1
290
     1
176
     1
290
     0
176
     1
290
     0
176
     1
290
     0
176
     1
290
     0
176
     1
290
     0
176
     1
290
     0
176
     1
 90
       50
176
     1
 40
0.0
176
     1
 40
1.0
176
     1
 90
        0
176
     1
 62
    18
420
        0
176
     1
 90
       50
176
     1
 90
        3
176
     1
 62
     5
420
      255
176
     1
290
     0
176
     1
 90
       50
176
     1
 90
       50
176
     1
 90
       50
176
     1
290
     0
176
     1
 90
       50
176
     1
 62
   256
176
     0
 40
1.0
176
     0
 90
        2
176
     1
  1
strokes_ogs.tif
176
     1
290
     0
176
     1
 40
1.0
176
     1
 40
1.0
176
     1
  0
VISUALSTYLE
  5
2D
102
{ACAD_REACTORS
330
29
102
}
330
29
100
AcDbVisualStyle
  2
GouraudWithEdges
 70
     3
177
     3
291
     1
 70
    58
 90
        2
176
     1
 90
        2
176
     1
 90
        1
176
     1
 90
        2
176
     1
 40
0.6
176
     1
 40
30.0
176
     1
 62
     7
420
 16777215
176
     1
 90
        1
176
     1
 90
        0
176
     1
 62
     7
176
     1
 62
   257
176
     1
 90
        1
176
     1
 90
        1
176
     1
 40
1.0
176
     1
 90
        0
176
     1
 62
   257
176
     1
 40
1.0
176
     1
 90
        1
176
     1
 90
        6
176
     1
 90
        2
176
     1
 62
     7
176
     1
 90
        5
176
     1
 90
        0
176
     1
 90
        0
176
     1
290
     0
176
     1
 90
       13
176
     1
 40
0.0
176
     1
 90
        0
176
     1
290
     0
176
     1
290
     1
176
     1
290
     1
176
     1
290
     0
176
     1
290
     0
176
     1
290
     0
176
     1
290
     0
176
     1
290
     0
176
     1
290
     0
176
     1
 90
       50
176
     1
 40
0.0
176
     1
 40
1.0
176
     1
 90
        0
176
     1
 62
    18
420
        0
176
     1
 90
       50
176
     1
 90
        3
176
     1
 62
     5
420
      255
176
     1
290
     0
176
     1
 90
       50
176
     1
 90
       50
176
     1
 90
       50
176
     1
290
     0
176
     1
 90
       50
176
     1
 62
   256
176
     0
 40
1.0
176
     0
 90
        2
176
     1
  1
strokes_ogs.tif
176
     1
290
     0
176
     1
 40
1.0
176
     1
 40
1.0
176
     1
  0
VISUALSTYLE
  5
31
102
{ACAD_REACTORS
330
29
102
}
330
29
100
AcDbVisualStyle
  2
Hidden
 70
     6
177
     3
291
     0
 70
    58
 90
        1
176
     1
 90
        2
176
     1
 90
        2
176
     1
 90
        0
176
     1
 40
0.6
176
     1
 40
30.0
176
     1
 62
     7
420
 16777215
176
     1
 90
        2
176
     1
 90
        2
176
     1
 62
     7
176
     1
 62
   257
176
     1
 90
        2
176
     1
 90
        1
176
     1
 40
40.0
176
     1
 90
        0
176
     1
 62
   257
176
     1
 40
1.0
176
     1
 90
        1
176
     1
 90
        6
176
     1
 90
        2
176
     1
 62
     7
176
     1
 90
        3
176
     1
 90
        0
176
     1
 90
        0
176
     1
290
     0
176
     1
 90
        1
176
     1
 40
0.0
176
     1
 90
        0
176
     1
290
     0
176
     1
290
     1
176
     1
290
     1
176
     1
290
     0
176
     1
290
     0
176
     1
290
     0
176
     1
290
     0
176
     1
290
     0
176
     1
290
     0
176
     1
 90
       50
176
     1
 40
0.0
176
     1
 40
1.0
176
     1
 90
        0
176
     1
 62
    18
420
        0
176
     1
 90
       50
176
     1
 90
        3
176
     1
 62
     5
420
      255
176
     1
290
     0
176
     1
 90
       50
176
     1
 90
       50
176
     1
 90
       50
176
     1
290
     0
176
     1
 90
       50
176
     1
 62
   256
176
     0
 40
1.0
176
     0
 90
        2
176
     1
  1
strokes_ogs.tif
176
     1
290
     0
176
     1
 40
1.0
176
     1
 40
1.0
176
     1
  0
VISUALSTYLE
  5
3F
102
{ACAD_REACTORS
330
29
102
}
330
29
100
AcDbVisualStyle
  2
JitterOff
 70
    20
177
     3
291
     1
 70
    58
 90
        2
176
     0
 90
        2
176
     0
 90
        0
176
     0
 90
        0
176
     0
 40
0.6
176
     0
 40
30.0
176
     0
 62
     7
420
 16777215
176
     0
 90
        1
176
     0
 90
        4
176
     0
 62
     7
176
     0
 62
   257
176
     0
 90
        1
176
     0
 90
        1
176
     0
 40
1.0
176
     0
 90
       10
176
     2
 62
     7
176
     0
 40
1.0
176
     0
 90
        1
176
     0
 90
        6
176
     0
 90
        2
176
     0
 62
     7
176
     0
 90
        5
176
     0
 90
        0
176
     0
 90
        0
176
     0
290
     0
176
     0
 90
        1
176
     0
 40
0.0
176
     0
 90
        0
176
     0
290
     0
176
     0
290
     1
176
     0
290
     1
176
     0
290
     0
176
     0
290
     0
176
     0
290
     0
176
     0
290
     0
176
     0
290
     0
176
     0
290
     0
176
     0
 90
       50
176
     0
 40
0.0
176
     0
 40
1.0
176
     0
 90
        0
176
     0
 62
    18
420
        0
176
     0
 90
       50
176
     0
 90
        3
176
     0
 62
     5
420
      255
176
     0
290
     0
176
     0
 90
       50
176
     0
 90
       50
176
     0
 90
       50
176
     0
290
     0
176
     0
 90
       50
176
     0
 62
   256
176
     0
 40
1.0
176
     0
 90
        2
176
     0
  1
strokes_ogs.tif
176
     0
290
     0
176
     0
 40
1.0
176
     0
 40
1.0
176
     0
  0
VISUALSTYLE
  5
37
102
{ACAD_REACTORS
330
29
102
}
330
29
100
AcDbVisualStyle
  2
Linepattern
 70
    14
177
     3
291
     1
 70
    58
 90
        2
176
     1
 90
        2
176
     1
 90
        0
176
     1
 90
        0
176
     1
 40
0.6
176
     1
 40
30.0
176
     1
 62
     7
420
 16777215
176
     1
 90
        1
176
     1
 90
        4
176
     1
 62
     7
176
     1
 62
   257
176
     1
 90
        7
176
     1
 90
        7
176
     1
 40
1.0
176
     1
 90
        8
176
     1
 62
     7
176
     1
 40
1.0
176
     1
 90
        1
176
     1
 90
        6
176
     1
 90
        2
176
     1
 62
     7
176
     1
 90
        5
176
     1
 90
        0
176
     1
 90
        0
176
     1
290
     0
176
     1
 90
        1
176
     1
 40
0.0
176
     1
 90
        0
176
     1
290
     0
176
     1
290
     1
176
     1
290
     1
176
     1
290
     0
176
     1
290
     0
176
     1
290
     0
176
     1
290
     0
176
     1
290
     0
176
     1
290
     0
176
     1
 90
       50
176
     1
 40
0.0
176
     1
 40
1.0
176
     1
 90
        0
176
     1
 62
    18
420
        0
176
     1
 90
       50
176
     1
 90
        3
176
     1
 62
     5
420
      255
176
     1
290
     0
176
     1
 90
       50
176
     1
 90
       50
176
     1
 90
       50
176
     1
290
     0
176
     1
 90
       50
176
     1
 62
   256
176
     0
 40
1.0
176
     0
 90
        2
176
     1
  1
strokes_ogs.tif
176
     1
290
     0
176
     1
 40
1.0
176
     1
 40
1.0
176
     1
  0
VISUALSTYLE
  5
40
102
{ACAD_REACTORS
330
29
102
}
330
29
100
AcDbVisualStyle
  2
OverhangOff
 70
    21
177
     3
291
     1
 70
    58
 90
        2
176
     0
 90
        2
176
     0
 90
        0
176
     0
 90
        0
176
     0
 40
0.6
176
     0
 40
30.0
176
     0
 62
     7
420
 16777215
176
     0
 90
        1
176
     0
 90
        4
176
     0
 62
     7
176
     0
 62
   257
176
     0
 90
        1
176
     0
 90
        1
176
     0
 40
1.0
176
     0
 90
        9
176
     2
 62
     7
176
     0
 40
1.0
176
     0
 90
        1
176
     0
 90
        6
176
     0
 90
        2
176
     0
 62
     7
176
     0
 90
        5
176
     0
 90
        0
176
     0
 90
        0
176
     0
290
     0
176
     0
 90
        1
176
     0
 40
0.0
176
     0
 90
        0
176
     0
290
     0
176
     0
290
     1
176
     0
290
     1
176
     0
290
     0
176
     0
290
     0
176
     0
290
     0
176
     0
290
     0
176
     0
290
     0
176
     0
290
     0
176
     0
 90
       50
176
     0
 40
0.0
176
     0
 40
1.0
176
     0
 90
        0
176
     0
 62
    18
420
        0
176
     0
 90
       50
176
     0
 90
        3
176
     0
 62
     5
420
      255
176
     0
290
     0
176
     0
 90
       50
176
     0
 90
       50
176
     0
 90
       50
176
     0
290
     0
176
     0
 90
       50
176
     0
 62
   256
176
     0
 40
1.0
176
     0
 90
        2
176
     0
  1
strokes_ogs.tif
176
     0
290
     0
176
     0
 40
1.0
176
     0
 40
1.0
176
     0
  0
VISUALSTYLE
  5
33
102
{ACAD_REACTORS
330
29
102
}
330
29
100
AcDbVisualStyle
  2
Realistic
 70
     8
177
     3
291
     0
 70
    58
 90
        2
176
     1
 90
        3
176
     1
 90
        0
176
     1
 90
        2
176
     1
 40
0.6
176
     1
 40
30.0
176
     1
 62
     7
420
 16777215
176
     1
 90
        0
176
     1
 90
        0
176
     1
 62
     7
176
     1
 62
   257
176
     1
 90
        1
176
     1
 90
        1
176
     1
 40
1.0
176
     1
 90
        8
176
     1
 62
   257
176
     1
 40
1.0
176
     1
 90
        1
176
     1
 90
        6
176
     1
 90
        2
176
     1
 62
     7
176
     1
 90
        3
176
     1
 90
        0
176
     1
 90
        0
176
     1
290
     0
176
     1
 90
       13
176
     1
 40
0.0
176
     1
 90
        0
176
     1
290
     0
176
     1
290
     1
176
     1
290
     1
176
     1
290
     0
176
     1
290
     0
176
     1
290
     0
176
     1
290
     0
176
     1
290
     0
176
     1
290
     0
176
     1
 90
       50
176
     1
 40
0.0
176
     1
 40
1.0
176
     1
 90
        0
176
     1
 62
    18
420
        0
176
     1
 90
       50
176
     1
 90
        3
176
     1
 62
     5
420
      255
176
     1
290
     0
176
     1
 90
       50
176
     1
 90
       50
176
     1
 90
       50
176
     1
290
     0
176
     1
 90
       50
176
     1
 62
   256
176
     0
 40
1.0
176
     0
 90
        2
176
     1
  1
strokes_ogs.tif
176
     1
290
     0
176
     1
 40
1.0
176
     1
 40
1.0
176
     1
  0
VISUALSTYLE
  5
3E
102
{ACAD_REACTORS
330
29
102
}
330
29
100
AcDbVisualStyle
  2
Shaded
 70
    27
177
     3
291
     0
 70
    58
 90
        2
176
     1
 90
        2
176
     1
 90
        1
176
     1
 90
        2
176
     1
 40
0.6
176
     1
 40
30.0
176
     1
 62
     7
420
 16777215
176
     1
 90
        0
176
     1
 90
        4
176
     1
 62
     7
176
     1
 62
   257
176
     1
 90
        1
176
     1
 90
        1
176
     1
 40
1.0
176
     1
 90
        8
176
     1
 62
   257
176
     1
 40
1.0
176
     1
 90
        1
176
     1
 90
        6
176
     1
 90
        2
176
     1
 62
     8
420
  7895160
176
     1
 90
        3
176
     1
 90
        0
176
     1
 90
        0
176
     1
290
     0
176
     1
 90
        5
176
     1
 40
0.0
176
     1
 90
        0
176
     1
290
     0
176
     1
290
     1
176
     1
290
     1
176
     1
290
     0
176
     1
290
     0
176
     1
290
     0
176
     1
290
     0
176
     1
290
     0
176
     1
290
     0
176
     1
 90
       50
176
     1
 40
0.0
176
     1
 40
1.0
176
     1
 90
        0
176
     1
 62
    18
420
        0
176
     1
 90
       50
176
     1
 90
        3
176
     1
 62
     5
420
      255
176
     1
290
     0
176
     1
 90
       50
176
     1
 90
       50
176
     1
 90
       50
176
     1
290
     0
176
     1
 90
       50
176
     1
 62
   256
176
     0
 40
1.0
176
     0
 90
        2
176
     1
  1
strokes_ogs.tif
176
     1
290
     0
176
     1
 40
1.0
176
     1
 40
1.0
176
     1
  0
VISUALSTYLE
  5
3D
102
{ACAD_REACTORS
330
29
102
}
330
29
100
AcDbVisualStyle
  2
Shaded with edges
 70
    26
177
     3
291
     0
 70
    58
 90
        2
176
     1
 90
        2
176
     1
 90
        1
176
     1
 90
        2
176
     1
 40
0.6
176
     1
 40
30.0
176
     1
 62
     7
420
 16777215
176
     1
 90
        1
176
     1
 90
        2
176
     1
 62
     7
176
     1
 62
   257
176
     1
 90
        2
176
     1
 90
        1
176
     1
 40
1.0
176
     1
 90
        8
176
     1
 62
   257
176
     1
 40
1.0
176
     1
 90
        1
176
     1
 90
        6
176
     1
 90
        2
176
     1
 62
     7
176
     1
 90
        3
176
     1
 90
        0
176
     1
 90
        0
176
     1
290
     0
176
     1
 90
        5
176
     1
 40
0.0
176
     1
 90
        0
176
     1
290
     0
176
     1
290
     1
176
     1
290
     1
176
     1
290
     0
176
     1
290
     0
176
     1
290
     0
176
     1
290
     0
176
     1
290
     0
176
     1
290
     0
176
     1
 90
       50
176
     1
 40
0.0
176
     1
 40
1.0
176
     1
 90
        0
176
     1
 62
    18
420
        0
176
     1
 90
       50
176
     1
 90
        3
176
     1
 62
     5
420
      255
176
     1
290
     0
176
     1
 90
       50
176
     1
 90
       50
176
     1
 90
       50
176
     1
290
     0
176
     1
 90
       50
176
     1
 62
   256
176
     0
 40
1.0
176
     0
 90
        2
176
     1
  1
strokes_ogs.tif
176
     1
290
     0
176
     1
 40
1.0
176
     1
 40
1.0
176
     1
  0
VISUALSTYLE
  5
3A
102
{ACAD_REACTORS
330
29
102
}
330
29
100
AcDbVisualStyle
  2
Shades of Gray
 70
    23
177
     3
291
     0
 70
    58
 90
        2
176
     1
 90
        2
176
     1
 90
        3
176
     1
 90
        0
176
     1
 40
0.6
176
     1
 40
30.0
176
     1
 62
     7
420
 16777215
176
     1
 90
        2
176
     1
 90
        2
176
     1
 62
     7
176
     1
 62
     7
176
     1
 90
        1
176
     1
 90
        1
176
     1
 40
40.0
176
     1
 90
        8
176
     1
 62
     7
176
     1
 40
1.0
176
     1
 90
        1
176
     1
 90
        6
176
     1
 90
        2
176
     1
 62
     7
176
     1
 90
        3
176
     1
 90
        0
176
     1
 90
        0
176
     1
290
     0
176
     1
 90
        1
176
     1
 40
0.0
176
     1
 90
        0
176
     1
290
     0
176
     1
290
     1
176
     1
290
     1
176
     1
290
     0
176
     1
290
     0
176
     1
290
     0
176
     1
290
     0
176
     1
290
     0
176
     1
290
     0
176
     1
 90
       50
176
     1
 40
0.0
176
     1
 40
1.0
176
     1
 90
        0
176
     1
 62
    18
420
        0
176
     1
 90
       50
176
     1
 90
        3
176
     1
 62
     5
420
      255
176
     1
290
     0
176
     1
 90
       50
176
     1
 90
       50
176
     1
 90
       50
176
     1
290
     0
176
     1
 90
       50
176
     1
 62
   256
176
     0
 40
1.0
176
     0
 90
        2
176
     1
  1
strokes_ogs.tif
176
     1
290
     0
176
     1
 40
1.0
176
     1
 40
1.0
176
     1
  0
VISUALSTYLE
  5
3B
102
{ACAD_REACTORS
330
29
102
}
330
29
100
AcDbVisualStyle
  2
Sketchy
 70
    24
177
     3
291
     0
 70
    58
 90
        1
176
     1
 90
        2
176
     1
 90
        2
176
     1
 90
        0
176
     1
 40
0.6
176
     1
 40
30.0
176
     1
 62
     7
420
 16777215
176
     1
 90
        2
176
     1
 90
        2
176
     1
 62
     7
176
     1
 62
     7
176
     1
 90
        1
176
     1
 90
        1
176
     1
 40
40.0
176
     1
 90
       11
176
     1
 62
     7
176
     1
 40
1.0
176
     1
 90
        1
176
     1
 90
        6
176
     1
 90
        2
176
     1
 62
     7
176
     1
 90
        6
176
     1
 90
        0
176
     1
 90
        0
176
     1
290
     0
176
     1
 90
        1
176
     1
 40
0.0
176
     1
 90
        0
176
     1
290
     0
176
     1
290
     1
176
     1
290
     1
176
     1
290
     0
176
     1
290
     0
176
     1
290
     0
176
     1
290
     0
176
     1
290
     0
176
     1
290
     0
176
     1
 90
       50
176
     1
 40
0.0
176
     1
 40
1.0
176
     1
 90
        0
176
     1
 62
    18
420
        0
176
     1
 90
       50
176
     1
 90
        3
176
     1
 62
     5
420
      255
176
     1
290
     0
176
     1
 90
       50
176
     1
 90
       50
176
     1
 90
       50
176
     1
290
     0
176
     1
 90
       50
176
     1
 62
   256
176
     0
 40
1.0
176
     0
 90
        2
176
     1
  1
strokes_ogs.tif
176
     1
290
     0
176
     1
 40
1.0
176
     1
 40
1.0
176
     1
  0
VISUALSTYLE
  5
36
102
{ACAD_REACTORS
330
29
102
}
330
29
100
AcDbVisualStyle
  2
Thicken
 70
    13
177
     3
291
     1
 70
    58
 90
        2
176
     1
 90
        2
176
     1
 90
        0
176
     1
 90
        0
176
     1
 40
0.6
176
     1
 40
30.0
176
     1
 62
     7
420
 16777215
176
     1
 90
        1
176
     1
 90
        4
176
     1
 62
     7
176
     1
 62
   257
176
     1
 90
        1
176
     1
 90
        1
176
     1
 40
1.0
176
     1
 90
       12
176
     1
 62
     7
176
     1
 40
1.0
176
     1
 90
        1
176
     1
 90
        6
176
     1
 90
        2
176
     1
 62
     7
176
     1
 90
        5
176
     1
 90
        0
176
     1
 90
        0
176
     1
290
     0
176
     1
 90
        1
176
     1
 40
0.0
176
     1
 90
        0
176
     1
290
     0
176
     1
290
     1
176
     1
290
     1
176
     1
290
     0
176
     1
290
     0
176
     1
290
     0
176
     1
290
     0
176
     1
290
     0
176
     1
290
     0
176
     1
 90
       50
176
     1
 40
0.0
176
     1
 40
1.0
176
     1
 90
        0
176
     1
 62
    18
420
        0
176
     1
 90
       50
176
     1
 90
        3
176
     1
 62
     5
420
      255
176
     1
290
     0
176
     1
 90
       50
176
     1
 90
       50
176
     1
 90
       50
176
     1
290
     0
176
     1
 90
       50
176
     1
 62
   256
176
     0
 40
1.0
176
     0
 90
        2
176
     1
  1
strokes_ogs.tif
176
     1
290
     0
176
     1
 40
1.0
176
     1
 40
1.0
176
     1
  0
VISUALSTYLE
  5
30
102
{ACAD_REACTORS
330
29
102
}
330
29
100
AcDbVisualStyle
  2
Wireframe
 70
     5
177
     3
291
     0
 70
    58
 90
        0
176
     1
 90
        2
176
     1
 90
        0
176
     1
 90
        0
176
     1
 40
0.6
176
     1
 40
30.0
176
     1
 62
     7
420
 16777215
176
     1
 90
        1
176
     1
 90
        4
176
     1
 62
     7
176
     1
 62
   257
176
     1
 90
        1
176
     1
 90
        1
176
     1
 40
1.0
176
     1
 90
        0
176
     1
 62
   257
176
     1
 40
1.0
176
     1
 90
        1
176
     1
 90
        6
176
     1
 90
        2
176
     1
 62
     7
176
     1
 90
        3
176
     1
 90
        0
176
     1
 90
        0
176
     1
290
     0
176
     1
 90
        1
176
     1
 40
0.0
176
     1
 90
        0
176
     1
290
     0
176
     1
290
     1
176
     1
290
     1
176
     1
290
     0
176
     1
290
     0
176
     1
290
     0
176
     1
290
     0
176
     1
290
     0
176
     1
290
     0
176
     1
 90
       50
176
     1
 40
0.0
176
     1
 40
1.0
176
     1
 90
        0
176
     1
 62
    18
420
        0
176
     1
 90
       50
176
     1
 90
        3
176
     1
 62
     5
420
      255
176
     1
290
     0
176
     1
 90
       50
176
     1
 90
       50
176
     1
 90
       50
176
     1
290
     0
176
     1
 90
       50
176
     1
 62
   256
176
     0
 40
1.0
176
     0
 90
        2
176
     1
  1
strokes_ogs.tif
176
     1
290
     0
176
     1
 40
1.0
176
     1
 40
1.0
176
     1
  0
VISUALSTYLE
  5
3C
102
{ACAD_REACTORS
330
29
102
}
330
29
100
AcDbVisualStyle
  2
X-Ray
 70
    25
177
     3
291
     0
 70
    58
 90
        2
176
     1
 90
        2
176
     1
 90
        1
176
     1
 90
        1
176
     1
 40
0.5
176
     1
 40
30.0
176
     1
 62
     7
420
 16777215
176
     1
 90
        1
176
     1
 90
        0
176
     1
 62
     7
176
     1
 62
   257
176
     1
 90
        1
176
     1
 90
        1
176
     1
 40
1.0
176
     1
 90
        8
176
     1
 62
     7
176
     1
 40
1.0
176
     1
 90
        1
176
     1
 90
        6
176
     1
 90
        2
176
     1
 62
     7
176
     1
 90
        3
176
     1
 90
        0
176
     1
 90
        0
176
     1
290
     0
176
     1
 90
       13
176
     1
 40
0.0
176
     1
 90
        0
176
     1
290
     0
176
     1
290
     1
176
     1
290
     1
176
     1
290
     0
176
     1
290
     0
176
     1
290
     0
176
     1
290
     0
176
     1
290
     0
176
     1
290
     0
176
     1
 90
       50
176
     1
 40
0.0
176
     1
 40
1.0
176
     1
 90
        0
176
     1
 62
    18
420
        0
176
     1
 90
       50
176
     1
 90
        3
176
     1
 62
     5
420
      255
176
     1
290
     0
176
     1
 90
       50
176
     1
 90
       50
176
     1
 90
       50
176
     1
290
     0
176
     1
 90
       50
176
     1
 62
   256
176
     0
 40
1.0
176
     0
 90
        2
176
     1
  1
strokes_ogs.tif
176
     1
290
     0
176
     1
 40
1.0
176
     1
 40
1.0
176
     1
  0
DICTIONARYVAR
  5
AC
102
{ACAD_REACTORS
330
A7
102
}
330
A7
100
DictionaryVariables
280
     0
  1
1:1
  0
DICTIONARYVAR
  5
A9
102
{ACAD_REACTORS
330
A7
102
}
330
A7
100
DictionaryVariables
280
     0
  1
STANDARD
  0
DICTIONARYVAR
  5
A8
102
{ACAD_REACTORS
330
A7
102
}
330
A7
100
DictionaryVariables
280
     0
  1
STANDARD
  0
DICTIONARYVAR
  5
AA
102
{ACAD_REACTORS
330
A7
102
}
330
A7
100
DictionaryVariables
280
     0
  1
Imperial24
  0
DICTIONARYVAR
  5
AB
102
{ACAD_REACTORS
330
A7
102
}
330
A7
100
DictionaryVariables
280
     0
  1
Imperial24
  0
DICTIONARY
  5
1A
330
19
100
AcDbDictionary
280
     1
281
     1
  3
BUMPTILE
360
1C
  3
DIFFUSETILE
360
1B
  3
OPACITYTILE
360
1F
  3
REFLECTIONTILE
360
1E
  3
REFRACTIONTILE
360
20
  3
SPECULARTILE
360
1D
  0
DICTIONARY
  5
12
330
11
100
AcDbDictionary
280
     1
281
     1
  3
BUMPTILE
360
14
  3
DIFFUSETILE
360
13
  3
OPACITYTILE
360
17
  3
REFLECTIONTILE
360
16
  3
REFRACTIONTILE
360
18
  3
SPECULARTILE
360
15
  0
DICTIONARY
  5
22
330
21
100
AcDbDictionary
280
     1
281
     1
  3
BUMPTILE
360
24
  3
DIFFUSETILE
360
23
  3
OPACITYTILE
360
27
  3
REFLECTIONTILE
360
26
  3
REFRACTIONTILE
360
28
  3
SPECULARTILE
360
25
  0
DICTIONARY
  5
AD
330
65
100
AcDbDictionary
280
     1
281
     1
  3
ACAD_ROUNDTRIP_2008_TABLESTYLE_CELLSTYLEMAP
360
AE
  0
XRECORD
  5
1C
102
{ACAD_REACTORS
330
1A
102
}
330
1A
100
AcDbXrecord
280
     1
270
     1
271
     1
  0
XRECORD
  5
1B
102
{ACAD_REACTORS
330
1A
102
}
330
1A
100
AcDbXrecord
280
     1
270
     1
271
     1
  0
XRECORD
  5
1F
102
{ACAD_REACTORS
330
1A
102
}
330
1A
100
AcDbXrecord
280
     1
270
     1
271
     1
  0
XRECORD
  5
1E
102
{ACAD_REACTORS
330
1A
102
}
330
1A
100
AcDbXrecord
280
     1
270
     1
271
     1
  0
XRECORD
  5
20
102
{ACAD_REACTORS
330
1A
102
}
330
1A
100
AcDbXrecord
280
     1
270
     1
271
     1
  0
XRECORD
  5
1D
102
{ACAD_REACTORS
330
1A
102
}
330
1A
100
AcDbXrecord
280
     1
270
     1
271
     1
  0
XRECORD
  5
14
102
{ACAD_REACTORS
330
12
102
}
330
12
100
AcDbXrecord
280
     1
270
     1
271
     1
  0
XRECORD
  5
13
102
{ACAD_REACTORS
330
12
102
}
330
12
100
AcDbXrecord
280
     1
270
     1
271
     1
  0
XRECORD
  5
17
102
{ACAD_REACTORS
330
12
102
}
330
12
100
AcDbXrecord
280
     1
270
     1
271
     1
  0
XRECORD
  5
16
102
{ACAD_REACTORS
330
12
102
}
330
12
100
AcDbXrecord
280
     1
270
     1
271
     1
  0
XRECORD
  5
18
102
{ACAD_REACTORS
330
12
102
}
330
12
100
AcDbXrecord
280
     1
270
     1
271
     1
  0
XRECORD
  5
15
102
{ACAD_REACTORS
330
12
102
}
330
12
100
AcDbXrecord
280
     1
270
     1
271
     1
  0
XRECORD
  5
24
102
{ACAD_REACTORS
330
22
102
}
330
22
100
AcDbXrecord
280
     1
270
     1
271
     1
  0
XRECORD
  5
23
102
{ACAD_REACTORS
330
22
102
}
330
22
100
AcDbXrecord
280
     1
270
     1
271
     1
  0
XRECORD
  5
27
102
{ACAD_REACTORS
330
22
102
}
330
22
100
AcDbXrecord
280
     1
270
     1
271
     1
  0
XRECORD
  5
26
102
{ACAD_REACTORS
330
22
102
}
330
22
100
AcDbXrecord
280
     1
270
     1
271
     1
  0
XRECORD
  5
28
102
{ACAD_REACTORS
330
22
102
}
330
22
100
AcDbXrecord
280
     1
270
     1
271
     1
  0
XRECORD
  5
25
102
{ACAD_REACTORS
330
22
102
}
330
22
100
AcDbXrecord
280
     1
270
     1
271
     1
  0
CELLSTYLEMAP
  5
AE
102
{ACAD_REACTORS
330
AD
102
}
330
AD
100
AcDbCellStyleMap
 90
        3
300
CELLSTYLE
  1
TABLEFORMAT_BEGIN
 90
        5
170
     1
 91
        0
 92
    32768
 62
   257
 93
        1
300
CONTENTFORMAT
  1
CONTENTFORMAT_BEGIN
 90
        0
 91
        0
 92
      512
 93
        0
300

 40
0.0
140
1.0
 94
        5
 62
     0
340
55
144
0.25
309
CONTENTFORMAT_END
171
     0
 94
        0
309
TABLEFORMAT_END
  1
CELLSTYLE_BEGIN
 90
        1
 91
        1
300
_TITLE
309
CELLSTYLE_END
300
CELLSTYLE
  1
TABLEFORMAT_BEGIN
 90
        5
170
     1
 91
        0
 92
        0
 62
   257
 93
        1
300
CONTENTFORMAT
  1
CONTENTFORMAT_BEGIN
 90
        0
 91
        0
 92
      512
 93
        0
300

 40
0.0
140
1.0
 94
        5
 62
     0
340
55
144
0.18
309
CONTENTFORMAT_END
171
     0
 94
        0
309
TABLEFORMAT_END
  1
CELLSTYLE_BEGIN
 90
        2
 91
        1
300
_HEADER
309
CELLSTYLE_END
300
CELLSTYLE
  1
TABLEFORMAT_BEGIN
 90
        5
170
     1
 91
        0
 92
        0
 62
   257
 93
        1
300
CONTENTFORMAT
  1
CONTENTFORMAT_BEGIN
 90
        0
 91
        0
 92
      512
 93
        0
300

 40
0.0
140
1.0
 94
        2
 62
     0
340
55
144
0.18
309
CONTENTFORMAT_END
171
     0
 94
        0
309
TABLEFORMAT_END
  1
CELLSTYLE_BEGIN
 90
        3
 91
        2
300
_DATA
309
CELLSTYLE_END
  0
ENDSEC
  0
EOF
