0
SECTION
2
HEADER
9
$INSUNITS
70
1
9
$ACADVER
1
AC1014
9
$HANDSEED
5
FFFF
0
ENDSEC
0
SECTION
2
TABLES
0
TABLE
2
VPORT
5
8
100
AcDbSymbolTable
0
ENDTAB
0
TABLE
2
LTYPE
5
5
100
AcDbSymbolTable
0
LTYPE
5
14
100
AcDbSymbolTableRecord
100
AcDbLinetypeTableRecord
2
BYBLOCK
70
0
0
LTYPE
5
15
100
AcDbSymbolTableRecord
100
AcDbLinetypeTableRecord
2
BYLAYER
70
0
0
ENDTAB
0
TABLE
2
LAYER
5
2
100
AcDbSymbolTable
70
2
0
LAYER
5
50
100
AcDbSymbolTableRecord
100
AcDbLayerTableRecord
2
0
70
0
6
CONTINUOUS
0
ENDTAB
0
TABLE
2
STYLE
5
3
100
AcDbSymbolTable
70
1
0
STYLE
5
11
100
AcDbSymbolTableRecord
100
AcDbTextStyleTableRecord
2
STANDARD
70
0
0
ENDTAB
0
TABLE
2
VIEW
5
6
100
AcDbSymbolTable
70
0
0
ENDTAB
0
TABLE
2
UCS
5
7
100
AcDbSymbolTable
70
0
0
ENDTAB
0
TABLE
2
APPID
5
9
100
AcDbSymbolTable
70
2
0
APPID
5
12
100
AcDbSymbolTableRecord
100
AcDbRegAppTableRecord
2
ACAD
70
0
0
ENDTAB
0
TABLE
2
DIMSTYLE
5
A
100
AcDbSymbolTable
70
1
0
ENDTAB
0
TABLE
2
BLOCK_RECORD
5
1
100
AcDbSymbolTable
70
1
0
BLOCK_RECORD
5
1F
100
AcDbSymbolTableRecord
100
AcDbBlockTableRecord
2
*MODEL_SPACE
0
BLOCK_RECORD
5
1B
100
AcDbSymbolTableRecord
100
AcDbBlockTableRecord
2
*PAPER_SPACE
0
ENDTAB
0
ENDSEC
0
SECTION
2
BLOCKS
0
BLOCK
5
20
100
AcDbEntity
100
AcDbBlockBegin
2
*MODEL_SPACE
0
ENDBLK
5
21
100
AcDbEntity
100
AcDbBlockEnd
0
BLOCK
5
1C
100
AcDbEntity
100
AcDbBlockBegin
2
*PAPER_SPACE
0
ENDBLK
5
1D
100
AcDbEntity
100
AcDbBlockEnd
0
ENDSEC
0
SECTION
2
ENTITIES
0
LINE
5
100
100
AcDbEntity
8
0
100
AcDbLine
10
0
20
0
30
0
11
0
21
-0.49999999999999994
31
0
0
ARC
5
101
100
AcDbEntity
8
0
100
AcDbCircle
10
0.49999999999999994
20
-0.49999999999999994
30
0
40
0.49999999999999994
100
AcDbArc
50
-180
51
0
0
LINE
5
102
100
AcDbEntity
8
0
100
AcDbLine
10
0.99999999999999989
20
-0.49999999999999994
30
0
11
0.99999999999999989
21
-0.35297141965120982
31
0
0
ARC
5
103
100
AcDbEntity
8
0
100
AcDbCircle
10
-0.24999999999999997
20
2.2360679774997894
30
0
40
2.2499999999999996
100
AcDbArc
50
-83.620629791557235
51
78.999999999999872
0
ARC
5
104
100
AcDbEntity
8
0
100
AcDbCircle
10
-0.24999999999999997
20
2.2360679774997894
30
0
40
2.8750000000000018
100
AcDbArc
50
-64.228538259449337
51
80.28524676319077
0
LINE
5
105
100
AcDbEntity
8
0
100
AcDbLine
10
0.17932023959723081
20
4.4447291402570324
30
0
11
0.12589372089179812
21
4.1698735288916868
31
0
0
LINE
5
106
100
AcDbEntity
8
0
100
AcDbLine
10
0.12589372089179812
20
4.1698735288916868
30
0
11
-0.12932934680459343
21
4.2194838676895916
31
0
0
LINE
5
107
100
AcDbEntity
8
0
100
AcDbLine
10
-0.12932934680459343
20
4.2194838676895916
30
0
11
0.0050625839449361734
21
4.9108704147410114
31
0
0
ARC
5
108
100
AcDbEntity
8
0
100
AcDbCircle
10
0.20138802063446434
20
4.8727086156657027
30
0
40
0.19999999999999929
100
AcDbArc
50
80.285246763190813
51
168.99999999999986
0
LWPOLYLINE
5
109
100
AcDbEntity
8
0
100
AcDbPolyline
90
4
70
1
43
0.0
10
0.70749999999999991
20
-0.29249999999999998
10
0.29249999999999998
20
-0.29249999999999998
10
0.29249999999999998
20
-0.70749999999999991
10
0.70749999999999991
20
-0.70749999999999991
0
ENDSEC
0
SECTION
2
OBJECTS
0
DICTIONARY
5
C
100
AcDbDictionary
3
ACAD_GROUP
350
D
3
ACAD_MLINESTYLE
350
17
0
DICTIONARY
5
D
100
AcDbDictionary
0
DICTIONARY
5
1A
330
C
100
AcDbDictionary
0
DICTIONARY
5
17
100
AcDbDictionary
0
ENDSEC
0
EOF
