0
SECTION
2
HEADER
9
$INSUNITS
70
1
9
$ACADVER
1
AC1014
9
$HANDSEED
5
FFFF
0
ENDSEC
0
SECTION
2
TABLES
0
TABLE
2
VPORT
5
8
100
AcDbSymbolTable
0
ENDTAB
0
TABLE
2
LTYPE
5
5
100
AcDbSymbolTable
0
LTYPE
5
14
100
AcDbSymbolTableRecord
100
AcDbLinetypeTableRecord
2
BYBLOCK
70
0
0
LTYPE
5
15
100
AcDbSymbolTableRecord
100
AcDbLinetypeTableRecord
2
BYLAYER
70
0
0
ENDTAB
0
TABLE
2
LAYER
5
2
100
AcDbSymbolTable
70
2
0
LAYER
5
50
100
AcDbSymbolTableRecord
100
AcDbLayerTableRecord
2
0
70
0
6
CONTINUOUS
0
ENDTAB
0
TABLE
2
STYLE
5
3
100
AcDbSymbolTable
70
1
0
STYLE
5
11
100
AcDbSymbolTableRecord
100
AcDbTextStyleTableRecord
2
STANDARD
70
0
0
ENDTAB
0
TABLE
2
VIEW
5
6
100
AcDbSymbolTable
70
0
0
ENDTAB
0
TABLE
2
UCS
5
7
100
AcDbSymbolTable
70
0
0
ENDTAB
0
TABLE
2
APPID
5
9
100
AcDbSymbolTable
70
2
0
APPID
5
12
100
AcDbSymbolTableRecord
100
AcDbRegAppTableRecord
2
ACAD
70
0
0
ENDTAB
0
TABLE
2
DIMSTYLE
5
A
100
AcDbSymbolTable
70
1
0
ENDTAB
0
TABLE
2
BLOCK_RECORD
5
1
100
AcDbSymbolTable
70
1
0
BLOCK_RECORD
5
1F
100
AcDbSymbolTableRecord
100
AcDbBlockTableRecord
2
*MODEL_SPACE
0
BLOCK_RECORD
5
1B
100
AcDbSymbolTableRecord
100
AcDbBlockTableRecord
2
*PAPER_SPACE
0
ENDTAB
0
ENDSEC
0
SECTION
2
BLOCKS
0
BLOCK
5
20
100
AcDbEntity
100
AcDbBlockBegin
2
*MODEL_SPACE
0
ENDBLK
5
21
100
AcDbEntity
100
AcDbBlockEnd
0
BLOCK
5
1C
100
AcDbEntity
100
AcDbBlockBegin
2
*PAPER_SPACE
0
ENDBLK
5
1D
100
AcDbEntity
100
AcDbBlockEnd
0
ENDSEC
0
SECTION
2
ENTITIES
0
LWPOLYLINE
5
100
100
AcDbEntity
8
0
100
AcDbPolyline
90
13
70
1
43
0.0
10
-285.23379449337892
20
229.47357079486341
10
-284.38983802153354
20
228.88262611135625
10
-285.38461108899492
20
229.25818237445071
10
-285.56211244885878
20
229.00468416116706
10
-284.86925383625754
20
228.19794937115708
10
-285.7132103081031
20
228.78889405466441
10
-285.90931083790656
20
228.50883347390456
10
-284.80265621168553
20
227.73394556242997
10
-284.48794867178731
20
228.18339450824212
10
-285.04072949763804
20
228.82707679975471
10
-284.24593650969905
20
228.52902369513572
10
-283.93103933735438
20
228.97874346414841
10
-285.03769396357569
20
229.75363137562297
0
ARC
5
101
100
AcDbEntity
8
0
100
AcDbCircle
10
-286.23537039609647
20
226.78367581074636
30
0
40
0.077251525782581765
210
0
220
0
230
1
100
AcDbArc
50
287.50305246468821
51
301.16294949571454
0
ARC
5
102
100
AcDbEntity
8
0
100
AcDbCircle
10
-286.30483057414773
20
226.61165425094683
30
0
40
0.13514536004366454
210
0
220
-0
230
1
100
AcDbArc
50
46.694805417739545
51
51.309815198460079
0
ARC
5
103
100
AcDbEntity
8
0
100
AcDbCircle
10
-286.27793574478801
20
226.64523638934048
30
0
40
0.092121042903536787
210
0
220
-0
230
1
100
AcDbArc
50
51.309770172942656
51
79.021278989359189
0
ARC
5
104
100
AcDbEntity
8
0
100
AcDbCircle
10
-286.41577595979874
20
225.93470153256663
30
0
40
0.81590257594025628
210
0
220
-0
230
1
100
AcDbArc
50
79.021274501793044
51
84.591848008788929
0
ARC
5
105
100
AcDbEntity
8
0
100
AcDbCircle
10
-286.45698622928546
20
225.49940622329498
30
0
40
1.2531442626366727
210
0
220
-0
230
1
100
AcDbArc
50
84.591836159888715
51
89.421384549092878
0
ARC
5
106
100
AcDbEntity
8
0
100
AcDbCircle
10
-286.47690134329036
20
223.52718838532883
30
0
40
3.2254626477242963
210
0
220
-0
230
1
100
AcDbArc
50
89.421428735116066
51
91.805534710134509
0
ARC
5
107
100
AcDbEntity
8
0
100
AcDbCircle
10
-286.65248754752633
20
229.09734176718334
30
0
40
2.3474575214962838
210
0
220
0
230
1
100
AcDbArc
50
268.16958330653074
51
271.80549758856006
0
ARC
5
108
100
AcDbEntity
8
0
100
AcDbCircle
10
-286.6535998090896
20
229.06252482429716
30
0
40
2.3126228169969103
210
0
220
0
230
1
100
AcDbArc
50
264.49264561340709
51
268.16957323230633
0
ARC
5
109
100
AcDbEntity
8
0
100
AcDbCircle
10
-286.66064644387723
20
228.98944496360977
30
0
40
2.2392040108245155
210
0
220
0
230
1
100
AcDbArc
50
260.75684294035773
51
264.49265521711163
0
ARC
5
110
100
AcDbEntity
8
0
100
AcDbCircle
10
-286.70049617804403
20
228.7445727615806
30
0
40
1.9911104868468814
210
0
220
0
230
1
100
AcDbArc
50
256.67712074461753
51
260.7568368139265
0
ARC
5
111
100
AcDbEntity
8
0
100
AcDbCircle
10
-286.51056323374013
20
229.54661210408693
30
0
40
2.8153323200078559
210
0
220
0
230
1
100
AcDbArc
50
251.02682583095981
51
256.67710727610188
0
ARC
5
112
100
AcDbEntity
8
0
100
AcDbCircle
10
-286.22717760501689
20
230.37087475285466
30
0
40
3.6869493968942524
210
0
220
0
230
1
100
AcDbArc
50
246.41100210532093
51
251.02681344603408
0
ARC
5
113
100
AcDbEntity
8
0
100
AcDbCircle
10
-285.80108476978035
20
231.3466655083671
30
0
40
4.7517135504869055
210
0
220
0
230
1
100
AcDbArc
50
243.19917278510781
51
246.41096390869143
0
ARC
5
114
100
AcDbEntity
8
0
100
AcDbCircle
10
-287.88843242252898
20
227.21456769067407
30
0
40
0.12232346123988126
210
0
220
0
230
1
100
AcDbArc
50
198.31389225891991
51
243.19916046727357
0
ARC
5
115
100
AcDbEntity
8
0
100
AcDbCircle
10
-287.83939737396452
20
227.23079772393149
30
0
40
0.17397469517704414
210
0
220
0
230
1
100
AcDbArc
50
181.21563859803652
51
198.3139080998825
0
ARC
5
116
100
AcDbEntity
8
0
100
AcDbCircle
10
1976.2150851520696
20
275.27496299221417
30
0
40
2264.7381582992871
210
0
220
0
230
1
100
AcDbArc
50
181.19113490927808
51
181.21565750288312
0
ARC
5
117
100
AcDbEntity
8
0
100
AcDbCircle
10
16.225853342960168
20
234.52221126850921
30
0
40
304.32529984820354
210
0
220
0
230
1
100
AcDbArc
50
180.99771574315352
51
181.19109321975097
0
ARC
5
118
100
AcDbEntity
8
0
100
AcDbCircle
10
-290.77602545819633
20
233.05231380484898
30
0
40
4.6984906282852288
210
-0
220
0
230
1
100
AcDbArc
50
305.41452031574903
51
311.19193013158133
0
LINE
5
119
100
AcDbEntity
8
0
100
AcDbLine
10
-287.68167715358209
20
229.51666354586982
30
0
11
-287.68152352283931
21
229.51234903319244
31
0
0
LINE
5
120
100
AcDbEntity
8
0
100
AcDbLine
10
-287.68152352283931
20
229.51234903319244
30
0
11
-287.28137640370704
21
229.88549225845784
31
0
0
ARC
5
121
100
AcDbEntity
8
0
100
AcDbCircle
10
-292.27690234089471
20
233.94346882475989
30
0
40
6.4360277502331948
210
-0
220
0
230
1
100
AcDbArc
50
320.91227829864039
51
321.43466126516364
0
ARC
5
122
100
AcDbEntity
8
0
100
AcDbCircle
10
-292.88863525902138
20
234.43121636753187
30
0
40
7.2184054266178874
210
-0
220
0
230
1
100
AcDbArc
50
321.4345794645501
51
323.31773476337122
0
ARC
5
123
100
AcDbEntity
8
0
100
AcDbCircle
10
-292.15263623197512
20
233.88297209958833
30
0
40
6.3006547278203131
210
-0
220
0
230
1
100
AcDbArc
50
323.31774791095143
51
325.40302755535959
0
ARC
5
124
100
AcDbEntity
8
0
100
AcDbCircle
10
-292.96965082752604
20
234.44652114508557
30
0
40
7.2931769572881739
210
-0
220
0
230
1
100
AcDbArc
50
325.40307836236479
51
330.34166837755726
0
ARC
5
125
100
AcDbEntity
8
0
100
AcDbCircle
10
-290.81208559488368
20
233.21795081883124
30
0
40
4.8103413244608335
210
-0
220
0
230
1
100
AcDbArc
50
330.34162250690667
51
336.37652381095052
0
ARC
5
126
100
AcDbEntity
8
0
100
AcDbCircle
10
-291.21069261502458
20
233.10094653421532
30
0
40
5.1355998056739942
210
-0
220
0
230
1
100
AcDbArc
50
-20.644096839855745
51
32.192142582513888
0
ARC
5
127
100
AcDbEntity
8
0
100
AcDbCircle
10
-291.76878773662611
20
232.20202221745788
30
0
40
6.1044221301511898
210
0
220
-0
230
1
100
AcDbArc
50
36.545763533321789
51
40.235367091565216
0
ARC
5
128
100
AcDbEntity
8
0
100
AcDbCircle
10
-292.12571479573029
20
231.90001710732622
30
0
40
6.5719732097845158
210
0
220
-0
230
1
100
AcDbArc
50
40.235370432621899
51
42.24891414145052
0
LINE
5
129
100
AcDbEntity
8
0
100
AcDbLine
10
-287.26093734956191
20
236.31870155740594
30
0
11
-287.26083588449495
21
236.3187897596431
31
0
0
LINE
5
130
100
AcDbEntity
8
0
100
AcDbLine
10
-287.26083588449495
20
236.3187897596431
30
0
11
-287.39930039573784
21
236.4672747689489
31
0
0
LINE
5
131
100
AcDbEntity
8
0
100
AcDbLine
10
-287.39930039573784
20
236.4672747689489
30
0
11
-287.43127074214885
21
236.50038103179975
31
0
0
LINE
5
132
100
AcDbEntity
8
0
100
AcDbLine
10
-287.43127074214885
20
236.50038103179975
30
0
11
-287.43186440309603
21
236.49986497021172
31
0
0
ARC
5
133
100
AcDbEntity
8
0
100
AcDbCircle
10
-292.12571479573029
20
231.90001710732622
30
0
40
6.5719732097845123
210
0
220
-0
230
1
100
AcDbArc
50
44.420492853394528
51
45.536118097668748
0
ARC
5
134
100
AcDbEntity
8
0
100
AcDbCircle
10
-290.50898466799066
20
233.5472879942875
30
0
40
4.2638749274383034
210
0
220
-0
230
1
100
AcDbArc
50
45.536132106931952
51
46.55473402695651
0
LINE
5
135
100
AcDbEntity
8
0
100
AcDbLine
10
-287.57688280892609
20
236.64299600456687
30
0
11
-286.56561265291361
21
237.65426616057971
31
0
0
ARC
5
136
100
AcDbEntity
8
0
100
AcDbCircle
10
-290.81807915275385
20
232.99178972621374
30
0
40
6.3104800002282966
210
0
220
-0
230
1
100
AcDbArc
50
45.121846920652111
51
47.633252579354902
0
LINE
5
137
100
AcDbEntity
8
0
100
AcDbLine
10
-286.36539544755976
20
237.46345224196563
30
0
11
-286.36530548245872
21
237.46353613577952
31
0
0
LINE
5
138
100
AcDbEntity
8
0
100
AcDbLine
10
-286.36530548245872
20
237.46353613577952
30
0
11
-286.36302480788157
21
237.46109041172551
31
0
0
ARC
5
139
100
AcDbEntity
8
0
100
AcDbCircle
10
-290.81807914916084
20
232.99178972981466
30
0
40
6.3104799951414066
210
0
220
-0
230
1
100
AcDbArc
50
44.870988916218629
51
45.091463696392339
0
LINE
5
140
100
AcDbEntity
8
0
100
AcDbLine
10
-286.3458599162613
20
237.44391426782605
30
0
11
-286.34649388496399
21
237.44336316724056
31
0
0
LINE
5
141
100
AcDbEntity
8
0
100
AcDbLine
10
-286.34649388496399
20
237.44336316724056
30
0
11
-286.19752075086126
21
237.28360903959447
31
0
0
LINE
5
142
100
AcDbEntity
8
0
100
AcDbLine
10
-286.19752075086126
20
237.28360903959447
30
0
11
-286.17463904939484
21
237.26300626305382
31
0
0
LINE
5
143
100
AcDbEntity
8
0
100
AcDbLine
10
-286.17463904939484
20
237.26300626305382
30
0
11
-286.17360215867694
21
237.26390761840329
31
0
0
ARC
5
144
100
AcDbEntity
8
0
100
AcDbCircle
10
-290.81807915259657
20
232.99178972637935
30
0
40
6.3104800000000072
210
0
220
0
230
1
100
AcDbArc
50
-43.439092976695946
51
42.608704185106909
0
LINE
5
145
100
AcDbEntity
8
0
100
AcDbLine
10
-286.236003646781
20
228.65281036604523
30
0
11
-286.20341756939405
21
226.78595524285393
31
0
0
ARC
5
146
100
AcDbEntity
8
0
100
AcDbCircle
10
-286.2998938350616
20
226.69131593547246
30
0
40
0.13514536003421199
210
0
220
-0
230
1
100
AcDbArc
50
34.200378153478944
51
44.449303297345971
0
ARC
5
147
100
AcDbEntity
8
0
100
AcDbCircle
10
-286.22191559904149
20
226.7443105252363
30
0
40
0.040863697782083604
210
0
220
0
230
1
100
AcDbArc
50
-7.4707977393881926
51
34.200513916446567
0
ARC
5
148
100
AcDbEntity
8
0
100
AcDbCircle
10
-286.21067319639161
20
226.74283631039756
30
0
40
0.029525050299874359
210
0
220
0
230
1
100
AcDbArc
50
301.16294910020105
51
352.52911250636424
0
SPLINE
5
149
100
AcDbEntity
8
0
100
AcDbSpline
70
0
71
3
72
9
73
5
74
0
42
0.000000001
43
0.0000000001
44
0.0000000001
40
0
40
0
40
0
40
0
40
6.1773299417405321
40
16.356331051582426
40
16.356331051582426
40
16.356331051582426
40
16.356331051582426
10
-283.73592598876149
20
233.67069641356534
30
0
10
-283.72364120902381
20
233.69693235994359
30
0
10
-283.69111357553493
20
233.76639988530806
30
0
10
-283.68212240208419
20
233.84289924613589
30
0
10
-283.67652694401681
20
233.89050693249979
30
0
0
SPLINE
5
150
100
AcDbEntity
8
0
100
AcDbSpline
70
0
71
3
72
9
73
5
74
0
42
0.000000001
43
0.0000000001
44
0.0000000001
40
0
40
0
40
0
40
0
40
17.572559632901633
40
30.543832383241156
40
30.543832383241156
40
30.543832383241156
40
30.543832383241156
10
-283.67652694401681
20
233.89050693249979
30
0
10
-283.66474573363121
20
233.97248765877981
30
0
10
-283.64426816389653
20
234.11498286804098
30
0
10
-283.57617144577915
20
234.24131603374821
30
0
10
-283.54725231431519
20
234.2949668634555
30
0
0
SPLINE
5
151
100
AcDbEntity
8
0
100
AcDbSpline
70
0
71
3
72
9
73
5
74
0
42
0.000000001
43
0.0000000001
44
0.0000000001
40
0
40
0
40
0
40
0
40
10.442318662208972
40
20.97542711524412
40
20.97542711524412
40
20.97542711524412
40
20.97542711524412
10
-283.54725231431519
20
234.2949668634555
30
0
10
-283.51383715874795
20
234.33242573459111
30
0
10
-283.44671632257899
20
234.40766915961419
30
0
10
-283.34753506605267
20
234.42599985300603
30
0
10
-283.29772979030025
20
234.43520487088051
30
0
0
SPLINE
5
152
100
AcDbEntity
8
0
100
AcDbSpline
70
0
71
3
72
9
73
5
74
0
42
0.000000001
43
0.0000000001
44
0.0000000001
40
0
40
0
40
0
40
0
40
7.3139674416350324
40
14.864348832985813
40
14.864348832985813
40
14.864348832985813
40
14.864348832985813
10
-283.29772979030025
20
234.43520487088051
30
0
10
-283.26315918121082
20
234.43554782796772
30
0
10
-283.19290051558573
20
234.43624482775905
30
0
10
-283.12895187646416
20
234.40705090124746
30
0
10
-283.09646901291893
20
234.3922217767462
30
0
0
SPLINE
5
153
100
AcDbEntity
8
0
100
AcDbSpline
70
0
71
3
72
9
73
5
74
0
42
0.000000001
43
0.0000000001
44
0.0000000001
40
0
40
0
40
0
40
0
40
8.0040222982094136
40
16.808502292916447
40
16.808502292916447
40
16.808502292916447
40
16.808502292916447
10
-283.09646901291893
20
234.3922217767462
30
0
10
-283.06493430124493
20
234.37135071796033
30
0
10
-282.99871118819834
20
234.3275213498768
30
0
10
-282.95729272289384
20
234.25962446658906
30
0
10
-282.93559727122107
20
234.22405932579341
30
0
0
SPLINE
5
154
100
AcDbEntity
8
0
100
AcDbSpline
70
0
71
3
72
9
73
5
74
0
42
0.000000001
43
0.0000000001
44
0.0000000001
40
0
40
0
40
0
40
0
40
10.648157361306572
40
24.153681156349684
40
24.153681156349684
40
24.153681156349684
40
24.153681156349684
10
-282.93559727122107
20
234.22405932579341
30
0
10
-282.91611529559634
20
234.17807032792402
30
0
10
-282.87192347802971
20
234.0737514722247
30
0
10
-282.86033551905246
20
233.96085382124772
30
0
10
-282.85385611516017
20
233.89772713253271
30
0
0
SPLINE
5
155
100
AcDbEntity
8
0
100
AcDbSpline
70
0
71
3
72
9
73
5
74
0
42
0.000000001
43
0.0000000001
44
0.0000000001
40
0
40
0
40
0
40
0
40
16.393858789906293
40
29.372393949535784
40
29.372393949535784
40
29.372393949535784
40
29.372393949535784
10
-282.85385611516017
20
233.89772713253271
30
0
10
-282.84885470203773
20
233.82016075096195
30
0
10
-282.83989381745187
20
233.6811873496454
30
0
10
-282.89224322249214
20
233.55272151207419
30
0
10
-282.91537441823561
20
233.49595738203465
30
0
0
SPLINE
5
156
100
AcDbEntity
8
0
100
AcDbSpline
70
0
71
3
72
9
73
5
74
0
42
0.000000001
43
0.0000000001
44
0.0000000001
40
0
40
0
40
0
40
0
40
11.807433037713633
40
25.333748316478466
40
25.333748316478466
40
25.333748316478466
40
25.333748316478466
10
-282.91537441823561
20
233.49595738203465
30
0
10
-282.95061572858867
20
233.4517820927646
30
0
10
-283.02622864834632
20
233.35700063970842
30
0
10
-283.14376755496687
20
233.32514545436231
30
0
10
-283.20652448649594
20
233.30813718243712
30
0
0
LINE
5
157
100
AcDbEntity
8
0
100
AcDbLine
10
-283.20652448649594
20
233.30813718243712
30
0
11
-283.2637706728197
21
233.69812884916439
31
0
0
SPLINE
5
158
100
AcDbEntity
8
0
100
AcDbSpline
70
0
71
3
72
9
73
5
74
0
42
0.000000001
43
0.0000000001
44
0.0000000001
40
0
40
0
40
0
40
0
40
5.8909961899852323
40
10.755278529621039
40
10.755278529621039
40
10.755278529621039
40
10.755278529621039
10
-283.2637706728197
20
233.69812884916439
30
0
10
-283.23687756259062
20
233.70622684380723
30
0
10
-283.18777841505852
20
233.72101147192507
30
0
10
-283.15303177336534
20
233.75841662420225
30
0
10
-283.13731693389548
20
233.77533382640519
30
0
0
SPLINE
5
159
100
AcDbEntity
8
0
100
AcDbSpline
70
0
71
3
72
9
73
5
74
0
42
0.000000001
43
0.0000000001
44
0.0000000001
40
0
40
0
40
0
40
0
40
4.8147584398579966
40
10.500660352445404
40
10.500660352445404
40
10.500660352445404
40
10.500660352445404
10
-283.13731693389548
20
233.77533382640519
30
0
10
-283.12697962697746
20
233.79570330607734
30
0
10
-283.10443466438818
20
233.84012775441994
30
0
10
-283.10680798530353
20
233.89006958876553
30
0
10
-283.10809309209463
20
233.91711211389182
30
0
0
SPLINE
5
160
100
AcDbEntity
8
0
100
AcDbSpline
70
0
71
3
72
9
73
5
74
0
42
0.000000001
43
0.0000000001
44
0.0000000001
40
0
40
0
40
0
40
0
40
4.5925772851346354
40
8.2620702671237609
40
8.2620702671237609
40
8.2620702671237609
40
8.2620702671237609
10
-283.10809309209463
20
233.91711211389182
30
0
10
-283.11059971069398
20
233.93884492886485
30
0
10
-283.1151091305066
20
233.97794237530172
30
0
10
-283.13816487769441
20
234.00960479867706
30
0
10
-283.14840479332867
20
234.02366725961133
30
0
0
SPLINE
5
161
100
AcDbEntity
8
0
100
AcDbSpline
70
0
71
3
72
9
73
5
74
0
42
0.000000001
43
0.0000000001
44
0.0000000001
40
0
40
0
40
0
40
0
40
3.1425676849457358
40
6.1374632268508531
40
6.1374632268508531
40
6.1374632268508531
40
6.1374632268508531
10
-283.14840479332867
20
234.02366725961133
30
0
10
-283.15996288251335
20
234.03344651913648
30
0
10
-283.18253593565208
20
234.0525455017962
30
0
10
-283.21204024429602
20
234.05341710799107
30
0
10
-283.22643745030126
20
234.05384242532665
30
0
0
SPLINE
5
162
100
AcDbEntity
8
0
100
AcDbSpline
70
0
71
3
72
9
73
5
74
0
42
0.000000001
43
0.0000000001
44
0.0000000001
40
0
40
0
40
0
40
0
40
2.2555300560971241
40
4.8034015409548152
40
4.8034015409548152
40
4.8034015409548152
40
4.8034015409548152
10
-283.22643745030126
20
234.05384242532665
30
0
10
-283.23697403635907
20
234.05136554311878
30
0
10
-283.25941286556946
20
234.04609074760882
30
0
10
-283.27392494222698
20
234.02805459882694
30
0
10
-283.2816225927329
20
234.0184876723925
30
0
0
SPLINE
5
163
100
AcDbEntity
8
0
100
AcDbSpline
70
0
71
3
72
9
73
5
74
0
42
0.000000001
43
0.0000000001
44
0.0000000001
40
0
40
0
40
0
40
0
40
4.0048562603377036
40
10.680284589963851
40
10.680284589963851
40
10.680284589963851
40
10.680284589963851
10
-283.2816225927329
20
234.0184876723925
30
0
10
-283.28948082218562
20
234.001426137853
30
0
10
-283.31043741125438
20
233.95592586703748
30
0
10
-283.31569946554669
20
233.90588576040631
30
0
10
-283.31898837287849
20
233.87460952028275
30
0
0
SPLINE
5
164
100
AcDbEntity
8
0
100
AcDbSpline
70
0
71
3
72
9
73
5
74
0
42
0.000000001
43
0.0000000001
44
0.0000000001
40
0
40
0
40
0
40
0
40
17.307707637377682
40
29.331955307691594
40
29.331955307691594
40
29.331955307691594
40
29.331955307691594
10
-283.31898837287849
20
233.87460952028275
30
0
10
-283.32913953711216
20
233.79428583970031
30
0
10
-283.34634305717753
20
233.65815859175081
30
0
10
-283.38702249847296
20
233.5272500504127
30
0
10
-283.40369849814977
20
233.47358582289363
30
0
0
SPLINE
5
165
100
AcDbEntity
8
0
100
AcDbSpline
70
0
71
3
72
9
73
5
74
0
42
0.000000001
43
0.0000000001
44
0.0000000001
40
0
40
0
40
0
40
0
40
8.7605229037124399
40
16.472224423249386
40
16.472224423249386
40
16.472224423249386
40
16.472224423249386
10
-283.40369849814977
20
233.47358582289363
30
0
10
-283.42073665008093
20
233.43584565078888
30
0
10
-283.45277312386804
20
233.36488360987937
30
0
10
-283.51072740363105
20
233.31310347673434
30
0
10
-283.53785950770066
20
233.28886188548387
30
0
0
SPLINE
5
166
100
AcDbEntity
8
0
100
AcDbSpline
70
0
71
3
72
9
73
5
74
0
42
0.000000001
43
0.0000000001
44
0.0000000001
40
0
40
0
40
0
40
0
40
7.3558835357326755
40
14.939356844915762
40
14.939356844915762
40
14.939356844915762
40
14.939356844915762
10
-283.53785950770066
20
233.28886188548387
30
0
10
-283.567323709954
20
233.27050139546228
30
0
10
-283.62716373181917
20
233.23321234501037
30
0
10
-283.69694932167397
20
233.22294188906625
30
0
10
-283.73237368187392
20
233.21772842978984
30
0
0
SPLINE
5
167
100
AcDbEntity
8
0
100
AcDbSpline
70
0
71
3
72
9
73
5
74
0
42
0.000000001
43
0.0000000001
44
0.0000000001
40
0
40
0
40
0
40
0
40
9.0130785420292554
40
18.069840070252965
40
18.069840070252965
40
18.069840070252965
40
18.069840070252965
10
-283.73237368187392
20
233.21772842978984
30
0
10
-283.7749869109395
20
233.21703555288383
30
0
10
-283.86041989929072
20
233.21564644095966
30
0
10
-283.9382949705448
20
233.25082202620553
30
0
10
-283.97732663582821
20
233.26845233648797
30
0
0
SPLINE
5
168
100
AcDbEntity
8
0
100
AcDbSpline
70
0
71
3
72
9
73
5
74
0
42
0.000000001
43
0.0000000001
44
0.0000000001
40
0
40
0
40
0
40
0
40
9.2382721812685595
40
18.837523443427809
40
18.837523443427809
40
18.837523443427809
40
18.837523443427809
10
-283.97732663582821
20
233.26845233648797
30
0
10
-284.01404479245429
20
233.29208095221242
30
0
10
-284.0889158422209
20
233.34026145543945
30
0
10
-284.136362621898
20
233.41566288245392
30
0
10
-284.16054061753903
20
233.45408604596636
30
0
0
SPLINE
5
169
100
AcDbEntity
8
0
100
AcDbSpline
70
0
71
3
72
9
73
5
74
0
42
0.000000001
43
0.0000000001
44
0.0000000001
40
0
40
0
40
0
40
0
40
10.852589289946234
40
23.714628474122282
40
23.714628474122282
40
23.714628474122282
40
23.714628474122282
10
-284.16054061753903
20
233.45408604596636
30
0
10
-284.1811762808108
20
233.50064903903336
30
0
10
-284.22626847721961
20
233.60239656229447
30
0
10
-284.23864115573946
20
233.71314541342034
30
0
10
-284.24535169206933
20
233.7732119695691
30
0
0
SPLINE
5
170
100
AcDbEntity
8
0
100
AcDbSpline
70
0
71
3
72
9
73
5
74
0
42
0.000000001
43
0.0000000001
44
0.0000000001
40
0
40
0
40
0
40
0
40
20.972408884402871
40
36.024401395139094
40
36.024401395139094
40
36.024401395139094
40
36.024401395139094
10
-284.24535169206933
20
233.7732119695691
30
0
10
-284.25328462328309
20
233.87331986646549
30
0
10
-284.26691105503255
20
234.04527565277971
30
0
10
-284.18781020506526
20
234.19694619950513
30
0
10
-284.15475967944394
20
234.26031835407244
30
0
0
SPLINE
5
171
100
AcDbEntity
8
0
100
AcDbSpline
70
0
71
3
72
9
73
5
74
0
42
0.000000001
43
0.0000000001
44
0.0000000001
40
0
40
0
40
0
40
0
40
13.076096032138498
40
26.812849762524014
40
26.812849762524014
40
26.812849762524014
40
26.812849762524014
10
-284.15475967944394
20
234.26031835407244
30
0
10
-284.11035268957886
20
234.30385122156372
30
0
10
-284.0192950876214
20
234.39311641454665
30
0
10
-283.89535080534051
20
234.42369011602293
30
0
10
-283.83185169588148
20
234.43935362853765
30
0
0
LINE
5
172
100
AcDbEntity
8
0
100
AcDbLine
10
-283.83185169588154
20
234.43935362853759
30
0
11
-283.77244808857574
21
234.04585032631746
31
0
0
SPLINE
5
173
100
AcDbEntity
8
0
100
AcDbSpline
70
0
71
3
72
9
73
5
74
0
42
0.000000001
43
0.0000000001
44
0.0000000001
40
0
40
0
40
0
40
0
40
6.2487568770861754
40
11.277699561083626
40
11.277699561083626
40
11.277699561083626
40
11.277699561083626
10
-283.77244808857574
20
234.04585032631746
30
0
10
-283.80108849838143
20
234.03877154525142
30
0
10
-283.85277844943062
20
234.02599582558619
30
0
10
-283.8956416201151
20
233.99464975475919
30
0
10
-283.91475513058396
20
233.98067194016156
30
0
0
SPLINE
5
174
100
AcDbEntity
8
0
100
AcDbSpline
70
0
71
3
72
9
73
5
74
0
42
0.000000001
43
0.0000000001
44
0.0000000001
40
0
40
0
40
0
40
0
40
7.1156522559163085
40
14.827565050211716
40
14.827565050211716
40
14.827565050211716
40
14.827565050211716
10
-283.91475513058396
20
233.98067194016156
30
0
10
-283.93643503291395
20
233.95412701000743
30
0
10
-283.98161151857079
20
233.89881280064725
30
0
10
-283.98081200684629
20
233.82717592002905
30
0
10
-283.98039617561068
20
233.78991711358907
30
0
0
SPLINE
5
175
100
AcDbEntity
8
0
100
AcDbSpline
70
0
71
3
72
9
73
5
74
0
42
0.000000001
43
0.0000000001
44
0.0000000001
40
0
40
0
40
0
40
0
40
5.7033135291514112
40
10.456800219655905
40
10.456800219655905
40
10.456800219655905
40
10.456800219655905
10
-283.98039617561068
20
233.78991711358907
30
0
10
-283.9770142642713
20
233.76293118859951
30
0
10
-283.97081366333032
20
233.71345356038944
30
0
10
-283.94043020483559
20
233.67417927302503
30
0
10
-283.92661839218425
20
233.6563258380979
30
0
0
SPLINE
5
176
100
AcDbEntity
8
0
100
AcDbSpline
70
0
71
3
72
9
73
5
74
0
42
0.000000001
43
0.0000000001
44
0.0000000001
40
0
40
0
40
0
40
0
40
4.1450644698612713
40
7.9559992882329427
40
7.9559992882329427
40
7.9559992882329427
40
7.9559992882329427
10
-283.92661839218425
20
233.6563258380979
30
0
10
-283.91132833552393
20
233.64350605211587
30
0
10
-283.8819807389325
20
233.61889987074312
30
0
10
-283.84382569192928
20
233.61734668740687
30
0
10
-283.82554937089731
20
233.61660271041029
30
0
0
SPLINE
5
177
100
AcDbEntity
8
0
100
AcDbSpline
70
0
71
3
72
9
73
5
74
0
42
0.000000001
43
0.0000000001
44
0.0000000001
40
0
40
0
40
0
40
0
40
3.6493107018291808
40
7.6596710024900547
40
7.6596710024900547
40
7.6596710024900547
40
7.6596710024900547
10
-283.82554937089731
20
233.61660271041029
30
0
10
-283.80846920935375
20
233.62036315892448
30
0
10
-283.772619036874
20
233.62825610112498
30
0
10
-283.74853541024788
20
233.65611196732556
30
0
10
-283.73592598876149
20
233.67069641356534
30
0
0
SPLINE
5
178
100
AcDbEntity
8
0
100
AcDbSpline
70
0
71
3
72
9
73
5
74
0
42
0.000000001
43
0.0000000001
44
0.0000000001
40
0
40
0
40
0
40
0
40
7.9024429075971732
40
15.803873862954893
40
15.803873862954893
40
15.803873862954893
40
15.803873862954893
10
-284.15092045933284
20
234.90145405955764
30
0
10
-284.1880833236454
20
234.90176117964018
30
0
10
-284.26240429335684
20
234.9023753804764
30
0
10
-284.33229982224924
20
234.92764562837664
30
0
10
-284.36724534892346
20
234.9402799432753
30
0
0
SPLINE
5
179
100
AcDbEntity
8
0
100
AcDbSpline
70
0
71
3
72
9
73
5
74
0
42
0.000000001
43
0.0000000001
44
0.0000000001
40
0
40
0
40
0
40
0
40
7.5837326167812895
40
14.462019361618225
40
14.462019361618225
40
14.462019361618225
40
14.462019361618225
10
-284.36724534892346
20
234.9402799432753
30
0
10
-284.3995389246096
20
234.95539763063499
30
0
10
-284.46112209749094
20
234.98422674399436
30
0
10
-284.51026795291722
20
235.03113580103388
30
0
10
-284.53364223264248
20
235.05344623619379
30
0
0
SPLINE
5
180
100
AcDbEntity
8
0
100
AcDbSpline
70
0
71
3
72
9
73
5
74
0
42
0.000000001
43
0.0000000001
44
0.0000000001
40
0
40
0
40
0
40
0
40
9.8640810633237255
40
21.200630953945225
40
21.200630953945225
40
21.200630953945225
40
21.200630953945225
10
-284.53364223264248
20
235.05344623619379
30
0
10
-284.56243204934196
20
235.08961314682077
30
0
10
-284.62430930634753
20
235.1673458134554
30
0
10
-284.66379951313309
20
235.25860107312556
30
0
10
-284.68491599312779
20
235.30739772480445
30
0
0
SPLINE
5
181
100
AcDbEntity
8
0
100
AcDbSpline
70
0
71
3
72
9
73
5
74
0
42
0.000000001
43
0.0000000001
44
0.0000000001
40
0
40
0
40
0
40
0
40
7.3698855384910091
40
15.411692211266846
40
15.411692211266846
40
15.411692211266846
40
15.411692211266846
10
-284.68491599312779
20
235.30739772480445
30
0
10
-284.69718000612954
20
235.3395401109056
30
0
10
-284.72282615662522
20
235.4067553422604
30
0
10
-284.7424658812576
20
235.4759686061131
30
0
10
-284.75271387131812
20
235.51208402286704
30
0
0
SPLINE
5
182
100
AcDbEntity
8
0
100
AcDbSpline
70
0
71
3
72
9
73
5
74
0
42
0.000000001
43
0.0000000001
44
0.0000000001
40
0
40
0
40
0
40
0
40
7.7860155264962909
40
14.523744845288393
40
14.523744845288393
40
14.523744845288393
40
14.523744845288393
10
-284.75271387131812
20
235.51208402286704
30
0
10
-284.76145583926791
20
235.54754963398432
30
0
10
-284.77776278233949
20
235.61370587075209
30
0
10
-284.77582158948479
20
235.68175510331875
30
0
10
-284.77492104818833
20
235.71332391110664
30
0
0
SPLINE
5
183
100
AcDbEntity
8
0
100
AcDbSpline
70
0
71
3
72
9
73
5
74
0
42
0.000000001
43
0.0000000001
44
0.0000000001
40
0
40
0
40
0
40
0
40
6.4240910270458125
40
13.254165712752972
40
13.254165712752972
40
13.254165712752972
40
13.254165712752972
10
-284.77492104818833
20
235.71332391110664
30
0
10
-284.7702718620788
20
235.74309800491392
30
0
10
-284.76067967497232
20
235.80452782768651
30
0
10
-284.73422293084235
20
235.86082034279812
30
0
10
-284.72058936519483
20
235.88982873840683
30
0
0
SPLINE
5
184
100
AcDbEntity
8
0
100
AcDbSpline
70
0
71
3
72
9
73
5
74
0
42
0.000000001
43
0.0000000001
44
0.0000000001
40
0
40
0
40
0
40
0
40
6.7292817899176782
40
12.877732875690839
40
12.877732875690839
40
12.877732875690839
40
12.877732875690839
10
-284.72058936519483
20
235.88982873840683
30
0
10
-284.70507900884866
20
235.91738895501123
30
0
10
-284.67539705584539
20
235.97013055783108
30
0
10
-284.630864797404
20
236.01104699753301
30
0
10
-284.60960294833393
20
236.03058248025667
30
0
0
SPLINE
5
185
100
AcDbEntity
8
0
100
AcDbSpline
70
0
71
3
72
9
73
5
74
0
42
0.000000001
43
0.0000000001
44
0.0000000001
40
0
40
0
40
0
40
0
40
8.9290376284081425
40
16.592211463500927
40
16.592211463500927
40
16.592211463500927
40
16.592211463500927
10
-284.60960294833393
20
236.03058248025667
30
0
10
-284.57649643005527
20
236.0561118705501
30
0
10
-284.51497688282495
20
236.10355136626177
30
0
10
-284.44477264627756
20
236.13670887297104
30
0
10
-284.41234856165147
20
236.15202278928729
30
0
0
LINE
5
186
100
AcDbEntity
8
0
100
AcDbLine
10
-284.41234856165141
20
236.15202278928729
30
0
11
-283.66606574994961
21
236.45354061710486
31
0
0
LINE
5
187
100
AcDbEntity
8
0
100
AcDbLine
10
-283.66606574994961
20
236.45354061710486
30
0
11
-283.51002880073258
21
236.06733561545036
31
0
0
LINE
5
188
100
AcDbEntity
8
0
100
AcDbLine
10
-283.51002880073258
20
236.06733561545036
30
0
11
-284.27408142951828
21
235.75863831550262
31
0
0
SPLINE
5
189
100
AcDbEntity
8
0
100
AcDbSpline
70
0
71
3
72
9
73
5
74
0
42
0.000000001
43
0.0000000001
44
0.0000000001
40
0
40
0
40
0
40
0
40
7.1155758053156895
40
13.353486670313714
40
13.353486670313714
40
13.353486670313714
40
13.353486670313714
10
-284.27408142951828
20
235.75863831550262
30
0
10
-284.30494837364051
20
235.74421372091706
30
0
10
-284.36287500363755
20
235.71714372169328
30
0
10
-284.39581190830734
20
235.66261628816474
30
0
10
-284.41119796294402
20
235.63714449353566
30
0
0
SPLINE
5
190
100
AcDbEntity
8
0
100
AcDbSpline
70
0
71
3
72
9
73
5
74
0
42
0.000000001
43
0.0000000001
44
0.0000000001
40
0
40
0
40
0
40
0
40
6.1967531143370369
40
13.206518923482006
40
13.206518923482006
40
13.206518923482006
40
13.206518923482006
10
-284.41119796294402
20
235.63714449353566
30
0
10
-284.41921919966092
20
235.60866025366661
30
0
10
-284.43631405765154
20
235.54795464769634
30
0
10
-284.4159405757203
20
235.48802847061904
30
0
10
-284.4051267240244
20
235.4562208103581
30
0
0
SPLINE
5
191
100
AcDbEntity
8
0
100
AcDbSpline
70
0
71
3
72
9
73
5
74
0
42
0.000000001
43
0.0000000001
44
0.0000000001
40
0
40
0
40
0
40
0
40
6.9584357577780986
40
13.115064847550464
40
13.115064847550464
40
13.115064847550464
40
13.115064847550464
10
-284.4051267240244
20
235.4562208103581
30
0
10
-284.39092924259347
20
235.4260635983747
30
0
10
-284.36417022718831
20
235.3692241297716
30
0
10
-284.31029655998555
20
235.33733798381053
30
0
10
-284.28500654498907
20
235.32236961147925
30
0
0
SPLINE
5
192
100
AcDbEntity
8
0
100
AcDbSpline
70
0
71
3
72
9
73
5
74
0
42
0.000000001
43
0.0000000001
44
0.0000000001
40
0
40
0
40
0
40
0
40
6.2240092743384361
40
13.420289078400705
40
13.420289078400705
40
13.420289078400705
40
13.420289078400705
10
-284.28500654498907
20
235.32236961147925
30
0
10
-284.25631496114744
20
235.31471096920666
30
0
10
-284.19444979798647
20
235.29819730595278
30
0
10
-284.13370287655607
20
235.31926750263312
30
0
10
-284.1011289251831
20
235.33056584575758
30
0
0
LINE
5
193
100
AcDbEntity
8
0
100
AcDbLine
10
-284.1011289251831
20
235.33056584575758
30
0
11
-283.33707629639764
21
235.63926314570551
31
0
0
LINE
5
194
100
AcDbEntity
8
0
100
AcDbLine
10
-283.33707629639764
20
235.63926314570551
30
0
11
-283.18103934718027
21
235.2530581440509
31
0
0
LINE
5
195
100
AcDbEntity
8
0
100
AcDbLine
10
-283.18103934718027
20
235.2530581440509
30
0
11
-283.9273221588823
21
234.95154031623323
31
0
0
SPLINE
5
196
100
AcDbEntity
8
0
100
AcDbSpline
70
0
71
3
72
9
73
5
74
0
42
0.000000001
43
0.0000000001
44
0.0000000001
40
0
40
0
40
0
40
0
40
8.3411951129359547
40
16.429958435333042
40
16.429958435333042
40
16.429958435333042
40
16.429958435333042
10
-283.9273221588823
20
234.95154031623323
30
0
10
-283.96409077191396
20
234.93825662347177
30
0
10
-284.03651525973089
20
234.91209124585075
30
0
10
-284.11317801127308
20
234.90496328337412
30
0
10
-284.15092045933284
20
234.90145405955764
30
0
0
LWPOLYLINE
5
197
100
AcDbEntity
8
0
100
AcDbPolyline
90
8
70
1
43
0.0
10
-283.01726410583404
20
231.37449265714071
10
-282.88462179466813
20
232.63649994762409
10
-283.21639118534648
20
232.67137031571588
10
-283.26089428930169
20
232.24795156534103
10
-284.27269995780904
20
232.35429662636707
10
-284.31633610571356
20
231.93912641182328
10
-283.30453043720672
20
231.83278135079729
10
-283.34903349651233
20
231.40936302523264
0
CIRCLE
5
198
100
AcDbEntity
8
0
100
AcDbCircle
10
-285.97398375679785
20
238.45280015994049
30
0
40
0.26664000000002169
210
0
220
-0
230
1
0
CIRCLE
5
199
100
AcDbEntity
8
0
100
AcDbCircle
10
-290.39973024177084
20
225.68137191000204
30
0
40
0.26664000000002169
210
0
220
-0
230
1
0
CIRCLE
5
200
100
AcDbEntity
8
0
100
AcDbCircle
10
-295.77066303334686
20
239.33397526136415
30
0
40
0.065999999999957509
210
0
220
-0
230
1
0
SPLINE
5
201
100
AcDbEntity
8
0
100
AcDbSpline
70
0
71
3
72
9
73
5
74
0
42
0.000000001
43
0.0000000001
44
0.0000000001
40
0
40
0
40
0
40
0
40
13.61997717430309
40
29.213925763714553
40
29.213925763714553
40
29.213925763714553
40
29.213925763714553
10
-284.18099566223958
20
231.14605195535907
30
0
10
-284.11704366010764
20
231.15162926418708
30
0
10
-283.97987096012361
20
231.16359221272788
30
0
10
-283.84860015560503
20
231.12122834666386
30
0
10
-283.7785297996549
20
231.09861516024043
30
0
0
SPLINE
5
202
100
AcDbEntity
8
0
100
AcDbSpline
70
0
71
3
72
9
73
5
74
0
42
0.000000001
43
0.0000000001
44
0.0000000001
40
0
40
0
40
0
40
0
40
21.275337677272049
40
39.895102844504507
40
39.895102844504507
40
39.895102844504507
40
39.895102844504507
10
-283.7785297996549
20
231.09861516024043
30
0
10
-283.68474213383763
20
231.05871557947972
30
0
10
-283.50887331191393
20
230.98389665523712
30
0
10
-283.40566322998058
20
230.82390510412336
30
0
10
-283.35749322034366
20
230.74923415711291
30
0
0
SPLINE
5
203
100
AcDbEntity
8
0
100
AcDbSpline
70
0
71
3
72
9
73
5
74
0
42
0.000000001
43
0.0000000001
44
0.0000000001
40
0
40
0
40
0
40
0
40
18.591865838833545
40
32.012262195921963
40
32.012262195921963
40
32.012262195921963
40
32.012262195921963
10
-283.35749322034366
20
230.74923415711291
30
0
10
-283.33119702646837
20
230.66448735476047
30
0
10
-283.28591912588644
20
230.51856672039872
30
0
10
-283.31298712039967
20
230.37199670065516
30
0
10
-283.3289921760562
20
230.31050882329444
30
0
0
LINE
5
204
100
AcDbEntity
8
0
100
AcDbLine
10
-283.32899217605615
20
230.31050882329438
30
0
11
-283.63837452571698
21
230.42311478957822
31
0
0
SPLINE
5
205
100
AcDbEntity
8
0
100
AcDbSpline
70
0
71
3
72
9
73
5
74
0
42
0.000000001
43
0.0000000001
44
0.0000000001
40
7.9701937952592399
40
7.9701937952592399
40
7.9701937952592399
40
7.9701937952592399
40
8.2863908062129603
40
16.243057475019416
40
16.243057475019416
40
16.243057475019416
40
16.243057475019416
10
-283.63837452571698
20
230.42311478957822
30
0
10
-283.63844524070453
20
230.42455111127182
30
0
10
-283.64078011214815
20
230.46209610070173
30
0
10
-283.65629988251834
20
230.49870510009131
30
0
10
-283.67122647195509
20
230.53391486740989
30
0
0
SPLINE
5
206
100
AcDbEntity
8
0
100
AcDbSpline
70
0
71
3
72
9
73
5
74
0
42
0.000000001
43
0.0000000001
44
0.0000000001
40
0
40
0
40
0
40
0
40
9.4155850759718405
40
22.146645236364545
40
22.146645236364545
40
22.146645236364545
40
22.146645236364545
10
-283.67122647195509
20
230.53391486740989
30
0
10
-283.69997886602744
20
230.56798829914678
30
0
10
-283.76760812815922
20
230.64813331388316
30
0
10
-283.86630446470616
20
230.68548971377587
30
0
10
-283.92304032626822
20
230.70696414339437
30
0
0
SPLINE
5
207
100
AcDbEntity
8
0
100
AcDbSpline
70
0
71
3
72
9
73
5
74
0
42
0.000000001
43
0.0000000001
44
0.0000000001
40
0
40
0
40
0
40
0
40
12.631999952269414
40
22.007198108002306
40
22.007198108002306
40
22.007198108002306
40
22.007198108002306
10
-283.92304032626822
20
230.70696414339437
30
0
10
-283.9798630659572
20
230.72679028137608
30
0
10
-284.07885841856171
20
230.76133095173105
30
0
10
-284.18154169383212
20
230.74361375488172
30
0
10
-284.22528538388383
20
230.73606612294708
30
0
0
SPLINE
5
208
100
AcDbEntity
8
0
100
AcDbSpline
70
0
71
3
72
9
73
5
74
0
42
0.000000001
43
0.0000000001
44
0.0000000001
40
0
40
0
40
0
40
0
40
8.0027480734978216
40
8.2912220778313745
40
8.2912220778313745
40
8.2912220778313745
40
8.2912220778313745
10
-284.22528538388383
20
230.73606612294708
30
0
10
-284.25944837144181
20
230.71841249541032
30
0
10
-284.29484282770653
20
230.70012250988992
30
0
10
-284.32079256645369
20
230.67278110536813
30
0
10
-284.32168438187847
20
230.67181923800177
30
0
0
LINE
5
209
100
AcDbEntity
8
0
100
AcDbLine
10
-284.32168438187841
20
230.67181923800177
30
0
11
-284.62891106481862
21
230.7836406057643
31
0
0
SPLINE
5
210
100
AcDbEntity
8
0
100
AcDbSpline
70
0
71
3
72
9
73
5
74
0
42
0.000000001
43
0.0000000001
44
0.0000000001
40
9.0648465656751753
40
9.0648465656751753
40
9.0648465656751753
40
9.0648465656751753
40
14.977318420177212
40
27.696456622879094
40
27.696456622879094
40
27.696456622879094
40
27.696456622879094
10
-284.62891106481868
20
230.78364060576436
30
0
10
-284.61712017390619
20
230.80855903765826
30
0
10
-284.57673926260054
20
230.88511282490529
30
0
10
-284.51956704122176
20
230.95140886795173
30
0
10
-284.48053759702248
20
230.99666682103287
30
0
0
SPLINE
5
211
100
AcDbEntity
8
0
100
AcDbSpline
70
0
71
3
72
9
73
5
74
0
42
0.000000001
43
0.0000000001
44
0.0000000001
40
0
40
0
40
0
40
0
40
11.786793989573722
40
24.182573292310558
40
24.182573292310558
40
24.182573292310558
40
24.182573292310558
10
-284.48053759702248
20
230.99666682103287
30
0
10
-284.43742840460129
20
231.03197578276144
30
0
10
-284.34898270798357
20
231.10441800544098
30
0
10
-284.23792360450682
20
231.13194292042238
30
0
10
-284.18099566223958
20
231.14605195535907
30
0
0
CIRCLE
5
212
100
AcDbEntity
8
0
100
AcDbCircle
10
-286.59849012544765
20
239.8146684746672
30
0
40
0.065999999999957509
210
0
220
-0
230
1
0
SPLINE
5
213
100
AcDbEntity
8
0
100
AcDbSpline
70
0
71
3
72
9
73
5
74
0
42
0.000000001
43
0.0000000001
44
0.0000000001
40
0
40
0
40
0
40
0
40
12.90638591509375
40
19.086240357154672
40
19.086240357154672
40
19.086240357154672
40
19.086240357154672
10
-284.72753435050703
20
230.28436902710737
30
0
10
-284.73160200837196
20
230.34500877740962
30
0
10
-284.73761734808119
20
230.43468414099189
30
0
10
-284.72033757076179
20
230.52156647614342
30
0
10
-284.71331905241124
20
230.54952706361297
30
0
0
LINE
5
214
100
AcDbEntity
8
0
100
AcDbLine
10
-284.71331905241129
20
230.54952706361297
30
0
11
-284.39810530999756
21
230.43479864394277
31
0
0
SPLINE
5
215
100
AcDbEntity
8
0
100
AcDbSpline
70
0
71
3
72
8
73
4
74
0
42
0.000000001
43
0.0000000001
44
0.0000000001
40
9.9811648383476932
40
9.9811648383476932
40
9.9811648383476932
40
9.9811648383476932
40
16.565973145837422
40
16.565973145837422
40
16.565973145837422
40
16.565973145837422
10
-284.39810530999756
20
230.43479864394277
30
0
10
-284.39298713685292
20
230.40511898114704
30
0
10
-284.38099759627647
20
230.37584950636909
30
0
10
-284.36900805570002
20
230.34658003159126
30
0
0
SPLINE
5
216
100
AcDbEntity
8
0
100
AcDbSpline
70
0
71
3
72
9
73
5
74
0
42
0.000000001
43
0.0000000001
44
0.0000000001
40
0
40
0
40
0
40
0
40
9.5913963904528305
40
23.365457628815761
40
23.365457628815761
40
23.365457628815761
40
23.365457628815761
10
-284.36900805570002
20
230.34658003159126
30
0
10
-284.33871291997548
20
230.31284864280818
30
0
10
-284.26491139188539
20
230.23067610991683
30
0
10
-284.16048776521103
20
230.19239305470498
30
0
10
-284.0989294832637
20
230.16982499054581
30
0
0
SPLINE
5
217
100
AcDbEntity
8
0
100
AcDbSpline
70
0
71
3
72
9
73
5
74
0
42
0.000000001
43
0.0000000001
44
0.0000000001
40
0
40
0
40
0
40
0
40
11.87322601202086
40
20.982668022986378
40
20.982668022986378
40
20.982668022986378
40
20.982668022986378
10
-284.0989294832637
20
230.16982499054581
30
0
10
-284.0453408908495
20
230.15152558255485
30
0
10
-283.95063776270996
20
230.11918640173749
30
0
10
-283.85303221216628
20
230.13843352818702
30
0
10
-283.81065761511047
20
230.14678949998608
30
0
0
SPLINE
5
218
100
AcDbEntity
8
0
100
AcDbSpline
70
0
71
3
72
8
73
4
74
0
42
0.000000001
43
0.0000000001
44
0.0000000001
40
0
40
0
40
0
40
0
40
6.2875765350906274
40
6.2875765350906274
40
6.2875765350906274
40
6.2875765350906274
10
-283.81065761511047
20
230.14678949998608
30
0
10
-283.78404591175035
20
230.1610247918392
30
0
10
-283.75743420839041
20
230.17526008369256
30
0
10
-283.73502608556595
20
230.19345754328916
30
0
0
LINE
5
219
100
AcDbEntity
8
0
100
AcDbLine
10
-283.73502608556601
20
230.19345754328916
30
0
11
-283.41597883888522
21
230.07733384217295
31
0
0
SPLINE
5
220
100
AcDbEntity
8
0
100
AcDbSpline
70
0
71
3
72
9
73
5
74
0
42
0.000000001
43
0.0000000001
44
0.0000000001
40
9.6909801205318153
40
9.6909801205318153
40
9.6909801205318153
40
9.6909801205318153
40
21.575646967522612
40
40.118344940054321
40
40.118344940054321
40
40.118344940054321
40
40.118344940054321
10
-283.41597883888522
20
230.07733384217295
30
0
10
-283.44075001002363
20
230.02715343745629
30
0
10
-283.51278773020397
20
229.90593430057666
30
0
10
-283.63394826819473
20
229.82606141567388
30
0
10
-283.7077845427288
20
229.77738619224473
30
0
0
SPLINE
5
221
100
AcDbEntity
8
0
100
AcDbSpline
70
0
71
3
72
9
73
5
74
0
42
0.000000001
43
0.0000000001
44
0.0000000001
40
0
40
0
40
0
40
0
40
18.35117856117915
40
39.320583283197131
40
39.320583283197131
40
39.320583283197131
40
39.320583283197131
10
-283.7077845427288
20
229.77738619224473
30
0
10
-283.79139286844367
20
229.75125007537127
30
0
10
-283.97053820908121
20
229.69524891136913
30
0
10
-284.15078147431319
20
229.75015415672354
30
0
10
-284.24690400509655
20
229.77943475774879
30
0
0
SPLINE
5
222
100
AcDbEntity
8
0
100
AcDbSpline
70
0
71
3
72
9
73
5
74
0
42
0.000000001
43
0.0000000001
44
0.0000000001
40
0
40
0
40
0
40
0
40
15.463777579151293
40
28.534426551860104
40
28.534426551860104
40
28.534426551860104
40
28.534426551860104
10
-284.24690400509655
20
229.77943475774879
30
0
10
-284.31464102692667
20
229.80627498852959
30
0
10
-284.43963228888526
20
229.85580173514322
30
0
10
-284.53908716144338
20
229.94591368854358
30
0
10
-284.58464405131019
20
229.98719090534692
30
0
0
SPLINE
5
223
100
AcDbEntity
8
0
100
AcDbSpline
70
0
71
3
72
9
73
5
74
0
42
0.000000001
43
0.0000000001
44
0.0000000001
40
0
40
0
40
0
40
0
40
11.882458748358619
40
23.816061622316624
40
23.816061622316624
40
23.816061622316624
40
23.816061622316624
10
-284.58464405131019
20
229.98719090534692
30
0
10
-284.61940449694021
20
230.03132252174979
30
0
10
-284.68907500307643
20
230.1197757045467
30
0
10
-284.71469622781456
20
230.2294260961786
30
0
10
-284.72753435050703
20
230.28436902710737
30
0
0
SPLINE
5
224
100
AcDbEntity
8
0
100
AcDbSpline
70
0
71
3
72
9
73
5
74
0
42
0.000000001
43
0.0000000001
44
0.0000000001
40
0
40
0
40
0
40
0
40
15.463777579151293
40
28.534426551860104
40
28.534426551860104
40
28.534426551860104
40
28.534426551860104
10
-293.56986149092415
20
239.78832750231331
30
0
10
-293.53978034614221
20
239.72196616685775
30
0
10
-293.48427332581758
20
239.59951338048381
30
0
10
-293.47532850035685
20
239.46560510621109
30
0
10
-293.47123118045778
20
239.40426628643908
30
0
0
SPLINE
5
225
100
AcDbEntity
8
0
100
AcDbSpline
70
0
71
3
72
9
73
5
74
0
42
0.000000001
43
0.0000000001
44
0.0000000001
40
0
40
0
40
0
40
0
40
11.882458748358619
40
23.816061622316624
40
23.816061622316624
40
23.816061622316624
40
23.816061622316624
10
-293.47123118045778
20
239.40426628643908
30
0
10
-293.47688300517467
20
239.34837402378963
30
0
10
-293.48821098102462
20
239.2363489286754
30
0
10
-293.54595017670846
20
239.13967503962647
30
0
10
-293.57488177096121
20
239.09123429327249
30
0
0
SPLINE
5
226
100
AcDbEntity
8
0
100
AcDbSpline
70
0
71
3
72
9
73
5
74
0
42
0.000000001
43
0.0000000001
44
0.0000000001
40
0
40
0
40
0
40
0
40
12.90638591509375
40
22.54978392492157
40
22.54978392492157
40
22.54978392492157
40
22.54978392492157
10
-293.57488177096121
20
239.09123429327249
30
0
10
-293.61407965289482
20
239.04478807481351
30
0
10
-293.68256542216744
20
238.96363815435777
30
0
10
-293.77173361684538
20
238.90788084488619
30
0
10
-293.81118695383077
20
238.885657657302
30
0
0
LINE
5
227
100
AcDbEntity
8
0
100
AcDbLine
10
-293.81118695383077
20
238.885657657302
30
0
11
-293.95155609070895
21
239.17345703788251
31
0
0
SPLINE
5
228
100
AcDbEntity
8
0
100
AcDbSpline
70
0
71
3
72
9
73
5
74
0
42
0.000000001
43
0.0000000001
44
0.0000000001
40
6.1626392526687379
40
6.1626392526687379
40
6.1626392526687379
40
6.1626392526687379
40
8.6683509868851623
40
16.565973145837422
40
16.565973145837422
40
16.565973145837422
40
16.565973145837422
10
-293.95155609070895
20
239.17345703788251
30
0
10
-293.94268594282778
20
239.18085629784312
30
0
10
-293.90853834005372
20
239.21387253636274
30
0
10
-293.89004130282797
20
239.26029524274779
30
0
10
-293.87599939928316
20
239.29553673344563
30
0
0
SPLINE
5
229
100
AcDbEntity
8
0
100
AcDbSpline
70
0
71
3
72
9
73
5
74
0
42
0.000000001
43
0.0000000001
44
0.0000000001
40
0
40
0
40
0
40
0
40
9.5913963904528305
40
23.365457628815761
40
23.365457628815761
40
23.365457628815761
40
23.365457628815761
10
-293.87599939928316
20
239.29553673344563
30
0
10
-293.87436010460141
20
239.34084583353322
30
0
10
-293.87036664328747
20
239.45122265617701
30
0
10
-293.91888906930046
20
239.55129992781264
30
0
10
-293.94749329687238
20
239.61029601040454
30
0
0
SPLINE
5
230
100
AcDbEntity
8
0
100
AcDbSpline
70
0
71
3
72
9
73
5
74
0
42
0.000000001
43
0.0000000001
44
0.0000000001
40
0
40
0
40
0
40
0
40
11.87322601202086
40
20.982668022986378
40
20.982668022986378
40
20.982668022986378
40
20.982668022986378
10
-293.94749329687238
20
239.61029601040454
30
0
10
-293.9733298673047
20
239.6606852671768
30
0
10
-294.01898891394353
20
239.7497344477195
30
0
10
-294.10257064867892
20
239.80369173631081
30
0
10
-294.13885692861777
20
239.82711682176495
30
0
0
SPLINE
5
231
100
AcDbEntity
8
0
100
AcDbSpline
70
0
71
3
72
9
73
5
74
0
42
0.000000001
43
0.0000000001
44
0.0000000001
40
0
40
0
40
0
40
0
40
8.0117684468567738
40
10.142417180439221
40
10.142417180439221
40
10.142417180439221
40
10.142417180439221
10
-294.13885692861777
20
239.82711682176495
30
0
10
-294.17584953313172
20
239.83762409536033
30
0
10
-294.22267994642391
20
239.85092567202705
30
0
10
-294.26861034213391
20
239.845095611202
30
0
10
-294.27822922526497
20
239.84323622060356
30
0
0
LINE
5
232
100
AcDbEntity
8
0
100
AcDbLine
10
-294.27822922526497
20
239.84323622060356
30
0
11
-294.42001133048694
21
240.13393261560549
31
0
0
SPLINE
5
233
100
AcDbEntity
8
0
100
AcDbSpline
70
0
71
3
72
9
73
5
74
0
42
0.000000001
43
0.0000000001
44
0.0000000001
40
6.2621042683022772
40
6.2621042683022772
40
6.2621042683022772
40
6.2621042683022772
40
21.575646967522612
40
40.118344940054321
40
40.118344940054321
40
40.118344940054321
40
40.118344940054321
10
-294.42001133048694
20
240.13393261560549
30
0
10
-294.35241356926008
20
240.16094988715216
30
0
10
-294.20188868502748
20
240.21030126225256
30
0
10
-294.04317454653744
20
240.18058192487021
30
0
10
-293.95624852416762
20
240.16430496422456
30
0
0
SPLINE
5
234
100
AcDbEntity
8
0
100
AcDbSpline
70
0
71
3
72
9
73
5
74
0
42
0.000000001
43
0.0000000001
44
0.0000000001
40
0
40
0
40
0
40
0
40
18.35117856117915
40
39.320583283197131
40
39.320583283197131
40
39.320583283197131
40
39.320583283197131
10
-293.95624852416762
20
240.16430496422456
30
0
10
-293.87795005548338
20
240.12502649002033
30
0
10
-293.71018200458821
20
240.04086554574968
30
0
10
-293.61866623843162
20
239.87616252460691
30
0
10
-293.56986149092415
20
239.78832750231331
30
0
0
SPLINE
5
235
100
AcDbEntity
8
0
100
AcDbSpline
70
0
71
3
72
9
73
5
74
0
42
0.000000001
43
0.0000000001
44
0.0000000001
40
0
40
0
40
0
40
0
40
9.4155850759718405
40
22.146645236364545
40
22.146645236364545
40
22.146645236364545
40
22.146645236364545
10
-294.50807517619455
20
239.64549914795199
30
0
10
-294.51106182934939
20
239.60101568115601
30
0
10
-294.5180868147678
20
239.49638494922996
30
0
10
-294.47304054761753
20
239.40095276767372
30
0
10
-294.44714557657483
20
239.34609331462019
30
0
0
SPLINE
5
236
100
AcDbEntity
8
0
100
AcDbSpline
70
0
71
3
72
9
73
5
74
0
42
0.000000001
43
0.0000000001
44
0.0000000001
40
0
40
0
40
0
40
0
40
12.631999952269414
40
22.007198108002306
40
22.007198108002306
40
22.007198108002306
40
22.007198108002306
10
-294.44714557657483
20
239.34609331462019
30
0
10
-294.42004311105495
20
239.29235919272577
30
0
10
-294.37282577966158
20
239.19874476348565
30
0
10
-294.28665421383755
20
239.14015965165726
30
0
10
-294.24994461086931
20
239.11520204325674
30
0
0
SPLINE
5
237
100
AcDbEntity
8
0
100
AcDbSpline
70
0
71
3
72
9
73
5
74
0
42
0.000000001
43
0.0000000001
44
0.0000000001
40
0
40
0
40
0
40
0
40
8.0027480734978216
40
12.642773164704765
40
12.642773164704765
40
12.642773164704765
40
12.642773164704765
10
-294.24994461086931
20
239.11520204325674
30
0
10
-294.2131065740831
20
239.10416939489733
30
0
10
-294.15490969737954
20
239.08673997323697
30
0
10
-294.09789007504605
20
239.09970443877893
30
0
10
-294.07703551952699
20
239.10632708040046
30
0
0
LINE
5
238
100
AcDbEntity
8
0
100
AcDbLine
10
-294.07703551952699
20
239.10632708040052
30
0
11
-293.93864324919912
21
238.82258087690258
31
0
0
SPLINE
5
239
100
AcDbEntity
8
0
100
AcDbSpline
70
0
71
3
72
9
73
5
74
0
42
0.000000001
43
0.0000000001
44
0.0000000001
40
4.9091258918599596
40
4.9091258918599596
40
4.9091258918599596
40
4.9091258918599596
40
14.977318420177212
40
27.696456622879094
40
27.696456622879094
40
27.696456622879094
40
27.696456622879094
10
-293.93864324919912
20
238.82258087690258
30
0
10
-293.98200583904151
20
238.80386329630218
30
0
10
-294.08122131228617
20
238.76562506391261
30
0
10
-294.1878457425716
20
238.75587221951858
30
0
10
-294.24735999110703
20
238.75042850269259
30
0
0
SPLINE
5
240
100
AcDbEntity
8
0
100
AcDbSpline
70
0
71
3
72
9
73
5
74
0
42
0.000000001
43
0.0000000001
44
0.0000000001
40
0
40
0
40
0
40
0
40
11.786793989573722
40
24.182573292310558
40
24.182573292310558
40
24.182573292310558
40
24.182573292310558
10
-294.24735999110703
20
238.75042850269259
30
0
10
-294.3028978147928
20
238.75497552257198
30
0
10
-294.41684292089781
20
238.76430449205992
30
0
10
-294.51585256680647
20
238.82165286105868
30
0
10
-294.56660406064867
20
238.85104914229333
30
0
0
SPLINE
5
241
100
AcDbEntity
8
0
100
AcDbSpline
70
0
71
3
72
9
73
5
74
0
42
0.000000001
43
0.0000000001
44
0.0000000001
40
0
40
0
40
0
40
0
40
13.61997717430309
40
29.213925763714553
40
29.213925763714553
40
29.213925763714553
40
29.213925763714553
10
-294.56660406064867
20
238.85104914229333
30
0
10
-294.61648160535532
20
238.89146195566315
30
0
10
-294.72346555031305
20
238.97814469489089
30
0
10
-294.78846545045946
20
239.09980707300269
30
0
10
-294.82316140708633
20
239.16474859729115
30
0
0
SPLINE
5
242
100
AcDbEntity
8
0
100
AcDbSpline
70
0
71
3
72
9
73
5
74
0
42
0.000000001
43
0.0000000001
44
0.0000000001
40
0
40
0
40
0
40
0
40
21.275337677272049
40
39.895102844504507
40
39.895102844504507
40
39.895102844504507
40
39.895102844504507
10
-294.82316140708633
20
239.16474859729115
30
0
10
-294.86291003013639
20
239.25860034085497
30
0
10
-294.937445881391
20
239.43458932013289
30
0
10
-294.90054953093761
20
239.62137335789799
30
0
10
-294.88332933768135
20
239.70854884241103
30
0
0
SPLINE
5
243
100
AcDbEntity
8
0
100
AcDbSpline
70
0
71
3
72
9
73
5
74
0
42
0.000000001
43
0.0000000001
44
0.0000000001
40
0
40
0
40
0
40
0
40
18.591865838833545
40
36.100157894863905
40
36.100157894863905
40
36.100157894863905
40
36.100157894863905
10
-294.88332933768135
20
239.70854884241103
30
0
10
-294.84337516090932
20
239.78777746148123
30
0
10
-294.76579542240825
20
239.94161708591781
30
0
10
-294.62146099768728
20
240.03214049093287
30
0
10
-294.54873927589512
20
240.0734631041696
30
0
0
LINE
5
244
100
AcDbEntity
8
0
100
AcDbLine
10
-294.54873927589512
20
240.07346310416963
30
0
11
-294.40908396582103
21
239.78712728542766
31
0
0
SPLINE
5
245
100
AcDbEntity
8
0
100
AcDbSpline
70
0
71
3
72
9
73
5
74
0
42
0.000000001
43
0.0000000001
44
0.0000000001
40
3.6235531830876848
40
3.6235531830876848
40
3.6235531830876848
40
3.6235531830876848
40
8.2863908062129603
40
16.243057475019416
40
16.243057475019416
40
16.243057475019416
40
16.243057475019416
10
-294.40908396582103
20
239.78712728542766
30
0
10
-294.4272464343785
20
239.77468254918304
30
0
10
-294.47259105719854
20
239.73781176571083
30
0
10
-294.49435370646984
20
239.68119581523942
30
0
10
-294.50807517619455
20
239.64549914795199
30
0
0
LWPOLYLINE
5
246
100
AcDbEntity
8
0
100
AcDbPolyline
90
13
70
1
43
0.0
10
-292.04197581084367
20
240.85383487917585
10
-292.42979789979887
20
240.77844990163405
10
-292.49057870542242
20
239.99616986531782
10
-292.77501890278512
20
240.7113457363528
10
-293.16424041225622
20
240.63568873901866
10
-292.61141870884853
20
239.36688463480741
10
-292.20957495045081
20
239.4449951487897
10
-292.14018065553108
20
240.32498441463932
10
-291.74528517008707
20
239.53524393982616
10
-291.34344141168941
20
239.61335445380868
10
-291.30889036939777
20
240.99633225390832
10
-291.6960906334466
20
240.92106814688415
10
-291.69225707589038
20
240.15237470342595
0
LWPOLYLINE
5
247
100
AcDbEntity
8
0
100
AcDbPolyline
90
12
70
1
43
0.0
10
-289.97722082518021
20
240.14611517246786
10
-289.3355342410436
20
240.04448200197564
10
-289.29243026670764
20
240.31662978522675
10
-289.93411685084459
20
240.41826295571872
10
-289.90052748214038
20
240.63033788325163
10
-289.2087805716385
20
240.52077593598557
10
-289.16365835319164
20
240.80566641104997
10
-290.26863278135568
20
240.98067716742744
10
-290.47997198184748
20
239.64633397021157
10
-289.35497333875912
20
239.46815168976033
10
-289.30711207831274
20
239.77033579539776
10
-290.01888320373905
20
239.88306926673755
0
SPLINE
5
248
100
AcDbEntity
8
0
100
AcDbSpline
70
0
71
3
72
9
73
5
74
0
42
0.000000001
43
0.0000000001
44
0.0000000001
40
0
40
0
40
0
40
0
40
7.3660069550210734
40
15.340860418737206
40
15.340860418737206
40
15.340860418737206
40
15.340860418737206
10
-285.23333751610733
20
237.22003990477009
30
0
10
-285.24086759415468
20
237.18542022805576
30
0
10
-285.25655015825862
20
237.11331934199097
30
0
10
-285.22330041751212
20
237.04720515804883
30
0
10
-285.20601574097395
20
237.01283609957238
30
0
0
SPLINE
5
249
100
AcDbEntity
8
0
100
AcDbSpline
70
0
71
3
72
9
73
5
74
0
42
0.000000001
43
0.0000000001
44
0.0000000001
40
0
40
0
40
0
40
0
40
7.6093447637742093
40
14.121480569011499
40
14.121480569011499
40
14.121480569011499
40
14.121480569011499
10
-285.20601574097395
20
237.01283609957238
30
0
10
-285.18563674521801
20
236.98245703257373
30
0
10
-285.14781724807062
20
236.92607932626069
30
0
10
-285.08435397774667
20
236.90293774892979
30
0
10
-285.05508782304196
20
236.8922659858959
30
0
0
SPLINE
5
250
100
AcDbEntity
8
0
100
AcDbSpline
70
0
71
3
72
9
73
5
74
0
42
0.000000001
43
0.0000000001
44
0.0000000001
40
0
40
0
40
0
40
0
40
6.9994336072483776
40
15.46611587185018
40
15.46611587185018
40
15.46611587185018
40
15.46611587185018
10
-285.05508782304196
20
236.8922659858959
30
0
10
-285.02225018372769
20
236.88940583896311
30
0
10
-284.94969135067214
20
236.88308598990787
30
0
10
-284.87998448585347
20
236.9047829254844
30
0
10
-284.84182455733793
20
236.9166605721515
30
0
0
LINE
5
251
100
AcDbEntity
8
0
100
AcDbLine
10
-284.84182455733793
20
236.9166605721515
30
0
11
-284.74818710468412
21
236.5461096770573
31
0
0
SPLINE
5
252
100
AcDbEntity
8
0
100
AcDbSpline
70
0
71
3
72
9
73
5
74
0
42
0.000000001
43
0.0000000001
44
0.0000000001
40
0
40
0
40
0
40
0
40
10.644334356935172
40
20.267474902570832
40
20.267474902570832
40
20.267474902570832
40
20.267474902570832
10
-284.74818710468412
20
236.5461096770573
30
0
10
-284.79638113113754
20
236.53269921802678
30
0
10
-284.88814555612072
20
236.5071648696379
30
0
10
-284.98322936238219
20
236.51126898356392
30
0
10
-285.02837582663909
20
236.51321764590668
30
0
0
SPLINE
5
253
100
AcDbEntity
8
0
100
AcDbSpline
70
0
71
3
72
9
73
5
74
0
42
0.000000001
43
0.0000000001
44
0.0000000001
40
0
40
0
40
0
40
0
40
9.0612349488712134
40
18.070320381491765
40
18.070320381491765
40
18.070320381491765
40
18.070320381491765
10
-285.02837582663909
20
236.51321764590668
30
0
10
-285.07043135584763
20
236.52056036934087
30
0
10
-285.15430037490563
20
236.53520355712641
30
0
10
-285.22697284455751
20
236.57954516747307
30
0
10
-285.26320421588207
20
236.60165198945495
30
0
0
SPLINE
5
254
100
AcDbEntity
8
0
100
AcDbSpline
70
0
71
3
72
9
73
5
74
0
42
0.000000001
43
0.0000000001
44
0.0000000001
40
0
40
0
40
0
40
0
40
9.9450235056073435
40
21.808515563092275
40
21.808515563092275
40
21.808515563092275
40
21.808515563092275
10
-285.26320421588207
20
236.60165198945495
30
0
10
-285.29902460824701
20
236.63158120752712
30
0
10
-285.37757541146357
20
236.69721321108597
30
0
10
-285.4324142311167
20
236.78381502253103
30
0
10
-285.46224569302967
20
236.83092505619069
30
0
0
SPLINE
5
255
100
AcDbEntity
8
0
100
AcDbSpline
70
0
71
3
72
9
73
5
74
0
42
0.000000001
43
0.0000000001
44
0.0000000001
40
0
40
0
40
0
40
0
40
14.340933005970554
40
26.259836241397267
40
26.259836241397267
40
26.259836241397267
40
26.259836241397267
10
-285.46224569302967
20
236.83092505619069
30
0
10
-285.49565079044032
20
236.88949705163043
30
0
10
-285.55681922259663
20
236.99674886069607
30
0
10
-285.58151627808206
20
237.1175299047305
30
0
10
-285.59272586110546
20
237.17235041325486
30
0
0
SPLINE
5
256
100
AcDbEntity
8
0
100
AcDbSpline
70
0
71
3
72
9
73
5
74
0
42
0.000000001
43
0.0000000001
44
0.0000000001
40
0
40
0
40
0
40
0
40
11.2305098125605
40
23.817623946887018
40
23.817623946887018
40
23.817623946887018
40
23.817623946887018
10
-285.59272586110546
20
237.17235041325486
30
0
10
-285.59336231077822
20
237.22539165764499
30
0
10
-285.59471209090577
20
237.33788133386162
30
0
10
-285.54834243170302
20
237.44059769692655
30
0
10
-285.52383704048287
20
237.49488113797202
30
0
0
SPLINE
5
257
100
AcDbEntity
8
0
100
AcDbSpline
70
0
71
3
72
9
73
5
74
0
42
0.000000001
43
0.0000000001
44
0.0000000001
40
0
40
0
40
0
40
0
40
14.205704506180833
40
30.656231306268488
40
30.656231306268488
40
30.656231306268488
40
30.656231306268488
10
-285.52383704048287
20
237.49488113797202
30
0
10
-285.48746849498735
20
237.55117705600395
30
0
10
-285.40898435205037
20
237.67266491913924
30
0
10
-285.28755439126888
20
237.75180165871731
30
0
10
-285.22239351731139
20
237.79426744788395
30
0
0
SPLINE
5
258
100
AcDbEntity
8
0
100
AcDbSpline
70
0
71
3
72
9
73
5
74
0
42
0.000000001
43
0.0000000001
44
0.0000000001
40
0
40
0
40
0
40
0
40
21.415710574584587
40
39.738916296828592
40
39.738916296828592
40
39.738916296828592
40
39.738916296828592
10
-285.22239351731139
20
237.79426744788395
30
0
10
-285.1320857543048
20
237.84290158196427
30
0
10
-284.96451099078854
20
237.93314690801344
30
0
10
-284.77587219980899
20
237.91511150047202
30
0
10
-284.6888927928091
20
237.90679555948878
30
0
0
SPLINE
5
259
100
AcDbEntity
8
0
100
AcDbSpline
70
0
71
3
72
9
73
5
74
0
42
0.000000001
43
0.0000000001
44
0.0000000001
40
0
40
0
40
0
40
0
40
18.156779176628056
40
39.070715914379662
40
39.070715914379662
40
39.070715914379662
40
39.070715914379662
10
-284.6888927928091
20
237.90679555948878
30
0
10
-284.60840721213339
20
237.87466965509714
30
0
10
-284.43521409086509
20
237.80553943812595
30
0
10
-284.33066724754548
20
237.65019957751801
30
0
10
-284.27470497462184
20
237.56704860519545
30
0
0
SPLINE
5
260
100
AcDbEntity
8
0
100
AcDbSpline
70
0
71
3
72
9
73
5
74
0
42
0.000000001
43
0.0000000001
44
0.0000000001
40
0
40
0
40
0
40
0
40
16.390928868218438
40
29.955522805583591
40
29.955522805583591
40
29.955522805583591
40
29.955522805583591
10
-284.27470497462184
20
237.56704860519545
30
0
10
-284.23677766964482
20
237.49922081802322
30
0
10
-284.16746297379478
20
237.37526098378618
30
0
10
-284.1598996590314
20
237.23389652800682
30
0
10
-284.15647480498194
20
237.16988324230107
30
0
0
SPLINE
5
261
100
AcDbEntity
8
0
100
AcDbSpline
70
0
71
3
72
9
73
5
74
0
42
0.000000001
43
0.0000000001
44
0.0000000001
40
0
40
0
40
0
40
0
40
13.042526452287841
40
27.806622381143789
40
27.806622381143789
40
27.806622381143789
40
27.806622381143789
10
-284.15647480498194
20
237.16988324230107
30
0
10
-284.16782752167677
20
237.10918341490125
30
0
10
-284.19203147535728
20
236.97977158773051
30
0
10
-284.27328707850364
20
236.87579417495527
30
0
10
-284.31643023710711
20
236.82058673279985
30
0
0
LINE
5
262
100
AcDbEntity
8
0
100
AcDbLine
10
-284.31643023710717
20
236.82058673279985
30
0
11
-284.57658364628259
21
237.09431004686923
31
0
0
SPLINE
5
263
100
AcDbEntity
8
0
100
AcDbSpline
70
0
71
3
72
9
73
5
74
0
42
0.000000001
43
0.0000000001
44
0.0000000001
40
0
40
0
40
0
40
0
40
4.0725837267745213
40
7.0942052067716412
40
7.0942052067716412
40
7.0942052067716412
40
7.0942052067716412
10
-284.57658364628259
20
237.09431004686923
30
0
10
-284.56400378169116
20
237.10866577863774
30
0
10
-284.54209038546134
20
237.1336726327367
30
0
10
-284.52663741156232
20
237.16306201537543
30
0
10
-284.5200555554552
20
237.17557977984316
30
0
0
SPLINE
5
264
100
AcDbEntity
8
0
100
AcDbSpline
70
0
71
3
72
9
73
5
74
0
42
0.000000001
43
0.0000000001
44
0.0000000001
40
0
40
0
40
0
40
0
40
4.1122066015226979
40
8.1340832774829828
40
8.1340832774829828
40
8.1340832774829828
40
8.1340832774829828
10
-284.5200555554552
20
237.17557977984316
30
0
10
-284.51349452543531
20
237.19378978019569
30
0
10
-284.50051658688767
20
237.22980977473921
30
0
10
-284.50084201209637
20
237.26808622991533
30
0
10
-284.50100291775857
20
237.28701192529621
30
0
0
SPLINE
5
265
100
AcDbEntity
8
0
100
AcDbSpline
70
0
71
3
72
9
73
5
74
0
42
0.000000001
43
0.0000000001
44
0.0000000001
40
0
40
0
40
0
40
0
40
4.0767447276190092
40
8.3646577680532399
40
8.3646577680532399
40
8.3646577680532399
40
8.3646577680532399
10
-284.50100291775857
20
237.28701192529621
30
0
10
-284.50364109453977
20
237.30601241882269
30
0
10
-284.50905410108811
20
237.34499759851724
30
0
10
-284.52770401333606
20
237.37968125190125
30
0
10
-284.53726438079519
20
237.3974608782479
30
0
0
SPLINE
5
266
100
AcDbEntity
8
0
100
AcDbSpline
70
0
71
3
72
9
73
5
74
0
42
0.000000001
43
0.0000000001
44
0.0000000001
40
0
40
0
40
0
40
0
40
9.1832648867059987
40
18.169603862546253
40
18.169603862546253
40
18.169603862546253
40
18.169603862546253
10
-284.53726438079519
20
237.3974608782479
30
0
10
-284.56402949798746
20
237.43317836434102
30
0
10
-284.61698578126095
20
237.5038474108384
30
0
10
-284.70405294726231
20
237.51806265499576
30
0
10
-284.74711470431953
20
237.52509324320161
30
0
0
SPLINE
5
267
100
AcDbEntity
8
0
100
AcDbSpline
70
0
71
3
72
9
73
5
74
0
42
0.000000001
43
0.0000000001
44
0.0000000001
40
0
40
0
40
0
40
0
40
8.3569191487137928
40
19.63107543389965
40
19.63107543389965
40
19.63107543389965
40
19.63107543389965
10
-284.74711470431953
20
237.52509324320161
30
0
10
-284.78628270530351
20
237.520893282049
30
0
10
-284.87829149086571
20
237.51102723539495
30
0
10
-284.95848647027412
20
237.46405006500163
30
0
10
-285.00454256812668
20
237.43707100505966
30
0
0
SPLINE
5
268
100
AcDbEntity
8
0
100
AcDbSpline
70
0
71
3
72
9
73
5
74
0
42
0.000000001
43
0.0000000001
44
0.0000000001
40
0
40
0
40
0
40
0
40
13.577206116119251
40
22.806366218890844
40
22.806366218890844
40
22.806366218890844
40
22.806366218890844
10
-285.00454256812668
20
237.43707100505966
30
0
10
-285.05992429665389
20
237.40390058141904
30
0
10
-285.15295197641552
20
237.34818242978187
30
0
10
-285.21017913224563
20
237.25695666610036
30
0
10
-285.23333751610733
20
237.22003990477009
30
0
0
LWPOLYLINE
5
269
100
AcDbEntity
8
0
100
AcDbPolyline
90
10
70
1
43
0.0
10
-288.06279786050061
20
239.81936513713009
10
-287.90232237280247
20
238.93593626497622
10
-287.54284461799142
20
238.77588645680402
10
-286.99335319398654
20
240.01006440206388
10
-287.35283094879776
20
240.17011421023622
10
-287.65683634403399
20
239.48730691307014
10
-287.81754153014322
20
240.37701669141754
10
-288.173651678417
20
240.53556714455851
10
-288.723143102422
20
239.3013891992986
10
-288.36450744435547
20
239.14171431675297
0
LWPOLYLINE
5
270
100
AcDbEntity
8
0
100
AcDbPolyline
90
50
70
1
43
0.0
10
-290.369049911584
20
226.6973055877769
10
-290.3661530407208
20
226.53134396717419
10
-290.24142973420464
20
226.51516618523766
42
-0.0018337344215724638
10
-290.20544911708731
20
226.53156348036157
42
-0.013542000000219852
10
-289.9986057680847
20
226.61824975681682
42
-0.0076670000000240712
10
-289.74377327723226
20
226.71255469935215
42
0.024662999999724516
10
-289.65946768846868
20
226.74705340875286
42
0.0098360000004583566
10
-289.54740648722486
20
226.80221268958431
42
0.0097060000002844437
10
-289.42865141895948
20
226.86654869955626
42
0.012055000000964898
10
-289.32089970658274
20
226.9311397441798
10
-289.07292960331228
20
227.08803111679435
10
-289.09496835765401
20
228.66484742790564
42
-0.072994701398704065
10
-290.42661779846679
20
228.36683320288139
42
-0.083089951946392196
10
-291.60537142161468
20
228.42190462473656
42
-0.011925738834710247
10
-291.99019575913945
20
228.51076188906669
42
-0.01554500000003908
10
-292.44385787523782
20
228.64213047350319
42
-0.016340999999964665
10
-292.83338773349425
20
228.78239418630019
42
-0.045267999999886371
10
-293.09298004708563
20
228.91386121079995
42
0.00074524053798065448
10
-293.13940457011034
20
228.94282280329455
10
-293.45576789937775
20
229.11818586025524
10
-293.45574732437484
20
229.1182229785432
42
-0.031856918328345862
10
-293.4997477614935
20
229.14717142537435
42
-0.0084890000002669792
10
-293.64429472005742
20
229.25995564278276
42
-0.0076769999999718123
10
-293.83667477576978
20
229.42033117911095
42
-0.0031850000001540806
10
-294.09189885201545
20
229.64266789422265
42
-0.045208999999871512
10
-294.3054884916337
20
229.86855264426654
42
-0.015080999999961009
10
-294.5763187994292
20
230.23466117989079
42
-0.015460999999972381
10
-294.83594169143913
20
230.63455660995774
42
-0.027057000000127996
10
-295.02198137362524
20
230.98266425907826
42
0.00054300000014432083
10
-295.0781308071185
20
231.10261831536417
42
0.00065600000044039924
10
-295.13111379058205
20
231.21510493762025
42
0.00055599999881267715
10
-295.1759530370129
20
231.30970673967872
42
0.0044789999992351729
10
-295.19699115357213
20
231.35296231545348
42
-0.043406000000097082
10
-295.32807317392155
20
231.68608847359704
42
-0.021915999999967101
10
-295.43731076344437
20
232.12430472946897
42
-0.01990499999999331
10
-295.51947475320924
20
232.63128239119837
42
-0.016345000000053993
10
-295.56778202217134
20
233.17769703844826
42
-0.0039439999999994497
10
-295.58667916590099
20
233.57436672798593
42
-0.004408376394636114
10
-295.58777607858053
20
233.60985615557271
42
-0.028010352789623237
10
-295.51730142625649
20
234.18046933066395
42
-0.0018737183712524371
10
-295.50308424923435
20
234.24554880927371
42
-0.014392999999987482
10
-295.3799550556962
20
234.73261449669099
42
-0.013178037572042521
10
-295.30252443895233
20
234.98051112339141
10
-295.30767487340029
20
234.98269735310711
42
-0.023042689970312658
10
-295.18464852638857
20
235.28819114328618
42
-0.001148287303033492
10
-295.17531352763172
20
235.30985395143935
42
-0.013079885786275128
10
-295.096870135892
20
235.47583018598124
42
-0.033923692345636171
10
-295.01504979884413
20
235.61373582990106
42
-0.057458237435299306
10
-294.52176118953457
20
236.26745131702862
10
-295.58418097641481
20
237.12778189699515
42
0.6683782571974044
0
LWPOLYLINE
5
271
100
AcDbEntity
8
0
100
AcDbPolyline
90
62
70
1
43
0.0
10
-286.43464229523966
20
226.58393449032337
42
-0.0512813896696903
10
-286.23636657318428
20
226.6267372996472
10
-286.21478616600882
20
226.62391472262962
42
-0.028934894544542112
10
-286.20609986004138
20
226.61774728390751
42
-0.074793000000059645
10
-286.17880483400091
20
226.58822496001079
42
-0.18385600000129307
10
-286.17208538218927
20
226.55994271845256
42
-0.22795700000230545
10
-286.18608135683883
20
226.53851707869768
42
-0.10994999999988694
10
-286.21789475437339
20
226.52780202454298
42
0.052355000000133774
10
-286.42039215572817
20
226.48454150118891
42
0.018710999999940935
10
-286.69800317120269
20
226.38241720090568
42
0.018633000000102092
10
-286.99031798848631
20
226.2493512263386
42
0.02397600000007407
10
-287.24759958793084
20
226.10463169060995
42
-0.0017429999991702325
10
-287.27950888655448
20
226.08476621726339
42
-0.00023400000177769658
10
-287.34686589216324
20
226.04320093467314
42
-0.00026999999965362858
10
-287.4267555354038
20
225.99401288013354
42
-0.00022699999992296303
10
-287.51144124611869
20
225.94198786366675
42
0.015150000000143887
10
-287.6032102730918
20
225.88176735410516
42
0.0101339999997965
10
-287.70461567320649
20
225.80762912178744
42
0.010209999999970481
10
-287.80005313367718
20
225.73170941493896
42
0.019721999999810318
10
-287.8726413770936
20
225.66650758911422
42
-0.022221999999763497
10
-287.99035880889755
20
225.56182715312033
42
-0.12962700000023675
10
-288.06527546543856
20
225.52795809472792
42
-0.1936229999990956
10
-288.13108812181406
20
225.54238091842191
42
-0.061204000000756334
10
-288.20814100861628
20
225.61003056883769
42
0.047384000000426856
10
-288.31669160398059
20
225.71076389963065
42
0.028418999999881095
10
-288.46231509039404
20
225.80965268917663
42
0.023469000000190466
10
-288.64837443661946
20
225.90956219403412
42
0.013366000000179538
10
-288.88164988311496
20
226.01349362340633
42
0.010785999999873211
10
-289.22466227313311
20
226.14686312074309
42
0.025156000000009143
10
-289.48792619853731
20
226.22799928533962
42
0.030140000000143326
10
-289.7269532389243
20
226.27357056158337
42
0.023970000000009366
10
-289.98883682396985
20
226.29461880453513
42
-0.0067299999998390123
10
-290.12038653801244
20
226.30063872853052
42
-0.0098780000004940437
10
-290.2358182404804
20
226.3097705770881
42
-0.0056909999987462892
10
-290.33197275594546
20
226.32039861530518
42
-0.1539569999990337
10
-290.35500618804343
20
226.33087816558057
42
-0.53091800000078637
10
-290.3514287193841
20
226.35666551175552
42
-0.0055738227730346762
10
-290.24298207314325
20
226.40847054907357
42
0.0092706016239761831
10
-290.13463667752393
20
226.40003171766506
42
0.0067300000000803011
10
-290.00308696348105
20
226.3940117936697
42
-0.023969999999722092
10
-289.74120337843578
20
226.37296355071763
42
-0.030140000000098477
10
-289.50217633804903
20
226.32739227447382
42
-0.025156000000031532
10
-289.23891241264448
20
226.24625610987735
42
-0.01078600000011903
10
-288.89590002262639
20
226.11288661254068
42
-0.013365999999977455
10
-288.66262457613101
20
226.00895518316878
42
-0.023468999999698835
10
-288.47656522990559
20
225.9090456783108
42
-0.028419000000468767
10
-288.33094174349219
20
225.81015688876502
42
-0.047384000000157307
10
-288.22239114812783
20
225.709423557972
42
0.061203999999511594
10
-288.14533826132555
20
225.64177390755663
42
0.19362300000120827
10
-288.07952560495005
20
225.62735108386215
42
0.12962699999984656
10
-288.00460894840904
20
225.66122014225462
42
0.022221999999963743
10
-287.88689151660503
20
225.76590057824873
42
-0.019722000000213413
10
-287.81430327318884
20
225.83110240407328
42
-0.010209999999460595
10
-287.71886581271781
20
225.90702211092184
42
-0.010133999999727947
10
-287.61746041260318
20
225.98116034323968
42
-0.015150000000534961
10
-287.52569138563246
20
226.04138085280005
42
0.00022699999970898465
10
-287.44100567492103
20
226.09340586926436
42
0.00027000000052741178
10
-287.36111603167103
20
226.14259392380956
42
0.000234000000472917
10
-287.29375902607626
20
226.1841592063918
42
0.0017430000004003759
10
-287.2618497274425
20
226.20402467974426
42
-0.023975999999789225
10
-287.0045681279978
20
226.34874421547283
42
-0.018632999999932391
10
-286.7122533107144
20
226.48181019004031
42
-0.018710999999933874
0
SPLINE
5
272
100
AcDbEntity
8
0
100
AcDbSpline
70
0
71
3
72
9
73
5
74
0
42
0.000000001
43
0.0000000001
44
0.0000000001
40
0
40
0
40
0
40
0
40
13.577198517487517
40
22.806358620259104
40
22.806358620259104
40
22.806358620259104
40
22.806358620259104
10
-296.30429228297004
20
228.06103214922049
30
0
10
-296.25072249262041
20
228.09705555362066
30
0
10
-296.16073840287254
20
228.15756602479146
30
0
10
-296.10836408090182
20
228.25166177397472
30
0
10
-296.08716950921297
20
228.28973995860122
30
0
0
SPLINE
5
273
100
AcDbEntity
8
0
100
AcDbSpline
70
0
71
3
72
9
73
5
74
0
42
0.000000001
43
0.0000000001
44
0.0000000001
40
0
40
0
40
0
40
0
40
7.3659977089512143
40
15.340854019369367
40
15.340854019369367
40
15.340854019369367
40
15.340854019369367
10
-296.08716950921297
20
228.28973995860122
30
0
10
-296.08146169941693
20
228.32470623756362
30
0
10
-296.06957428371175
20
228.39752903799859
30
0
10
-296.10623841074255
20
228.46181249495723
30
0
10
-296.12529805008512
20
228.4952298869575
30
0
0
SPLINE
5
274
100
AcDbEntity
8
0
100
AcDbSpline
70
0
71
3
72
9
73
5
74
0
42
0.000000001
43
0.0000000001
44
0.0000000001
40
0
40
0
40
0
40
0
40
7.6093447637742093
40
14.121484792128305
40
14.121484792128305
40
14.121484792128305
40
14.121484792128305
10
-296.12529805008512
20
228.4952298869575
30
0
10
-296.14723903179288
20
228.52450077390017
30
0
10
-296.18795728666612
20
228.57882192738273
30
0
10
-296.2525447700931
20
228.5986103099662
30
0
10
-296.28232936727562
20
228.60773574685999
30
0
0
SPLINE
5
275
100
AcDbEntity
8
0
100
AcDbSpline
70
0
71
3
72
9
73
5
74
0
42
0.000000001
43
0.0000000001
44
0.0000000001
40
0
40
0
40
0
40
0
40
6.9994400301697626
40
15.466093223926039
40
15.466093223926039
40
15.466093223926039
40
15.466093223926039
10
-296.28232936727562
20
228.60773574685999
30
0
10
-296.31527172037909
20
228.60887335904621
30
0
10
-296.38806175814187
20
228.6113870481484
30
0
10
-296.45653749206991
20
228.58607182747414
30
0
10
-296.49402338349449
20
228.57221343473915
30
0
0
LINE
5
276
100
AcDbEntity
8
0
100
AcDbLine
10
-296.49402338349449
20
228.57221343473918
30
0
11
-296.60692591029783
21
228.93735571794093
31
0
0
SPLINE
5
277
100
AcDbEntity
8
0
100
AcDbSpline
70
0
71
3
72
9
73
5
74
0
42
0.000000001
43
0.0000000001
44
0.0000000001
40
0
40
0
40
0
40
0
40
10.644327124975595
40
20.26748079846104
40
20.26748079846104
40
20.26748079846104
40
20.26748079846104
10
-296.60692591029783
20
228.93735571794093
30
0
10
-296.55949980864284
20
228.95327004110266
30
0
10
-296.46919747263377
20
228.98357193198959
30
0
10
-296.37402916108465
20
228.98444983913754
30
0
10
-296.32884252462043
20
228.98486667611269
30
0
0
SPLINE
5
278
100
AcDbEntity
8
0
100
AcDbSpline
70
0
71
3
72
9
73
5
74
0
42
0.000000001
43
0.0000000001
44
0.0000000001
40
0
40
0
40
0
40
0
40
9.0612349488712134
40
18.070320381491765
40
18.070320381491765
40
18.070320381491765
40
18.070320381491765
10
-296.32884252462043
20
228.98486667611269
30
0
10
-296.28646034260055
20
228.97973503196224
30
0
10
-296.20193989788316
20
228.96950127746811
30
0
10
-296.12704636274657
20
228.92902381894928
30
0
10
-296.08970766358942
20
228.9088434970628
30
0
0
SPLINE
5
279
100
AcDbEntity
8
0
100
AcDbSpline
70
0
71
3
72
9
73
5
74
0
42
0.000000001
43
0.0000000001
44
0.0000000001
40
0
40
0
40
0
40
0
40
9.9450278241071377
40
21.808519881592069
40
21.808519881592069
40
21.808519881592069
40
21.808519881592069
10
-296.08970766358942
20
228.9088434970628
30
0
10
-296.05236991759426
20
228.88083004327515
30
0
10
-295.97049171772721
20
228.81939914788822
30
0
10
-295.91119567754134
20
228.7357860161224
30
0
10
-295.87893956361847
20
228.69030178656485
30
0
0
SPLINE
5
280
100
AcDbEntity
8
0
100
AcDbSpline
70
0
71
3
72
9
73
5
74
0
42
0.000000001
43
0.0000000001
44
0.0000000001
40
0
40
0
40
0
40
0
40
14.340933005970554
40
26.259840631956997
40
26.259840631956997
40
26.259840631956997
40
26.259840631956997
10
-295.87893956361847
20
228.69030178656485
30
0
10
-295.84251480454651
20
228.63355835612205
30
0
10
-295.77581702638247
20
228.52965483466258
30
0
10
-295.74483279781504
20
228.41033178570839
30
0
10
-295.73076956859251
20
228.35617302602378
30
0
0
SPLINE
5
281
100
AcDbEntity
8
0
100
AcDbSpline
70
0
71
3
72
9
73
5
74
0
42
0.000000001
43
0.0000000001
44
0.0000000001
40
0
40
0
40
0
40
0
40
11.230501241844928
40
23.817639084852715
40
23.817639084852715
40
23.817639084852715
40
23.817639084852715
10
-295.73076956859251
20
228.35617302602378
30
0
10
-295.7273579436806
20
228.30323781744352
30
0
10
-295.72012257198145
20
228.19097286455309
30
0
10
-295.76105319882447
20
228.085970467816
30
0
10
-295.78268420264635
20
228.03047883672434
30
0
0
SPLINE
5
282
100
AcDbEntity
8
0
100
AcDbSpline
70
0
71
3
72
9
73
5
74
0
42
0.000000001
43
0.0000000001
44
0.0000000001
40
0
40
0
40
0
40
0
40
14.205718605496743
40
30.656230239496203
40
30.656230239496203
40
30.656230239496203
40
30.656230239496203
10
-295.78268420264635
20
228.03047883672434
30
0
10
-295.81605666438378
20
227.97235664676467
30
0
10
-295.88807511688839
20
227.84692777639862
30
0
10
-296.00519692883375
20
227.7615443116504
30
0
10
-296.0680459391308
20
227.71572649030645
30
0
0
SPLINE
5
283
100
AcDbEntity
8
0
100
AcDbSpline
70
0
71
3
72
9
73
5
74
0
42
0.000000001
43
0.0000000001
44
0.0000000001
40
0
40
0
40
0
40
0
40
21.415695485485209
40
39.738901207729221
40
39.738901207729221
40
39.738901207729221
40
39.738901207729221
10
-296.0680459391308
20
227.71572649030645
30
0
10
-296.15568456943998
20
227.66243271753623
30
0
10
-296.31830655265776
20
227.56354095039563
30
0
10
-296.50763064875497
20
227.57167904859378
30
0
10
-296.59492607604494
20
227.57543144342415
30
0
0
SPLINE
5
284
100
AcDbEntity
8
0
100
AcDbSpline
70
0
71
3
72
9
73
5
74
0
42
0.000000001
43
0.0000000001
44
0.0000000001
40
0
40
0
40
0
40
0
40
18.156777149715932
40
39.070714474032776
40
39.070714474032776
40
39.070714474032776
40
39.070714474032776
10
-296.59492607604494
20
227.57543144342415
30
0
10
-296.67698267432081
20
227.60330104732333
30
0
10
-296.85355640739658
20
227.66327233669162
30
0
10
-296.96608986221219
20
227.81292770966439
30
0
10
-297.02632724595566
20
227.89303587079533
30
0
0
SPLINE
5
285
100
AcDbEntity
8
0
100
AcDbSpline
70
0
71
3
72
9
73
5
74
0
42
0.000000001
43
0.0000000001
44
0.0000000001
40
0
40
0
40
0
40
0
40
16.390928868218438
40
29.955522805583591
40
29.955522805583591
40
29.955522805583591
40
29.955522805583591
10
-297.02632724595566
20
227.89303587079533
30
0
10
-297.06775240498104
20
227.95878574056911
30
0
10
-297.14345966390971
20
228.07894804127244
30
0
10
-297.15841105738491
20
228.21972292866766
30
0
10
-297.16518141431067
20
228.28346924337856
30
0
0
SPLINE
5
286
100
AcDbEntity
8
0
100
AcDbSpline
70
0
71
3
72
9
73
5
74
0
42
0.000000001
43
0.0000000001
44
0.0000000001
40
0
40
0
40
0
40
0
40
13.042531921187154
40
27.806614104925441
40
27.806614104925441
40
27.806614104925441
40
27.806614104925441
10
-297.16518141431067
20
228.28346924337856
30
0
10
-297.15702100374892
20
228.34468005641384
30
0
10
-297.1396230484437
20
228.4751812096724
30
0
10
-297.06392066706002
20
228.58326872505367
30
0
10
-297.02372605091438
20
228.64065841493476
30
0
0
LINE
5
287
100
AcDbEntity
8
0
100
AcDbLine
10
-297.02372605091438
20
228.64065841493476
30
0
11
-296.7496036900875
21
228.38092554687856
31
0
0
SPLINE
5
288
100
AcDbEntity
8
0
100
AcDbSpline
70
0
71
3
72
9
73
5
74
0
42
0.000000001
43
0.0000000001
44
0.0000000001
40
0
40
0
40
0
40
0
40
4.0725837267745213
40
7.09419190757305
40
7.09419190757305
40
7.09419190757305
40
7.09419190757305
10
-296.7496036900875
20
228.38092554687856
30
0
10
-296.76141500690687
20
228.36593111678522
30
0
10
-296.78198959881695
20
228.33981173612568
30
0
10
-296.79588316101729
20
228.30965389786189
30
0
10
-296.80180080488014
20
228.29680885899077
30
0
0
SPLINE
5
289
100
AcDbEntity
8
0
100
AcDbSpline
70
0
71
3
72
9
73
5
74
0
42
0.000000001
43
0.0000000001
44
0.0000000001
40
0
40
0
40
0
40
0
40
4.1122066015226979
40
8.1340832774829828
40
8.1340832774829828
40
8.1340832774829828
40
8.1340832774829828
10
-296.80180080488014
20
228.29680885899077
30
0
10
-296.80739980545519
20
228.27828043703084
30
0
10
-296.81847481733098
20
228.24163059381374
30
0
10
-296.81614660322293
20
228.20342362662882
30
0
10
-296.8149954237108
20
228.1845322894074
30
0
0
SPLINE
5
290
100
AcDbEntity
8
0
100
AcDbSpline
70
0
71
3
72
9
73
5
74
0
42
0.000000001
43
0.0000000001
44
0.0000000001
40
0
40
0
40
0
40
0
40
4.076742140113514
40
8.3646551805477447
40
8.3646551805477447
40
8.3646551805477447
40
8.3646551805477447
10
-296.8149954237108
20
228.1845322894074
30
0
10
-296.81136641505162
20
228.16569592918393
30
0
10
-296.80392041895033
20
228.12704750534144
30
0
10
-296.7834808863031
20
228.09338745205395
30
0
10
-296.77300311564949
20
228.07613254096464
30
0
0
SPLINE
5
291
100
AcDbEntity
8
0
100
AcDbSpline
70
0
71
3
72
9
73
5
74
0
42
0.000000001
43
0.0000000001
44
0.0000000001
40
0
40
0
40
0
40
0
40
9.1832648867059987
40
18.169603862546253
40
18.169603862546253
40
18.169603862546253
40
18.169603862546253
10
-296.77300311564949
20
228.07613254096464
30
0
10
-296.74440537033087
20
228.04186478244702
30
0
10
-296.68782312967778
20
227.97406410314602
30
0
10
-296.60013131780528
20
227.96442508387676
30
0
10
-296.55676062283294
20
227.95965780908088
30
0
0
SPLINE
5
292
100
AcDbEntity
8
0
100
AcDbSpline
70
0
71
3
72
9
73
5
74
0
42
0.000000001
43
0.0000000001
44
0.0000000001
40
0
40
0
40
0
40
0
40
8.3569262477076371
40
19.6310749348184
40
19.6310749348184
40
19.6310749348184
40
19.6310749348184
10
-296.55676062283294
20
227.95965780908088
30
0
10
-296.51786607912078
20
227.96590192838238
30
0
10
-296.4264997466276
20
227.98056985415792
30
0
10
-296.34887326166807
20
228.03167970416644
30
0
10
-296.30429228297004
20
228.06103214922049
30
0
0
SPLINE
5
293
100
AcDbEntity
8
0
100
AcDbSpline
70
0
71
3
72
9
73
5
74
0
42
0.000000001
43
0.0000000001
44
0.0000000001
40
0
40
0
40
0
40
0
40
3.1425676849457358
40
6.1374334558373915
40
6.1374334558373915
40
6.1374334558373915
40
6.1374334558373915
10
-298.48627046838112
20
233.63892767496563
30
0
10
-298.47679070619711
20
233.62712270153651
30
0
10
-298.45827673437037
20
233.60406759306099
30
0
10
-298.42948098705472
20
233.59758225539119
30
0
10
-298.41542960896572
20
233.59441762380058
30
0
0
SPLINE
5
294
100
AcDbEntity
8
0
100
AcDbSpline
70
0
71
3
72
9
73
5
74
0
42
0.000000001
43
0.0000000001
44
0.0000000001
40
0
40
0
40
0
40
0
40
2.255522706972334
40
4.8034371697128506
40
4.8034371697128506
40
4.8034371697128506
40
4.8034371697128506
10
-298.41542960896572
20
233.59441762380058
30
0
10
-298.40461401201958
20
233.59483836076646
30
0
10
-298.38158075226818
20
233.59573437638849
30
0
10
-298.3638937568042
20
233.61067036358136
30
0
10
-298.35451194333314
20
233.61859294410837
30
0
0
SPLINE
5
295
100
AcDbEntity
8
0
100
AcDbSpline
70
0
71
3
72
9
73
5
74
0
42
0.000000001
43
0.0000000001
44
0.0000000001
40
0
40
0
40
0
40
0
40
4.0048221443372025
40
10.680278014630977
40
10.680278014630977
40
10.680278014630977
40
10.680278014630977
10
-298.35451194333314
20
233.61859294410837
30
0
10
-298.34354268647894
20
233.63384145782754
30
0
10
-298.31428927431875
20
233.67450702547561
30
0
10
-298.29957596052208
20
233.72262373895165
30
0
10
-298.29037975075852
20
233.75269795583938
30
0
0
SPLINE
5
296
100
AcDbEntity
8
0
100
AcDbSpline
70
0
71
3
72
9
73
5
74
0
42
0.000000001
43
0.0000000001
44
0.0000000001
40
0
40
0
40
0
40
0
40
17.307713242331445
40
29.331955471453327
40
29.331955471453327
40
29.331955471453327
40
29.331955471453327
10
-298.29037975075852
20
233.75269795583938
30
0
10
-298.26508845278335
20
233.82960889696716
30
0
10
-298.22222645156864
20
233.95995241888946
30
0
10
-298.15731608806595
20
234.08069390039117
30
0
10
-298.13070695405548
20
234.13019025333972
30
0
0
SPLINE
5
297
100
AcDbEntity
8
0
100
AcDbSpline
70
0
71
3
72
9
73
5
74
0
42
0.000000001
43
0.0000000001
44
0.0000000001
40
0
40
0
40
0
40
0
40
8.7605229037124399
40
16.47221281267251
40
16.47221281267251
40
16.47221281267251
40
16.47221281267251
10
-298.13070695405548
20
234.13019025333972
30
0
10
-298.10678067019205
20
234.16398598960646
30
0
10
-298.06179262051251
20
234.22753134712286
30
0
10
-297.99502312758949
20
234.26730201082287
30
0
10
-297.96376408360726
20
234.28592118660788
30
0
0
SPLINE
5
298
100
AcDbEntity
8
0
100
AcDbSpline
70
0
71
3
72
9
73
5
74
0
42
0.000000001
43
0.0000000001
44
0.0000000001
40
0
40
0
40
0
40
0
40
7.3558835357326755
40
14.939371980204561
40
14.939371980204561
40
14.939371980204561
40
14.939371980204561
10
-297.96376408360726
20
234.28592118660788
30
0
10
-297.93133787475273
20
234.29832230771459
30
0
10
-297.86548212899021
20
234.32350826400113
30
0
10
-297.79501892893694
20
234.32027427412692
30
0
10
-297.75925056704926
20
234.3186326438848
30
0
0
SPLINE
5
299
100
AcDbEntity
8
0
100
AcDbSpline
70
0
71
3
72
9
73
5
74
0
42
0.000000001
43
0.0000000001
44
0.0000000001
40
0
40
0
40
0
40
0
40
9.013097992264818
40
18.06984654223918
40
18.06984654223918
40
18.06984654223918
40
18.06984654223918
10
-297.75925056704926
20
234.3186326438848
30
0
10
-297.71728801978287
20
234.31118160653475
30
0
10
-297.63315970005584
20
234.29624344635815
30
0
10
-297.56342701947671
20
234.24685520303453
30
0
10
-297.52847645405552
20
234.22210142883611
30
0
0
SPLINE
5
300
100
AcDbEntity
8
0
100
AcDbSpline
70
0
71
3
72
9
73
5
74
0
42
0.000000001
43
0.0000000001
44
0.0000000001
40
0
40
0
40
0
40
0
40
9.2382721812685595
40
18.837523443427809
40
18.837523443427809
40
18.837523443427809
40
18.837523443427809
10
-297.52847645405552
20
234.22210142883611
30
0
10
-297.49694146581402
20
234.19190078275594
30
0
10
-297.43263928152714
20
234.13031942128708
30
0
10
-297.40045150336766
20
234.04725005849511
30
0
10
-297.38404921083423
20
234.00491945765864
30
0
0
SPLINE
5
301
100
AcDbEntity
8
0
100
AcDbSpline
70
0
71
3
72
9
73
5
74
0
42
0.000000001
43
0.0000000001
44
0.0000000001
40
0
40
0
40
0
40
0
40
10.852559991524764
40
23.714629598619371
40
23.714629598619371
40
23.714629598619371
40
23.714629598619371
10
-297.38404921083423
20
234.00491945765864
30
0
10
-297.37267730759544
20
233.9552746299274
30
0
10
-297.34782782753308
20
233.84679251123345
30
0
10
-297.35681441108204
20
233.73571760020064
30
0
10
-297.36168845149888
20
233.67547406017951
30
0
0
SPLINE
5
302
100
AcDbEntity
8
0
100
AcDbSpline
70
0
71
3
72
9
73
5
74
0
42
0.000000001
43
0.0000000001
44
0.0000000001
40
0
40
0
40
0
40
0
40
20.972408884402871
40
36.024408603431972
40
36.024408603431972
40
36.024408603431972
40
36.024408603431972
10
-297.36168845149888
20
233.67547406017951
30
0
10
-297.37300273873063
20
233.57569173922212
30
0
10
-297.392437344862
20
233.40429516187234
30
0
10
-297.49902516895645
20
233.27050446070331
30
0
10
-297.5435605259691
20
233.2146029851628
30
0
0
SPLINE
5
303
100
AcDbEntity
8
0
100
AcDbSpline
70
0
71
3
72
9
73
5
74
0
42
0.000000001
43
0.0000000001
44
0.0000000001
40
0
40
0
40
0
40
0
40
13.076096032138498
40
26.812857167339157
40
26.812857167339157
40
26.812857167339157
40
26.812857167339157
10
-297.5435605259691
20
233.2146029851628
30
0
10
-297.59545809725415
20
233.18034319161194
30
0
10
-297.70187534616247
20
233.11009264062096
30
0
10
-297.82937619920642
20
233.10373037006786
30
0
10
-297.89469742744649
20
233.10047085205699
30
0
0
LINE
5
304
100
AcDbEntity
8
0
100
AcDbLine
10
-297.89469742744649
20
233.10047085205699
30
0
11
-297.87792575960094
21
233.49807914408663
31
0
0
SPLINE
5
305
100
AcDbEntity
8
0
100
AcDbSpline
70
0
71
3
72
9
73
5
74
0
42
0.000000001
43
0.0000000001
44
0.0000000001
40
0
40
0
40
0
40
0
40
6.2487426086471398
40
11.277713060357707
40
11.277713060357707
40
11.277713060357707
40
11.277713060357707
10
-297.87792575960094
20
233.49807914408663
30
0
10
-297.84846089673357
20
233.49956282853231
30
0
10
-297.79528279521912
20
233.5022405780409
30
0
10
-297.74722607620544
20
233.52483238219202
30
0
10
-297.7257965701844
20
233.53490654482746
30
0
0
SPLINE
5
306
100
AcDbEntity
8
0
100
AcDbSpline
70
0
71
3
72
9
73
5
74
0
42
0.000000001
43
0.0000000001
44
0.0000000001
40
0
40
0
40
0
40
0
40
7.1156569679594632
40
14.827572660729727
40
14.827572660729727
40
14.827572660729727
40
14.827572660729727
10
-297.7257965701844
20
233.53490654482746
30
0
10
-297.69944994923247
20
233.55682704403475
30
0
10
-297.64454898389795
20
233.60250487760885
30
0
10
-297.6316646864114
20
233.67297813776872
30
0
10
-297.62496348060739
20
233.70963173262086
30
0
0
SPLINE
5
307
100
AcDbEntity
8
0
100
AcDbSpline
70
0
71
3
72
9
73
5
74
0
42
0.000000001
43
0.0000000001
44
0.0000000001
40
0
40
0
40
0
40
0
40
5.7032852794753444
40
10.456798863522527
40
10.456798863522527
40
10.456798863522527
40
10.456798863522527
10
-297.62496348060739
20
233.70963173262086
30
0
10
-297.62313425478169
20
233.7367670008891
30
0
10
-297.61978042526096
20
233.78651868408309
30
0
10
-297.64211158095435
20
233.83086888854754
30
0
10
-297.65226301002184
20
233.85102986726858
30
0
0
SPLINE
5
308
100
AcDbEntity
8
0
100
AcDbSpline
70
0
71
3
72
9
73
5
74
0
42
0.000000001
43
0.0000000001
44
0.0000000001
40
0
40
0
40
0
40
0
40
4.1450525636207205
40
7.9560022433314286
40
7.9560022433314286
40
7.9560022433314286
40
7.9560022433314286
10
-297.65226301002184
20
233.85102986726858
30
0
10
-297.66482594155167
20
233.86653159155466
30
0
10
-297.68893919702862
20
233.89628555759103
30
0
10
-297.72609691622398
20
233.90509046821438
30
0
10
-297.74389557863412
20
233.90930804763352
30
0
0
SPLINE
5
309
100
AcDbEntity
8
0
100
AcDbSpline
70
0
71
3
72
9
73
5
74
0
42
0.000000001
43
0.0000000001
44
0.0000000001
40
0
40
0
40
0
40
0
40
3.6493038195801031
40
7.6596829081159923
40
7.6596829081159923
40
7.6596829081159923
40
7.6596829081159923
10
-297.74389557863412
20
233.90930804763352
30
0
10
-297.76137945583758
20
233.90887592383837
30
0
10
-297.79807712805234
20
233.90796892036246
30
0
10
-297.82703330862876
20
233.8852198652263
30
0
10
-297.84219389196664
20
233.87330914567079
30
0
0
SPLINE
5
310
100
AcDbEntity
8
0
100
AcDbSpline
70
0
71
3
72
9
73
5
74
0
42
0.000000001
43
0.0000000001
44
0.0000000001
40
0
40
0
40
0
40
0
40
6.1773100600248716
40
16.356336509933488
40
16.356336509933488
40
16.356336509933488
40
16.356336509933488
10
-297.84219389196664
20
233.87330914567079
30
0
10
-297.85925910085416
20
233.84989943743986
30
0
10
-297.90444451270253
20
233.78791500381061
30
0
10
-297.92786695966225
20
233.71453657739005
30
0
10
-297.94244343324965
20
233.66887103713103
30
0
0
SPLINE
5
311
100
AcDbEntity
8
0
100
AcDbSpline
70
0
71
3
72
9
73
5
74
0
42
0.000000001
43
0.0000000001
44
0.0000000001
40
0
40
0
40
0
40
0
40
17.572561862531376
40
30.543838485361928
40
30.543838485361928
40
30.543838485361928
40
30.543838485361928
10
-297.94244343324965
20
233.66887103713103
30
0
10
-297.96965088418796
20
233.59064448890138
30
0
10
-298.01694165451266
20
233.45467461307541
30
0
10
-298.10789282614468
20
233.34365603516216
30
0
10
-298.14651772939567
20
233.29650895883526
30
0
0
SPLINE
5
312
100
AcDbEntity
8
0
100
AcDbSpline
70
0
71
3
72
9
73
5
74
0
42
0.000000001
43
0.0000000001
44
0.0000000001
40
0
40
0
40
0
40
0
40
10.442288044296845
40
20.975417551954013
40
20.975417551954013
40
20.975417551954013
40
20.975417551954013
10
-298.14651772939567
20
233.29650895883526
30
0
10
-298.1864663795879
20
233.26611443250434
30
0
10
-298.26671120858197
20
233.20506096621577
30
0
10
-298.36756780125449
20
233.2059914193367
30
0
10
-298.41821449516169
20
233.2064586607253
30
0
0
SPLINE
5
313
100
AcDbEntity
8
0
100
AcDbSpline
70
0
71
3
72
9
73
5
74
0
42
0.000000001
43
0.0000000001
44
0.0000000001
40
0
40
0
40
0
40
0
40
7.3139553971577849
40
14.864349861200425
40
14.864349861200425
40
14.864349861200425
40
14.864349861200425
10
-298.41821449516169
20
233.2064586607253
30
0
10
-298.45221538463989
20
233.2127181917491
30
0
10
-298.52131631421304
20
233.2254396063673
30
0
10
-298.57851939073379
20
233.26629948352152
30
0
10
-298.6075758779881
20
233.28705438993489
30
0
0
SPLINE
5
314
100
AcDbEntity
8
0
100
AcDbSpline
70
0
71
3
72
9
73
5
74
0
42
0.000000001
43
0.0000000001
44
0.0000000001
40
0
40
0
40
0
40
0
40
8.003996081175238
40
16.808502319693929
40
16.808502319693929
40
16.808502319693929
40
16.808502319693929
10
-298.6075758779881
20
233.28705438993489
30
0
10
-298.63454881631407
20
233.31355893988678
30
0
10
-298.69119235934198
20
233.36921886086023
30
0
10
-298.71889430725469
20
233.44377141559545
30
0
10
-298.73340493815903
20
233.48282298728094
30
0
0
SPLINE
5
315
100
AcDbEntity
8
0
100
AcDbSpline
70
0
71
3
72
9
73
5
74
0
42
0.000000001
43
0.0000000001
44
0.0000000001
40
0
40
0
40
0
40
0
40
10.648159395660848
40
24.153682656052517
40
24.153682656052517
40
24.153682656052517
40
24.153682656052517
10
-298.73340493815903
20
233.48282298728094
30
0
10
-298.74375391026206
20
233.53168437657069
30
0
10
-298.76722893338228
20
233.64251878909178
30
0
10
-298.75706199888776
20
233.75555328679343
30
0
10
-298.75137716099954
20
233.81875648688853
30
0
0
SPLINE
5
316
100
AcDbEntity
8
0
100
AcDbSpline
70
0
71
3
72
9
73
5
74
0
42
0.000000001
43
0.0000000001
44
0.0000000001
40
0
40
0
40
0
40
0
40
16.393858389667926
40
29.37239506598041
40
29.37239506598041
40
29.37239506598041
40
29.37239506598041
10
-298.75137716099954
20
233.81875648688853
30
0
10
-298.74148634775446
20
233.89585207569249
30
0
10
-298.72376526786866
20
234.03398198009782
30
0
10
-298.64786518172144
20
234.15009878154561
30
0
10
-298.61432783995599
20
234.20140634985725
30
0
0
SPLINE
5
317
100
AcDbEntity
8
0
100
AcDbSpline
70
0
71
3
72
9
73
5
74
0
42
0.000000001
43
0.0000000001
44
0.0000000001
40
0
40
0
40
0
40
0
40
11.807407262563462
40
25.333731138301157
40
25.333731138301157
40
25.333731138301157
40
25.333731138301157
10
-298.61432783995599
20
234.20140634985725
30
0
10
-298.57130499542689
20
234.2380454557034
30
0
10
-298.47899606156238
20
234.31665757062459
30
0
10
-298.35753858128146
20
234.32550034187199
30
0
10
-298.2926893410949
20
234.33022172251663
30
0
0
LINE
5
318
100
AcDbEntity
8
0
100
AcDbLine
10
-298.2926893410949
20
234.33022172251663
30
0
11
-298.31090874038154
21
233.93647220267496
31
0
0
SPLINE
5
319
100
AcDbEntity
8
0
100
AcDbSpline
70
0
71
3
72
9
73
5
74
0
42
0.000000001
43
0.0000000001
44
0.0000000001
40
0
40
0
40
0
40
0
40
5.8909799038666204
40
10.755292964855773
40
10.755292964855773
40
10.755292964855773
40
10.755292964855773
10
-298.31090874038154
20
233.93647220267496
30
0
10
-298.33885288035111
20
233.93365461238463
30
0
10
-298.38987111788157
20
233.92851047515737
30
0
10
-298.43111654492793
20
233.89842226288297
30
0
10
-298.44977067830621
20
233.88481422036605
30
0
0
SPLINE
5
320
100
AcDbEntity
8
0
100
AcDbSpline
70
0
71
3
72
9
73
5
74
0
42
0.000000001
43
0.0000000001
44
0.0000000001
40
0
40
0
40
0
40
0
40
4.8147278456393572
40
10.500660015759712
40
10.500660015759712
40
10.500660015759712
40
10.500660015759712
10
-298.44977067830621
20
233.88481422036605
30
0
10
-298.46380467868266
20
233.86679157055957
30
0
10
-298.49441207152773
20
233.82748514987091
30
0
10
-298.50161162445374
20
233.77800800719487
30
0
10
-298.50551006222167
20
233.75121696007946
30
0
0
SPLINE
5
321
100
AcDbEntity
8
0
100
AcDbSpline
70
0
71
3
72
9
73
5
74
0
42
0.000000001
43
0.0000000001
44
0.0000000001
40
0
40
0
40
0
40
0
40
4.5925488203379077
40
8.2620690431143498
40
8.2620690431143498
40
8.2620690431143498
40
8.2620690431143498
10
-298.50551006222167
20
233.75121696007946
30
0
10
-298.50719615815427
20
233.72940529996436
30
0
10
-298.51022947180087
20
233.69016577331647
30
0
10
-298.49363897944943
20
233.65468578010018
30
0
10
-298.48627046838112
20
233.63892767496563
30
0
0
CIRCLE
5
322
100
AcDbEntity
8
0
100
AcDbCircle
10
-296.27626102276122
20
237.8824590672757
30
0
40
0.26664000000002169
210
0
220
-0
230
1
0
LINE
5
323
100
AcDbEntity
8
0
100
AcDbLine
10
-297.01506305488198
20
229.40800985699855
30
0
11
-297.744543178431
21
229.06784768891563
31
0
0
LINE
5
324
100
AcDbEntity
8
0
100
AcDbLine
10
-297.744543178431
20
229.06784768891563
30
0
11
-297.92057869249965
21
229.44535706709129
31
0
0
LINE
5
325
100
AcDbEntity
8
0
100
AcDbLine
10
-297.92057869249965
20
229.44535706709129
30
0
11
-297.17372904288754
21
229.79361877819593
31
0
0
SPLINE
5
326
100
AcDbEntity
8
0
100
AcDbSpline
70
0
71
3
72
9
73
5
74
0
42
0.000000001
43
0.0000000001
44
0.0000000001
40
0
40
0
40
0
40
0
40
7.1155758053156895
40
13.353473696860799
40
13.353473696860799
40
13.353473696860799
40
13.353473696860799
10
-297.17372904288754
20
229.79361877819593
30
0
10
-297.14365931383696
20
229.80963904676918
30
0
10
-297.08722883695992
20
229.83970354764222
30
0
10
-297.05719092395196
20
229.89588003277777
30
0
10
-297.04315911182005
20
229.92212213173522
30
0
0
SPLINE
5
327
100
AcDbEntity
8
0
100
AcDbSpline
70
0
71
3
72
9
73
5
74
0
42
0.000000001
43
0.0000000001
44
0.0000000001
40
0
40
0
40
0
40
0
40
6.1967531143370369
40
13.206521339703359
40
13.206521339703359
40
13.206521339703359
40
13.206521339703359
10
-297.04315911182005
20
229.92212213173522
30
0
10
-297.03663963238444
20
229.95098713000948
30
0
10
-297.02274531665137
20
230.01250421946665
30
0
10
-297.04622701540245
20
230.07128206069643
30
0
10
-297.0586906507192
20
230.10248021145938
30
0
0
SPLINE
5
328
100
AcDbEntity
8
0
100
AcDbSpline
70
0
71
3
72
9
73
5
74
0
42
0.000000001
43
0.0000000001
44
0.0000000001
40
0
40
0
40
0
40
0
40
6.9584333595012078
40
13.115070581038367
40
13.115070581038367
40
13.115070581038367
40
13.115070581038367
10
-297.0586906507192
20
230.10248021145938
30
0
10
-297.07444689448641
20
230.13185310819142
30
0
10
-297.10414384470823
20
230.18721436465685
30
0
10
-297.15961261127057
20
230.21623714032
30
0
10
-297.18565143971159
20
230.22986136748807
30
0
0
SPLINE
5
329
100
AcDbEntity
8
0
100
AcDbSpline
70
0
71
3
72
9
73
5
74
0
42
0.000000001
43
0.0000000001
44
0.0000000001
40
0
40
0
40
0
40
0
40
6.2240222366766202
40
13.420286959491005
40
13.420286959491005
40
13.420286959491005
40
13.420286959491005
10
-297.18565143971159
20
230.22986136748807
30
0
10
-297.21470459100885
20
230.23600788317671
30
0
10
-297.27734923022439
20
230.24926104989197
30
0
10
-297.33691016746235
20
230.22504054390993
30
0
10
-297.36884810387164
20
230.21205295479959
30
0
0
LINE
5
330
100
AcDbEntity
8
0
100
AcDbLine
10
-297.36884810387164
20
230.21205295479953
30
0
11
-298.11569775348386
21
229.86379124369509
31
0
0
LINE
5
331
100
AcDbEntity
8
0
100
AcDbLine
10
-298.11569775348386
20
229.86379124369509
30
0
11
-298.29173326755233
21
230.24130062187069
31
0
0
LINE
5
332
100
AcDbEntity
8
0
100
AcDbLine
10
-298.29173326755233
20
230.24130062187069
30
0
11
-297.56225314400331
21
230.58146278995341
31
0
0
SPLINE
5
333
100
AcDbEntity
8
0
100
AcDbSpline
70
0
71
3
72
9
73
5
74
0
42
0.000000001
43
0.0000000001
44
0.0000000001
40
0
40
0
40
0
40
0
40
8.3411722979649205
40
16.429957797980578
40
16.429957797980578
40
16.429957797980578
40
16.429957797980578
10
-297.56225314400331
20
230.58146278995341
30
0
10
-297.52623022814623
20
230.59665253567849
30
0
10
-297.45527437612071
20
230.62657241651931
30
0
10
-297.37908975135207
20
230.63770288932329
30
0
10
-297.34158258939038
20
230.6431826360234
30
0
0
SPLINE
5
334
100
AcDbEntity
8
0
100
AcDbSpline
70
0
71
3
72
9
73
5
74
0
42
0.000000001
43
0.0000000001
44
0.0000000001
40
0
40
0
40
0
40
0
40
7.9024429075971732
40
15.8038619508501
40
15.8038619508501
40
15.8038619508501
40
15.8038619508501
10
-297.34158258939038
20
230.6431826360234
30
0
10
-297.30445457924111
20
230.6448209032495
30
0
10
-297.23020336936025
20
230.64809722544305
30
0
10
-297.1590811667898
20
230.62651957018994
30
0
10
-297.12352236935584
20
230.61573144152507
30
0
0
SPLINE
5
335
100
AcDbEntity
8
0
100
AcDbSpline
70
0
71
3
72
9
73
5
74
0
42
0.000000001
43
0.0000000001
44
0.0000000001
40
0
40
0
40
0
40
0
40
7.5837423634787857
40
14.46202910831572
40
14.46202910831572
40
14.46202910831572
40
14.46202910831572
10
-297.12352236935584
20
230.61573144152507
30
0
10
-297.09048177961483
20
230.60232463391753
30
0
10
-297.02747410508078
20
230.57675814806191
30
0
10
-296.9759405466433
20
230.53248542329749
30
0
10
-296.95143066706407
20
230.51142886936407
30
0
0
SPLINE
5
336
100
AcDbEntity
8
0
100
AcDbSpline
70
0
71
3
72
9
73
5
74
0
42
0.000000001
43
0.0000000001
44
0.0000000001
40
0
40
0
40
0
40
0
40
9.8640773228270238
40
21.200628298319682
40
21.200628298319682
40
21.200628298319682
40
21.200628298319682
10
-296.95143066706407
20
230.51142886936407
30
0
10
-296.92078756647339
20
230.47681821892897
30
0
10
-296.85492707448122
20
230.40243036581086
30
0
10
-296.81071488493239
20
230.31336704347069
30
0
10
-296.78707342801397
20
230.26574246935203
30
0
0
SPLINE
5
337
100
AcDbEntity
8
0
100
AcDbSpline
70
0
71
3
72
9
73
5
74
0
42
0.000000001
43
0.0000000001
44
0.0000000001
40
0
40
0
40
0
40
0
40
7.3698855384910091
40
15.411693615942113
40
15.411693615942113
40
15.411693615942113
40
15.411693615942113
10
-296.78707342801397
20
230.26574246935203
30
0
10
-296.77314400532174
20
230.23428598734654
30
0
10
-296.74401519542931
20
230.16850509287084
30
0
10
-296.72078020323232
20
230.10041448312487
30
0
10
-296.70865620488513
20
230.06488486327274
30
0
0
SPLINE
5
338
100
AcDbEntity
8
0
100
AcDbSpline
70
0
71
3
72
9
73
5
74
0
42
0.000000001
43
0.0000000001
44
0.0000000001
40
0
40
0
40
0
40
0
40
7.7860126412226691
40
14.523747491724805
40
14.523747491724805
40
14.523747491724805
40
14.523747491724805
10
-296.70865620488513
20
230.06488486327274
30
0
10
-296.69806998922758
20
230.02992541153773
30
0
10
-296.67832284390613
20
229.9647133096764
30
0
10
-296.676700161415
20
229.89665571047561
30
0
10
-296.67594738019397
20
229.86508300114295
30
0
0
SPLINE
5
339
100
AcDbEntity
8
0
100
AcDbSpline
70
0
71
3
72
9
73
5
74
0
42
0.000000001
43
0.0000000001
44
0.0000000001
40
0
40
0
40
0
40
0
40
6.424082607653407
40
13.254167968418233
40
13.254167968418233
40
13.254167968418233
40
13.254167968418233
10
-296.67594738019397
20
229.86508300114295
30
0
10
-296.67903185313503
20
229.8351064171367
30
0
10
-296.68539573805896
20
229.77325872559825
30
0
10
-296.7088702579415
20
229.71565875551866
30
0
10
-296.72096705458563
20
229.68597656699055
30
0
0
SPLINE
5
340
100
AcDbEntity
8
0
100
AcDbSpline
70
0
71
3
72
9
73
5
74
0
42
0.000000001
43
0.0000000001
44
0.0000000001
40
0
40
0
40
0
40
0
40
6.7292942099442223
40
12.877731294491506
40
12.877731294491506
40
12.877731294491506
40
12.877731294491506
10
-296.72096705458563
20
229.68597656699055
30
0
10
-296.73501383885622
20
229.65764234814637
30
0
10
-296.76189492143993
20
229.60341965475112
30
0
10
-296.80422466709996
20
229.56022859477318
30
0
10
-296.82443488674528
20
229.53960714299558
30
0
0
SPLINE
5
341
100
AcDbEntity
8
0
100
AcDbSpline
70
0
71
3
72
9
73
5
74
0
42
0.000000001
43
0.0000000001
44
0.0000000001
40
0
40
0
40
0
40
0
40
8.9290302076636117
40
16.592196444470506
40
16.592196444470506
40
16.592196444470506
40
16.592196444470506
10
-296.82443488674528
20
229.53960714299558
30
0
10
-296.85615989618884
20
229.51238009373247
30
0
10
-296.91511227697953
20
229.46178595982647
30
0
10
-296.98348490712851
20
229.42499971697097
30
0
10
-297.01506305488198
20
229.40800985699855
30
0
0
LWPOLYLINE
5
342
100
AcDbEntity
8
0
100
AcDbPolyline
90
12
70
1
43
0.0
10
-297.42329282712126
20
232.48502854113119
10
-297.72547693275874
20
232.43716728068486
10
-297.61274346141892
20
231.72539615525872
10
-297.87578936714931
20
231.68373377670008
10
-297.97742253764147
20
232.32542036083657
10
-298.2495703208927
20
232.28231638650095
10
-298.14793715040059
20
231.64062980236426
10
-298.36001207793333
20
231.60704043366013
10
-298.46957402519934
20
232.29878734416201
10
-298.75446450026328
20
232.25366512571495
10
-298.57945374388561
20
231.14869069755096
10
-297.24511054666993
20
231.36002989804288
0
LINE
5
343
100
AcDbEntity
8
0
100
AcDbLine
10
-294.37298739481855
20
231.97502690601007
30
0
11
-294.44166169568376
21
232.29811408960828
31
0
0
ARC
5
344
100
AcDbEntity
8
0
100
AcDbCircle
10
-298.18379055699955
20
231.36399483012846
30
0
40
3.8569556914260223
210
0
220
-0
230
1
100
AcDbArc
50
14.015880451385343
51
14.988001847381007
0
ARC
5
345
100
AcDbEntity
8
0
100
AcDbCircle
10
-292.70959226596523
20
232.82957149315874
30
0
40
1.8100330931744644
210
0
220
0
230
1
100
AcDbArc
50
181.93474647791146
51
194.98794751130342
0
ARC
5
346
100
AcDbEntity
8
0
100
AcDbCircle
10
-285.23877002069469
20
233.08194462021675
30
0
40
9.2851168529518411
210
0
220
0
230
1
100
AcDbArc
50
178.04866089288194
51
181.93477572249958
0
ARC
5
347
100
AcDbEntity
8
0
100
AcDbCircle
10
-285.34739219200446
20
233.08564784153361
30
0
40
9.1764315736252691
210
0
220
0
230
1
100
AcDbArc
50
174.06541612144269
51
178.0486759524203
0
ARC
5
348
100
AcDbEntity
8
0
100
AcDbCircle
10
-292.06695195322851
20
233.7841457306088
30
0
40
2.4206649490516079
210
0
220
0
230
1
100
AcDbArc
50
163.33350343687172
51
174.06540254362696
0
ARC
5
349
100
AcDbEntity
8
0
100
AcDbCircle
10
-284.26157623733548
20
231.44739383613125
30
0
40
10.568321021972144
210
0
220
0
230
1
100
AcDbArc
50
160.05869410558512
51
163.333497965227
0
ARC
5
350
100
AcDbEntity
8
0
100
AcDbCircle
10
-290.15702290399366
20
233.58632018441793
30
0
40
4.2968541024410438
210
0
220
0
230
1
100
AcDbArc
50
153.64433890730322
51
160.05864497388836
0
ARC
5
351
100
AcDbEntity
8
0
100
AcDbCircle
10
-290.03059279476952
20
233.52367759237433
30
0
40
4.4379521777066193
210
0
220
0
230
1
100
AcDbArc
50
147.35548198375017
51
153.6442921425548
0
ARC
5
352
100
AcDbEntity
8
0
100
AcDbCircle
10
-283.78805839878879
20
229.52456490041826
30
0
40
11.851597570356017
210
0
220
0
230
1
100
AcDbArc
50
144.33453309353322
51
147.35544998711779
0
ARC
5
353
100
AcDbEntity
8
0
100
AcDbCircle
10
-289.09111508626972
20
233.33035280949974
30
0
40
5.3242373198758868
210
0
220
0
230
1
100
AcDbArc
50
140.25046058920938
51
144.33452975670477
0
ARC
5
354
100
AcDbEntity
8
0
100
AcDbCircle
10
-290.53438959384505
20
234.53069465369236
30
0
40
3.4470421123578254
210
0
220
0
230
1
100
AcDbArc
50
134.59380086448806
51
140.25049553287442
0
ARC
5
355
100
AcDbEntity
8
0
100
AcDbCircle
10
-290.58764385091484
20
234.58471045740498
30
0
40
3.3711888135091725
210
0
220
0
230
1
100
AcDbArc
50
128.8661157637753
51
134.59381338049064
0
ARC
5
356
100
AcDbEntity
8
0
100
AcDbCircle
10
-289.65173340220554
20
233.42342591248448
30
0
40
4.8626679995060442
210
0
220
0
230
1
100
AcDbArc
50
124.51358388284109
51
128.86616464767201
0
ARC
5
357
100
AcDbEntity
8
0
100
AcDbCircle
10
-295.38338144092546
20
241.75878453830487
30
0
40
5.25316081778886
210
-0
220
0
230
1
100
AcDbArc
50
304.51362581031884
51
306.26707163278144
0
ARC
5
358
100
AcDbEntity
8
0
100
AcDbCircle
10
-292.66978212838785
20
238.06021315270104
30
0
40
0.66589022151786648
210
-0
220
0
230
1
100
AcDbArc
50
306.26709120152333
51
314.29850366032525
0
ARC
5
359
100
AcDbEntity
8
0
100
AcDbCircle
10
-292.30947002619195
20
237.69096833782555
30
0
40
0.14997691067845692
210
-0
220
0
230
1
100
AcDbArc
50
314.29850203598568
51
333.43174115826861
0
ARC
5
360
100
AcDbEntity
8
0
100
AcDbCircle
10
-292.19268305828359
20
237.63256671692903
30
0
40
0.019401471959879919
210
-0
220
0
230
1
100
AcDbArc
50
-26.568354150131835
51
58.654382468163348
0
ARC
5
361
100
AcDbEntity
8
0
100
AcDbCircle
10
-292.24859195553518
20
237.54077715821239
30
0
40
0.12687764551135736
210
0
220
-0
230
1
100
AcDbArc
50
58.654449771771183
51
70.767403645631973
0
ARC
5
362
100
AcDbEntity
8
0
100
AcDbCircle
10
-292.30378549516149
20
237.38257439234195
30
0
40
0.29443194102606585
210
0
220
-0
230
1
100
AcDbArc
50
70.767299036527575
51
77.224199558652074
0
ARC
5
363
100
AcDbEntity
8
0
100
AcDbCircle
10
-292.30746273373961
20
237.36635562163082
30
0
40
0.31106235313209518
210
0
220
-0
230
1
100
AcDbArc
50
77.224266495760347
51
83.574451041636976
0
ARC
5
364
100
AcDbEntity
8
0
100
AcDbCircle
10
-292.29516790577514
20
237.47552584019544
30
0
40
0.20120198986988194
210
0
220
-0
230
1
100
AcDbArc
50
83.574487975766644
51
92.376061291326252
0
ARC
5
365
100
AcDbEntity
8
0
100
AcDbCircle
10
-292.28345403704964
20
237.19321219939965
30
0
40
0.4837585443857319
210
0
220
0
230
1
100
AcDbArc
50
92.376011565507667
51
108.75186694425871
0
ARC
5
366
100
AcDbEntity
8
0
100
AcDbCircle
10
-291.25181605470618
20
234.15442101624976
30
0
40
3.6928906359958273
210
0
220
0
230
1
100
AcDbArc
50
108.7518220702689
51
112.41225273265795
0
ARC
5
367
100
AcDbEntity
8
0
100
AcDbCircle
10
-291.1430616730637
20
233.89073031951958
30
0
40
3.9781279040054729
210
0
220
0
230
1
100
AcDbArc
50
112.41229192244356
51
114.91059777234537
0
ARC
5
368
100
AcDbEntity
8
0
100
AcDbCircle
10
-291.56842616491087
20
234.14949914463531
30
0
40
3.5749999999999202
210
0
220
0
230
1
100
AcDbArc
50
110.46998845284489
51
135.70473936490262
0
LINE
5
369
100
AcDbEntity
8
0
100
AcDbLine
10
-294.12723421112304
20
236.64612214033176
30
0
11
-294.12223306937079
21
236.64056780971342
31
0
0
ARC
5
370
100
AcDbEntity
8
0
100
AcDbCircle
10
-284.82973443334737
20
225.9419960462931
30
0
40
14.170743405959731
210
0
220
0
230
1
100
AcDbArc
50
130.97672361573038
51
131.68549547868028
0
ARC
5
371
100
AcDbEntity
8
0
100
AcDbCircle
10
-291.41959384070077
20
233.34207054870836
30
0
40
4.2617904012323899
210
0
220
0
230
1
100
AcDbArc
50
131.68556361961311
51
133.31310978766896
0
LINE
5
372
100
AcDbEntity
8
0
100
AcDbLine
10
-294.34311751496836
20
236.44301665434011
30
0
11
-295.41714992222967
21
237.31275094887442
31
0
0
ARC
5
373
100
AcDbEntity
8
0
100
AcDbCircle
10
-290.81807915259657
20
232.99178972637935
30
0
40
6.3104799999999255
210
0
220
-0
230
1
100
AcDbArc
50
49.897840458855953
51
136.7857943949939
0
LINE
5
374
100
AcDbEntity
8
0
100
AcDbLine
10
-286.75316793659249
20
237.81865772088713
30
0
11
-287.7627861364503
21
236.80903952102929
31
0
0
ARC
5
375
100
AcDbEntity
8
0
100
AcDbCircle
10
-290.50898466799066
20
233.5472879942875
30
0
40
4.2638749274382635
210
0
220
-0
230
1
100
AcDbArc
50
49.904638686800567
51
52.866345387140747
0
ARC
5
376
100
AcDbEntity
8
0
100
AcDbCircle
10
-282.60741070136959
20
243.98230606679954
30
0
40
8.8252225710013104
210
0
220
0
230
1
100
AcDbArc
50
232.11054225395912
51
232.86638543687837
0
ARC
5
377
100
AcDbEntity
8
0
100
AcDbCircle
10
-284.18715226051722
20
241.95227309457565
30
0
40
6.2529439581753499
210
0
220
0
230
1
100
AcDbArc
50
231.13196380929674
51
232.11056977578042
0
ARC
5
378
100
AcDbEntity
8
0
100
AcDbCircle
10
-283.78826887851784
20
242.44718395474789
30
0
40
6.8885890729558712
210
0
220
0
230
1
100
AcDbArc
50
230.50090149881001
51
231.13198766580609
0
LINE
5
379
100
AcDbEntity
8
0
100
AcDbLine
10
-288.16986672249817
20
237.13171033994419
30
0
11
-288.33536285189797
21
237.25642061852986
31
0
0
LINE
5
380
100
AcDbEntity
8
0
100
AcDbLine
10
-288.33536285189797
20
237.25642061852986
30
0
11
-288.43103116496485
21
237.31974209361272
31
0
0
ARC
5
381
100
AcDbEntity
8
0
100
AcDbCircle
10
-286.71627438898906
20
240.09646238104474
30
0
40
3.2635205461880692
210
0
220
0
230
1
100
AcDbArc
50
237.31212523536416
51
238.30269805579832
0
ARC
5
382
100
AcDbEntity
8
0
100
AcDbCircle
10
-284.03783725634236
20
244.2705110296113
30
0
40
8.2230273355902117
210
0
220
0
230
1
100
AcDbArc
50
236.53088549253087
51
237.31216771550129
0
ARC
5
383
100
AcDbEntity
8
0
100
AcDbCircle
10
-283.84581925602902
20
244.56095511583359
30
0
40
8.5712064269531574
210
0
220
0
230
1
100
AcDbArc
50
235.75531980075766
51
236.53087251186196
0
ARC
5
384
100
AcDbEntity
8
0
100
AcDbCircle
10
-285.80498256705079
20
241.6829740146778
30
0
40
5.089669970471447
210
0
220
0
230
1
100
AcDbArc
50
234.60947700342379
51
235.75538304458945
0
ARC
5
385
100
AcDbEntity
8
0
100
AcDbCircle
10
-293.18483947250843
20
231.29485633308286
30
0
40
7.65298583244999
210
0
220
-0
230
1
100
AcDbArc
50
54.609527905841894
51
55.273698722642244
0
ARC
5
386
100
AcDbEntity
8
0
100
AcDbCircle
10
-291.17970989550111
20
234.18779307430739
30
0
40
4.1330955487456755
210
0
220
-0
230
1
100
AcDbArc
50
55.273697333725842
51
56.327015527850058
0
ARC
5
387
100
AcDbEntity
8
0
100
AcDbCircle
10
-296.27308689904476
20
226.54280156636014
30
0
40
13.319410612839611
210
0
220
-0
230
1
100
AcDbArc
50
56.326987584074359
51
56.61094532203483
0
ARC
5
388
100
AcDbEntity
8
0
100
AcDbCircle
10
-288.94910046449178
20
237.65482846984719
30
0
40
0.010844980235423627
210
0
220
-0
230
1
100
AcDbArc
50
56.610905382460793
51
97.484515214023787
0
ARC
5
389
100
AcDbEntity
8
0
100
AcDbCircle
10
-288.94750548073841
20
237.64268844075485
30
0
40
0.023089337283957373
210
0
220
0
230
1
100
AcDbArc
50
97.48465378345125
51
128.48172248333478
0
ARC
5
390
100
AcDbEntity
8
0
100
AcDbCircle
10
-284.45987347980679
20
231.99724370449215
30
0
40
7.2348774127878679
210
0
220
0
230
1
100
AcDbArc
50
128.48161169986457
51
129.01950349028968
0
ARC
5
391
100
AcDbEntity
8
0
100
AcDbCircle
10
-285.70736386094256
20
233.53669441418828
30
0
40
5.2534282616336236
210
0
220
0
230
1
100
AcDbArc
50
129.0195045426442
51
130.0363833643909
0
ARC
5
392
100
AcDbEntity
8
0
100
AcDbCircle
10
-271.84163053680936
20
217.03342336741795
30
0
40
26.808393254856902
210
0
220
0
230
1
100
AcDbArc
50
130.03634533852727
51
130.34024197493699
0
ARC
5
393
100
AcDbEntity
8
0
100
AcDbCircle
10
-292.19015707432965
20
240.99345671566093
30
0
40
4.6263920998629962
210
0
220
0
230
1
100
AcDbArc
50
304.27808016923251
51
310.34016375615698
0
ARC
5
394
100
AcDbEntity
8
0
100
AcDbCircle
10
-318.86836108201726
20
280.13441698808026
30
0
40
51.99453899334943
210
0
220
0
230
1
100
AcDbArc
50
303.24927295607785
51
304.27806906258434
0
ARC
5
395
100
AcDbEntity
8
0
100
AcDbCircle
10
-384.7570050711015
20
380.6335972245115
30
0
40
172.16690950709756
210
0
220
0
230
1
100
AcDbArc
50
303.08379398967867
51
303.24936134704814
0
ARC
5
396
100
AcDbEntity
8
0
100
AcDbCircle
10
-292.82977998287254
20
239.306544423936
30
0
40
3.5749999999846973
210
0
220
0
230
1
100
AcDbArc
50
301.04293111566028
51
305.04164154992657
0
ARC
5
397
100
AcDbEntity
8
0
100
AcDbCircle
10
-384.75700488069583
20
380.6335969311134
30
0
40
172.16690915733088
210
0
220
0
230
1
100
AcDbArc
50
302.95686115534369
51
303.00077867592256
0
LINE
5
398
100
AcDbEntity
8
0
100
AcDbLine
10
-291.09692655555256
20
236.17171844091564
30
0
11
-291.41489022898634
21
236.02344954497806
31
0
0
ARC
5
399
100
AcDbEntity
8
0
100
AcDbCircle
10
-292.82977998287254
20
239.306544423936
30
0
40
3.5749999999849402
210
0
220
0
230
1
100
AcDbArc
50
291.85944725097556
51
293.31421513267605
0
ARC
5
400
100
AcDbEntity
8
0
100
AcDbCircle
10
-291.8040191129337
20
236.5764802281156
30
0
40
0.66245027663579248
210
0
220
0
230
1
100
AcDbArc
50
287.06789485160112
51
297.44510779434495
0
ARC
5
401
100
AcDbEntity
8
0
100
AcDbCircle
10
-294.4107852073322
20
245.06685899694963
30
0
40
9.5439907460120921
210
0
220
0
230
1
100
AcDbArc
50
286.68567945265073
51
287.06784548427282
0
ARC
5
402
100
AcDbEntity
8
0
100
AcDbCircle
10
-292.82977998287254
20
239.306544423936
30
0
40
3.5749999999856281
210
0
220
0
230
1
100
AcDbArc
50
281.74505369556925
51
288.92153636539592
0
ARC
5
403
100
AcDbEntity
8
0
100
AcDbCircle
10
-294.32512216584678
20
244.75089100031917
30
0
40
9.2166164471255509
210
0
220
0
230
1
100
AcDbArc
50
283.20368444357587
51
283.95744913306083
0
ARC
5
404
100
AcDbEntity
8
0
100
AcDbCircle
10
-292.3938756617585
20
236.51935937170413
30
0
40
0.76156907810129515
210
0
220
0
230
1
100
AcDbArc
50
271.00002060825852
51
283.2037043510569
0
LINE
5
405
100
AcDbEntity
8
0
100
AcDbLine
10
-292.38058417479647
20
235.75790628904284
30
0
11
-292.50110572523232
21
235.75580257755462
31
0
0
LINE
5
406
100
AcDbEntity
8
0
100
AcDbLine
10
-292.50110572523232
20
235.75580257755462
30
0
11
-292.45128214855328
21
232.90141178132021
31
0
0
ARC
5
407
100
AcDbEntity
8
0
100
AcDbCircle
10
234.75822341321765
20
242.10351920653156
30
0
40
527.2898079194706
210
0
220
0
230
1
100
AcDbArc
50
180.99995994010024
51
181.15420015522349
0
ARC
5
408
100
AcDbEntity
8
0
100
AcDbCircle
10
-223.28763803251402
20
232.87508377649229
30
0
40
69.150991393259986
210
0
220
0
230
1
100
AcDbArc
50
181.15416729868986
51
181.84354803859731
0
ARC
5
409
100
AcDbEntity
8
0
100
AcDbCircle
10
-152.62587457729131
20
235.14937342038439
30
0
40
139.84934503731992
210
0
220
0
230
1
100
AcDbArc
50
181.84350421835856
51
182.08552150105984
0
ARC
5
410
100
AcDbEntity
8
0
100
AcDbCircle
10
-292.3021342452696
20
230.06302043298791
30
0
40
0.080505514524725083
210
0
220
0
230
1
100
AcDbArc
50
182.08550629820317
51
225.99996713442189
0
ARC
5
411
100
AcDbEntity
8
0
100
AcDbCircle
10
-292.26634917397973
20
230.10007694252377
30
0
40
0.13202013600429477
210
0
220
0
230
1
100
AcDbArc
50
225.99997496441247
51
251.95051446377917
0
ARC
5
412
100
AcDbEntity
8
0
100
AcDbCircle
10
-292.25555639093591
20
230.13319673253122
30
0
40
0.16685409437762833
210
0
220
0
230
1
100
AcDbArc
50
251.95055460660475
51
273.72389856125221
0
ARC
5
413
100
AcDbEntity
8
0
100
AcDbCircle
10
-292.25943899771693
20
230.19284850129969
30
0
40
0.22663208491435927
210
-0
220
0
230
1
100
AcDbArc
50
273.72392730731195
51
292.03168175671016
0
ARC
5
414
100
AcDbEntity
8
0
100
AcDbCircle
10
-292.32057347357079
20
230.34392016145136
30
0
40
0.38960469193412295
210
-0
220
0
230
1
100
AcDbArc
50
292.03173221961492
51
304.2338162245407
0
ARC
5
415
100
AcDbEntity
8
0
100
AcDbCircle
10
-292.48802972280743
20
230.59001298888123
30
0
40
0.68726771469766068
210
-0
220
0
230
1
100
AcDbArc
50
304.23376962581773
51
319.37263396587156
0
ARC
5
416
100
AcDbEntity
8
0
100
AcDbCircle
10
-301.30531544535609
20
238.15465038231505
30
0
40
12.304852076655131
210
-0
220
0
230
1
100
AcDbArc
50
319.37262915893609
51
321.2241592871103
0
ARC
5
417
100
AcDbEntity
8
0
100
AcDbCircle
10
-299.86789890349087
20
236.99991330229324
30
0
40
10.461055982056802
210
-0
220
0
230
1
100
AcDbArc
50
321.22425357852154
51
323.40692760215211
0
ARC
5
418
100
AcDbEntity
8
0
100
AcDbCircle
10
-292.61090957170239
20
231.61175641826432
30
0
40
1.4224648988968924
210
-0
220
0
230
1
100
AcDbArc
50
323.40700009763719
51
332.91424649163844
0
LINE
5
419
100
AcDbEntity
8
0
100
AcDbLine
10
-291.34445202055196
20
230.96407466020105
30
0
11
-291.24397362886731
21
231.16054736058663
31
0
0
LINE
5
420
100
AcDbEntity
8
0
100
AcDbLine
10
-291.24397362886731
20
231.16054736058663
30
0
11
-291.29384615443911
21
233.25399317735372
31
0
0
ARC
5
421
100
AcDbEntity
8
0
100
AcDbCircle
10
-86.736873696253085
20
238.1271172062261
30
0
40
204.61501000430025
210
0
220
0
230
1
100
AcDbArc
50
181.13917282636766
51
181.36468894172182
0
ARC
5
422
100
AcDbEntity
8
0
100
AcDbCircle
10
-184.54173077899043
20
236.18231873947843
30
0
40
106.79081918195271
210
0
220
0
230
1
100
AcDbArc
50
180.77227507465403
51
181.13919693312809
0
ARC
5
423
100
AcDbEntity
8
0
100
AcDbCircle
10
493.73838990149096
20
245.32508843789287
30
0
40
785.13255632340531
210
0
220
0
230
1
100
AcDbArc
50
180.72780280385317
51
180.77226432812091
0
ARC
5
424
100
AcDbEntity
8
0
100
AcDbCircle
10
-291.27179558950399
20
235.35291673861198
30
0
40
0.059033949222861738
210
0
220
0
230
1
100
AcDbArc
50
149.28252324888069
51
180.72770450212195
0
ARC
5
425
100
AcDbEntity
8
0
100
AcDbCircle
10
-291.27310311929244
20
235.35369361880652
30
0
40
0.05751303601535146
210
0
220
0
230
1
100
AcDbArc
50
121.36934141171101
51
149.28251150065029
0
ARC
5
426
100
AcDbEntity
8
0
100
AcDbCircle
10
-288.99714419026805
20
231.62057628848336
30
0
40
4.4297154614028713
210
0
220
0
230
1
100
AcDbArc
50
120.11910827813568
51
121.36928978657147
0
ARC
5
427
100
AcDbEntity
8
0
100
AcDbCircle
10
-289.59151363344574
20
232.64512347918841
30
0
40
3.245244279418503
210
0
220
0
230
1
100
AcDbArc
50
118.07685635265867
51
120.11905306457635
0
ARC
5
428
100
AcDbEntity
8
0
100
AcDbCircle
10
-288.65499570238694
20
230.88947457327103
30
0
40
5.2350605815037081
210
0
220
0
230
1
100
AcDbArc
50
116.64952109677806
51
118.07685510168136
0
ARC
5
429
100
AcDbEntity
8
0
100
AcDbCircle
10
-293.72993171007533
20
241.00204070476576
30
0
40
6.0794862165785535
210
-0
220
0
230
1
100
AcDbArc
50
296.64954856547888
51
299.52358338240839
0
ARC
5
430
100
AcDbEntity
8
0
100
AcDbCircle
10
-293.0825645791578
20
239.85892470931972
30
0
40
4.7657897595409127
210
-0
220
0
230
1
100
AcDbArc
50
299.52356301488129
51
302.97319595265799
0
ARC
5
431
100
AcDbEntity
8
0
100
AcDbCircle
10
-293.29421454434896
20
240.18518633874166
30
0
40
5.154688664829953
210
-0
220
0
230
1
100
AcDbArc
50
302.97310382641808
51
306.27563313362464
0
ARC
5
432
100
AcDbEntity
8
0
100
AcDbCircle
10
-295.23221473510785
20
242.82582333885381
30
0
40
8.4301746601725149
210
-0
220
0
230
1
100
AcDbArc
50
306.27556697359012
51
308.56021779586047
0
ARC
5
433
100
AcDbEntity
8
0
100
AcDbCircle
10
-281.24449968336614
20
225.27873664783391
30
0
40
14.009888256648663
210
0
220
0
230
1
100
AcDbArc
50
127.9217035219868
51
128.56020603691465
0
ARC
5
434
100
AcDbEntity
8
0
100
AcDbCircle
10
-279.94859675727929
20
223.61539743421298
30
0
40
16.118456902261819
210
0
220
0
230
1
100
AcDbArc
50
127.34695964726779
51
127.92174970211941
0
ARC
5
435
100
AcDbEntity
8
0
100
AcDbCircle
10
-280.97199651951109
20
224.95651686370991
30
0
40
14.43146300852464
210
0
220
0
230
1
100
AcDbArc
50
126.77124535129781
51
127.34695213284863
0
ARC
5
436
100
AcDbEntity
8
0
100
AcDbCircle
10
-287.77750333097674
20
234.06314824710725
30
0
40
3.0628369651551903
210
0
220
0
230
1
100
AcDbArc
50
124.95315148905432
51
126.77122302671961
0
ARC
5
437
100
AcDbEntity
8
0
100
AcDbCircle
10
-298.05151600855407
20
248.76149303508058
30
0
40
14.870279774698641
210
-0
220
0
230
1
100
AcDbArc
50
304.95321879580212
51
305.24634384395353
0
ARC
5
438
100
AcDbEntity
8
0
100
AcDbCircle
10
-296.64411265312998
20
246.76982809998592
30
0
40
12.431527344033814
210
-0
220
0
230
1
100
AcDbArc
50
305.24625236156714
51
305.58154702404477
0
ARC
5
439
100
AcDbEntity
8
0
100
AcDbCircle
10
-296.21866579133132
20
246.17517208019308
30
0
40
11.700349654223798
210
-0
220
0
230
1
100
AcDbArc
50
305.58152878041142
51
305.88382113780858
0
ARC
5
440
100
AcDbEntity
8
0
100
AcDbCircle
10
-289.91491247423528
20
237.46169674800242
30
0
40
0.94572468412563981
210
-0
220
0
230
1
100
AcDbArc
50
305.88391547080721
51
307.79044584972547
0
ARC
5
441
100
AcDbEntity
8
0
100
AcDbCircle
10
-289.29822838270627
20
236.66639856783513
30
0
40
0.060654202836073548
210
0
220
-0
230
1
100
AcDbArc
50
56.352377549941366
51
127.79042380114478
0
ARC
5
442
100
AcDbEntity
8
0
100
AcDbCircle
10
-291.56375845595409
20
233.26264356787007
30
0
40
4.149440650252429
210
0
220
-0
230
1
100
AcDbArc
50
52.869056926064033
51
56.352372075272832
0
ARC
5
443
100
AcDbEntity
8
0
100
AcDbCircle
10
-291.46121443492729
20
233.39807551323966
30
0
40
3.9795669086962238
210
0
220
-0
230
1
100
AcDbArc
50
48.261522930612081
51
52.869087019245718
0
ARC
5
444
100
AcDbEntity
8
0
100
AcDbCircle
10
-293.91823790136937
20
230.64410543682314
30
0
40
7.6702735478689288
210
0
220
-0
230
1
100
AcDbArc
50
45.441762184113017
51
48.261488983081264
0
ARC
5
445
100
AcDbEntity
8
0
100
AcDbCircle
10
-293.53635039157257
20
231.0319353371903
30
0
40
7.1259849279929082
210
0
220
-0
230
1
100
AcDbArc
50
42.701277900357837
51
45.44171900897544
0
ARC
5
446
100
AcDbEntity
8
0
100
AcDbCircle
10
-291.24168190858592
20
233.14948913769373
30
0
40
4.0035599817631029
210
0
220
-0
230
1
100
AcDbArc
50
38.481348722742013
51
42.701278874852754
0
ARC
5
447
100
AcDbEntity
8
0
100
AcDbCircle
10
-291.37130698709052
20
233.04644735154605
30
0
40
4.1691506538036345
210
0
220
-0
230
1
100
AcDbArc
50
34.360187668555731
51
38.481372604865562
0
ARC
5
448
100
AcDbEntity
8
0
100
AcDbCircle
10
-294.79662936296484
20
230.70458599059737
30
0
40
8.3185057859327891
210
0
220
-0
230
1
100
AcDbArc
50
31.902227577657413
51
34.360122281327087
0
ARC
5
449
100
AcDbEntity
8
0
100
AcDbCircle
10
-294.81978579729213
20
230.69017682375448
30
0
40
8.3457792990282318
210
0
220
-0
230
1
100
AcDbArc
50
29.268537938310519
51
31.902194396186278
0
ARC
5
450
100
AcDbEntity
8
0
100
AcDbCircle
10
-289.76600934137042
20
233.52257609297334
30
0
40
2.5524087699924989
210
0
220
-0
230
1
100
AcDbArc
50
22.902778845325443
51
29.268535852339632
0
ARC
5
451
100
AcDbEntity
8
0
100
AcDbCircle
10
-289.78841105053408
20
233.51311348176733
30
0
40
2.5767270261460671
210
0
220
-0
230
1
100
AcDbArc
50
16.575005900158796
51
22.902747678332084
0
ARC
5
452
100
AcDbEntity
8
0
100
AcDbCircle
10
-295.58151912074311
20
231.78887139796691
30
0
40
8.6209897501391932
210
0
220
-0
230
1
100
AcDbArc
50
14.000884238267721
51
16.574960777265414
0
ARC
5
453
100
AcDbEntity
8
0
100
AcDbCircle
10
-289.16844824977022
20
233.3879365317743
30
0
40
2.0115656225572645
210
0
220
-0
230
1
100
AcDbArc
50
4.4885531859947303
51
14.000832932324055
0
ARC
5
454
100
AcDbEntity
8
0
100
AcDbCircle
10
-303.85144723517948
20
232.235333789523
30
0
40
16.739734289669805
210
0
220
-0
230
1
100
AcDbArc
50
2.4895909890188306
51
4.4884754584740039
0
ARC
5
455
100
AcDbEntity
8
0
100
AcDbCircle
10
-304.85559630642859
20
232.19170528571408
30
0
40
17.744830704318915
210
0
220
-0
230
1
100
AcDbArc
50
0.60794044429274186
51
2.4894915695268081
0
ARC
5
456
100
AcDbEntity
8
0
100
AcDbCircle
10
-288.61818828249386
20
232.36399986747841
30
0
40
1.5065086001528649
210
0
220
0
230
1
100
AcDbArc
50
-10.853800061466382
51
0.60793722511494308
0
ARC
5
457
100
AcDbEntity
8
0
100
AcDbCircle
10
-290.89369044552797
20
232.80028406222931
30
0
40
3.8234578858621524
210
0
220
0
230
1
100
AcDbArc
50
344.81569935667483
51
349.14628643685575
0
ARC
5
458
100
AcDbEntity
8
0
100
AcDbCircle
10
-291.61799128676529
20
232.99685314820329
30
0
40
4.5739584615778011
210
0
220
0
230
1
100
AcDbArc
50
341.02978203470582
51
344.81577189936047
0
ARC
5
459
100
AcDbEntity
8
0
100
AcDbCircle
10
-291.85079089059184
20
233.0768694505048
30
0
40
4.8201256083003718
210
0
220
0
230
1
100
AcDbArc
50
337.33965177455252
51
341.02986858071455
0
ARC
5
460
100
AcDbEntity
8
0
100
AcDbCircle
10
-292.02828709251037
20
233.15097329408354
30
0
40
5.0124697824482229
210
0
220
0
230
1
100
AcDbArc
50
333.75620884816692
51
337.33965321464456
0
LINE
5
461
100
AcDbEntity
8
0
100
AcDbLine
10
-287.53249936289069
20
230.93450177155998
30
0
11
-287.71871397002587
21
230.55679371559324
31
0
0
LINE
5
462
100
AcDbEntity
8
0
100
AcDbLine
10
-287.71871397002587
20
230.55679371559324
30
0
11
-287.69937803208347
21
230.01376890009948
31
0
0
LINE
5
463
100
AcDbEntity
8
0
100
AcDbLine
10
-287.69937803208347
20
230.01376890009948
30
0
11
-287.69083050775799
21
229.77372318106097
31
0
0
ARC
5
464
100
AcDbEntity
8
0
100
AcDbCircle
10
-290.77602545819633
20
233.05231380484898
30
0
40
4.5019533938726415
210
0
220
0
230
1
100
AcDbArc
50
307.14757184924918
51
313.25931493255149
0
ARC
5
465
100
AcDbEntity
8
0
100
AcDbCircle
10
292.12019169085926
20
239.27278796379824
30
0
40
580.26053484248143
210
0
220
0
230
1
100
AcDbArc
50
180.86016990884519
51
180.96859174256301
0
LINE
5
466
100
AcDbEntity
8
0
100
AcDbLine
10
-288.07495363787586
20
230.56178155520595
30
0
11
-288.12485790022174
21
233.88552882854634
31
0
0
LINE
5
467
100
AcDbEntity
8
0
100
AcDbLine
10
-288.12485790022174
20
233.88552882854634
30
0
11
-288.30209445814864
21
234.22023060080281
31
0
0
ARC
5
468
100
AcDbEntity
8
0
100
AcDbCircle
10
-295.41690730099458
20
230.45268963326083
30
0
40
8.0507718096361618
210
0
220
-0
230
1
100
AcDbArc
50
27.902776728629167
51
28.966866299437442
0
ARC
5
469
100
AcDbEntity
8
0
100
AcDbCircle
10
-293.19402531931598
20
231.68317889554316
30
0
40
5.5100419678330992
210
0
220
-0
230
1
100
AcDbArc
50
28.966815628793658
51
30.38062834928887
0
ARC
5
470
100
AcDbEntity
8
0
100
AcDbCircle
10
-293.90790614577458
20
231.26466923982443
30
0
40
6.3375540017699281
210
0
220
-0
230
1
100
AcDbArc
50
30.380648944524285
51
31.408069980002978
0
ARC
5
471
100
AcDbEntity
8
0
100
AcDbCircle
10
-288.64636907663487
20
234.47734238462604
30
0
40
0.17273112797550266
210
0
220
-0
230
1
100
AcDbArc
50
31.408092678801971
51
45.222538809420485
0
ARC
5
472
100
AcDbEntity
8
0
100
AcDbCircle
10
-288.55527460803233
20
234.56914720485511
30
0
40
0.043400825156371406
210
0
220
-0
230
1
100
AcDbArc
50
45.22257537735431
51
92.720076543310512
0
ARC
5
473
100
AcDbEntity
8
0
100
AcDbCircle
10
-288.55309125227473
20
234.52318677527754
30
0
40
0.089413085797300854
210
0
220
0
230
1
100
AcDbArc
50
92.719933306475482
51
120.41811695538317
0
ARC
5
474
100
AcDbEntity
8
0
100
AcDbCircle
10
-288.41153973590411
20
234.28209275056034
30
0
40
0.36898983830221055
210
0
220
0
230
1
100
AcDbArc
50
120.41811674084103
51
131.93357683542118
0
ARC
5
475
100
AcDbEntity
8
0
100
AcDbCircle
10
-286.0513304563043
20
231.65469506029137
30
0
40
3.9008174765570418
210
0
220
0
230
1
100
AcDbArc
50
131.9335703832796
51
133.97439210562018
0
ARC
5
476
100
AcDbEntity
8
0
100
AcDbCircle
10
-290.92818445785821
20
236.70934506799901
30
0
40
3.1229416062200319
210
0
220
0
230
1
100
AcDbArc
50
306.8426729243792
51
313.97438218908042
0
ARC
5
477
100
AcDbEntity
8
0
100
AcDbCircle
10
-291.50851456553562
20
237.48388461071531
30
0
40
4.0907714141449407
210
0
220
0
230
1
100
AcDbArc
50
301.01763764443854
51
306.84267622282914
0
ARC
5
478
100
AcDbEntity
8
0
100
AcDbCircle
10
-291.30071618580348
20
237.13829066558426
30
0
40
3.6875154885462358
210
0
220
0
230
1
100
AcDbArc
50
295.0336546473311
51
301.01764075554348
0
ARC
5
479
100
AcDbEntity
8
0
100
AcDbCircle
10
-290.24810098462768
20
234.8844069596704
30
0
40
1.1999482991962922
210
0
220
0
230
1
100
AcDbArc
50
281.2157936799216
51
295.03366507888188
0
ARC
5
480
100
AcDbEntity
8
0
100
AcDbCircle
10
-289.85436049872766
20
232.89874454497684
30
0
40
0.82437548798883686
210
0
220
0
230
1
100
AcDbArc
50
101.21578675303932
51
105.07876070287287
0
ARC
5
481
100
AcDbEntity
8
0
100
AcDbCircle
10
-289.86676085140357
20
232.9447699528439
30
0
40
0.7767088653287838
210
0
220
0
230
1
100
AcDbArc
50
105.07875740765654
51
109.11814990282055
0
ARC
5
482
100
AcDbEntity
8
0
100
AcDbCircle
10
-289.90108205477969
20
233.04378381240929
30
0
40
0.67191530929162591
210
0
220
0
230
1
100
AcDbArc
50
109.11819418813116
51
113.14727663826206
0
ARC
5
483
100
AcDbEntity
8
0
100
AcDbCircle
10
-290.12515360412021
20
233.5679130158185
30
0
40
0.10189822087210409
210
0
220
0
230
1
100
AcDbArc
50
113.14719354766966
51
129.37323608263705
0
ARC
5
484
100
AcDbEntity
8
0
100
AcDbCircle
10
-290.1481805122271
20
233.59597318439978
30
0
40
0.065599301359939299
210
0
220
0
230
1
100
AcDbArc
50
129.37325732480616
51
167.17400717647092
0
ARC
5
485
100
AcDbEntity
8
0
100
AcDbCircle
10
-290.12365087228767
20
233.59038854031317
30
0
40
0.090756635978755065
210
0
220
0
230
1
100
AcDbArc
50
167.17404233144129
51
196.82197429837427
0
ARC
5
486
100
AcDbEntity
8
0
100
AcDbCircle
10
-290.13090884737204
20
233.58819408309787
30
0
40
0.083174166408597955
210
0
220
0
230
1
100
AcDbArc
50
196.82190331772307
51
228.07117736763888
0
ARC
5
487
100
AcDbEntity
8
0
100
AcDbCircle
10
-290.15014464723725
20
233.56677715956002
30
0
40
0.054387005897848402
210
0
220
0
230
1
100
AcDbArc
50
228.07120664220028
51
270.99998798369143
0
ARC
5
488
100
AcDbEntity
8
0
100
AcDbCircle
10
-290.147957746239
20
233.44148666389526
30
0
40
0.070922574102682712
210
0
220
-0
230
1
100
AcDbArc
50
47.362100901565974
51
90.999966615705645
0
ARC
5
489
100
AcDbEntity
8
0
100
AcDbCircle
10
-308.31539810696154
20
213.71076906006496
30
0
40
26.89175601422
210
0
220
-0
230
1
100
AcDbArc
50
46.695616320256029
51
47.362078948906507
0
ARC
5
490
100
AcDbEntity
8
0
100
AcDbCircle
10
-296.00581042041841
20
226.77137814630717
30
0
40
8.9444593176063911
210
0
220
-0
230
1
100
AcDbArc
50
44.747174168937164
51
46.695642091836277
0
ARC
5
491
100
AcDbEntity
8
0
100
AcDbCircle
10
-291.64468714658699
20
231.09417717525736
30
0
40
2.8039391723574791
210
0
220
-0
230
1
100
AcDbArc
50
40.122499777200247
51
44.747245627309873
0
ARC
5
492
100
AcDbEntity
8
0
100
AcDbCircle
10
-290.10279086260789
20
232.39360887200229
30
0
40
0.78751489035405153
210
0
220
-0
230
1
100
AcDbArc
50
34.977556256486757
51
40.122540329677989
0
ARC
5
493
100
AcDbEntity
8
0
100
AcDbCircle
10
-292.39927033739201
20
230.78693287361108
30
0
40
3.5902324540605943
210
0
220
-0
230
1
100
AcDbArc
50
33.308726761881907
51
34.977608728986134
0
ARC
5
494
100
AcDbEntity
8
0
100
AcDbCircle
10
-292.75749163768137
20
230.55154345524443
30
0
40
4.0188706211089276
210
0
220
-0
230
1
100
AcDbArc
50
31.648828866411545
51
33.308773163352576
0
ARC
5
495
100
AcDbEntity
8
0
100
AcDbCircle
10
-292.29136236727038
20
230.83885392790052
30
0
40
3.4713089310425316
210
0
220
-0
230
1
100
AcDbArc
50
29.796181707254448
51
31.648857676122354
0
LINE
5
496
100
AcDbEntity
8
0
100
AcDbLine
10
-289.27896543855263
20
232.5638033296475
30
0
11
-289.14622297894869
21
232.33198658145454
31
0
0
LINE
5
497
100
AcDbEntity
8
0
100
AcDbLine
10
-289.14622297894869
20
232.33198658145454
30
0
11
-289.10957630890374
21
229.71000884881431
31
0
0
LINE
5
498
100
AcDbEntity
8
0
100
AcDbLine
10
-289.10957630890374
20
229.71000884881431
30
0
11
-289.09790303152823
21
228.87481581182578
31
0
0
ARC
5
499
100
AcDbEntity
8
0
100
AcDbCircle
10
-290.77602545819633
20
233.05231380484898
30
0
40
4.5019533938725873
210
0
220
0
230
1
100
AcDbArc
50
283.98306366264541
51
291.88558189087996
0
LINE
5
500
100
AcDbEntity
8
0
100
AcDbLine
10
-289.68819563196251
20
228.68376591913719
30
0
11
-289.67838231974571
21
229.05774149332538
31
0
0
LINE
5
501
100
AcDbEntity
8
0
100
AcDbLine
10
-289.67838231974571
20
229.05774149332538
30
0
11
-289.77751464350189
21
229.03637607839994
31
0
0
ARC
5
502
100
AcDbEntity
8
0
100
AcDbCircle
10
-289.43829777323435
20
227.46246384331323
30
0
40
1.6100521136999917
210
0
220
0
230
1
100
AcDbArc
50
102.16260869692331
51
104.1894513500018
0
ARC
5
503
100
AcDbEntity
8
0
100
AcDbCircle
10
-286.39825149369591
20
215.43900010846474
30
0
40
14.011889137502237
210
0
220
0
230
1
100
AcDbArc
50
104.18944136003773
51
104.60197052700818
0
ARC
5
504
100
AcDbEntity
8
0
100
AcDbCircle
10
-286.03337136016904
20
214.03831979492273
30
0
40
15.459315423088166
210
0
220
0
230
1
100
AcDbArc
50
104.60189448795671
51
105.03665434139003
0
ARC
5
505
100
AcDbEntity
8
0
100
AcDbCircle
10
-285.67147332152086
20
212.69102222753179
30
0
40
16.854371308897502
210
0
220
0
230
1
100
AcDbArc
50
105.03654528881953
51
105.4440324433222
0
ARC
5
506
100
AcDbEntity
8
0
100
AcDbCircle
10
-290.69289104325895
20
230.86659492863768
30
0
40
2.002088564296415
210
0
220
0
230
1
100
AcDbArc
50
276.63330049788277
51
285.44402761008132
0
ARC
5
507
100
AcDbEntity
8
0
100
AcDbCircle
10
-290.97381841001254
20
233.28227368955373
30
0
40
4.4340474581374512
210
0
220
0
230
1
100
AcDbArc
50
273.26583518394
51
276.63331212011479
0
LINE
5
508
100
AcDbEntity
8
0
100
AcDbLine
10
-290.7212164152574
20
228.85542728457639
30
0
11
-290.72118417523166
21
228.8563505181281
31
0
0
ARC
5
509
100
AcDbEntity
8
0
100
AcDbCircle
10
-290.90316213626988
20
232.10286778204039
30
0
40
3.2516134953565325
210
0
220
0
230
1
100
AcDbArc
50
249.77240748710651
51
273.20825944637591
0
ARC
5
510
100
AcDbEntity
8
0
100
AcDbCircle
10
-291.95105569405098
20
229.23700006097792
30
0
40
0.20032869326488245
210
0
220
0
230
1
100
AcDbArc
50
242.16719591143399
51
247.59602066332286
0
LINE
5
511
100
AcDbEntity
8
0
100
AcDbLine
10
-292.04458776290068
20
229.05984663187786
30
0
11
-292.17435362725524
21
229.11227544429534
31
0
0
ARC
5
512
100
AcDbEntity
8
0
100
AcDbCircle
10
-292.1759565105333
20
229.28798104442453
30
0
40
0.17571291116919763
210
0
220
0
230
1
100
AcDbArc
50
268.78009466211074
51
270.52266916545125
0
ARC
5
513
100
AcDbEntity
8
0
100
AcDbCircle
10
-290.90316213626988
20
232.10286778204039
30
0
40
3.2516134953566178
210
0
220
0
230
1
100
AcDbArc
50
243.34754834115296
51
246.88454740856545
0
ARC
5
514
100
AcDbEntity
8
0
100
AcDbCircle
10
-283.90179087319962
20
242.66249035923636
30
0
40
15.902737944731376
210
0
220
0
230
1
100
AcDbArc
50
236.94256277901621
51
237.86052522536022
0
ARC
5
515
100
AcDbEntity
8
0
100
AcDbCircle
10
-288.03868872299626
20
236.30620310401767
30
0
40
8.3187870291249606
210
0
220
0
230
1
100
AcDbArc
50
234.41415442958825
51
236.94262917973413
0
ARC
5
516
100
AcDbEntity
8
0
100
AcDbCircle
10
-291.3047295756524
20
231.74186531707085
30
0
40
2.7062829280516194
210
0
220
0
230
1
100
AcDbArc
50
228.57447783520706
51
234.41417463606632
0
ARC
5
517
100
AcDbEntity
8
0
100
AcDbCircle
10
-291.42917297584052
20
231.60083891964589
30
0
40
2.518201550395498
210
0
220
0
230
1
100
AcDbArc
50
221.29784264818477
51
228.57448152168737
0
ARC
5
518
100
AcDbEntity
8
0
100
AcDbCircle
10
-290.34110233395472
20
232.55666479671686
30
0
40
3.9664766723950073
210
0
220
0
230
1
100
AcDbArc
50
216.12061492426298
51
221.29789743175397
0
ARC
5
519
100
AcDbEntity
8
0
100
AcDbCircle
10
-289.64555267939562
20
233.06425460431635
30
0
40
4.8275438792563587
210
0
220
0
230
1
100
AcDbArc
50
211.42258806616871
51
216.120642178792
0
ARC
5
520
100
AcDbEntity
8
0
100
AcDbCircle
10
-287.92794944068271
20
234.11361158310717
30
0
40
6.8403307419348263
210
0
220
0
230
1
100
AcDbArc
50
207.80453002388165
51
211.42257249945661
0
ARC
5
521
100
AcDbEntity
8
0
100
AcDbCircle
10
-291.68919845955713
20
232.13014765056809
30
0
40
2.588140323614347
210
0
220
0
230
1
100
AcDbArc
50
202.31889033916883
51
207.80448637061488
0
ARC
5
522
100
AcDbEntity
8
0
100
AcDbCircle
10
-284.1683646289016
20
235.21757260905162
30
0
40
10.718031736332303
210
0
220
0
230
1
100
AcDbArc
50
200.41034257650691
51
202.31893546064836
0
ARC
5
523
100
AcDbEntity
8
0
100
AcDbCircle
10
-283.04042380049776
20
235.63729405734821
30
0
40
11.921533546228018
210
0
220
0
230
1
100
AcDbArc
50
198.72982799004035
51
200.41039767211595
0
ARC
5
524
100
AcDbEntity
8
0
100
AcDbCircle
10
-293.27441128882703
20
232.16734221309818
30
0
40
1.1152823131368401
210
0
220
0
230
1
100
AcDbArc
50
189.9295089045028
51
198.72987843209046
0
CIRCLE
5
525
100
AcDbEntity
8
0
100
AcDbCircle
10
-290.82737400677968
20
232.98400042642251
30
0
40
8.2863620980643233
210
0
220
0
230
1
0
ENDSEC
0
SECTION
2
OBJECTS
0
DICTIONARY
5
C
100
AcDbDictionary
3
ACAD_GROUP
350
D
3
ACAD_MLINESTYLE
350
17
0
DICTIONARY
5
D
100
AcDbDictionary
0
DICTIONARY
5
1A
330
C
100
AcDbDictionary
0
DICTIONARY
5
17
100
AcDbDictionary
0
ENDSEC
0
EOF
