  0
SECTION
  2
ENTITIES
  0
POLYLINE
  8
7
  6
CONTINUOUS
 66
1
  0
VERTEX
  8
7
 10
5.1170
 20
6.9092
  0
VERTEX
  8
7
 10
5.0553
 20
6.8310
  0
VERTEX
  8
7
 10
5.0192
 20
6.7382
  0
SEQEND
  0
POLYLINE
  8
7
  6
CONTINUOUS
 66
1
  0
VERTEX
  8
7
 10
7.1220
 20
6.6701
  0
VERTEX
  8
7
 10
6.9307
 20
6.8732
  0
VERTEX
  8
7
 10
6.7061
 20
7.0331
  0
VERTEX
  8
7
 10
6.4547
 20
7.1462
  0
VERTEX
  8
7
 10
6.1828
 20
7.2087
  0
VERTEX
  8
7
 10
5.9039
 20
7.2171
  0
VERTEX
  8
7
 10
5.6321
 20
7.1714
  0
VERTEX
  8
7
 10
5.3743
 20
7.0736
  0
VERTEX
  8
7
 10
5.1378
 20
6.9255
  0
VERTEX
  8
7
 10
5.1170
 20
6.9092
  0
SEQEND
  0
POLYLINE
  8
7
  6
CONTINUOUS
 66
1
  0
VERTEX
  8
7
 10
7.1092
 20
6.3638
  0
VERTEX
  8
7
 10
7.1639
 20
6.4015
  0
VERTEX
  8
7
 10
7.1999
 20
6.4574
  0
VERTEX
  8
7
 10
7.2118
 20
6.5228
  0
VERTEX
  8
7
 10
7.1978
 20
6.5877
  0
VERTEX
  8
7
 10
7.1668
 20
6.6353
  0
VERTEX
  8
7
 10
7.1220
 20
6.6701
  0
SEQEND
  0
POLYLINE
  8
7
  6
CONTINUOUS
 66
1
  0
VERTEX
  8
7
 10
7.1092
 20
6.3638
  0
VERTEX
  8
7
 10
7.0055
 20
6.2820
  0
VERTEX
  8
7
 10
6.9163
 20
6.1846
  0
SEQEND
  0
POLYLINE
  8
7
  6
CONTINUOUS
 66
1
  0
VERTEX
  8
7
 10
6.9163
 20
6.1846
  0
VERTEX
  8
7
 10
6.8383
 20
5.9947
  0
VERTEX
  8
7
 10
6.7948
 20
5.7940
  0
SEQEND
  0
POLYLINE
  8
7
  6
CONTINUOUS
 66
1
  0
VERTEX
  8
7
 10
6.7948
 20
5.7940
  0
VERTEX
  8
7
 10
6.7870
 20
5.7183
  0
SEQEND
  0
POLYLINE
  8
7
  6
CONTINUOUS
 66
1
  0
VERTEX
  8
7
 10
6.7870
 20
5.7183
  0
VERTEX
  8
7
 10
6.7926
 20
5.6424
  0
SEQEND
  0
POLYLINE
  8
7
  6
CONTINUOUS
 66
1
  0
VERTEX
  8
7
 10
6.7926
 20
5.6423
  0
VERTEX
  8
7
 10
6.8303
 20
5.4405
  0
VERTEX
  8
7
 10
6.9028
 20
5.2484
  0
SEQEND
  0
POLYLINE
  8
7
  6
CONTINUOUS
 66
1
  0
VERTEX
  8
7
 10
6.9028
 20
5.2484
  0
VERTEX
  8
7
 10
6.9891
 20
5.1485
  0
VERTEX
  8
7
 10
7.0905
 20
5.0638
  0
SEQEND
  0
POLYLINE
  8
7
  6
CONTINUOUS
 66
1
  0
VERTEX
  8
7
 10
7.0944
 20
4.7572
  0
VERTEX
  8
7
 10
7.1469
 20
4.7979
  0
VERTEX
  8
7
 10
7.1798
 20
4.8556
  0
VERTEX
  8
7
 10
7.1882
 20
4.9216
  0
VERTEX
  8
7
 10
7.1706
 20
4.9856
  0
VERTEX
  8
7
 10
7.1372
 20
5.0315
  0
VERTEX
  8
7
 10
7.0905
 20
5.0638
  0
SEQEND
  0
POLYLINE
  8
7
  6
CONTINUOUS
 66
1
  0
VERTEX
  8
7
 10
5.0834
 20
4.5760
  0
VERTEX
  8
7
 10
5.3126
 20
4.4169
  0
VERTEX
  8
7
 10
5.5654
 20
4.3070
  0
VERTEX
  8
7
 10
5.8347
 20
4.2484
  0
VERTEX
  8
7
 10
6.1137
 20
4.2435
  0
VERTEX
  8
7
 10
6.3883
 20
4.2930
  0
VERTEX
  8
7
 10
6.6448
 20
4.3940
  0
VERTEX
  8
7
 10
6.8767
 20
4.5431
  0
VERTEX
  8
7
 10
7.0774
 20
4.7369
  0
VERTEX
  8
7
 10
7.0944
 20
4.7572
  0
SEQEND
  0
POLYLINE
  8
7
  6
CONTINUOUS
 66
1
  0
VERTEX
  8
7
 10
4.9905
 20
4.7498
  0
VERTEX
  8
7
 10
5.0240
 20
4.6560
  0
VERTEX
  8
7
 10
5.0834
 20
4.5760
  0
SEQEND
  0
POLYLINE
  8
7
  6
CONTINUOUS
 66
1
  0
VERTEX
  8
7
 10
4.9905
 20
4.7498
  0
VERTEX
  8
7
 10
5.0192
 20
6.7382
  0
SEQEND
  0
POLYLINE
  8
7
  6
CONTINUOUS
 66
1
  0
VERTEX
  8
7
 10
12.1051
 20
7.6328
  0
VERTEX
  8
7
 10
12.0687
 20
7.4793
  0
VERTEX
  8
7
 10
11.9352
 20
6.9654
  0
VERTEX
  8
7
 10
11.8973
 20
6.8418
  0
VERTEX
  8
7
 10
11.8786
 20
6.8472
  0
VERTEX
  8
7
 10
11.7363
 20
6.8699
  0
VERTEX
  8
7
 10
11.5566
 20
6.8795
  0
VERTEX
  8
7
 10
11.1084
 20
6.8592
  0
VERTEX
  8
7
 10
10.9793
 20
6.8470
  0
VERTEX
  8
7
 10
10.9770
 20
6.8476
  0
VERTEX
  8
7
 10
10.9720
 20
6.8515
  0
VERTEX
  8
7
 10
10.9665
 20
6.8588
  0
VERTEX
  8
7
 10
10.9604
 20
6.8695
  0
VERTEX
  8
7
 10
10.9537
 20
6.8838
  0
VERTEX
  8
7
 10
10.9464
 20
6.9018
  0
VERTEX
  8
7
 10
10.8550
 20
7.2141
  0
VERTEX
  8
7
 10
10.7526
 20
7.6482
  0
VERTEX
  8
7
 10
10.7432
 20
7.6913
  0
VERTEX
  8
7
 10
10.7327
 20
7.6807
  0
VERTEX
  8
7
 10
10.7295
 20
7.6766
  0
VERTEX
  8
7
 10
10.6892
 20
7.6037
  0
VERTEX
  8
7
 10
10.6623
 20
7.5084
  0
VERTEX
  8
7
 10
10.6493
 20
7.2500
  0
VERTEX
  8
7
 10
10.6527
 20
7.1772
  0
VERTEX
  8
7
 10
10.6562
 20
6.9344
  0
VERTEX
  8
7
 10
10.6430
 20
6.7233
  0
VERTEX
  8
7
 10
10.6135
 20
6.5469
  0
VERTEX
  8
7
 10
10.5680
 20
6.4083
  0
VERTEX
  8
7
 10
10.5173
 20
6.3208
  0
VERTEX
  8
7
 10
10.4533
 20
6.2521
  0
VERTEX
  8
7
 10
10.3783
 20
6.2042
  0
VERTEX
  8
7
 10
10.2946
 20
6.1790
  0
VERTEX
  8
7
 10
10.0838
 20
6.1550
  0
VERTEX
  8
7
 10
9.8715
 20
6.1470
  0
VERTEX
  8
7
 10
9.6587
 20
6.1546
  0
VERTEX
  8
7
 10
9.4462
 20
6.1779
  0
VERTEX
  8
7
 10
9.2348
 20
6.2167
  0
VERTEX
  8
7
 10
9.0253
 20
6.2708
  0
VERTEX
  8
7
 10
8.8186
 20
6.3402
  0
VERTEX
  8
7
 10
8.6154
 20
6.4247
  0
VERTEX
  8
7
 10
8.4352
 20
6.5252
  0
VERTEX
  8
7
 10
8.2688
 20
6.6550
  0
VERTEX
  8
7
 10
8.1168
 20
6.8129
  0
VERTEX
  8
7
 10
7.9801
 20
6.9978
  0
VERTEX
  8
7
 10
7.8594
 20
7.2086
  0
VERTEX
  8
7
 10
7.7554
 20
7.4440
  0
VERTEX
  8
7
 10
7.6689
 20
7.7031
  0
VERTEX
  8
7
 10
7.6005
 20
7.9847
  0
VERTEX
  8
7
 10
0.0000
 20
7.9788
  0
VERTEX
  8
7
 10
0.1659
 20
7.9135
  0
VERTEX
  8
7
 10
0.5784
 20
7.7385
  0
VERTEX
  8
7
 10
0.9650
 20
7.5485
  0
VERTEX
  8
7
 10
1.3252
 20
7.3436
  0
VERTEX
  8
7
 10
1.6587
 20
7.1242
  0
VERTEX
  8
7
 10
1.9651
 20
6.8905
  0
VERTEX
  8
7
 10
2.2439
 20
6.6429
  0
VERTEX
  8
7
 10
2.4949
 20
6.3815
  0
VERTEX
  8
7
 10
2.7175
 20
6.1067
  0
VERTEX
  8
7
 10
2.9167
 20
5.8104
  0
VERTEX
  8
7
 10
3.0832
 20
5.5042
  0
VERTEX
  8
7
 10
3.2167
 20
5.1906
  0
VERTEX
  8
7
 10
3.3165
 20
4.8717
  0
VERTEX
  8
7
 10
3.3820
 20
4.5499
  0
VERTEX
  8
7
 10
3.4125
 20
4.2276
  0
VERTEX
  8
7
 10
3.4076
 20
3.9071
  0
VERTEX
  8
7
 10
3.3666
 20
3.5906
  0
VERTEX
  8
7
 10
3.3386
 20
3.4429
  0
VERTEX
  8
7
 10
3.3410
 20
3.4415
  0
VERTEX
  8
7
 10
3.3477
 20
3.4405
  0
VERTEX
  8
7
 10
3.3724
 20
3.4396
  0
VERTEX
  8
7
 10
3.4089
 20
3.4404
  0
VERTEX
  8
7
 10
3.8909
 20
3.4638
  0
VERTEX
  8
7
 10
4.6511
 20
3.4874
  0
VERTEX
  8
7
 10
5.3692
 20
3.4828
  0
VERTEX
  8
7
 10
6.0446
 20
3.4498
  0
VERTEX
  8
7
 10
6.6766
 20
3.3886
  0
VERTEX
  8
7
 10
7.2644
 20
3.2994
  0
VERTEX
  8
7
 10
7.8075
 20
3.1821
  0
VERTEX
  8
7
 10
8.3050
 20
3.0370
  0
VERTEX
  8
7
 10
8.7563
 20
2.8639
  0
VERTEX
  8
7
 10
9.2236
 20
2.6344
  0
VERTEX
  8
7
 10
9.6550
 20
2.3707
  0
VERTEX
  8
7
 10
10.0481
 20
2.0750
  0
VERTEX
  8
7
 10
10.4006
 20
1.7499
  0
VERTEX
  8
7
 10
10.7101
 20
1.3978
  0
VERTEX
  8
7
 10
10.9743
 20
1.0210
  0
VERTEX
  8
7
 10
11.1908
 20
0.6220
  0
VERTEX
  8
7
 10
11.3573
 20
0.2032
  0
VERTEX
  8
7
 10
11.4241
 20
0.0000
  0
VERTEX
  8
7
 10
11.4359
 20
0.0000
  0
VERTEX
  8
7
 10
11.5067
 20
0.2156
  0
VERTEX
  8
7
 10
11.6465
 20
0.5812
  0
VERTEX
  8
7
 10
11.8202
 20
0.9311
  0
VERTEX
  8
7
 10
12.0264
 20
1.2631
  0
VERTEX
  8
7
 10
12.2639
 20
1.5747
  0
VERTEX
  8
7
 10
12.5107
 20
1.8440
  0
VERTEX
  8
7
 10
12.7829
 20
2.0950
  0
VERTEX
  8
7
 10
13.0795
 20
2.3271
  0
VERTEX
  8
7
 10
13.3993
 20
2.5396
  0
VERTEX
  8
7
 10
13.7414
 20
2.7319
  0
VERTEX
  8
7
 10
14.1048
 20
2.9034
  0
VERTEX
  8
7
 10
14.4884
 20
3.0535
  0
VERTEX
  8
7
 10
14.8911
 20
3.1814
  0
VERTEX
  8
7
 10
15.3263
 20
3.2901
  0
VERTEX
  8
7
 10
15.7863
 20
3.3766
  0
VERTEX
  8
7
 10
16.2711
 20
3.4408
  0
VERTEX
  8
7
 10
16.7804
 20
3.4827
  0
VERTEX
  8
7
 10
17.2742
 20
3.4991
  0
VERTEX
  8
7
 10
17.8836
 20
3.4980
  0
VERTEX
  8
7
 10
19.3461
 20
3.4447
  0
VERTEX
  8
7
 10
19.5214
 20
3.4350
  0
VERTEX
  8
7
 10
19.5214
 20
3.4509
  0
VERTEX
  8
7
 10
19.4443
 20
3.9196
  0
VERTEX
  8
7
 10
19.4164
 20
4.2969
  0
VERTEX
  8
7
 10
19.4281
 20
4.5542
  0
VERTEX
  8
7
 10
19.4659
 20
4.8115
  0
VERTEX
  8
7
 10
19.5294
 20
5.0676
  0
VERTEX
  8
7
 10
19.6179
 20
5.3211
  0
VERTEX
  8
7
 10
19.7310
 20
5.5706
  0
VERTEX
  8
7
 10
19.8681
 20
5.8149
  0
VERTEX
  8
7
 10
20.0287
 20
6.0526
  0
VERTEX
  8
7
 10
20.2122
 20
6.2824
  0
VERTEX
  8
7
 10
20.4183
 20
6.5015
  0
VERTEX
  8
7
 10
20.6541
 20
6.7163
  0
VERTEX
  8
7
 10
20.9195
 20
6.9269
  0
VERTEX
  8
7
 10
21.2144
 20
7.1330
  0
VERTEX
  8
7
 10
21.5384
 20
7.3345
  0
VERTEX
  8
7
 10
21.8914
 20
7.5314
  0
VERTEX
  8
7
 10
22.2732
 20
7.7234
  0
VERTEX
  8
7
 10
22.6836
 20
7.9105
  0
VERTEX
  8
7
 10
22.6837
 20
7.9105
  0
VERTEX
  8
7
 10
22.8600
 20
7.9788
  0
VERTEX
  8
7
 10
15.2595
 20
7.9847
  0
VERTEX
  8
7
 10
15.1917
 20
7.7058
  0
VERTEX
  8
7
 10
15.1057
 20
7.4487
  0
VERTEX
  8
7
 10
15.0023
 20
7.2144
  0
VERTEX
  8
7
 10
14.8822
 20
7.0042
  0
VERTEX
  8
7
 10
14.7462
 20
6.8193
  0
VERTEX
  8
7
 10
14.5951
 20
6.6609
  0
VERTEX
  8
7
 10
14.4297
 20
6.5302
  0
VERTEX
  8
7
 10
14.2507
 20
6.4284
  0
VERTEX
  8
7
 10
13.8429
 20
6.2696
  0
VERTEX
  8
7
 10
13.6372
 20
6.2134
  0
VERTEX
  8
7
 10
13.4314
 20
6.1728
  0
VERTEX
  8
7
 10
13.2262
 20
6.1479
  0
VERTEX
  8
7
 10
13.0224
 20
6.1389
  0
VERTEX
  8
7
 10
12.8206
 20
6.1458
  0
VERTEX
  8
7
 10
12.6217
 20
6.1688
  0
VERTEX
  8
7
 10
12.5097
 20
6.2040
  0
VERTEX
  8
7
 10
12.4113
 20
6.2701
  0
VERTEX
  8
7
 10
12.3306
 20
6.3632
  0
VERTEX
  8
7
 10
12.2720
 20
6.4797
  0
VERTEX
  8
7
 10
12.2201
 20
6.7275
  0
VERTEX
  8
7
 10
12.2012
 20
7.0785
  0
VERTEX
  8
7
 10
12.1795
 20
7.4804
  0
VERTEX
  8
7
 10
12.1767
 20
7.5010
  0
VERTEX
  8
7
 10
12.1305
 20
7.6766
  0
VERTEX
  8
7
 10
12.1273
 20
7.6807
  0
VERTEX
  8
7
 10
12.1261
 20
7.6814
  0
VERTEX
  8
7
 10
12.1247
 20
7.6811
  0
VERTEX
  8
7
 10
12.1215
 20
7.6779
  0
VERTEX
  8
7
 10
12.1179
 20
7.6712
  0
VERTEX
  8
7
 10
12.1139
 20
7.6613
  0
VERTEX
  8
7
 10
12.1051
 20
7.6328
  0
VERTEX
  8
7
 10
12.1051
 20
7.6328
  0
SEQEND
  0
POLYLINE
  8
7
  6
CONTINUOUS
 66
1
  0
VERTEX
  8
7
 10
17.8066
 20
6.9092
  0
VERTEX
  8
7
 10
17.8683
 20
6.8310
  0
VERTEX
  8
7
 10
17.9044
 20
6.7382
  0
SEQEND
  0
POLYLINE
  8
7
  6
CONTINUOUS
 66
1
  0
VERTEX
  8
7
 10
15.8016
 20
6.6701
  0
VERTEX
  8
7
 10
15.9929
 20
6.8732
  0
VERTEX
  8
7
 10
16.2175
 20
7.0331
  0
VERTEX
  8
7
 10
16.4689
 20
7.1462
  0
VERTEX
  8
7
 10
16.7408
 20
7.2087
  0
VERTEX
  8
7
 10
17.0196
 20
7.2171
  0
VERTEX
  8
7
 10
17.2915
 20
7.1714
  0
VERTEX
  8
7
 10
17.5493
 20
7.0736
  0
VERTEX
  8
7
 10
17.7857
 20
6.9255
  0
VERTEX
  8
7
 10
17.8066
 20
6.9092
  0
SEQEND
  0
POLYLINE
  8
7
  6
CONTINUOUS
 66
1
  0
VERTEX
  8
7
 10
15.8143
 20
6.3638
  0
VERTEX
  8
7
 10
15.7597
 20
6.4015
  0
VERTEX
  8
7
 10
15.7237
 20
6.4574
  0
VERTEX
  8
7
 10
15.7118
 20
6.5228
  0
VERTEX
  8
7
 10
15.7258
 20
6.5877
  0
VERTEX
  8
7
 10
15.7568
 20
6.6353
  0
VERTEX
  8
7
 10
15.8016
 20
6.6701
  0
SEQEND
  0
POLYLINE
  8
7
  6
CONTINUOUS
 66
1
  0
VERTEX
  8
7
 10
15.8143
 20
6.3638
  0
VERTEX
  8
7
 10
15.9181
 20
6.2820
  0
VERTEX
  8
7
 10
16.0073
 20
6.1846
  0
SEQEND
  0
POLYLINE
  8
7
  6
CONTINUOUS
 66
1
  0
VERTEX
  8
7
 10
16.0073
 20
6.1846
  0
VERTEX
  8
7
 10
16.0853
 20
5.9947
  0
VERTEX
  8
7
 10
16.1288
 20
5.7940
  0
SEQEND
  0
POLYLINE
  8
7
  6
CONTINUOUS
 66
1
  0
VERTEX
  8
7
 10
16.1288
 20
5.7940
  0
VERTEX
  8
7
 10
16.1366
 20
5.7183
  0
SEQEND
  0
POLYLINE
  8
7
  6
CONTINUOUS
 66
1
  0
VERTEX
  8
7
 10
16.1366
 20
5.7183
  0
VERTEX
  8
7
 10
16.1310
 20
5.6424
  0
SEQEND
  0
POLYLINE
  8
7
  6
CONTINUOUS
 66
1
  0
VERTEX
  8
7
 10
16.1310
 20
5.6423
  0
VERTEX
  8
7
 10
16.0933
 20
5.4405
  0
VERTEX
  8
7
 10
16.0208
 20
5.2484
  0
SEQEND
  0
POLYLINE
  8
7
  6
CONTINUOUS
 66
1
  0
VERTEX
  8
7
 10
16.0208
 20
5.2484
  0
VERTEX
  8
7
 10
15.9344
 20
5.1485
  0
VERTEX
  8
7
 10
15.8331
 20
5.0638
  0
SEQEND
  0
POLYLINE
  8
7
  6
CONTINUOUS
 66
1
  0
VERTEX
  8
7
 10
15.8292
 20
4.7572
  0
VERTEX
  8
7
 10
15.7767
 20
4.7979
  0
VERTEX
  8
7
 10
15.7438
 20
4.8556
  0
VERTEX
  8
7
 10
15.7354
 20
4.9216
  0
VERTEX
  8
7
 10
15.7529
 20
4.9856
  0
VERTEX
  8
7
 10
15.7864
 20
5.0315
  0
VERTEX
  8
7
 10
15.8331
 20
5.0638
  0
SEQEND
  0
POLYLINE
  8
7
  6
CONTINUOUS
 66
1
  0
VERTEX
  8
7
 10
17.8402
 20
4.5760
  0
VERTEX
  8
7
 10
17.6110
 20
4.4169
  0
VERTEX
  8
7
 10
17.3582
 20
4.3070
  0
VERTEX
  8
7
 10
17.0888
 20
4.2484
  0
VERTEX
  8
7
 10
16.8099
 20
4.2435
  0
VERTEX
  8
7
 10
16.5353
 20
4.2930
  0
VERTEX
  8
7
 10
16.2788
 20
4.3940
  0
VERTEX
  8
7
 10
16.0469
 20
4.5431
  0
VERTEX
  8
7
 10
15.8462
 20
4.7369
  0
VERTEX
  8
7
 10
15.8292
 20
4.7572
  0
SEQEND
  0
POLYLINE
  8
7
  6
CONTINUOUS
 66
1
  0
VERTEX
  8
7
 10
17.9331
 20
4.7498
  0
VERTEX
  8
7
 10
17.8996
 20
4.6560
  0
VERTEX
  8
7
 10
17.8402
 20
4.5760
  0
SEQEND
  0
POLYLINE
  8
7
  6
CONTINUOUS
 66
1
  0
VERTEX
  8
7
 10
17.9331
 20
4.7498
  0
VERTEX
  8
7
 10
17.9044
 20
6.7382
  0
SEQEND
  0
ENDSEC
  0
EOF
