0
SECTION
2
HEADER
9
$INSUNITS
70
1
9
$ACADVER
1
AC1014
9
$HANDSEED
5
FFFF
0
ENDSEC
0
SECTION
2
TABLES
0
TABLE
2
VPORT
5
8
100
AcDbSymbolTable
0
ENDTAB
0
TABLE
2
LTYPE
5
5
100
AcDbSymbolTable
0
LTYPE
5
14
100
AcDbSymbolTableRecord
100
AcDbLinetypeTableRecord
2
BYBLOCK
70
0
0
LTYPE
5
15
100
AcDbSymbolTableRecord
100
AcDbLinetypeTableRecord
2
BYLAYER
70
0
0
ENDTAB
0
TABLE
2
LAYER
5
2
100
AcDbSymbolTable
70
2
0
LAYER
5
50
100
AcDbSymbolTableRecord
100
AcDbLayerTableRecord
2
0
70
0
6
CONTINUOUS
0
ENDTAB
0
TABLE
2
STYLE
5
3
100
AcDbSymbolTable
70
1
0
STYLE
5
11
100
AcDbSymbolTableRecord
100
AcDbTextStyleTableRecord
2
STANDARD
70
0
0
ENDTAB
0
TABLE
2
VIEW
5
6
100
AcDbSymbolTable
70
0
0
ENDTAB
0
TABLE
2
UCS
5
7
100
AcDbSymbolTable
70
0
0
ENDTAB
0
TABLE
2
APPID
5
9
100
AcDbSymbolTable
70
2
0
APPID
5
12
100
AcDbSymbolTableRecord
100
AcDbRegAppTableRecord
2
ACAD
70
0
0
ENDTAB
0
TABLE
2
DIMSTYLE
5
A
100
AcDbSymbolTable
70
1
0
ENDTAB
0
TABLE
2
BLOCK_RECORD
5
1
100
AcDbSymbolTable
70
1
0
BLOCK_RECORD
5
1F
100
AcDbSymbolTableRecord
100
AcDbBlockTableRecord
2
*MODEL_SPACE
0
BLOCK_RECORD
5
1B
100
AcDbSymbolTableRecord
100
AcDbBlockTableRecord
2
*PAPER_SPACE
0
ENDTAB
0
ENDSEC
0
SECTION
2
BLOCKS
0
BLOCK
5
20
100
AcDbEntity
100
AcDbBlockBegin
2
*MODEL_SPACE
0
ENDBLK
5
21
100
AcDbEntity
100
AcDbBlockEnd
0
BLOCK
5
1C
100
AcDbEntity
100
AcDbBlockBegin
2
*PAPER_SPACE
0
ENDBLK
5
1D
100
AcDbEntity
100
AcDbBlockEnd
0
ENDSEC
0
SECTION
2
ENTITIES
0
SPLINE
5
100
100
AcDbEntity
8
0
100
AcDbSpline
70
4
71
3
72
8
73
4
74
0
42
0.000000001
43
0.0000000001
44
0.0000000001
40
0.87066444341300941
40
0.87066444341300941
40
0.87066444341300941
40
0.87066444341300941
40
1
40
1
40
1
40
1
41
1
41
1
41
1
41
1
10
1.5879303307837302
20
2.9257056534749322
30
0
10
1.5700770913002375
20
2.9234606802617358
30
0
10
1.5522261078990096
20
2.9212917014050044
30
0
10
1.5343751271565753
20
2.9192708333333326
30
0
0
SPLINE
5
101
100
AcDbEntity
8
0
100
AcDbSpline
70
4
71
3
72
8
73
4
74
0
42
0.000000001
43
0.0000000001
44
0.0000000001
40
0
40
0
40
0
40
0
40
1
40
1
40
1
40
1
41
1
41
1
41
1
41
1
10
1.5343751271565753
20
2.9192708333333326
30
0
10
1.3973960240681966
20
2.8880208333333326
30
0
10
1.2572917302449549
20
2.8645833333333326
30
0
10
1.1244792302449549
20
2.8171874682108555
30
0
0
SPLINE
5
102
100
AcDbEntity
8
0
100
AcDbSpline
70
4
71
3
72
8
73
4
74
0
42
0.000000001
43
0.0000000001
44
0.0000000001
40
0
40
0
40
0
40
0
40
1
40
1
40
1
40
1
41
1
41
1
41
1
41
1
10
1.1244792302449549
20
2.8171874682108555
30
0
10
0.99375003178914401
20
2.7703124682108555
30
0
10
0.86822924613952657
20
2.7078124682108555
30
0
10
0.74947923024495455
20
2.6359375317891427
30
0
0
SPLINE
5
103
100
AcDbEntity
8
0
100
AcDbSpline
70
4
71
3
72
8
73
4
74
0
42
0.000000001
43
0.0000000001
44
0.0000000001
40
0
40
0
40
0
40
0
40
1
40
1
40
1
40
1
41
1
41
1
41
1
41
1
10
0.39322926203409836
20
2.3020833333333326
30
0
10
0.31145844459533689
20
2.1651042302449537
30
0
10
0.23802091280619311
20
1.9718748728434241
30
0
10
0.29114589691162113
20
1.8124999999999991
30
0
0
SPLINE
5
104
100
AcDbEntity
8
0
100
AcDbSpline
70
4
71
3
72
8
73
4
74
0
42
0.000000001
43
0.0000000001
44
0.0000000001
40
0
40
0
40
0
40
0
40
1
40
1
40
1
40
1
41
1
41
1
41
1
41
1
10
0.29114589691162113
20
1.8124999999999991
30
0
10
0.32135424613952646
20
1.720833460489908
30
0
10
0.37812504768371591
20
1.6536458333333321
30
0
10
0.43489592870076521
20
1.5802084604899083
30
0
0
SPLINE
5
105
100
AcDbEntity
8
0
100
AcDbSpline
70
4
71
3
72
8
73
4
74
0
42
0.000000001
43
0.0000000001
44
0.0000000001
40
0
40
0
40
0
40
0
40
1
40
1
40
1
40
1
41
1
41
1
41
1
41
1
10
0.43489592870076521
20
1.5802084604899083
30
0
10
0.44583346048990885
20
1.5656251907348624
30
0
10
0.46250011126200358
20
1.5583333969116204
30
0
10
0.47968762715657559
20
1.5583333969116204
30
0
0
SPLINE
5
106
100
AcDbEntity
8
0
100
AcDbSpline
70
4
71
3
72
8
73
4
74
0
42
0.000000001
43
0.0000000001
44
0.0000000001
40
0
40
0
40
0
40
0
40
1
40
1
40
1
40
1
41
1
41
1
41
1
41
1
10
0.47968762715657559
20
1.5583333969116204
30
0
10
0.49114594459533684
20
1.5583333969116204
30
0
10
0.50312512715657554
20
1.5619792938232415
30
0
10
0.51354179382324217
20
1.569270769755045
30
0
0
LINE
5
107
100
AcDbEntity
8
0
100
AcDbLine
10
0.51354179382324217
20
1.569270769755045
30
0
11
0.66258415761934164
21
1.6768712289931287
31
0
0
SPLINE
5
108
100
AcDbEntity
8
0
100
AcDbSpline
70
4
71
3
72
8
73
4
74
0
42
0.000000001
43
0.0000000001
44
0.0000000001
40
0
40
0
40
0
40
0
40
1
40
1
40
1
40
1
41
1
41
1
41
1
41
1
10
0.74947923024495455
20
2.6359375317891427
30
0
10
0.60885423024495455
20
2.5515624682108555
30
0
10
0.47864589691162124
20
2.4442709287007638
30
0
10
0.39322926203409836
20
2.3020833333333326
30
0
0
LINE
5
109
100
AcDbEntity
8
0
100
AcDbLine
10
0.77219404619069543
20
1.7560035914095482
30
0
11
0.93125011126200363
21
1.8708333969116204
31
0
0
SPLINE
5
110
100
AcDbEntity
8
0
100
AcDbSpline
70
4
71
3
72
8
73
4
74
0
42
0.000000001
43
0.0000000001
44
0.0000000001
40
0
40
0
40
0
40
0
40
1
40
1
40
1
40
1
41
1
41
1
41
1
41
1
10
0.93125011126200363
20
1.8708333969116204
30
0
10
0.95677099227905271
20
1.8890625635782865
30
0
10
0.96250019073486315
20
1.9250001907348622
30
0
10
0.94427102406819663
20
1.9505208333333328
30
0
0
SPLINE
5
111
100
AcDbEntity
8
0
100
AcDbSpline
70
0
71
2
72
6
73
3
74
0
42
0.000000001
43
0.0000000001
44
0.0000000001
40
0
40
0
40
0
40
1
40
1
40
1
10
0.94427102406819663
20
1.9505208333333328
30
0
10
0.91614605585734044
20
1.9890626271565748
30
0
10
0.88125015894571934
20
2.038020769755045
30
0
0
SPLINE
5
112
100
AcDbEntity
8
0
100
AcDbSpline
70
4
71
3
72
8
73
4
74
0
42
0.000000001
43
0.0000000001
44
0.0000000001
40
0
40
0
40
0
40
0
40
1
40
1
40
1
40
1
41
1
41
1
41
1
41
1
10
0.91510432561238597
20
2.2296873728434239
30
0
10
1.0166668256123863
20
2.3203123410542799
30
0
10
1.1661460558573404
20
2.3692706425984693
30
0
10
1.2942710876464845
20
2.4078124364217115
30
0
0
SPLINE
5
113
100
AcDbEntity
8
0
100
AcDbSpline
70
0
71
2
72
6
73
3
74
0
42
0.000000001
43
0.0000000001
44
0.0000000001
40
0
40
0
40
0
40
1
40
1
40
1
10
1.2942710876464845
20
2.4078124364217115
30
0
10
1.3229169209798173
20
2.4166666666666661
30
0
10
1.6104169845581058
20
2.4817708333333326
30
0
0
SPLINE
5
114
100
AcDbEntity
8
0
100
AcDbSpline
70
0
71
2
72
6
73
3
74
0
42
0.000000001
43
0.0000000001
44
0.0000000001
40
0
40
0
40
0
40
1
40
1
40
1
10
1.6104169845581058
20
2.4817708333333326
30
0
10
1.9031253814697269
20
2.5161458651224766
30
0
10
1.9333336512247721
20
2.5171874364217111
30
0
0
SPLINE
5
115
100
AcDbEntity
8
0
100
AcDbSpline
70
4
71
3
72
8
73
4
74
0
42
0.000000001
43
0.0000000001
44
0.0000000001
40
0
40
0
40
0
40
0
40
1
40
1
40
1
40
1
41
1
41
1
41
1
41
1
10
1.9333336512247721
20
2.5171874364217111
30
0
10
1.9734378814697269
20
2.5187498728434234
30
0
10
2.0151045481363927
20
2.5208333333333326
30
0
10
2.057812786102295
20
2.5208333333333326
30
0
0
SPLINE
5
116
100
AcDbEntity
8
0
100
AcDbSpline
70
4
71
3
72
8
73
4
74
0
42
0.000000001
43
0.0000000001
44
0.0000000001
40
0
40
0
40
0
40
0
40
1
40
1
40
1
40
1
41
1
41
1
41
1
41
1
10
2.057812786102295
20
2.5208333333333326
30
0
10
2.1578128496805822
20
2.5208333333333326
30
0
10
2.2619795163472496
20
2.511979103088378
30
0
10
2.3500003178914386
20
2.475520769755045
30
0
0
SPLINE
5
117
100
AcDbEntity
8
0
100
AcDbSpline
70
4
71
3
72
8
73
4
74
0
42
0.000000001
43
0.0000000001
44
0.0000000001
40
0
40
0
40
0
40
0
40
1
40
1
40
1
40
1
41
1
41
1
41
1
41
1
10
2.3500003178914386
20
2.475520769755045
30
0
10
2.4244794209798171
20
2.4447916348775216
30
0
10
2.4713544209798171
20
2.3932291666666661
30
0
10
2.445312754313151
20
2.3057290712992344
30
0
0
SPLINE
5
118
100
AcDbEntity
8
0
100
AcDbSpline
70
0
71
2
72
6
73
3
74
0
42
0.000000001
43
0.0000000001
44
0.0000000001
40
0
40
0
40
0
40
1
40
1
40
1
10
2.445312754313151
20
2.3057290712992344
30
0
10
2.428125317891439
20
2.2479165395100904
30
0
10
2.4151044845581051
20
2.2020832697550445
30
0
0
SPLINE
5
119
100
AcDbEntity
8
0
100
AcDbSpline
70
4
71
3
72
8
73
4
74
0
42
0.000000001
43
0.0000000001
44
0.0000000001
40
0
40
0
40
0
40
0
40
1
40
1
40
1
40
1
41
1
41
1
41
1
41
1
10
2.4151044845581051
20
2.2020832697550445
30
0
10
2.4062502543131505
20
2.1718749999999991
30
0
10
2.4234376907348638
20
2.140104134877522
30
0
10
2.4536462783813482
20
2.1317707697550445
30
0
0
LINE
5
120
100
AcDbEntity
8
0
100
AcDbLine
10
2.4536462783813482
20
2.1317707697550445
30
0
11
2.5990073293505254
21
2.0890804869035309
31
0
0
SPLINE
5
121
100
AcDbEntity
8
0
100
AcDbSpline
70
4
71
3
72
8
73
4
74
0
42
0.000000001
43
0.0000000001
44
0.0000000001
40
0
40
0
40
0
40
0
40
1
40
1
40
1
40
1
41
1
41
1
41
1
41
1
10
0.88125015894571934
20
2.038020769755045
30
0
10
0.82812517484029124
20
2.1114583015441886
30
0
10
0.85468762715657542
20
2.1760416030883785
30
0
10
0.91510432561238597
20
2.2296873728434239
30
0
0
SPLINE
5
122
100
AcDbEntity
8
0
100
AcDbSpline
70
4
71
3
72
8
73
4
74
0
42
0.000000001
43
0.0000000001
44
0.0000000001
40
0
40
0
40
0
40
0
40
0.57005821559151937
40
0.57005821559151937
40
0.57005821559151937
40
0.57005821559151937
41
1
41
1
41
1
41
1
10
1.9494791984558104
20
2.9593750635782867
30
0
10
1.8702054416067897
20
2.9593750635782867
30
0
10
1.7912702120531196
20
2.9514201370056692
30
0
10
1.7124805589735375
20
2.9416852990339089
30
0
0
LINE
5
123
100
AcDbEntity
8
0
100
AcDbLine
10
2.8088780483624269
20
2.0274447165432266
30
0
11
2.9484379450480138
21
1.9864581425984689
31
0
0
SPLINE
5
124
100
AcDbEntity
8
0
100
AcDbSpline
70
4
71
3
72
8
73
4
74
0
42
0.000000001
43
0.0000000001
44
0.0000000001
40
0
40
0
40
0
40
0
40
1
40
1
40
1
40
1
41
1
41
1
41
1
41
1
10
2.9484379450480138
20
1.9864581425984689
30
0
10
2.9536462783813482
20
1.9848957061767565
30
0
10
2.9593753178914386
20
1.9843746821085606
30
0
10
2.9645836512247721
20
1.9843746821085606
30
0
0
SPLINE
5
125
100
AcDbEntity
8
0
100
AcDbSpline
70
4
71
3
72
8
73
4
74
0
42
0.000000001
43
0.0000000001
44
0.0000000001
40
0
40
0
40
0
40
0
40
1
40
1
40
1
40
1
41
1
41
1
41
1
41
1
10
2.9645836512247721
20
1.9843746821085606
30
0
10
2.9885418574015294
20
1.9843746821085606
30
0
10
3.0109379450480143
20
1.9994789759318023
30
0
10
3.0187504450480143
20
2.0234371821085602
30
0
0
SPLINE
5
126
100
AcDbEntity
8
0
100
AcDbSpline
70
4
71
3
72
8
73
4
74
0
42
0.000000001
43
0.0000000001
44
0.0000000001
40
0
40
0
40
0
40
0
40
1
40
1
40
1
40
1
41
1
41
1
41
1
41
1
10
3.0187504450480143
20
2.0234371821085602
30
0
10
3.0473962783813477
20
2.1114579836527501
30
0
10
3.0786462783813482
20
2.1937497456868478
30
0
10
3.0765628178914386
20
2.2901039123535147
30
0
0
SPLINE
5
127
100
AcDbEntity
8
0
100
AcDbSpline
70
4
71
3
72
8
73
4
74
0
42
0.000000001
43
0.0000000001
44
0.0000000001
40
0
40
0
40
0
40
0
40
1
40
1
40
1
40
1
41
1
41
1
41
1
41
1
10
3.0765628178914386
20
2.2901039123535147
30
0
10
3.0734379450480147
20
2.4578123092651354
30
0
10
2.9401044209798184
20
2.6156247456868482
30
0
10
2.8171878814697267
20
2.7171872456868482
30
0
0
SPLINE
5
128
100
AcDbEntity
8
0
100
AcDbSpline
70
4
71
3
72
8
73
4
74
0
42
0.000000001
43
0.0000000001
44
0.0000000001
40
0
40
0
40
0
40
0
40
1
40
1
40
1
40
1
41
1
41
1
41
1
41
1
10
2.8171878814697267
20
2.7171872456868482
30
0
10
2.6890630086263019
20
2.8234372138977046
30
0
10
2.5307295481363936
20
2.8807288805643707
30
0
10
2.3703129450480147
20
2.9135414759318028
30
0
0
SPLINE
5
129
100
AcDbEntity
8
0
100
AcDbSpline
70
4
71
3
72
8
73
4
74
0
42
0.000000001
43
0.0000000001
44
0.0000000001
40
0
40
0
40
0
40
0
40
1
40
1
40
1
40
1
41
1
41
1
41
1
41
1
10
2.3703129450480147
20
2.9135414759318028
30
0
10
2.2343754132588707
20
2.9416664441426583
30
0
10
2.0953130086263023
20
2.9588540395100904
30
0
10
1.9562504450480147
20
2.9593747456868482
30
0
0
SPLINE
5
130
100
AcDbEntity
8
0
100
AcDbSpline
70
4
71
3
72
8
73
4
74
0
42
0.000000001
43
0.0000000001
44
0.0000000001
40
0
40
0
40
0
40
0
40
1
40
1
40
1
40
1
41
1
41
1
41
1
41
1
10
3.2848955154418946
20
2.8541665077209468
30
0
10
3.4093748092651373
20
2.6744790077209459
30
0
10
3.4546870549519864
20
2.4572916030883776
30
0
10
3.4124996821085607
20
2.2432289123535152
30
0
0
SPLINE
5
131
100
AcDbEntity
8
0
100
AcDbSpline
70
4
71
3
72
8
73
4
74
0
42
0.000000001
43
0.0000000001
44
0.0000000001
40
0
40
0
40
0
40
0
40
1
40
1
40
1
40
1
41
1
41
1
41
1
41
1
10
2.7687498092651373
20
3.1869789759318028
30
0
10
2.979166603088379
20
3.1484373410542794
30
0
10
3.1624996821085607
20
3.0302081108093253
30
0
10
3.2848955154418946
20
2.8541665077209468
30
0
0
SPLINE
5
132
100
AcDbEntity
8
0
100
AcDbSpline
70
4
71
3
72
8
73
4
74
0
42
0.000000001
43
0.0000000001
44
0.0000000001
40
0
40
0
40
0
40
0
40
1
40
1
40
1
40
1
41
1
41
1
41
1
41
1
10
3.5718751907348634
20
3.0536457697550445
30
0
10
3.7510416666666662
20
2.796354134877522
30
0
10
3.8161458333333331
20
2.4848958651224766
30
0
10
3.7562499999999996
20
2.1770833333333321
30
0
0
SPLINE
5
133
100
AcDbEntity
8
0
100
AcDbSpline
70
4
71
3
72
8
73
4
74
0
42
0.000000001
43
0.0000000001
44
0.0000000001
40
0
40
0
40
0
40
0
40
1
40
1
40
1
40
1
41
1
41
1
41
1
41
1
10
2.8307294209798171
20
3.5312499205271402
30
0
10
3.1338544845581056
20
3.4760415554046622
30
0
10
3.396875317891439
20
3.3062499364217111
30
0
10
3.5718751907348634
20
3.0536457697550445
30
0
0
LINE
5
134
100
AcDbEntity
8
0
100
AcDbLine
10
5.2451481478353848e-16
20
3.75
30
0
11
0
21
0.24999999999999989
31
0
0
ARC
5
135
100
AcDbEntity
8
0
100
AcDbCircle
10
0.24999999999999967
20
0.24999999999999967
30
0
40
0.24999999999999967
210
0
220
0
230
1
100
AcDbArc
50
180
51
270.00000000000006
0
LINE
5
136
100
AcDbEntity
8
0
100
AcDbLine
10
0.24999999999999986
20
0
30
0
11
3.7499999999999978
21
0
31
0
0
ARC
5
137
100
AcDbEntity
8
0
100
AcDbCircle
10
3.75
20
0.24999999999999925
30
0
40
0.24999999999999925
210
0
220
0
230
1
100
AcDbArc
50
-90.000000000000512
51
0
0
LINE
5
138
100
AcDbEntity
8
0
100
AcDbLine
10
3.9999999999999991
20
0.24999999999999925
30
0
11
3.9999999999999982
21
3.75
31
0
0
ARC
5
139
100
AcDbEntity
8
0
100
AcDbCircle
10
3.7500000000000004
20
3.75
30
0
40
0.24999999999999781
210
0
220
-0
230
1
100
AcDbArc
50
0
51
90.000000000000313
0
ARC
5
140
100
AcDbEntity
8
0
100
AcDbCircle
10
0.24999999999999903
20
3.75
30
0
40
0.2499999999999985
210
0
220
-0
230
1
100
AcDbArc
50
89.999999999999801
51
180
0
LINE
5
141
100
AcDbEntity
8
0
100
AcDbLine
10
3.7499999999999991
20
3.9999999999999978
30
0
11
0.24999999999999989
21
3.9999999999999991
31
0
0
SPLINE
5
142
100
AcDbEntity
8
0
100
AcDbSpline
70
4
71
3
72
8
73
4
74
0
42
0.000000001
43
0.0000000001
44
0.0000000001
40
0
40
0
40
0
40
0
40
1
40
1
40
1
40
1
41
1
41
1
41
1
41
1
10
2.1145834287007648
20
2.4135416348775216
30
0
10
2.114583269755046
20
2.4302083651224766
30
0
10
2.1015624364217125
20
2.4432291984558101
30
0
10
2.0848958651224767
20
2.4432291984558101
30
0
0
LINE
5
143
100
AcDbEntity
8
0
100
AcDbLine
10
2.0848958651224767
20
2.4432291984558101
30
0
11
2.0718750317891437
21
2.4432291984558101
31
0
0
SPLINE
5
144
100
AcDbEntity
8
0
100
AcDbSpline
70
4
71
3
72
8
73
4
74
0
42
0.000000001
43
0.0000000001
44
0.0000000001
40
0
40
0
40
0
40
0
40
1
40
1
40
1
40
1
41
1
41
1
41
1
41
1
10
2.0718750317891437
20
2.4432291984558101
30
0
10
2.0552083015441891
20
2.4432291984558101
30
0
10
2.0421874682108565
20
2.4296874999999991
30
0
10
2.0421874682108565
20
2.4135416348775216
30
0
0
LINE
5
145
100
AcDbEntity
8
0
100
AcDbLine
10
2.0421874682108565
20
2.4135416348775216
30
0
11
2.0421874682108565
21
2.2078124682108555
31
0
0
LINE
5
146
100
AcDbEntity
8
0
100
AcDbLine
10
2.1145834287007648
20
2.2078124682108555
30
0
11
2.1145834287007648
21
2.4135416348775216
31
0
0
LINE
5
147
100
AcDbEntity
8
0
100
AcDbLine
10
1.3041667302449549
20
2.207291603088378
30
0
11
1.3041667302449549
21
2.355729103088378
31
0
0
LINE
5
148
100
AcDbEntity
8
0
100
AcDbLine
10
1.2317707697550455
20
2.3333333333333326
30
0
11
1.2317707697550455
21
2.2078124682108546
31
0
0
SPLINE
5
149
100
AcDbEntity
8
0
100
AcDbSpline
70
4
71
3
72
8
73
4
74
0
42
0.000000001
43
0.0000000001
44
0.0000000001
40
0
40
0
40
0
40
0
40
1
40
1
40
1
40
1
41
1
41
1
41
1
41
1
10
2.6552082061767583
20
1.0463542938232411
30
0
10
2.4494790395100914
20
1.2406250635782872
30
0
10
2.2697915395100914
20
1.535416920979817
30
0
10
2.2494790712992345
20
2.0557292302449532
30
0
0
SPLINE
5
150
100
AcDbEntity
8
0
100
AcDbSpline
70
4
71
3
72
8
73
4
74
0
42
0.000000001
43
0.0000000001
44
0.0000000001
40
0
40
0
40
0
40
0
40
1
40
1
40
1
40
1
41
1
41
1
41
1
41
1
10
2.2494790712992345
20
2.0557292302449532
30
0
10
2.2468749046325689
20
2.1114584604899078
30
0
10
2.201041634877523
20
2.1557292938232417
30
0
10
2.1447915395100909
20
2.1557292938232417
30
0
0
LINE
5
151
100
AcDbEntity
8
0
100
AcDbLine
10
2.1447915395100909
20
2.1557292938232417
30
0
11
1.6734373728434249
21
2.1557292938232417
31
0
0
SPLINE
5
152
100
AcDbEntity
8
0
100
AcDbSpline
70
4
71
3
72
8
73
4
74
0
42
0.000000001
43
0.0000000001
44
0.0000000001
40
0
40
0
40
0
40
0
40
1
40
1
40
1
40
1
41
1
41
1
41
1
41
1
10
1.2020832061767577
20
2.1557292938232417
30
0
10
1.1463539759318033
20
2.1557292938232417
30
0
10
1.0999998410542806
20
2.1114584604899078
30
0
10
1.0979165395100914
20
2.0557292302449532
30
0
0
SPLINE
5
153
100
AcDbEntity
8
0
100
AcDbSpline
70
4
71
3
72
8
73
4
74
0
42
0.000000001
43
0.0000000001
44
0.0000000001
40
0
40
0
40
0
40
0
40
1
40
1
40
1
40
1
41
1
41
1
41
1
41
1
10
1.0979165395100914
20
2.0557292302449532
30
0
10
1.0791665077209474
20
1.5802084604899083
30
0
10
0.927083190282186
20
1.29270839691162
30
0
10
0.74427073796590182
20
1.0984376271565746
30
0
0
SPLINE
5
154
100
AcDbEntity
8
0
100
AcDbSpline
70
4
71
3
72
8
73
4
74
0
42
0.000000001
43
0.0000000001
44
0.0000000001
40
0
40
0
40
0
40
0
40
1
40
1
40
1
40
1
41
1
41
1
41
1
41
1
10
0.74427073796590182
20
1.0984376271565746
30
0
10
0.72708322207132992
20
1.0802084604899078
30
0
10
0.70937492052714035
20
1.0630210240681957
30
0
10
0.69166653951009105
20
1.0463542938232411
30
0
0
LINE
5
155
100
AcDbEntity
8
0
100
AcDbLine
10
1.6734373728434249
20
2.1557292938232417
30
0
11
1.2020832061767577
21
2.1557292938232417
31
0
0
SPLINE
5
156
100
AcDbEntity
8
0
100
AcDbSpline
70
4
71
3
72
8
73
4
74
0
42
0.000000001
43
0.0000000001
44
0.0000000001
40
0
40
0
40
0
40
0
40
1
40
1
40
1
40
1
41
1
41
1
41
1
41
1
10
1.1984376271565755
20
1.6067711512247709
30
0
10
1.1984376271565755
20
1.3447920481363924
30
0
10
1.4114584287007648
20
1.1317710876464835
30
0
10
1.6734376907348636
20
1.1317710876464835
30
0
0
SPLINE
5
157
100
AcDbEntity
8
0
100
AcDbSpline
70
4
71
3
72
8
73
4
74
0
42
0.000000001
43
0.0000000001
44
0.0000000001
40
0
40
0
40
0
40
0
40
1
40
1
40
1
40
1
41
1
41
1
41
1
41
1
10
1.6734376907348636
20
1.1317710876464835
30
0
10
1.7713542938232425
20
1.1317710876464835
30
0
10
1.8625001271565758
20
1.1614586512247711
30
0
10
1.9385418256123863
20
1.2125002543131502
30
0
0
SPLINE
5
158
100
AcDbEntity
8
0
100
AcDbSpline
70
4
71
3
72
8
73
4
74
0
42
0.000000001
43
0.0000000001
44
0.0000000001
40
0.45375140940087211
40
0.45375140940087211
40
0.45375140940087211
40
0.45375140940087211
40
1
40
1
40
1
40
1
41
1
41
1
41
1
41
1
10
1.3623848010493549
20
1.9656973803934266
30
0
10
1.2620004238470512
20
1.8786323671580334
30
0
10
1.1984376271565755
20
1.7501614757161426
30
0
10
1.1984376271565755
20
1.6067711512247709
30
0
0
SPLINE
5
159
100
AcDbEntity
8
0
100
AcDbSpline
70
4
71
3
72
8
73
4
74
0
42
0.000000001
43
0.0000000001
44
0.0000000001
40
0
40
0
40
0
40
0
40
1
40
1
40
1
40
1
41
1
41
1
41
1
41
1
10
2.0828127225240074
20
1.3661460876464837
30
0
10
2.124479389190673
20
1.4369792938232411
30
0
10
2.1484377543131514
20
1.5192712148030592
30
0
10
2.1484377543131514
20
1.6067711512247709
30
0
0
SPLINE
5
160
100
AcDbEntity
8
0
100
AcDbSpline
70
4
71
3
72
8
73
4
74
0
42
0.000000001
43
0.0000000001
44
0.0000000001
40
0
40
0
40
0
40
0
40
1
40
1
40
1
40
1
41
1
41
1
41
1
41
1
10
2.1484377543131514
20
1.6067711512247709
30
0
10
2.1484377543131514
20
1.8692712783813468
30
0
10
1.9359378178914388
20
2.0817712148030592
30
0
10
1.6734376907348636
20
2.0817712148030592
30
0
0
SPLINE
5
161
100
AcDbEntity
8
0
100
AcDbSpline
70
4
71
3
72
8
73
4
74
0
42
0.000000001
43
0.0000000001
44
0.0000000001
40
0
40
0
40
0
40
0
40
0.31373513425639182
40
0.31373513425639182
40
0.31373513425639182
40
0.31373513425639182
41
1
41
1
41
1
41
1
10
1.6734376907348636
20
2.0817712148030592
30
0
10
1.5912456416550615
20
2.0817712148030592
30
0
10
1.5138725295512188
20
2.0608549024868417
30
0
10
1.4463847563112973
20
2.0240404107191377
30
0
0
SPLINE
5
162
100
AcDbEntity
8
0
100
AcDbSpline
70
4
71
3
72
8
73
4
74
0
42
0.000000001
43
0.0000000001
44
0.0000000001
40
0
40
0
40
0
40
0
40
1
40
1
40
1
40
1
41
1
41
1
41
1
41
1
10
1.6734375317891437
20
1.4229164123535143
30
0
10
1.5718750317891437
20
1.4229164123535143
30
0
10
1.4890625635782879
20
1.5057290395100904
30
0
10
1.4890625635782879
20
1.6072915395100902
30
0
0
SPLINE
5
163
100
AcDbEntity
8
0
100
AcDbSpline
70
4
71
3
72
8
73
4
74
0
42
0.000000001
43
0.0000000001
44
0.0000000001
40
0
40
0
40
0
40
0
40
1
40
1
40
1
40
1
41
1
41
1
41
1
41
1
10
1.4890625635782879
20
1.6072915395100902
30
0
10
1.4885416984558104
20
1.7088540395100902
30
0
10
1.5713541666666668
20
1.7916666666666659
30
0
10
1.6734375317891437
20
1.7916666666666659
30
0
0
SPLINE
5
164
100
AcDbEntity
8
0
100
AcDbSpline
70
4
71
3
72
8
73
4
74
0
42
0.000000001
43
0.0000000001
44
0.0000000001
40
0
40
0
40
0
40
0
40
1
40
1
40
1
40
1
41
1
41
1
41
1
41
1
10
1.8578125000000001
20
1.6072915395100902
30
0
10
1.8578125000000001
20
1.5057290395100904
30
0
10
1.7750000317891439
20
1.4229164123535143
30
0
10
1.6734375317891437
20
1.4229164123535143
30
0
0
SPLINE
5
165
100
AcDbEntity
8
0
100
AcDbSpline
70
4
71
3
72
8
73
4
74
0
42
0.000000001
43
0.0000000001
44
0.0000000001
40
0
40
0
40
0
40
0
40
1
40
1
40
1
40
1
41
1
41
1
41
1
41
1
10
1.6734375317891437
20
1.7916666666666659
30
0
10
1.7750000317891439
20
1.7916666666666659
30
0
10
1.8578125000000001
20
1.7088540395100902
30
0
10
1.8578125000000001
20
1.6072915395100902
30
0
0
SPLINE
5
166
100
AcDbEntity
8
0
100
AcDbSpline
70
4
71
3
72
8
73
4
74
0
42
0.000000001
43
0.0000000001
44
0.0000000001
40
0
40
0
40
0
40
0
40
1
40
1
40
1
40
1
41
1
41
1
41
1
41
1
10
1.7609374682108563
20
1.9062503178914376
30
0
10
1.749479071299235
20
1.9093751907348624
30
0
10
1.740104134877523
20
1.9171876907348624
30
0
10
1.7343749364217125
20
1.9276043574015289
30
0
0
SPLINE
5
167
100
AcDbEntity
8
0
100
AcDbSpline
70
4
71
3
72
8
73
4
74
0
42
0.000000001
43
0.0000000001
44
0.0000000001
40
0
40
0
40
0
40
0
40
1
40
1
40
1
40
1
41
1
41
1
41
1
41
1
10
1.7343749364217125
20
1.9276043574015289
30
0
10
1.7286457379659017
20
1.9380210240681959
30
0
10
1.7276041666666666
20
1.9500001271565743
30
0
10
1.7307290395100914
20
1.9614585240681959
30
0
0
SPLINE
5
168
100
AcDbEntity
8
0
100
AcDbSpline
70
4
71
3
72
8
73
4
74
0
42
0.000000001
43
0.0000000001
44
0.0000000001
40
0
40
0
40
0
40
0
40
1
40
1
40
1
40
1
41
1
41
1
41
1
41
1
10
1.7307290395100914
20
1.9614585240681959
30
0
10
1.7364583969116212
20
1.9802083969116198
30
0
10
1.7541666984558106
20
1.9932292302449537
30
0
10
1.7734374364217123
20
1.9932292302449537
30
0
0
SPLINE
5
169
100
AcDbEntity
8
0
100
AcDbSpline
70
4
71
3
72
8
73
4
74
0
42
0.000000001
43
0.0000000001
44
0.0000000001
40
0
40
0
40
0
40
0
40
1
40
1
40
1
40
1
41
1
41
1
41
1
41
1
10
1.7734374364217123
20
1.9932292302449537
30
0
10
1.7776040395100912
20
1.9932292302449537
30
0
10
1.7817708015441895
20
1.9927085240681959
30
0
10
1.7859374046325687
20
1.991145769755045
30
0
0
SPLINE
5
170
100
AcDbEntity
8
0
100
AcDbSpline
70
4
71
3
72
8
73
4
74
0
42
0.000000001
43
0.0000000001
44
0.0000000001
40
0
40
0
40
0
40
0
40
1
40
1
40
1
40
1
41
1
41
1
41
1
41
1
10
1.7859374046325687
20
1.991145769755045
30
0
10
1.7973958015441893
20
1.9880208969116204
30
0
10
1.8067707379659015
20
1.9802083969116198
30
0
10
1.8124999364217125
20
1.9697917302449537
30
0
0
SPLINE
5
171
100
AcDbEntity
8
0
100
AcDbSpline
70
4
71
3
72
8
73
4
74
0
42
0.000000001
43
0.0000000001
44
0.0000000001
40
0
40
0
40
0
40
0
40
1
40
1
40
1
40
1
41
1
41
1
41
1
41
1
10
1.8124999364217125
20
1.9697917302449537
30
0
10
1.8182291348775226
20
1.9593750635782865
30
0
10
1.8192707061767577
20
1.9473959604899083
30
0
10
1.8161458333333336
20
1.9359375635782865
30
0
0
SPLINE
5
172
100
AcDbEntity
8
0
100
AcDbSpline
70
4
71
3
72
8
73
4
74
0
42
0.000000001
43
0.0000000001
44
0.0000000001
40
0
40
0
40
0
40
0
40
1
40
1
40
1
40
1
41
1
41
1
41
1
41
1
10
1.7739583015441893
20
1.9041668574015289
30
0
10
1.7697916984558109
20
1.9041668574015289
30
0
10
1.7656249364217125
20
1.9046875635782867
30
0
10
1.7609374682108563
20
1.9062503178914376
30
0
0
SPLINE
5
173
100
AcDbEntity
8
0
100
AcDbSpline
70
4
71
3
72
8
73
4
74
0
42
0.000000001
43
0.0000000001
44
0.0000000001
40
0
40
0
40
0
40
0
40
1
40
1
40
1
40
1
41
1
41
1
41
1
41
1
10
1.8161458333333336
20
1.9359375635782865
30
0
10
1.810416634877523
20
1.9171876907348624
30
0
10
1.7932291984558109
20
1.9041668574015289
30
0
10
1.7739583015441893
20
1.9041668574015289
30
0
0
SPLINE
5
174
100
AcDbEntity
8
0
100
AcDbSpline
70
4
71
3
72
8
73
4
74
0
42
0.000000001
43
0.0000000001
44
0.0000000001
40
0
40
0
40
0
40
0
40
1
40
1
40
1
40
1
41
1
41
1
41
1
41
1
10
1.9088541030883792
20
1.8114585876464835
30
0
10
1.8927082379659015
20
1.8302084604899085
30
0
10
1.8942708333333331
20
1.8578128814697255
30
0
10
1.913541571299235
20
1.8739585876464837
30
0
0
SPLINE
5
175
100
AcDbEntity
8
0
100
AcDbSpline
70
4
71
3
72
8
73
4
74
0
42
0.000000001
43
0.0000000001
44
0.0000000001
40
0
40
0
40
0
40
0
40
1
40
1
40
1
40
1
41
1
41
1
41
1
41
1
10
1.913541571299235
20
1.8739585876464837
30
0
10
1.9218749364217123
20
1.8812500635782867
30
0
10
1.9317708969116207
20
1.884895960489908
30
0
10
1.9427082697550455
20
1.884895960489908
30
0
0
SPLINE
5
176
100
AcDbEntity
8
0
100
AcDbSpline
70
4
71
3
72
8
73
4
74
0
42
0.000000001
43
0.0000000001
44
0.0000000001
40
0
40
0
40
0
40
0
40
1
40
1
40
1
40
1
41
1
41
1
41
1
41
1
10
1.9427082697550455
20
1.884895960489908
30
0
10
1.9557291030883792
20
1.884895960489908
30
0
10
1.9677082061767577
20
1.8791669209798165
30
0
10
1.9760415712992352
20
1.869270960489908
30
0
0
SPLINE
5
177
100
AcDbEntity
8
0
100
AcDbSpline
70
4
71
3
72
8
73
4
74
0
42
0.000000001
43
0.0000000001
44
0.0000000001
40
0
40
0
40
0
40
0
40
1
40
1
40
1
40
1
41
1
41
1
41
1
41
1
10
1.9760415712992352
20
1.869270960489908
30
0
10
1.983854071299235
20
1.8604167302449535
30
0
10
1.9874999682108558
20
1.8489583333333321
30
0
10
1.9869791030883792
20
1.8369792302449535
30
0
0
SPLINE
5
178
100
AcDbEntity
8
0
100
AcDbSpline
70
4
71
3
72
8
73
4
74
0
42
0.000000001
43
0.0000000001
44
0.0000000001
40
0
40
0
40
0
40
0
40
1
40
1
40
1
40
1
41
1
41
1
41
1
41
1
10
1.9869791030883792
20
1.8369792302449535
30
0
10
1.9859373728434249
20
1.8250001271565748
30
0
10
1.9807290395100914
20
1.814583460489908
30
0
10
1.9718749682108563
20
1.8067709604899085
30
0
0
SPLINE
5
179
100
AcDbEntity
8
0
100
AcDbSpline
70
4
71
3
72
8
73
4
74
0
42
0.000000001
43
0.0000000001
44
0.0000000001
40
0
40
0
40
0
40
0
40
1
40
1
40
1
40
1
41
1
41
1
41
1
41
1
10
1.9427082697550455
20
1.7958335876464835
30
0
10
1.9296874364217125
20
1.7958335876464835
30
0
10
1.9177083333333331
20
1.8015626271565748
30
0
10
1.9088541030883792
20
1.8114585876464835
30
0
0
SPLINE
5
180
100
AcDbEntity
8
0
100
AcDbSpline
70
4
71
3
72
8
73
4
74
0
42
0.000000001
43
0.0000000001
44
0.0000000001
40
0
40
0
40
0
40
0
40
1
40
1
40
1
40
1
41
1
41
1
41
1
41
1
10
1.9718749682108563
20
1.8067709604899085
30
0
10
1.9635416030883792
20
1.7994791666666661
30
0
10
1.9536458015441891
20
1.7958335876464835
30
0
10
1.9427082697550455
20
1.7958335876464835
30
0
0
SPLINE
5
181
100
AcDbEntity
8
0
100
AcDbSpline
70
4
71
3
72
8
73
4
74
0
42
0.000000001
43
0.0000000001
44
0.0000000001
40
0
40
0
40
0
40
0
40
1
40
1
40
1
40
1
41
1
41
1
41
1
41
1
10
1.5343749682108563
20
1.9697917302449537
30
0
10
1.5401041666666666
20
1.9802083969116198
30
0
10
1.5494791030883792
20
1.9875001907348624
30
0
10
1.5609374999999999
20
1.991145769755045
30
0
0
SPLINE
5
182
100
AcDbEntity
8
0
100
AcDbSpline
70
4
71
3
72
8
73
4
74
0
42
0.000000001
43
0.0000000001
44
0.0000000001
40
0
40
0
40
0
40
0
40
1
40
1
40
1
40
1
41
1
41
1
41
1
41
1
10
1.5609374999999999
20
1.991145769755045
30
0
10
1.564583396911621
20
1.9927082061767567
30
0
10
1.5687500000000001
20
1.9932292302449537
30
0
10
1.5734374682108561
20
1.9932292302449537
30
0
0
SPLINE
5
183
100
AcDbEntity
8
0
100
AcDbSpline
70
4
71
3
72
8
73
4
74
0
42
0.000000001
43
0.0000000001
44
0.0000000001
40
0
40
0
40
0
40
0
40
1
40
1
40
1
40
1
41
1
41
1
41
1
41
1
10
1.5734374682108561
20
1.9932292302449537
30
0
10
1.5927083651224774
20
1.9932292302449537
30
0
10
1.6104166666666668
20
1.9802083969116198
30
0
10
1.6156250000000001
20
1.9614585240681959
30
0
0
SPLINE
5
184
100
AcDbEntity
8
0
100
AcDbSpline
70
4
71
3
72
8
73
4
74
0
42
0.000000001
43
0.0000000001
44
0.0000000001
40
0
40
0
40
0
40
0
40
1
40
1
40
1
40
1
41
1
41
1
41
1
41
1
10
1.6156250000000001
20
1.9614585240681959
30
0
10
1.6187500317891437
20
1.9500001271565743
30
0
10
1.6177083015441898
20
1.9380210240681959
30
0
10
1.611979103088379
20
1.9276043574015289
30
0
0
SPLINE
5
185
100
AcDbEntity
8
0
100
AcDbSpline
70
4
71
3
72
8
73
4
74
0
42
0.000000001
43
0.0000000001
44
0.0000000001
40
0
40
0
40
0
40
0
40
1
40
1
40
1
40
1
41
1
41
1
41
1
41
1
10
1.611979103088379
20
1.9276043574015289
30
0
10
1.6062499046325684
20
1.9171876907348624
30
0
10
1.5968749682108558
20
1.9098958969116198
30
0
10
1.5854165712992352
20
1.9062503178914376
30
0
0
SPLINE
5
186
100
AcDbEntity
8
0
100
AcDbSpline
70
4
71
3
72
8
73
4
74
0
42
0.000000001
43
0.0000000001
44
0.0000000001
40
0
40
0
40
0
40
0
40
1
40
1
40
1
40
1
41
1
41
1
41
1
41
1
10
1.5854165712992352
20
1.9062503178914376
30
0
10
1.5812499682108563
20
1.9052085876464839
30
0
10
1.5770832061767577
20
1.9041668574015289
30
0
10
1.5729166030883792
20
1.9041668574015289
30
0
0
SPLINE
5
187
100
AcDbEntity
8
0
100
AcDbSpline
70
4
71
3
72
8
73
4
74
0
42
0.000000001
43
0.0000000001
44
0.0000000001
40
0
40
0
40
0
40
0
40
1
40
1
40
1
40
1
41
1
41
1
41
1
41
1
10
1.5307290712992352
20
1.9359375635782865
30
0
10
1.5276040395100909
20
1.9473959604899083
30
0
10
1.5286457697550457
20
1.9593750635782865
30
0
10
1.5343749682108563
20
1.9697917302449537
30
0
0
SPLINE
5
188
100
AcDbEntity
8
0
100
AcDbSpline
70
4
71
3
72
8
73
4
74
0
42
0.000000001
43
0.0000000001
44
0.0000000001
40
0
40
0
40
0
40
0
40
1
40
1
40
1
40
1
41
1
41
1
41
1
41
1
10
1.5729166030883792
20
1.9041668574015289
30
0
10
1.5536457061767579
20
1.9041668574015289
30
0
10
1.5359374046325682
20
1.9171876907348624
30
0
10
1.5307290712992352
20
1.9359375635782865
30
0
0
SPLINE
5
189
100
AcDbEntity
8
0
100
AcDbSpline
70
4
71
3
72
8
73
4
74
0
42
0.000000001
43
0.0000000001
44
0.0000000001
40
0
40
0
40
0
40
0
40
1
40
1
40
1
40
1
41
1
41
1
41
1
41
1
10
1.4041666348775228
20
1.7958335876464835
30
0
10
1.3937499682108565
20
1.7958335876464835
30
0
10
1.3833333015441895
20
1.7994794845581048
30
0
10
1.3749999364217125
20
1.8067709604899085
30
0
0
SPLINE
5
190
100
AcDbEntity
8
0
100
AcDbSpline
70
4
71
3
72
8
73
4
74
0
42
0.000000001
43
0.0000000001
44
0.0000000001
40
0
40
0
40
0
40
0
40
1
40
1
40
1
40
1
41
1
41
1
41
1
41
1
10
1.3749999364217125
20
1.8067709604899085
30
0
10
1.3661457061767579
20
1.814583460489908
30
0
10
1.3604166666666671
20
1.8250001271565748
30
0
10
1.3598958015441895
20
1.8369792302449535
30
0
0
SPLINE
5
191
100
AcDbEntity
8
0
100
AcDbSpline
70
4
71
3
72
8
73
4
74
0
42
0.000000001
43
0.0000000001
44
0.0000000001
40
0
40
0
40
0
40
0
40
1
40
1
40
1
40
1
41
1
41
1
41
1
41
1
10
1.3598958015441895
20
1.8369792302449535
30
0
10
1.3588540712992354
20
1.8489583333333321
30
0
10
1.3630208333333331
20
1.8604167302449535
30
0
10
1.3708333333333333
20
1.869270960489908
30
0
0
SPLINE
5
192
100
AcDbEntity
8
0
100
AcDbSpline
70
4
71
3
72
8
73
4
74
0
42
0.000000001
43
0.0000000001
44
0.0000000001
40
0
40
0
40
0
40
0
40
1
40
1
40
1
40
1
41
1
41
1
41
1
41
1
10
1.3708333333333333
20
1.869270960489908
30
0
10
1.3791666984558109
20
1.8796876271565743
30
0
10
1.3911458015441893
20
1.884895960489908
30
0
10
1.4041666348775228
20
1.884895960489908
30
0
0
SPLINE
5
193
100
AcDbEntity
8
0
100
AcDbSpline
70
4
71
3
72
8
73
4
74
0
42
0.000000001
43
0.0000000001
44
0.0000000001
40
0
40
0
40
0
40
0
40
1
40
1
40
1
40
1
41
1
41
1
41
1
41
1
10
1.4041666348775228
20
1.884895960489908
30
0
10
1.4145833015441893
20
1.884895960489908
30
0
10
1.4249999682108563
20
1.8812500635782867
30
0
10
1.4333333333333331
20
1.8739585876464837
30
0
0
SPLINE
5
194
100
AcDbEntity
8
0
100
AcDbSpline
70
4
71
3
72
8
73
4
74
0
42
0.000000001
43
0.0000000001
44
0.0000000001
40
0
40
0
40
0
40
0
40
1
40
1
40
1
40
1
41
1
41
1
41
1
41
1
10
1.4380208015441893
20
1.8114585876464835
30
0
10
1.4296874364217123
20
1.8015626271565748
30
0
10
1.4171874682108565
20
1.7958335876464835
30
0
10
1.4041666348775228
20
1.7958335876464835
30
0
0
SPLINE
5
195
100
AcDbEntity
8
0
100
AcDbSpline
70
4
71
3
72
8
73
4
74
0
42
0.000000001
43
0.0000000001
44
0.0000000001
40
0
40
0
40
0
40
0
40
1
40
1
40
1
40
1
41
1
41
1
41
1
41
1
10
1.4333333333333331
20
1.8739585876464837
30
0
10
1.4520833651224772
20
1.8578128814697255
30
0
10
1.4541666666666666
20
1.8302084604899085
30
0
10
1.4380208015441893
20
1.8114585876464835
30
0
0
SPLINE
5
196
100
AcDbEntity
8
0
100
AcDbSpline
70
4
71
3
72
8
73
4
74
0
42
0.000000001
43
0.0000000001
44
0.0000000001
40
0
40
0
40
0
40
0
40
1
40
1
40
1
40
1
41
1
41
1
41
1
41
1
10
1.3203125953674315
20
1.6135419209798165
30
0
10
1.3182292938232423
20
1.6135419209798165
30
0
10
1.3161459922790528
20
1.6135419209798165
30
0
10
1.3140625317891437
20
1.6140626271565746
30
0
0
SPLINE
5
197
100
AcDbEntity
8
0
100
AcDbSpline
70
4
71
3
72
8
73
4
74
0
42
0.000000001
43
0.0000000001
44
0.0000000001
40
0
40
0
40
0
40
0
40
1
40
1
40
1
40
1
41
1
41
1
41
1
41
1
10
1.3140625317891437
20
1.6140626271565746
30
0
10
1.2901041666666668
20
1.6177085240681961
30
0
10
1.2729167302449544
20
1.6401042938232413
30
0
10
1.2765624682108565
20
1.6645835240681957
30
0
0
SPLINE
5
198
100
AcDbEntity
8
0
100
AcDbSpline
70
4
71
3
72
8
73
4
74
0
42
0.000000001
43
0.0000000001
44
0.0000000001
40
0
40
0
40
0
40
0
40
1
40
1
40
1
40
1
41
1
41
1
41
1
41
1
10
1.2765624682108565
20
1.6645835240681957
30
0
10
1.2796874999999999
20
1.6859375635782867
30
0
10
1.2989583969116212
20
1.7026042938232415
30
0
10
1.3208333015441895
20
1.7026042938232415
30
0
0
SPLINE
5
199
100
AcDbEntity
8
0
100
AcDbSpline
70
4
71
3
72
8
73
4
74
0
42
0.000000001
43
0.0000000001
44
0.0000000001
40
0
40
0
40
0
40
0
40
1
40
1
40
1
40
1
41
1
41
1
41
1
41
1
10
1.3208333015441895
20
1.7026042938232415
30
0
10
1.322916603088379
20
1.7026042938232415
30
0
10
1.3249999046325682
20
1.7026042938232415
30
0
10
1.3270833651224774
20
1.7020835876464837
30
0
0
SPLINE
5
200
100
AcDbEntity
8
0
100
AcDbSpline
70
4
71
3
72
8
73
4
74
0
42
0.000000001
43
0.0000000001
44
0.0000000001
40
0
40
0
40
0
40
0
40
1
40
1
40
1
40
1
41
1
41
1
41
1
41
1
10
1.3645834287007648
20
1.6515626907348626
30
0
10
1.3614583969116214
20
1.6296876271565748
30
0
10
1.3427083651224772
20
1.6135419209798165
30
0
10
1.3203125953674315
20
1.6135419209798165
30
0
0
SPLINE
5
201
100
AcDbEntity
8
0
100
AcDbSpline
70
4
71
3
72
8
73
4
74
0
42
0.000000001
43
0.0000000001
44
0.0000000001
40
0
40
0
40
0
40
0
40
1
40
1
40
1
40
1
41
1
41
1
41
1
41
1
10
1.3270833651224774
20
1.7020835876464837
30
0
10
1.3510417302449549
20
1.6984376907348626
30
0
10
1.3682291666666666
20
1.676041920979817
30
0
10
1.3645834287007648
20
1.6515626907348626
30
0
0
SPLINE
5
202
100
AcDbEntity
8
0
100
AcDbSpline
70
4
71
3
72
8
73
4
74
0
42
0.000000001
43
0.0000000001
44
0.0000000001
40
0
40
0
40
0
40
0
40
1
40
1
40
1
40
1
41
1
41
1
41
1
41
1
10
1.3671874364217125
20
1.418750127156575
30
0
10
1.3614582379659015
20
1.4161459604899076
30
0
10
1.3552083333333336
20
1.4145835240681959
30
0
10
1.3489582697550455
20
1.4145835240681959
30
0
0
SPLINE
5
203
100
AcDbEntity
8
0
100
AcDbSpline
70
4
71
3
72
8
73
4
74
0
42
0.000000001
43
0.0000000001
44
0.0000000001
40
0
40
0
40
0
40
0
40
1
40
1
40
1
40
1
41
1
41
1
41
1
41
1
10
1.3489582697550455
20
1.4145835240681959
30
0
10
1.3317708333333336
20
1.4145835240681959
30
0
10
1.3156249682108563
20
1.4250001907348622
30
0
10
1.3088540395100909
20
1.4406251907348619
30
0
0
SPLINE
5
204
100
AcDbEntity
8
0
100
AcDbSpline
70
4
71
3
72
8
73
4
74
0
42
0.000000001
43
0.0000000001
44
0.0000000001
40
0
40
0
40
0
40
0
40
1
40
1
40
1
40
1
41
1
41
1
41
1
41
1
10
1.3088540395100909
20
1.4406251907348619
30
0
10
1.2984373728434246
20
1.46250025431315
30
0
10
1.3083331743876143
20
1.4890626271565746
30
0
10
1.3307291030883792
20
1.4994792938232415
30
0
0
SPLINE
5
205
100
AcDbEntity
8
0
100
AcDbSpline
70
4
71
3
72
8
73
4
74
0
42
0.000000001
43
0.0000000001
44
0.0000000001
40
0
40
0
40
0
40
0
40
1
40
1
40
1
40
1
41
1
41
1
41
1
41
1
10
1.3307291030883792
20
1.4994792938232415
30
0
10
1.3364583015441895
20
1.5020834604899083
30
0
10
1.3427083651224772
20
1.5036458969116202
30
0
10
1.3489582697550455
20
1.5036458969116202
30
0
0
SPLINE
5
206
100
AcDbEntity
8
0
100
AcDbSpline
70
4
71
3
72
8
73
4
74
0
42
0.000000001
43
0.0000000001
44
0.0000000001
40
0
40
0
40
0
40
0
40
1
40
1
40
1
40
1
41
1
41
1
41
1
41
1
10
1.3895832061767579
20
1.4776042302449535
30
0
10
1.3994790077209476
20
1.4552084604899083
30
0
10
1.390104071299235
20
1.4291667938232413
30
0
10
1.3671874364217125
20
1.418750127156575
30
0
0
SPLINE
5
207
100
AcDbEntity
8
0
100
AcDbSpline
70
4
71
3
72
8
73
4
74
0
42
0.000000001
43
0.0000000001
44
0.0000000001
40
0
40
0
40
0
40
0
40
1
40
1
40
1
40
1
41
1
41
1
41
1
41
1
10
1.3489582697550455
20
1.5036458969116202
30
0
10
1.366666571299235
20
1.5036458969116202
30
0
10
1.3822915712992354
20
1.4937499364217113
30
0
10
1.3895832061767579
20
1.4776042302449535
30
0
0
SPLINE
5
208
100
AcDbEntity
8
0
100
AcDbSpline
70
4
71
3
72
8
73
4
74
0
42
0.000000001
43
0.0000000001
44
0.0000000001
40
0
40
0
40
0
40
0
40
1
40
1
40
1
40
1
41
1
41
1
41
1
41
1
10
1.5177083969116212
20
1.2833331425984691
30
0
10
1.5093750317891437
20
1.2703123092651358
30
0
10
1.4953126271565755
20
1.2630205154418934
30
0
10
1.4802083333333331
20
1.2630205154418934
30
0
0
SPLINE
5
209
100
AcDbEntity
8
0
100
AcDbSpline
70
4
71
3
72
8
73
4
74
0
42
0.000000001
43
0.0000000001
44
0.0000000001
40
0
40
0
40
0
40
0
40
1
40
1
40
1
40
1
41
1
41
1
41
1
41
1
10
1.4802083333333331
20
1.2630205154418934
30
0
10
1.4718749682108563
20
1.2630205154418934
30
0
10
1.4635416030883792
20
1.2656246821085602
30
0
10
1.4562499682108565
20
1.2703123092651358
30
0
0
SPLINE
5
210
100
AcDbEntity
8
0
100
AcDbSpline
70
4
71
3
72
8
73
4
74
0
42
0.000000001
43
0.0000000001
44
0.0000000001
40
0
40
0
40
0
40
0
40
1
40
1
40
1
40
1
41
1
41
1
41
1
41
1
10
1.4562499682108565
20
1.2703123092651358
30
0
10
1.4463541666666668
20
1.2765623728434239
30
0
10
1.4395832379659017
20
1.2864580154418941
30
0
10
1.436979071299235
20
1.2979164123535147
30
0
0
SPLINE
5
211
100
AcDbEntity
8
0
100
AcDbSpline
70
4
71
3
72
8
73
4
74
0
42
0.000000001
43
0.0000000001
44
0.0000000001
40
0
40
0
40
0
40
0
40
1
40
1
40
1
40
1
41
1
41
1
41
1
41
1
10
1.436979071299235
20
1.2979164123535147
30
0
10
1.4343749046325682
20
1.3093748092651361
30
0
10
1.4364582061767577
20
1.3213539123535147
30
0
10
1.4432291348775232
20
1.3312498728434241
30
0
0
SPLINE
5
212
100
AcDbEntity
8
0
100
AcDbSpline
70
4
71
3
72
8
73
4
74
0
42
0.000000001
43
0.0000000001
44
0.0000000001
40
0
40
0
40
0
40
0
40
1
40
1
40
1
40
1
41
1
41
1
41
1
41
1
10
1.4432291348775232
20
1.3312498728434241
30
0
10
1.4515625000000003
20
1.3442707061767574
30
0
10
1.4656250635782877
20
1.3515624999999991
30
0
10
1.4807291984558109
20
1.3515624999999991
30
0
0
SPLINE
5
213
100
AcDbEntity
8
0
100
AcDbSpline
70
4
71
3
72
8
73
4
74
0
42
0.000000001
43
0.0000000001
44
0.0000000001
40
0
40
0
40
0
40
0
40
1
40
1
40
1
40
1
41
1
41
1
41
1
41
1
10
1.4807291984558109
20
1.3515624999999991
30
0
10
1.4890625635782879
20
1.3515624999999991
30
0
10
1.497395928700765
20
1.3489583333333324
30
0
10
1.5046875635782875
20
1.3442707061767574
30
0
0
SPLINE
5
214
100
AcDbEntity
8
0
100
AcDbSpline
70
4
71
3
72
8
73
4
74
0
42
0.000000001
43
0.0000000001
44
0.0000000001
40
0
40
0
40
0
40
0
40
1
40
1
40
1
40
1
41
1
41
1
41
1
41
1
10
1.523958460489909
20
1.3166666030883778
30
0
10
1.5265626271565758
20
1.3052082061767569
30
0
10
1.5244793256123861
20
1.2932291030883785
30
0
10
1.5177083969116212
20
1.2833331425984691
30
0
0
SPLINE
5
215
100
AcDbEntity
8
0
100
AcDbSpline
70
4
71
3
72
8
73
4
74
0
42
0.000000001
43
0.0000000001
44
0.0000000001
40
0
40
0
40
0
40
0
40
1
40
1
40
1
40
1
41
1
41
1
41
1
41
1
10
1.5046875635782875
20
1.3442707061767574
30
0
10
1.5145833651224772
20
1.3380206425984689
30
0
10
1.5213542938232423
20
1.3281249999999991
30
0
10
1.523958460489909
20
1.3166666030883778
30
0
0
SPLINE
5
216
100
AcDbEntity
8
0
100
AcDbSpline
70
4
71
3
72
8
73
4
74
0
42
0.000000001
43
0.0000000001
44
0.0000000001
40
0
40
0
40
0
40
0
40
1
40
1
40
1
40
1
41
1
41
1
41
1
41
1
10
1.7177083651224774
20
1.2510417302449537
30
0
10
1.7177083651224774
20
1.2265624999999989
30
0
10
1.697916762034098
20
1.2067708969116204
30
0
10
1.6734375317891437
20
1.2067708969116204
30
0
0
SPLINE
5
217
100
AcDbEntity
8
0
100
AcDbSpline
70
4
71
3
72
8
73
4
74
0
42
0.000000001
43
0.0000000001
44
0.0000000001
40
0
40
0
40
0
40
0
40
1
40
1
40
1
40
1
41
1
41
1
41
1
41
1
10
1.6734375317891437
20
1.2067708969116204
30
0
10
1.6489583015441898
20
1.2067708969116204
30
0
10
1.6291666984558104
20
1.2265624999999989
30
0
10
1.6291666984558104
20
1.2510417302449537
30
0
0
SPLINE
5
218
100
AcDbEntity
8
0
100
AcDbSpline
70
4
71
3
72
8
73
4
74
0
42
0.000000001
43
0.0000000001
44
0.0000000001
40
0
40
0
40
0
40
0
40
1
40
1
40
1
40
1
41
1
41
1
41
1
41
1
10
1.6734375317891437
20
1.2953125635782872
30
0
10
1.697916762034098
20
1.2953125635782872
30
0
10
1.7177083651224774
20
1.2755209604899078
30
0
10
1.7177083651224774
20
1.2510417302449537
30
0
0
SPLINE
5
219
100
AcDbEntity
8
0
100
AcDbSpline
70
4
71
3
72
8
73
4
74
0
42
0.000000001
43
0.0000000001
44
0.0000000001
40
0
40
0
40
0
40
0
40
1
40
1
40
1
40
1
41
1
41
1
41
1
41
1
10
1.6291666984558104
20
1.2510417302449537
30
0
10
1.6286458333333331
20
1.2755209604899078
30
0
10
1.6489583015441898
20
1.2953125635782872
30
0
10
1.6734375317891437
20
1.2953125635782872
30
0
0
LINE
5
220
100
AcDbEntity
8
0
100
AcDbLine
10
2.0593747456868488
20
1.3161465326944979
30
0
11
2.0359372456868488
21
1.3375005722045892
31
0
0
SPLINE
5
221
100
AcDbEntity
8
0
100
AcDbSpline
70
4
71
3
72
8
73
4
74
0
42
0.000000001
43
0.0000000001
44
0.0000000001
40
0
40
0
40
0
40
0
40
1
40
1
40
1
40
1
41
1
41
1
41
1
41
1
10
2.0359372456868488
20
1.3375005722045892
30
0
10
2.0067705472310382
20
1.3640629450480135
30
0
10
1.9739581108093263
20
1.3864590326944977
30
0
10
1.9385413487752279
20
1.4036464691162096
30
0
0
LINE
5
222
100
AcDbEntity
8
0
100
AcDbLine
10
1.9385413487752279
20
1.4036464691162094
30
0
11
1.9098955154418944
21
1.4177090326944974
31
0
0
SPLINE
5
223
100
AcDbEntity
8
0
100
AcDbSpline
70
4
71
3
72
8
73
4
74
0
42
0.000000001
43
0.0000000001
44
0.0000000001
40
0
40
0
40
0
40
0
40
1
40
1
40
1
40
1
41
1
41
1
41
1
41
1
10
1.9098955154418944
20
1.4177090326944981
30
0
10
1.9057292302449547
20
1.4208332697550443
30
0
10
1.9015624682108563
20
1.4213542938232411
30
0
10
1.8973958651224776
20
1.4213542938232411
30
0
0
SPLINE
5
224
100
AcDbEntity
8
0
100
AcDbSpline
70
4
71
3
72
8
73
4
74
0
42
0.000000001
43
0.0000000001
44
0.0000000001
40
0
40
0
40
0
40
0
40
1
40
1
40
1
40
1
41
1
41
1
41
1
41
1
10
1.8973958651224776
20
1.4213542938232411
30
0
10
1.8895833651224765
20
1.4213542938232411
30
0
10
1.8817708651224769
20
1.418229420979817
30
0
10
1.8765625317891439
20
1.4119793574015291
30
0
0
LINE
5
225
100
AcDbEntity
8
0
100
AcDbLine
10
1.8765625317891439
20
1.4119793574015291
30
0
11
1.8765625317891439
21
1.4114586512247709
31
0
0
LINE
5
226
100
AcDbEntity
8
0
100
AcDbLine
10
1.8765625317891439
20
1.4114586512247709
30
0
11
1.8760416666666666
21
1.4114586512247709
31
0
0
SPLINE
5
227
100
AcDbEntity
8
0
100
AcDbSpline
70
4
71
3
72
8
73
4
74
0
42
0.000000001
43
0.0000000001
44
0.0000000001
40
0
40
0
40
0
40
0
40
1
40
1
40
1
40
1
41
1
41
1
41
1
41
1
10
1.8760416666666666
20
1.4114586512247709
30
0
10
1.8677083015441893
20
1.4020837148030587
30
0
10
1.8666667302449549
20
1.3885418574015291
30
0
10
1.8729166348775228
20
1.3776044845581044
30
0
0
SPLINE
5
228
100
AcDbEntity
8
0
100
AcDbSpline
70
4
71
3
72
8
73
4
74
0
42
0.000000001
43
0.0000000001
44
0.0000000001
40
0
40
0
40
0
40
0
40
1
40
1
40
1
40
1
41
1
41
1
41
1
41
1
10
1.8890625000000003
20
1.3500003814697257
30
0
10
1.9093749682108563
20
1.3161462148030587
30
0
10
1.9343750635782879
20
1.2854169209798172
30
0
10
1.9635416030883792
20
1.2588545481363924
30
0
0
LINE
5
229
100
AcDbEntity
8
0
100
AcDbLine
10
1.9635416030883792
20
1.2588545481363924
30
0
11
1.9869791030883792
21
1.2375005086263011
31
0
0
LINE
5
230
100
AcDbEntity
8
0
100
AcDbLine
10
1.8729166348775228
20
1.3776044845581044
30
0
11
1.8890624999999999
21
1.3500003814697259
31
0
0
SPLINE
5
231
100
AcDbEntity
8
0
100
AcDbSpline
70
4
71
3
72
8
73
4
74
0
42
0.000000001
43
0.0000000001
44
0.0000000001
40
0
40
0
40
0
40
0
40
1
40
1
40
1
40
1
41
1
41
1
41
1
41
1
10
2.0265623092651373
20
1.6135419209798165
30
0
10
2.0046872456868488
20
1.6135419209798165
30
0
10
1.9854165077209478
20
1.6302086512247709
30
0
10
1.9822914759318033
20
1.6520837148030592
30
0
0
SPLINE
5
232
100
AcDbEntity
8
0
100
AcDbSpline
70
4
71
3
72
8
73
4
74
0
42
0.000000001
43
0.0000000001
44
0.0000000001
40
0
40
0
40
0
40
0
40
1
40
1
40
1
40
1
41
1
41
1
41
1
41
1
10
1.9822914759318033
20
1.6520837148030592
30
0
10
1.9786455790201822
20
1.676041920979817
30
0
10
1.9958331743876141
20
1.6984380086263016
30
0
10
2.0197915395100909
20
1.7020835876464837
30
0
0
SPLINE
5
233
100
AcDbEntity
8
0
100
AcDbSpline
70
4
71
3
72
8
73
4
74
0
42
0.000000001
43
0.0000000001
44
0.0000000001
40
0
40
0
40
0
40
0
40
1
40
1
40
1
40
1
41
1
41
1
41
1
41
1
10
2.0197915395100909
20
1.7020835876464837
30
0
10
2.0218750000000001
20
1.702083269755045
30
0
10
2.0239583015441887
20
1.7026042938232415
30
0
10
2.026041603088379
20
1.7026042938232415
30
0
0
SPLINE
5
234
100
AcDbEntity
8
0
100
AcDbSpline
70
4
71
3
72
8
73
4
74
0
42
0.000000001
43
0.0000000001
44
0.0000000001
40
0
40
0
40
0
40
0
40
1
40
1
40
1
40
1
41
1
41
1
41
1
41
1
10
2.026041603088379
20
1.7026042938232415
30
0
10
2.0479166666666671
20
1.7026042938232415
30
0
10
2.0671874046325684
20
1.6859375635782867
30
0
10
2.070312436421712
20
1.6645835240681957
30
0
0
SPLINE
5
235
100
AcDbEntity
8
0
100
AcDbSpline
70
4
71
3
72
8
73
4
74
0
42
0.000000001
43
0.0000000001
44
0.0000000001
40
0
40
0
40
0
40
0
40
1
40
1
40
1
40
1
41
1
41
1
41
1
41
1
10
2.032812372843424
20
1.6140626271565746
30
0
10
2.0307290712992354
20
1.6135419209798165
30
0
10
2.0286457697550451
20
1.6135419209798165
30
0
10
2.0265623092651373
20
1.6135419209798165
30
0
0
SPLINE
5
236
100
AcDbEntity
8
0
100
AcDbSpline
70
4
71
3
72
8
73
4
74
0
42
0.000000001
43
0.0000000001
44
0.0000000001
40
0
40
0
40
0
40
0
40
1
40
1
40
1
40
1
41
1
41
1
41
1
41
1
10
2.070312436421712
20
1.6645835240681957
30
0
10
2.0739583333333331
20
1.6406253178914378
30
0
10
2.0567707379659015
20
1.6177085240681961
30
0
10
2.032812372843424
20
1.6140626271565746
30
0
0
SPLINE
5
237
100
AcDbEntity
8
0
100
AcDbSpline
70
4
71
3
72
8
73
4
74
0
42
0.000000001
43
0.0000000001
44
0.0000000001
40
0
40
0
40
0
40
0
40
1
40
1
40
1
40
1
41
1
41
1
41
1
41
1
10
2.795833206176757
20
0.99322923024495369
30
0
10
2.9109372456868488
20
0.99322923024495369
30
0
10
3.0041665395100914
20
0.89947923024495346
30
0
10
3.0041665395100914
20
0.7843751907348625
30
0
0
LINE
5
238
100
AcDbEntity
8
0
100
AcDbLine
10
3.0041665395100914
20
0.7843751907348625
30
0
11
3.0041665395100914
21
0.61666679382324141
31
0
0
SPLINE
5
239
100
AcDbEntity
8
0
100
AcDbSpline
70
4
71
3
72
8
73
4
74
0
42
0.000000001
43
0.0000000001
44
0.0000000001
40
0
40
0
40
0
40
0
40
1
40
1
40
1
40
1
41
1
41
1
41
1
41
1
10
3.0041665395100914
20
0.61666679382324097
30
0
10
3.0041665395100914
20
0.5020834604899076
30
0
10
2.9109375635782877
20
0.40833346048990771
30
0
10
2.795833206176757
20
0.40833346048990771
30
0
0
LINE
5
240
100
AcDbEntity
8
0
100
AcDbLine
10
2.795833206176757
20
0.40833346048990771
30
0
11
1.7339145932916264
21
0.40833346048990771
31
0
0
LINE
5
241
100
AcDbEntity
8
0
100
AcDbLine
10
1.7335009274805964
20
0.99322923024495369
30
0
11
2.795833206176757
21
0.99322923024495369
31
0
0
LINE
5
242
100
AcDbEntity
8
0
100
AcDbLine
10
1.6089145932916264
20
0.40833346048990771
30
0
11
0.55104153951009094
21
0.40833346048990771
31
0
0
SPLINE
5
243
100
AcDbEntity
8
0
100
AcDbSpline
70
4
71
3
72
8
73
4
74
0
42
0.000000001
43
0.0000000001
44
0.0000000001
40
0
40
0
40
0
40
0
40
1
40
1
40
1
40
1
41
1
41
1
41
1
41
1
10
0.55104153951009116
20
0.40833346048990771
30
0
10
0.43593734105428072
20
0.40833346048990771
30
0
10
0.34270820617675779
20
0.5020834604899076
30
0
10
0.34270820617675779
20
0.61666679382324097
30
0
0
LINE
5
244
100
AcDbEntity
8
0
100
AcDbLine
10
0.34270820617675779
20
0.61666679382324097
30
0
11
0.34270820617675779
21
0.7843751907348625
31
0
0
SPLINE
5
245
100
AcDbEntity
8
0
100
AcDbSpline
70
4
71
3
72
8
73
4
74
0
42
0.000000001
43
0.0000000001
44
0.0000000001
40
0
40
0
40
0
40
0
40
1
40
1
40
1
40
1
41
1
41
1
41
1
41
1
10
0.34270820617675779
20
0.7843751907348625
30
0
10
0.34270820617675779
20
0.89947923024495346
30
0
10
0.43645820617675773
20
0.99322923024495369
30
0
10
0.55104153951009116
20
0.99322923024495369
30
0
0
LINE
5
246
100
AcDbEntity
8
0
100
AcDbLine
10
0.55104153951009116
20
0.99322923024495369
30
0
11
1.6089145932916264
21
0.99322923024495369
31
0
0
ENDSEC
0
SECTION
2
OBJECTS
0
DICTIONARY
5
C
100
AcDbDictionary
3
ACAD_GROUP
350
D
3
ACAD_MLINESTYLE
350
17
0
DICTIONARY
5
D
100
AcDbDictionary
0
DICTIONARY
5
1A
330
C
100
AcDbDictionary
0
DICTIONARY
5
17
100
AcDbDictionary
0
ENDSEC
0
EOF
