0
SECTION
2
HEADER
9
$INSUNITS
70
1
9
$ACADVER
1
AC1014
9
$HANDSEED
5
FFFF
0
ENDSEC
0
SECTION
2
TABLES
0
TABLE
2
VPORT
5
8
100
AcDbSymbolTable
0
ENDTAB
0
TABLE
2
LTYPE
5
5
100
AcDbSymbolTable
0
LTYPE
5
14
100
AcDbSymbolTableRecord
100
AcDbLinetypeTableRecord
2
BYBLOCK
70
0
0
LTYPE
5
15
100
AcDbSymbolTableRecord
100
AcDbLinetypeTableRecord
2
BYLAYER
70
0
0
ENDTAB
0
TABLE
2
LAYER
5
2
100
AcDbSymbolTable
70
2
0
LAYER
5
50
100
AcDbSymbolTableRecord
100
AcDbLayerTableRecord
2
0
70
0
6
CONTINUOUS
0
ENDTAB
0
TABLE
2
STYLE
5
3
100
AcDbSymbolTable
70
1
0
STYLE
5
11
100
AcDbSymbolTableRecord
100
AcDbTextStyleTableRecord
2
STANDARD
70
0
0
ENDTAB
0
TABLE
2
VIEW
5
6
100
AcDbSymbolTable
70
0
0
ENDTAB
0
TABLE
2
UCS
5
7
100
AcDbSymbolTable
70
0
0
ENDTAB
0
TABLE
2
APPID
5
9
100
AcDbSymbolTable
70
2
0
APPID
5
12
100
AcDbSymbolTableRecord
100
AcDbRegAppTableRecord
2
ACAD
70
0
0
ENDTAB
0
TABLE
2
DIMSTYLE
5
A
100
AcDbSymbolTable
70
1
0
ENDTAB
0
TABLE
2
BLOCK_RECORD
5
1
100
AcDbSymbolTable
70
1
0
BLOCK_RECORD
5
1F
100
AcDbSymbolTableRecord
100
AcDbBlockTableRecord
2
*MODEL_SPACE
0
BLOCK_RECORD
5
1B
100
AcDbSymbolTableRecord
100
AcDbBlockTableRecord
2
*PAPER_SPACE
0
ENDTAB
0
ENDSEC
0
SECTION
2
BLOCKS
0
BLOCK
5
20
100
AcDbEntity
100
AcDbBlockBegin
2
*MODEL_SPACE
0
ENDBLK
5
21
100
AcDbEntity
100
AcDbBlockEnd
0
BLOCK
5
1C
100
AcDbEntity
100
AcDbBlockBegin
2
*PAPER_SPACE
0
ENDBLK
5
1D
100
AcDbEntity
100
AcDbBlockEnd
0
ENDSEC
0
SECTION
2
ENTITIES
0
LWPOLYLINE
5
100
100
AcDbEntity
8
0
100
AcDbPolyline
90
4
70
1
43
0.0
10
17.999999999999996
20
0
10
0
20
0
10
0
20
5.0353181865127095
10
17.999999999999996
20
5.0353181865127095
0
LINE
5
101
100
AcDbEntity
8
0
100
AcDbLine
10
6.0368365967121793
20
3.4698721035143612
30
0
11
6.3517972266334386
21
3.4698721035143612
31
0
0
LINE
5
102
100
AcDbEntity
8
0
100
AcDbLine
10
6.3517972266334386
20
3.4698721035143612
30
0
11
6.3517972266334386
21
2.2866993496490959
31
0
0
LINE
5
103
100
AcDbEntity
8
0
100
AcDbLine
10
6.0368365967121793
20
2.2866993496490959
30
0
11
6.0368365967121793
21
3.4698721035143612
31
0
0
LINE
5
104
100
AcDbEntity
8
0
100
AcDbLine
10
8.0307976297804409
20
3.4820820359853197
30
0
11
8.3457582597017019
21
3.4820820359853197
31
0
0
LINE
5
105
100
AcDbEntity
8
0
100
AcDbLine
10
8.3457582597017019
20
1.8927144491650354
30
0
11
8.0307976297804409
21
1.8927144491650354
31
0
0
LINE
5
106
100
AcDbEntity
8
0
100
AcDbLine
10
7.8828754315813621
20
2.8102874889788079
30
0
11
7.8828754315813621
21
3.0560659817860683
31
0
0
LINE
5
107
100
AcDbEntity
8
0
100
AcDbLine
10
8.4936804579007816
20
3.0560659817860683
30
0
11
8.4936804579007816
21
2.8102874889788079
31
0
0
LINE
5
108
100
AcDbEntity
8
0
100
AcDbLine
10
8.0307976297804409
20
1.8927144491650354
30
0
11
8.0307976297804409
21
2.8102874889788079
31
0
0
LINE
5
109
100
AcDbEntity
8
0
100
AcDbLine
10
8.0307976297804409
20
2.996544377739716
30
0
11
8.0307976297804409
21
3.4820820359853197
31
0
0
LINE
5
110
100
AcDbEntity
8
0
100
AcDbLine
10
7.8828754315813621
20
3.0560659817860683
30
0
11
8.0307976297804409
21
3.0560659817860683
31
0
0
LINE
5
111
100
AcDbEntity
8
0
100
AcDbLine
10
8.3457582597017019
20
3.0560659817860683
30
0
11
8.4936804579007816
21
3.0560659817860683
31
0
0
LINE
5
112
100
AcDbEntity
8
0
100
AcDbLine
10
8.3457582597017019
20
3.4820820359853197
30
0
11
8.3457582597017019
21
3.0560659817860683
31
0
0
LINE
5
113
100
AcDbEntity
8
0
100
AcDbLine
10
8.3457582597017019
20
2.8102874889788079
30
0
11
8.3457582597017019
21
1.8927144491650354
31
0
0
LINE
5
114
100
AcDbEntity
8
0
100
AcDbLine
10
8.4936804579007816
20
2.8102874889788079
30
0
11
8.3457582597017019
21
2.8102874889788079
31
0
0
LINE
5
115
100
AcDbEntity
8
0
100
AcDbLine
10
8.0307976297804409
20
2.8102874889788079
30
0
11
7.8828754315813621
21
2.8102874889788079
31
0
0
LINE
5
116
100
AcDbEntity
8
0
100
AcDbLine
10
9.1827723405250534
20
1.8947855776156057
30
0
11
9.4575422774978755
21
3.4713343963121299
31
0
0
LINE
5
117
100
AcDbEntity
8
0
100
AcDbLine
10
9.4575422774978755
20
3.4713343963121299
30
0
11
9.7577896938233533
21
3.4713343963121299
31
0
0
LINE
5
118
100
AcDbEntity
8
0
100
AcDbLine
10
9.7577896938233533
20
3.4713343963121299
30
0
11
10.118342805119092
21
2.3764473673935327
31
0
0
LINE
5
119
100
AcDbEntity
8
0
100
AcDbLine
10
9.1827723405250534
20
1.8947855776156057
30
0
11
9.4853947735927946
21
1.8947855776156057
31
0
0
LINE
5
120
100
AcDbEntity
8
0
100
AcDbLine
10
9.4853947735927946
20
1.8947855776156057
30
0
11
9.6553301588530189
21
2.8698246733709967
31
0
0
LINE
5
121
100
AcDbEntity
8
0
100
AcDbLine
10
9.6553301588530189
20
2.8698246733709967
30
0
11
9.9764166000329944
21
1.8947855776156057
31
0
0
LINE
5
122
100
AcDbEntity
8
0
100
AcDbLine
10
9.9764166000329944
20
1.8947855776156057
30
0
11
10.118342805119092
21
1.8947855776156057
31
0
0
LINE
5
123
100
AcDbEntity
8
0
100
AcDbLine
10
10.260269010205189
20
1.8947855776156057
30
0
11
10.118342805119092
21
1.8947855776156057
31
0
0
LINE
5
124
100
AcDbEntity
8
0
100
AcDbLine
10
10.581355451385164
20
2.8698246733709967
30
0
11
10.260269010205189
21
1.8947855776156057
31
0
0
LINE
5
125
100
AcDbEntity
8
0
100
AcDbLine
10
10.751290836645389
20
1.8947855776156057
30
0
11
10.581355451385164
21
2.8698246733709967
31
0
0
LINE
5
126
100
AcDbEntity
8
0
100
AcDbLine
10
11.05391326971313
20
1.8947855776156057
30
0
11
10.751290836645389
21
1.8947855776156057
31
0
0
LINE
5
127
100
AcDbEntity
8
0
100
AcDbLine
10
11.05391326971313
20
1.8947855776156057
30
0
11
10.779143332740309
21
3.4713343963121299
31
0
0
LINE
5
128
100
AcDbEntity
8
0
100
AcDbLine
10
10.779143332740309
20
3.4713343963121299
30
0
11
10.47889591641483
21
3.4713343963121299
31
0
0
LINE
5
129
100
AcDbEntity
8
0
100
AcDbLine
10
10.47889591641483
20
3.4713343963121299
30
0
11
10.118342805119092
21
2.3764473673935327
31
0
0
LWPOLYLINE
5
130
100
AcDbEntity
8
0
100
AcDbPolyline
90
4
70
1
43
0.0
10
14.387024815183498
20
3.0645763152123622
10
14.07206418526224
20
3.0645763152123622
10
14.07206418526224
20
1.8947855776156057
10
14.387024815183498
20
1.8947855776156057
0
LINE
5
131
100
AcDbEntity
8
0
100
AcDbLine
10
15.381638332897838
20
1.8914612514870224
30
0
11
15.71846996336421
21
1.8914612514870224
31
0
0
LINE
5
132
100
AcDbEntity
8
0
100
AcDbLine
10
14.868849880546044
20
3.0594793929549935
30
0
11
14.532018250079672
21
3.0594793929549935
31
0
0
LINE
5
133
100
AcDbEntity
8
0
100
AcDbLine
10
14.4907940803808
20
1.8914612514870224
30
0
11
14.822598373079018
21
1.8914612514870224
31
0
0
LINE
5
134
100
AcDbEntity
8
0
100
AcDbLine
10
15.664845027170557
20
3.0594793929549935
30
0
11
15.333040734472339
21
3.0594793929549935
31
0
0
LINE
5
135
100
AcDbEntity
8
0
100
AcDbLine
10
15.71846996336421
20
1.8914612514870224
30
0
11
15.262971676740035
21
2.5176590932563547
31
0
0
LINE
5
136
100
AcDbEntity
8
0
100
AcDbLine
10
15.101956816897701
20
2.739014827595815
30
0
11
14.868849880546044
21
3.0594793929549935
31
0
0
LINE
5
137
100
AcDbEntity
8
0
100
AcDbLine
10
15.333040734472339
20
3.0594793929549935
30
0
11
15.101956816897701
21
2.739014827595815
31
0
0
LINE
5
138
100
AcDbEntity
8
0
100
AcDbLine
10
14.9423393246753
20
2.5176590932563547
30
0
11
14.4907940803808
21
1.8914612514870224
31
0
0
LINE
5
139
100
AcDbEntity
8
0
100
AcDbLine
10
14.822598373079018
20
1.8914612514870224
30
0
11
15.100900159732086
21
2.2774070240640003
31
0
0
LINE
5
140
100
AcDbEntity
8
0
100
AcDbLine
10
15.26858199161838
20
2.5099462935123595
30
0
11
15.664845027170557
21
3.0594793929549935
31
0
0
LINE
5
141
100
AcDbEntity
8
0
100
AcDbLine
10
14.532018250079672
20
3.0594793929549935
30
0
11
14.934274985011411
21
2.5064755581474563
31
0
0
LINE
5
142
100
AcDbEntity
8
0
100
AcDbLine
10
15.100900159732086
20
2.2774070240640003
30
0
11
15.381638332897838
21
1.8914612514870224
31
0
0
SPLINE
5
143
100
AcDbEntity
8
0
100
AcDbSpline
70
4
71
5
72
41
73
35
74
0
42
0.000000001
43
0.0000000001
44
0.0000000001
40
0
40
0
40
0
40
0
40
0
40
0
40
0.033333333333333333
40
0.066666666666666666
40
0.10000000000000001
40
0.13333333333333333
40
0.16666666666666666
40
0.19999999999999998
40
0.23333333333333331
40
0.26666666666666666
40
0.29999999999999999
40
0.33333333333333331
40
0.36666666666666664
40
0.39999999999999997
40
0.43333333333333329
40
0.46666666666666662
40
0.49999999999999994
40
0.53333333333333333
40
0.56666666666666665
40
0.59999999999999998
40
0.6333333333333333
40
0.66666666666666663
40
0.69999999999999996
40
0.73333333333333328
40
0.76666666666666661
40
0.79999999999999993
40
0.83333333333333326
40
0.86666666666666659
40
0.89999999999999991
40
0.93333333333333324
40
0.96666666666666656
40
1
40
1
40
1
40
1
40
1
40
1
41
1
41
1
41
1
41
1
41
1
41
1
41
1
41
1
41
1
41
1
41
1
41
1
41
1
41
1
41
1
41
1
41
1
41
1
41
1
41
1
41
1
41
1
41
1
41
1
41
1
41
1
41
1
41
1
41
1
41
1
41
1
41
1
41
1
41
1
41
1
10
6.0368365967121793
20
2.2866993496490959
30
0
10
6.0368365967121793
20
2.283662806194573
30
0
10
6.0368003280120099
20
2.2775738377394608
30
0
10
6.0366371182031937
20
2.2683927409665245
30
0
10
6.0361626621994882
20
2.2560812318970438
30
0
10
6.0349096603082115
20
2.2407385435533329
30
0
10
6.0326927237660009
20
2.2256810430963103
30
0
10
6.0291971924462144
20
2.2111973264954154
30
0
10
6.0241590227056836
20
2.19760149941823
30
0
10
6.0174273208488369
20
2.1852083532646858
30
0
10
6.0089569609946167
20
2.1743087378582917
30
0
10
5.9988022279284472
20
2.1651431044503151
30
0
10
5.9871095633217228
20
2.1578780706366869
30
0
10
5.97411563374619
20
2.1525738347459829
30
0
10
5.9601313936230147
20
2.1491777175319191
30
0
10
5.945499194583058
20
2.1475685427946187
30
0
10
5.9305543969595007
20
2.1475907891748447
30
0
10
5.9155890721731739
20
2.1490888295819923
30
0
10
5.9008055677434283
20
2.151948728243978
30
0
10
5.8863122572415518
20
2.1561027504217622
30
0
10
5.8721533049724979
20
2.1615034881982726
30
0
10
5.8583287766331917
20
2.1681056153373159
30
0
10
5.8448168408719585
20
2.1758465610596405
30
0
10
5.8315983096504693
20
2.1846216677650832
30
0
10
5.8186648363819806
20
2.1942854101314526
30
0
10
5.806013775611448
20
2.204672998135738
30
0
10
5.7936468794946272
20
2.2156161493953346
30
0
10
5.781567522883269
20
2.2269600174388664
30
0
10
5.7697781907343373
20
2.2385819907446272
30
0
10
5.7582788524619284
20
2.2504018153243899
30
0
10
5.7470682536343887
20
2.2623703586403638
30
0
10
5.7383292751752757
20
2.2720443695965269
30
0
10
5.7319033916241269
20
2.2793517279886255
30
0
10
5.7276764099329327
20
2.2842463079910758
30
0
10
5.7255771543024059
20
2.2866993496490959
30
0
0
SPLINE
5
144
100
AcDbEntity
8
0
100
AcDbSpline
70
4
71
5
72
41
73
35
74
0
42
0.000000001
43
0.0000000001
44
0.0000000001
40
0
40
0
40
0
40
0
40
0
40
0
40
0.033333333333333333
40
0.066666666666666666
40
0.10000000000000001
40
0.13333333333333333
40
0.16666666666666666
40
0.19999999999999998
40
0.23333333333333331
40
0.26666666666666666
40
0.29999999999999999
40
0.33333333333333331
40
0.36666666666666664
40
0.39999999999999997
40
0.43333333333333329
40
0.46666666666666662
40
0.49999999999999994
40
0.53333333333333333
40
0.56666666666666665
40
0.59999999999999998
40
0.6333333333333333
40
0.66666666666666663
40
0.69999999999999996
40
0.73333333333333328
40
0.76666666666666661
40
0.79999999999999993
40
0.83333333333333326
40
0.86666666666666659
40
0.89999999999999991
40
0.93333333333333324
40
0.96666666666666656
40
1
40
1
40
1
40
1
40
1
40
1
41
1
41
1
41
1
41
1
41
1
41
1
41
1
41
1
41
1
41
1
41
1
41
1
41
1
41
1
41
1
41
1
41
1
41
1
41
1
41
1
41
1
41
1
41
1
41
1
41
1
41
1
41
1
41
1
41
1
41
1
41
1
41
1
41
1
41
1
41
1
10
6.3517972266334386
20
2.2866993496490959
30
0
10
6.3517972266334386
20
2.2815626989185787
30
0
10
6.3518410937399397
20
2.2712580811588547
30
0
10
6.3520385017278826
20
2.2557070950886096
30
0
10
6.3524706669264761
20
2.2348803551945347
30
0
10
6.3527204100277608
20
2.2091227021404238
30
0
10
6.3519021976681307
20
2.1839975059215475
30
0
10
6.3491670056970158
20
2.1594722521644791
30
0
10
6.3437175712772271
20
2.1349623032549969
30
0
10
6.3349160521323711
20
2.1097595928816424
30
0
10
6.3223779904407555
20
2.0833279113998109
30
0
10
6.3061123866264639
20
2.0557341738805723
30
0
10
6.2865084708959182
20
2.0277285617723479
30
0
10
6.264122593229752
20
2.0003924799826871
30
0
10
6.2395093587527608
20
1.9748855187937526
30
0
10
6.2130523424125386
20
1.9521754374438225
30
0
10
6.1847523557286452
20
1.9327179623057518
30
0
10
6.1543150093020973
20
1.9165319762134558
30
0
10
6.1213286861539791
20
1.9033961364278267
30
0
10
6.0854142019103232
20
1.89300435686881
30
0
10
6.0463803627753121
20
1.8851310061528956
30
0
10
6.0043957696083607
20
1.8798070965196552
30
0
10
5.9599154254118947
20
1.8772729755300461
30
0
10
5.9135817759723439
20
1.8779062176941674
30
0
10
5.8661376459893688
20
1.8821595032550438
30
0
10
5.8183342973221643
20
1.8904933257431302
30
0
10
5.7708451496762052
20
1.9033127204046589
30
0
10
5.7241687683355664
20
1.9208948075159986
30
0
10
5.6786492453205231
20
1.943407985487591
30
0
10
5.634507767643357
20
1.9709393210825326
30
0
10
5.5918690091286107
20
2.0035173443305205
30
0
10
5.5590046964725053
20
2.0336116170167884
30
0
10
5.5350634486482981
20
2.0584409143513693
30
0
10
5.5194162667287232
20
2.0759957840053596
30
0
10
5.5116710881610524
20
2.0850237200188917
30
0
0
LINE
5
145
100
AcDbEntity
8
0
100
AcDbLine
10
5.5116710881610524
20
2.0850237200188917
30
0
11
5.7255771543024059
21
2.2866993496490959
31
0
0
LWPOLYLINE
5
146
100
AcDbEntity
8
0
100
AcDbPolyline
90
10
70
1
43
0.0
10
12.313546100580904
20
2.1444930373532824
42
-8.8621772580110036
10
12.418419911986675
20
2.3931397336613895
10
11.901207326736083
20
2.3931397336613895
10
11.901207326736083
20
2.6314471820839378
10
12.147705152177782
20
2.6314471820839378
42
0.63924212629069277
10
11.497229186333753
20
2.6314471820839378
10
11.743731830584945
20
2.6314471820839378
10
11.743731830584945
20
2.3931397336613895
10
11.475060355374239
20
2.3931397336613895
42
0.60960108833730664
10
12.095604059435948
20
2.2490404400725987
0
LWPOLYLINE
5
147
100
AcDbEntity
8
0
100
AcDbPolyline
90
10
70
1
43
0.0
10
13.82033435450291
20
3.4713343963121299
10
13.527043995856172
20
3.4713343963121299
10
13.527043995856175
20
2.9524380798678647
42
0.11127058835670173
10
13.292370221521304
20
3.0711807691848927
10
13.292328137813808
20
2.7921447653903839
42
-0.73603281791406361
10
13.246015661888489
20
2.138932809447422
10
13.246811715736776
20
1.9013665661222041
42
0.13101952470914355
10
13.527043995856172
20
2.0297184744140795
10
13.527043995856172
20
1.892087850326029
10
13.82033435450291
20
1.892087850326029
0
LINE
5
148
100
AcDbEntity
8
0
100
AcDbLine
10
14.0320843145662
20
3.5365697462740999
30
0
11
14.167335863288592
21
3.5365697462740999
31
0
0
LINE
5
149
100
AcDbEntity
8
0
100
AcDbLine
10
14.304485679975151
20
3.5365697462740999
30
0
11
14.43973722869754
21
3.5365697462740999
31
0
0
LINE
5
150
100
AcDbEntity
8
0
100
AcDbLine
10
14.43973722869754
20
3.4022082356909897
30
0
11
14.304485679975151
21
3.4022082356909897
31
0
0
LINE
5
151
100
AcDbEntity
8
0
100
AcDbLine
10
14.167335863288592
20
3.4022082356909897
30
0
11
14.0320843145662
21
3.4022082356909897
31
0
0
LINE
5
152
100
AcDbEntity
8
0
100
AcDbLine
10
14.304485679975151
20
3.6770010988108197
30
0
11
14.304485679975151
21
3.5365697462740999
31
0
0
LINE
5
153
100
AcDbEntity
8
0
100
AcDbLine
10
14.167335863288592
20
3.5365697462740999
30
0
11
14.167335863288592
21
3.6770010988108197
31
0
0
LINE
5
154
100
AcDbEntity
8
0
100
AcDbLine
10
14.167335863288592
20
3.2617768831542708
30
0
11
14.167335863288592
21
3.4022082356909897
31
0
0
LINE
5
155
100
AcDbEntity
8
0
100
AcDbLine
10
14.304485679975151
20
3.4022082356909897
30
0
11
14.304485679975151
21
3.2617768831542708
31
0
0
LINE
5
156
100
AcDbEntity
8
0
100
AcDbLine
10
4.6224640863294173
20
3.8956118491616767
30
0
11
16.676565964387333
21
3.8956118491618668
31
0
0
LINE
5
157
100
AcDbEntity
8
0
100
AcDbLine
10
4.6224640863287316
20
1.1397063373508431
30
0
11
16.621497158435247
21
1.1397063373508436
31
0
0
ARC
5
158
100
AcDbEntity
8
0
100
AcDbCircle
10
16.621497158435247
20
2.5182092887140715
30
0
40
1.3785029513632281
210
0
220
0
230
1
100
AcDbArc
50
207.03408351261203
51
207.04296148426744
0
ARC
5
159
100
AcDbEntity
8
0
100
AcDbCircle
10
16.621497158435247
20
2.5182092887140715
30
0
40
1.3785029513632281
210
0
220
0
230
1
100
AcDbArc
50
-90
51
92.289476405160428
0
LINE
5
160
100
AcDbEntity
8
0
100
AcDbLine
10
1.4060272231564446
20
1.1538395597375539
30
0
11
2.9808303727627434
21
1.1538395597375537
31
0
0
LINE
5
161
100
AcDbEntity
8
0
100
AcDbLine
10
2.9808303727627434
20
1.1538395597375537
30
0
11
3.7682319475658934
21
2.5176590932563543
31
0
0
LINE
5
162
100
AcDbEntity
8
0
100
AcDbLine
10
3.7682319475658934
20
2.5176590932563543
30
0
11
2.9808303727627448
21
3.8814786267751558
31
0
0
LINE
5
163
100
AcDbEntity
8
0
100
AcDbLine
10
2.9808303727627448
20
3.8814786267751558
30
0
11
1.4060272231564455
21
3.8814786267751562
31
0
0
ARC
5
164
100
AcDbEntity
8
0
100
AcDbCircle
10
2.1934287979595943
20
2.5176590932563547
30
0
40
2.4122999522348647
210
0
220
0
230
1
100
AcDbArc
50
244.25245526410595
51
316.13116437172647
0
ARC
5
165
100
AcDbEntity
8
0
100
AcDbCircle
10
2.1934287979595943
20
2.5176590932563547
30
0
40
2.4122999522350979
210
0
220
-0
230
1
100
AcDbArc
50
43.868835628264648
51
115.74754473589404
0
LINE
5
166
100
AcDbEntity
8
0
100
AcDbLine
10
1.4060272231564455
20
3.8814786267751562
30
0
11
1.2525971644030593
21
3.8814786267751562
31
0
0
LINE
5
167
100
AcDbEntity
8
0
100
AcDbLine
10
1.4060272231564446
20
1.1538395597375539
30
0
11
1.2526221608806745
21
1.1538395597375539
31
0
0
ARC
5
168
100
AcDbEntity
8
0
100
AcDbCircle
10
1.3405910088925286
20
4.2859684738091577
30
0
40
0.44907547199531855
210
0
220
0
230
1
100
AcDbArc
50
115.74754473589404
51
216.25822146277176
0
ARC
5
169
100
AcDbEntity
8
0
100
AcDbCircle
10
1.3405910088925286
20
0.749349712703552
30
0
40
0.4490754719953195
210
0
220
0
230
1
100
AcDbArc
50
143.75490586022246
51
244.25245526410603
0
LINE
5
170
100
AcDbEntity
8
0
100
AcDbLine
10
17.997780819878642
20
2.59639925073667
30
0
11
17.999999999999996
21
2.59639925073667
31
0
0
LINE
5
171
100
AcDbEntity
8
0
100
AcDbLine
10
17.997717862700409
20
2.4389189357760399
30
0
11
17.999999999999996
21
2.4389189357760399
31
0
0
LINE
5
172
100
AcDbEntity
8
0
100
AcDbLine
10
14.235910771631872
20
3.6770010988108197
30
0
11
14.235910771631872
21
3.2617768831542708
31
0
0
LINE
5
173
100
AcDbEntity
8
0
100
AcDbLine
10
14.0320843145662
20
3.4693889909825444
30
0
11
14.43973722869754
21
3.4693889909825444
31
0
0
LINE
5
174
100
AcDbEntity
8
0
100
AcDbLine
10
13.92148160623058
20
3.5087590697227018
30
0
11
14.0320843145662
21
3.5087590697227018
31
0
0
LINE
5
175
100
AcDbEntity
8
0
100
AcDbLine
10
14.43973722869754
20
3.5087590697227018
30
0
11
14.534225976195399
21
3.5087590697227018
31
0
0
LINE
5
176
100
AcDbEntity
8
0
100
AcDbLine
10
13.92089516454897
20
3.4300189116557269
30
0
11
14.0320843145662
21
3.4300189116557269
31
0
0
LINE
5
177
100
AcDbEntity
8
0
100
AcDbLine
10
14.43973722869754
20
3.4300189116557269
30
0
11
14.534812417877008
21
3.4300189116557269
31
0
0
LINE
5
178
100
AcDbEntity
8
0
100
AcDbLine
10
14.196540692305055
20
3.7747061538869557
30
0
11
14.196540692305055
21
3.6770010988108197
31
0
0
LINE
5
179
100
AcDbEntity
8
0
100
AcDbLine
10
14.196540692305055
20
3.2617768831542708
30
0
11
14.196540692305055
21
3.1595038565679268
31
0
0
LINE
5
180
100
AcDbEntity
8
0
100
AcDbLine
10
14.275280850372029
20
3.7726367562442471
30
0
11
14.275280850372029
21
3.6770010988108197
31
0
0
LINE
5
181
100
AcDbEntity
8
0
100
AcDbLine
10
14.275280850372029
20
3.2617768831542708
30
0
11
14.275280850372029
21
3.161573254210635
31
0
0
LINE
5
182
100
AcDbEntity
8
0
100
AcDbLine
10
14.0320843145662
20
3.4022082356909897
30
0
11
14.0320843145662
21
3.4300189116557269
31
0
0
LINE
5
183
100
AcDbEntity
8
0
100
AcDbLine
10
14.0320843145662
20
3.5087590697227018
30
0
11
14.0320843145662
21
3.5365697462740999
31
0
0
LINE
5
184
100
AcDbEntity
8
0
100
AcDbLine
10
14.167335863288592
20
3.6770010988108197
30
0
11
14.196540692305055
21
3.6770010988108197
31
0
0
LINE
5
185
100
AcDbEntity
8
0
100
AcDbLine
10
14.275280850372029
20
3.6770010988108197
30
0
11
14.304485679975151
21
3.6770010988108197
31
0
0
ARC
5
186
100
AcDbEntity
8
0
100
AcDbCircle
10
14.22785379121299
20
3.4671050052274413
30
0
40
0.30919084206986286
210
0
220
0
230
1
100
AcDbArc
50
95.812557439664786
51
172.25759435413778
0
ARC
5
187
100
AcDbEntity
8
0
100
AcDbCircle
10
14.22785379121299
20
3.4671050052274413
30
0
40
0.3091908420698633
210
0
220
-0
230
1
100
AcDbArc
50
7.7424056458622452
51
81.17651480349204
0
ARC
5
188
100
AcDbEntity
8
0
100
AcDbCircle
10
14.22785379121299
20
3.4671050052274413
30
0
40
0.30919084206986253
210
0
220
0
230
1
100
AcDbArc
50
186.88896534657434
51
264.18744256033523
0
ARC
5
189
100
AcDbEntity
8
0
100
AcDbCircle
10
14.22785379121299
20
3.4671050052274413
30
0
40
0.30919084206986253
210
0
220
0
230
1
100
AcDbArc
50
278.82348519650793
51
353.11103465342558
0
LINE
5
190
100
AcDbEntity
8
0
100
AcDbLine
10
14.304485679975151
20
3.2617768831542708
30
0
11
14.275280850372029
21
3.2617768831542708
31
0
0
LINE
5
191
100
AcDbEntity
8
0
100
AcDbLine
10
14.196540692305055
20
3.2617768831542708
30
0
11
14.167335863288592
21
3.2617768831542708
31
0
0
LINE
5
192
100
AcDbEntity
8
0
100
AcDbLine
10
14.43973722869754
20
3.5365697462740999
30
0
11
14.43973722869754
21
3.5087590697227018
31
0
0
LINE
5
193
100
AcDbEntity
8
0
100
AcDbLine
10
14.43973722869754
20
3.4300189116557269
30
0
11
14.43973722869754
21
3.4022082356909897
31
0
0
LWPOLYLINE
5
194
100
AcDbEntity
8
0
100
AcDbPolyline
90
10
70
1
43
0.0
10
7.7178657525401295
20
2.3931397336613895
10
7.2006531672895369
20
2.3931397336613895
10
7.2006531672895369
20
2.6314471820839378
10
7.4471509927312365
20
2.6314471820839378
42
0.63924212629069277
10
6.7966750268872067
20
2.6314471820839378
10
7.0431776711384
20
2.6314471820839378
10
7.0431776711384
20
2.3931397336613895
10
6.7745061959276933
20
2.3931397336613895
42
0.60960108833730664
10
7.3950498999894014
20
2.2490404400725987
10
7.6129919411343581
20
2.1444930373532824
42
-8.8621772580110036
0
LWPOLYLINE
5
195
100
AcDbEntity
8
0
100
AcDbPolyline
90
4
70
1
43
0.0
10
13.088578961763142
20
1.8956327000363209
10
13.088615668893173
20
2.1390193093352501
42
-0.79130806157524836
10
13.088716337003563
20
2.8064991703652824
10
13.08875857244024
20
3.0865412144315654
42
0.88324437188073368
0
CIRCLE
5
196
100
AcDbEntity
8
0
100
AcDbCircle
10
16.642390146160253
20
2.5176590932563547
30
0
40
0.622873515640749
210
0
220
0
230
1
0
ARC
5
197
100
AcDbEntity
8
0
100
AcDbCircle
10
4.622464086329642
20
4.8526285922457637
30
0
40
0.95701674308426787
210
0
220
0
230
1
100
AcDbArc
50
223.86883562826549
51
269.99999999998658
0
ARC
5
198
100
AcDbEntity
8
0
100
AcDbCircle
10
4.6224640863287334
20
0.18268959426711398
30
0
40
0.95701674308372919
210
0
220
0
230
1
100
AcDbArc
50
90.000000000000114
51
136.13116437172638
0
ARC
5
199
100
AcDbEntity
8
0
100
AcDbCircle
10
1.2525971644030574
20
4.2214293009273254
30
0
40
0.33995067415216884
210
0
220
0
230
1
100
AcDbArc
50
216.25822146277159
51
270.00000000000034
0
ARC
5
200
100
AcDbEntity
8
0
100
AcDbCircle
10
1.252622160880674
20
0.8138395597375544
30
0
40
0.33999999999999958
210
0
220
-0
230
1
100
AcDbArc
50
89.999999999999929
51
143.75490586022252
0
ENDSEC
0
SECTION
2
OBJECTS
0
DICTIONARY
5
C
100
AcDbDictionary
3
ACAD_GROUP
350
D
3
ACAD_MLINESTYLE
350
17
0
DICTIONARY
5
D
100
AcDbDictionary
0
DICTIONARY
5
1A
330
C
100
AcDbDictionary
0
DICTIONARY
5
17
100
AcDbDictionary
0
ENDSEC
0
EOF
