0
SECTION
2
HEADER
9
$INSUNITS
70
1
9
$ACADVER
1
AC1014
9
$HANDSEED
5
FFFF
0
ENDSEC
0
SECTION
2
TABLES
0
TABLE
2
VPORT
5
8
100
AcDbSymbolTable
0
ENDTAB
0
TABLE
2
LTYPE
5
5
100
AcDbSymbolTable
0
LTYPE
5
14
100
AcDbSymbolTableRecord
100
AcDbLinetypeTableRecord
2
BYBLOCK
70
0
0
LTYPE
5
15
100
AcDbSymbolTableRecord
100
AcDbLinetypeTableRecord
2
BYLAYER
70
0
0
ENDTAB
0
TABLE
2
LAYER
5
2
100
AcDbSymbolTable
70
2
0
LAYER
5
50
100
AcDbSymbolTableRecord
100
AcDbLayerTableRecord
2
0
70
0
6
CONTINUOUS
0
ENDTAB
0
TABLE
2
STYLE
5
3
100
AcDbSymbolTable
70
1
0
STYLE
5
11
100
AcDbSymbolTableRecord
100
AcDbTextStyleTableRecord
2
STANDARD
70
0
0
ENDTAB
0
TABLE
2
VIEW
5
6
100
AcDbSymbolTable
70
0
0
ENDTAB
0
TABLE
2
UCS
5
7
100
AcDbSymbolTable
70
0
0
ENDTAB
0
TABLE
2
APPID
5
9
100
AcDbSymbolTable
70
2
0
APPID
5
12
100
AcDbSymbolTableRecord
100
AcDbRegAppTableRecord
2
ACAD
70
0
0
ENDTAB
0
TABLE
2
DIMSTYLE
5
A
100
AcDbSymbolTable
70
1
0
ENDTAB
0
TABLE
2
BLOCK_RECORD
5
1
100
AcDbSymbolTable
70
1
0
BLOCK_RECORD
5
1F
100
AcDbSymbolTableRecord
100
AcDbBlockTableRecord
2
*MODEL_SPACE
0
BLOCK_RECORD
5
1B
100
AcDbSymbolTableRecord
100
AcDbBlockTableRecord
2
*PAPER_SPACE
0
ENDTAB
0
ENDSEC
0
SECTION
2
BLOCKS
0
BLOCK
5
20
100
AcDbEntity
100
AcDbBlockBegin
2
*MODEL_SPACE
0
ENDBLK
5
21
100
AcDbEntity
100
AcDbBlockEnd
0
BLOCK
5
1C
100
AcDbEntity
100
AcDbBlockBegin
2
*PAPER_SPACE
0
ENDBLK
5
1D
100
AcDbEntity
100
AcDbBlockEnd
0
ENDSEC
0
SECTION
2
ENTITIES
0
SPLINE
5
100
100
AcDbEntity
8
0
100
AcDbSpline
70
4
71
3
72
8
73
4
74
0
42
0.000000001
43
0.0000000001
44
0.0000000001
40
-0.4436525326939374
40
-0.4436525326939374
40
-0.4436525326939374
40
-0.4436525326939374
40
0
40
0
40
0
40
0
41
1
41
1
41
1
41
1
10
-5.935137714482658
20
2.4835505579021424
30
0
10
-5.8896996978338567
20
2.5667241678864641
30
0
10
-5.8800232796908318
20
2.6656476850085493
30
0
10
-5.9172441101807802
20
2.763910677501999
30
0
0
SPLINE
5
101
100
AcDbEntity
8
0
100
AcDbSpline
70
4
71
3
72
8
73
4
74
0
42
0.000000001
43
0.0000000001
44
0.0000000001
40
-1
40
-1
40
-1
40
-1
40
-0.85716681371621972
40
-0.85716681371621972
40
-0.85716681371621972
40
-0.85716681371621972
41
1
41
1
41
1
41
1
10
-5.9172441101807802
20
2.763910677501999
30
0
10
-5.9249133477729652
20
2.7835630988319719
30
0
10
-5.9351157479114862
20
2.8031470563093417
30
0
10
-5.9473623650857128
20
2.8222811724358148
30
0
0
ARC
5
102
100
AcDbEntity
8
0
100
AcDbCircle
10
-6.7081517140247193
20
2.6619508367504916
30
0
40
0.77750000000000397
210
0
220
-0
230
1
100
AcDbArc
50
11.900495661630361
51
58.926288864634472
0
SPLINE
5
103
100
AcDbEntity
8
0
100
AcDbSpline
70
4
71
3
72
8
73
4
74
0
42
0.000000001
43
0.0000000001
44
0.0000000001
40
-0.58858788423209552
40
-0.58858788423209552
40
-0.58858788423209552
40
-0.58858788423209552
40
0
40
0
40
0
40
0
41
1
41
1
41
1
41
1
10
-6.3068525562571534
20
3.3278826921043567
30
0
10
-6.219730624890957
20
3.3746515515640301
30
0
10
-6.1559128481522825
20
3.404878831603237
30
0
10
-6.1420863422476879
20
3.404878831603237
30
0
0
SPLINE
5
104
100
AcDbEntity
8
0
100
AcDbSpline
70
4
71
3
72
8
73
4
74
0
42
0.000000001
43
0.0000000001
44
0.0000000001
40
-1
40
-1
40
-1
40
-1
40
0
40
0
40
0
40
0
41
1
41
1
41
1
41
1
10
-6.1420863422476879
20
3.404878831603237
30
0
10
-6.1219512169879655
20
3.404878831603237
30
0
10
-5.9642260691201168
20
3.3209824763543847
30
0
10
-5.7930775044124614
20
3.2203068500557515
30
0
0
SPLINE
5
105
100
AcDbEntity
8
0
100
AcDbSpline
70
4
71
3
72
8
73
4
74
0
42
0.000000001
43
0.0000000001
44
0.0000000001
40
-1
40
-1
40
-1
40
-1
40
0
40
0
40
0
40
0
41
1
41
1
41
1
41
1
10
-5.7930775044124614
20
3.2203068500557515
30
0
10
-5.6185730854948428
20
3.1196312237571289
30
0
10
-5.4675596460469089
20
3.0357348685082881
30
0
10
-5.4574920834170531
20
3.0357348685082881
30
0
0
SPLINE
5
106
100
AcDbEntity
8
0
100
AcDbSpline
70
4
71
3
72
8
73
4
74
0
42
0.000000001
43
0.0000000001
44
0.0000000001
40
-1
40
-1
40
-1
40
-1
40
0
40
0
40
0
40
0
41
1
41
1
41
1
41
1
10
-5.4574920834170531
20
3.0357348685082881
30
0
10
-5.434001103947379
20
3.0357348685082881
30
0
10
-4.903776138774619
20
3.341117601614096
30
0
10
-4.903776138774619
20
3.3545410184539257
30
0
0
SPLINE
5
107
100
AcDbEntity
8
0
100
AcDbSpline
70
4
71
3
72
8
73
4
74
0
42
0.000000001
43
0.0000000001
44
0.0000000001
40
-1
40
-1
40
-1
40
-1
40
0
40
0
40
0
40
0
41
1
41
1
41
1
41
1
10
-4.903776138774619
20
3.3545410184539257
30
0
10
-4.903776138774619
20
3.3612527268738406
30
0
10
-5.0547895782225529
20
3.4518607905425904
30
0
10
-5.2427174139799906
20
3.5558922710511536
30
0
0
LINE
5
108
100
AcDbEntity
8
0
100
AcDbLine
10
-5.2427174139799906
20
3.5558922710511536
30
0
11
-5.5816586891853497
21
3.747175961018554
31
0
0
LINE
5
109
100
AcDbEntity
8
0
100
AcDbLine
10
-5.5816586891853497
20
3.747175961018554
30
0
11
-5.4507803749971382
21
3.8277164620574542
31
0
0
SPLINE
5
110
100
AcDbEntity
8
0
100
AcDbSpline
70
4
71
3
72
8
73
4
74
0
42
0.000000001
43
0.0000000001
44
0.0000000001
40
-1
40
-1
40
-1
40
-1
40
0
40
0
40
0
40
0
41
1
41
1
41
1
41
1
10
-5.4507803749971382
20
3.8277164620574542
30
0
10
-5.3803074365881054
20
3.8713425667868502
30
0
10
-5.3031227897591684
20
3.9082569630963317
30
0
10
-5.2796318102894828
20
3.9082569630963317
30
0
0
SPLINE
5
111
100
AcDbEntity
8
0
100
AcDbSpline
70
4
71
3
72
8
73
4
74
0
42
0.000000001
43
0.0000000001
44
0.0000000001
40
-1
40
-1
40
-1
40
-1
40
0
40
0
40
0
40
0
41
1
41
1
41
1
41
1
10
-5.2796318102894828
20
3.9082569630963317
30
0
10
-5.2561408308197972
20
3.9082569630963317
30
0
10
-5.0917039745320567
20
3.8243606078474799
30
0
10
-4.9138437014044749
20
3.7236849815488688
30
0
0
SPLINE
5
112
100
AcDbEntity
8
0
100
AcDbSpline
70
4
71
3
72
8
73
4
74
0
42
0.000000001
43
0.0000000001
44
0.0000000001
40
-1
40
-1
40
-1
40
-1
40
0
40
0
40
0
40
0
41
1
41
1
41
1
41
1
10
-4.9138437014044749
20
3.7236849815488688
30
0
10
-4.7359834282769269
20
3.6196535010402831
30
0
10
-4.5816141346190298
20
3.5424688542113461
30
0
10
-4.5715465719891748
20
3.5458247084212982
30
0
0
SPLINE
5
113
100
AcDbEntity
8
0
100
AcDbSpline
70
4
71
3
72
8
73
4
74
0
42
0.000000001
43
0.0000000001
44
0.0000000001
40
-1
40
-1
40
-1
40
-1
40
-0.89079959011112975
40
-0.89079959011112975
40
-0.89079959011112975
40
-0.89079959011112975
41
1
41
1
41
1
41
1
10
-4.5715465719891748
20
3.5458247084212982
30
0
10
-4.5634844375735808
20
3.5494893149738407
30
0
10
-4.5507402376678439
20
3.5559551572897177
30
0
10
-4.5344326779855217
20
3.5645798535724698
30
0
0
ARC
5
114
100
AcDbEntity
8
0
100
AcDbCircle
10
-8.0413660944458734
20
2.646950836750491
30
0
40
3.6249999999999996
210
-0
220
0
230
1
100
AcDbArc
50
-14.581221966661891
51
14.663342417400836
0
SPLINE
5
115
100
AcDbEntity
8
0
100
AcDbSpline
70
4
71
3
72
8
73
4
74
0
42
0.000000001
43
0.0000000001
44
0.0000000001
40
-0.11211115046373182
40
-0.11211115046373182
40
-0.11211115046373182
40
-0.11211115046373182
40
0
40
0
40
0
40
0
41
1
41
1
41
1
41
1
10
-4.5331210683237604
20
1.7343491510795606
30
0
10
-4.5500575169546078
20
1.7433214266991179
30
0
10
-4.5632695411113122
20
1.750036273543139
30
0
10
-4.5715465719891748
20
1.7537985603058013
30
0
0
SPLINE
5
116
100
AcDbEntity
8
0
100
AcDbSpline
70
4
71
3
72
8
73
4
74
0
42
0.000000001
43
0.0000000001
44
0.0000000001
40
-1
40
-1
40
-1
40
-1
40
0
40
0
40
0
40
0
41
1
41
1
41
1
41
1
10
-4.5715465719891748
20
1.7537985603058013
30
0
10
-4.5816141346190298
20
1.7571544145157643
30
0
10
-4.7259158656470595
20
1.6866814761067308
30
0
10
-4.8903527219348009
20
1.5893617040180603
30
0
0
SPLINE
5
117
100
AcDbEntity
8
0
100
AcDbSpline
70
4
71
3
72
8
73
4
74
0
42
0.000000001
43
0.0000000001
44
0.0000000001
40
-1
40
-1
40
-1
40
-1
40
0
40
0
40
0
40
0
41
1
41
1
41
1
41
1
10
-4.8903527219348009
20
1.5893617040180603
30
0
10
-5.0547895782225529
20
1.4953977861393417
30
0
10
-5.2125147260904008
20
1.408145576680538
30
0
10
-5.2393615597700274
20
1.3913663056307675
30
0
0
SPLINE
5
118
100
AcDbEntity
8
0
100
AcDbSpline
70
4
71
3
72
8
73
4
74
0
42
0.000000001
43
0.0000000001
44
0.0000000001
40
-1
40
-1
40
-1
40
-1
40
0
40
0
40
0
40
0
41
1
41
1
41
1
41
1
10
-5.2393615597700274
20
1.3913663056307675
30
0
10
-5.2729201018695679
20
1.3745870345809972
30
0
10
-5.3433930402786123
20
1.3980780140506712
30
0
10
-5.4373569581573422
20
1.458483389829849
30
0
0
LINE
5
119
100
AcDbEntity
8
0
100
AcDbLine
10
-5.4373569581573422
20
1.458483389829849
30
0
11
-5.5816586891853497
21
1.5490914534986047
31
0
0
LINE
5
120
100
AcDbEntity
8
0
100
AcDbLine
10
-5.5816586891853497
20
1.5490914534986047
30
0
11
-5.2427174139799906
21
1.7437309976759459
31
0
0
SPLINE
5
121
100
AcDbEntity
8
0
100
AcDbSpline
70
4
71
3
72
8
73
4
74
0
42
0.000000001
43
0.0000000001
44
0.0000000001
40
-1
40
-1
40
-1
40
-1
40
0
40
0
40
0
40
0
41
1
41
1
41
1
41
1
10
-5.2427174139799906
20
1.7437309976759459
30
0
10
-5.0581454324325161
20
1.8477624781845199
30
0
10
-4.903776138774619
20
1.9383705418532868
30
0
10
-4.903776138774619
20
1.9450822502731793
30
0
0
SPLINE
5
122
100
AcDbEntity
8
0
100
AcDbSpline
70
4
71
3
72
8
73
4
74
0
42
0.000000001
43
0.0000000001
44
0.0000000001
40
-1
40
-1
40
-1
40
-1
40
0
40
0
40
0
40
0
41
1
41
1
41
1
41
1
10
-4.903776138774619
20
1.9450822502731793
30
0
10
-4.903776138774619
20
1.9752849381627793
30
0
10
-5.4541362292071129
20
2.2672442544287907
30
0
10
-5.4843389170966796
20
2.2538208375889726
30
0
0
SPLINE
5
123
100
AcDbEntity
8
0
100
AcDbSpline
70
4
71
3
72
8
73
4
74
0
42
0.000000001
43
0.0000000001
44
0.0000000001
40
-1
40
-1
40
-1
40
-1
40
0
40
0
40
0
40
0
41
1
41
1
41
1
41
1
10
-5.4843389170966796
20
2.2538208375889726
30
0
10
-5.5078298965663643
20
2.2437532749591056
30
0
10
-5.6655550444342015
20
2.15314521129035
30
0
10
-5.8367036091418578
20
2.0524695849917278
30
0
0
LINE
5
124
100
AcDbEntity
8
0
100
AcDbLine
10
-5.8367036091418569
20
2.0524695849917278
30
0
11
-6.1487980506675912
21
1.8712534576541939
31
0
0
LINE
5
125
100
AcDbEntity
8
0
100
AcDbLine
10
-6.1487980506675912
20
1.8712534576541939
30
0
11
-6.2576254264967428
21
1.933285061876814
31
0
0
ARC
5
126
100
AcDbEntity
8
0
100
AcDbCircle
10
-6.7081517140247193
20
2.5669508367504932
30
0
40
0.77750000000000097
210
-0
220
0
230
1
100
AcDbArc
50
305.41222163040965
51
353.84219226872875
0
SPLINE
5
127
100
AcDbEntity
8
0
100
AcDbSpline
70
4
71
3
72
8
73
4
74
0
42
0.000000001
43
0.0000000001
44
0.0000000001
40
-1
40
-1
40
-1
40
-1
40
0
40
0
40
0
40
0
41
1
41
1
41
1
41
1
10
-10.655710254635956
20
2.2638884002188391
30
0
10
-10.66913367147578
20
2.2638884002188391
30
0
10
-11.179223511388802
20
1.9685732297428757
30
0
10
-11.206070345068438
20
1.9450822502731793
30
0
0
SPLINE
5
128
100
AcDbEntity
8
0
100
AcDbSpline
70
4
71
3
72
8
73
4
74
0
42
0.000000001
43
0.0000000001
44
0.0000000001
40
-1
40
-1
40
-1
40
-1
40
0
40
0
40
0
40
0
41
1
41
1
41
1
41
1
10
-11.206070345068438
20
1.9450822502731793
30
0
10
-11.209426199278395
20
1.9417263960632387
30
0
10
-11.061768614040414
20
1.8511183323944829
30
0
10
-10.873840778282972
20
1.7437309976759459
30
0
0
LINE
5
129
100
AcDbEntity
8
0
100
AcDbLine
10
-10.873840778282972
20
1.7437309976759459
30
0
11
-10.534899503077618
21
1.5524473077085679
31
0
0
LINE
5
130
100
AcDbEntity
8
0
100
AcDbLine
10
-10.534899503077618
20
1.5524473077085679
30
0
11
-10.665777817265839
21
1.4719068066696566
31
0
0
SPLINE
5
131
100
AcDbEntity
8
0
100
AcDbSpline
70
4
71
3
72
8
73
4
74
0
42
0.000000001
43
0.0000000001
44
0.0000000001
40
-1
40
-1
40
-1
40
-1
40
0
40
0
40
0
40
0
41
1
41
1
41
1
41
1
10
-10.665777817265839
20
1.4719068066696566
30
0
10
-10.736250755674861
20
1.4282807019402601
30
0
10
-10.813435402503815
20
1.3913663056307675
30
0
10
-10.836926381973479
20
1.3913663056307675
30
0
0
SPLINE
5
132
100
AcDbEntity
8
0
100
AcDbSpline
70
4
71
3
72
8
73
4
74
0
42
0.000000001
43
0.0000000001
44
0.0000000001
40
-1
40
-1
40
-1
40
-1
40
0
40
0
40
0
40
0
41
1
41
1
41
1
41
1
10
-10.836926381973479
20
1.3913663056307675
30
0
10
-10.863773215653127
20
1.3913663056307675
30
0
10
-11.028210071940851
20
1.4752626608796195
30
0
10
-11.202714490858481
20
1.5792941413882049
30
0
0
LINE
5
133
100
AcDbEntity
8
0
100
AcDbLine
10
-11.202714490858483
20
1.5792941413882049
30
0
11
-11.52487649501407
21
1.767221977145631
31
0
0
LINE
5
134
100
AcDbEntity
8
0
100
AcDbLine
10
-11.52487649501407
20
1.767221977145631
30
0
11
-11.553887053647587
21
1.7509477613268303
31
0
0
ARC
5
135
100
AcDbEntity
8
0
100
AcDbCircle
10
-8.0413660944458734
20
2.646950836750491
30
0
40
3.6249999999999996
210
0
220
0
230
1
100
AcDbArc
50
165.61118254661588
51
194.3103032255982
0
SPLINE
5
136
100
AcDbEntity
8
0
100
AcDbSpline
70
4
71
3
72
8
73
4
74
0
42
0.000000001
43
0.0000000001
44
0.0000000001
40
-0.20824753351662537
40
-0.20824753351662537
40
-0.20824753351662537
40
-0.20824753351662537
40
0
40
0
40
0
40
0
41
1
41
1
41
1
41
1
10
-11.552655934617004
20
3.5477663885206536
30
0
10
-11.541020497723638
20
3.5421692024031475
30
0
10
-11.533684748520171
20
3.5391130000014055
30
0
10
-11.53158820343398
20
3.5391130000014055
30
0
0
SPLINE
5
137
100
AcDbEntity
8
0
100
AcDbSpline
70
4
71
3
72
8
73
4
74
0
42
0.000000001
43
0.0000000001
44
0.0000000001
40
-1
40
-1
40
-1
40
-1
40
0
40
0
40
0
40
0
41
1
41
1
41
1
41
1
10
-11.53158820343398
20
3.5391130000014055
30
0
10
-11.511453078174263
20
3.5391130000014055
30
0
10
-11.296678408737188
20
3.6599237515597389
30
0
10
-10.927534445642246
20
3.8746984209968023
30
0
0
SPLINE
5
138
100
AcDbEntity
8
0
100
AcDbSpline
70
4
71
3
72
8
73
4
74
0
42
0.000000001
43
0.0000000001
44
0.0000000001
40
-1
40
-1
40
-1
40
-1
40
0
40
0
40
0
40
0
41
1
41
1
41
1
41
1
10
-10.927534445642246
20
3.8746984209968023
30
0
10
-10.826858819343618
20
3.9317479425660169
30
0
10
-10.823502965133665
20
3.9317479425660169
30
0
10
-10.679201234105641
20
3.8411398788972502
30
0
0
LINE
5
139
100
AcDbEntity
8
0
100
AcDbLine
10
-10.679201234105641
20
3.8411398788972502
30
0
11
-10.531543648867659
21
3.747175961018554
31
0
0
LINE
5
140
100
AcDbEntity
8
0
100
AcDbLine
10
-10.531543648867659
20
3.747175961018554
30
0
11
-10.779876860404281
21
3.6062300842004871
31
0
0
SPLINE
5
141
100
AcDbEntity
8
0
100
AcDbSpline
70
4
71
3
72
8
73
4
74
0
42
0.000000001
43
0.0000000001
44
0.0000000001
40
-1
40
-1
40
-1
40
-1
40
0
40
0
40
0
40
0
41
1
41
1
41
1
41
1
10
-10.779876860404281
20
3.6062300842004871
30
0
10
-10.917466883012379
20
3.5290454373715274
30
0
10
-11.071836176670269
20
3.4384373737027607
30
0
10
-11.122173989819592
20
3.404878831603237
30
0
0
LINE
5
142
100
AcDbEntity
8
0
100
AcDbLine
10
-11.12217398981959
20
3.404878831603237
30
0
11
-11.216137907698306
21
3.3478293100340109
31
0
0
LINE
5
143
100
AcDbEntity
8
0
100
AcDbLine
10
-11.216137907698306
20
3.3478293100340109
30
0
11
-10.947669570901974
21
3.1934600163761253
31
0
0
SPLINE
5
144
100
AcDbEntity
8
0
100
AcDbSpline
70
4
71
3
72
8
73
4
74
0
42
0.000000001
43
0.0000000001
44
0.0000000001
40
-1
40
-1
40
-1
40
-1
40
0
40
0
40
0
40
0
41
1
41
1
41
1
41
1
10
-10.947669570901974
20
3.1934600163761253
30
0
10
-10.800011985663991
20
3.1062078069173102
30
0
10
-10.665777817265839
20
3.0357348685082881
30
0
10
-10.652354400426015
20
3.0357348685082881
30
0
0
SPLINE
5
145
100
AcDbEntity
8
0
100
AcDbSpline
70
4
71
3
72
8
73
4
74
0
42
0.000000001
43
0.0000000001
44
0.0000000001
40
-1
40
-1
40
-1
40
-1
40
0
40
0
40
0
40
0
41
1
41
1
41
1
41
1
10
-10.652354400426015
20
3.0357348685082881
30
0
10
-10.635575129376234
20
3.0390907227182287
30
0
10
-10.474494127298428
20
3.1263429321770437
30
0
10
-10.293277999960912
20
3.2337302668955812
30
0
0
LINE
5
146
100
AcDbEntity
8
0
100
AcDbLine
10
-10.293277999960912
20
3.2337302668955816
30
0
11
-9.9610484331754439
21
3.4283698110729053
31
0
0
LINE
5
147
100
AcDbEntity
8
0
100
AcDbLine
10
-9.9610484331754439
20
3.4283698110729053
30
0
11
-9.7825685100366133
21
3.3238058156986443
31
0
0
ARC
5
148
100
AcDbEntity
8
0
100
AcDbCircle
10
-9.3745804748670256
20
2.6619508367504916
30
0
40
0.77749999999999986
210
0
220
0
230
1
100
AcDbArc
50
121.65097428187278
51
161.79449562290336
0
SPLINE
5
149
100
AcDbEntity
8
0
100
AcDbSpline
70
4
71
3
72
8
73
4
74
0
42
0.000000001
43
0.0000000001
44
0.0000000001
40
-0.83614110622279647
40
-0.83614110622279647
40
-0.83614110622279647
40
-0.83614110622279647
40
-0.21838981302933477
40
-0.21838981302933477
40
-0.21838981302933477
40
-0.21838981302933477
41
1
41
1
41
1
41
1
10
-10.113160411962465
20
2.9048621920225246
30
0
10
-10.239363115593489
20
2.7760398407798901
30
0
10
-10.247955876517148
20
2.5712433280569384
30
0
10
-10.13972981785038
20
2.4289191993185328
30
0
0
ARC
5
150
100
AcDbEntity
8
0
100
AcDbCircle
10
-9.3745804748670256
20
2.5669508367504932
30
0
40
0.77750000000000297
210
0
220
0
230
1
100
AcDbArc
50
190.22607666340053
51
232.78865582635504
0
SPLINE
5
151
100
AcDbEntity
8
0
100
AcDbSpline
70
4
71
3
72
8
73
4
74
0
42
0.000000001
43
0.0000000001
44
0.0000000001
40
-0.53891055835008395
40
-0.53891055835008395
40
-0.53891055835008395
40
-0.53891055835008395
40
0
40
0
40
0
40
0
41
1
41
1
41
1
41
1
10
-9.8447788950331603
20
1.9477419094300941
30
0
10
-9.9083292774766711
20
1.9152115113604664
30
0
10
-9.9551006047331594
20
1.8947444371238904
30
0
10
-9.9677601415953596
20
1.8947444371238904
30
0
0
SPLINE
5
152
100
AcDbEntity
8
0
100
AcDbSpline
70
4
71
3
72
8
73
4
74
0
42
0.000000001
43
0.0000000001
44
0.0000000001
40
-1
40
-1
40
-1
40
-1
40
0
40
0
40
0
40
0
41
1
41
1
41
1
41
1
10
-9.9677601415953596
20
1.8947444371238904
30
0
10
-9.9912511210650443
20
1.8947444371238904
30
0
10
-10.152332123142834
20
1.9786407923727312
30
0
10
-10.3234806878505
20
2.0793164186713646
30
0
0
SPLINE
5
153
100
AcDbEntity
8
0
100
AcDbSpline
70
4
71
3
72
8
73
4
74
0
42
0.000000001
43
0.0000000001
44
0.0000000001
40
-1
40
-1
40
-1
40
-1
40
0
40
0
40
0
40
0
41
1
41
1
41
1
41
1
10
-10.3234806878505
20
2.0793164186713646
30
0
10
-10.49798510676812
20
2.1799920449699761
30
0
10
-10.645642692006101
20
2.2638884002188391
30
0
10
-10.655710254635956
20
2.2638884002188391
30
0
0
SPLINE
5
154
100
AcDbEntity
8
0
100
AcDbSpline
70
4
71
3
72
8
73
4
74
0
42
0.000000001
43
0.0000000001
44
0.0000000001
40
-1
40
-1
40
-1
40
-1
40
0
40
0
40
0
40
0
41
1
41
1
41
1
41
1
10
-5.903820693340939
20
0.28729027055586243
30
0
10
-5.8870414222911798
20
0.28393441634589939
30
0
10
-5.8769738596613132
20
0.45843883526352935
30
0
10
-5.8769738596613132
20
0.6732135047005926
30
0
0
LINE
5
155
100
AcDbEntity
8
0
100
AcDbLine
10
-5.8769738596613132
20
0.6732135047005926
30
0
11
-5.8769738596613132
21
1.0591367388453004
31
0
0
LINE
5
156
100
AcDbEntity
8
0
100
AcDbLine
10
-5.8769738596613132
20
1.0591367388453004
30
0
11
-5.5413884386659049
21
0.87120890308787424
31
0
0
LINE
5
157
100
AcDbEntity
8
0
100
AcDbLine
10
-5.5413884386659049
20
0.87120890308787424
30
0
11
-5.5413884386659049
21
0.06580389269890112
31
0
0
LINE
5
158
100
AcDbEntity
8
0
100
AcDbLine
10
-5.5413884386659049
20
0.06580389269890112
30
0
11
-5.5123512435030317
21
0.049893100828832748
31
0
0
ARC
5
159
100
AcDbEntity
8
0
100
AcDbCircle
10
-8.0413660944458734
20
2.646950836750491
30
0
40
3.6249999999999987
210
0
220
0
230
1
100
AcDbArc
50
285.29582005662627
51
314.23950722067229
0
LINE
5
160
100
AcDbEntity
8
0
100
AcDbLine
10
-7.0850813752448039
20
-0.84963957904351828
30
0
11
-7.0850813752448039
21
-0.79665063925930368
31
0
0
LINE
5
161
100
AcDbEntity
8
0
100
AcDbLine
10
-7.0850813752448039
20
-0.79665063925930368
30
0
11
-7.7898107593351487
21
-0.38723642564491062
31
0
0
LINE
5
162
100
AcDbEntity
8
0
100
AcDbLine
10
-7.7898107593351487
20
-0.38723642564491062
30
0
11
-7.7898107593351487
21
-0.21944371514719552
31
0
0
SPLINE
5
163
100
AcDbEntity
8
0
100
AcDbSpline
70
4
71
3
72
8
73
4
74
0
42
0.000000001
43
0.0000000001
44
0.0000000001
40
-1
40
-1
40
-1
40
-1
40
0
40
0
40
0
40
0
41
1
41
1
41
1
41
1
10
-7.7898107593351487
20
-0.21944371514719552
30
0
10
-7.7898107593351487
20
-0.12547979726849923
30
0
10
-7.7830990509152338
20
-0.051651004649491614
30
0
10
-7.7763873424953305
20
-0.051651004649491614
30
0
0
SPLINE
5
164
100
AcDbEntity
8
0
100
AcDbSpline
70
4
71
3
72
8
73
4
74
0
42
0.000000001
43
0.0000000001
44
0.0000000001
40
-1
40
-1
40
-1
40
-1
40
0
40
0
40
0
40
0
41
1
41
1
41
1
41
1
10
-7.7763873424953305
20
-0.051651004649491614
30
0
10
-7.766319779865464
20
-0.051651004649491614
30
0
10
-7.6186621946274933
20
-0.13554735989835476
30
0
10
-7.4408019214999115
20
-0.23622298619696591
30
0
0
SPLINE
5
165
100
AcDbEntity
8
0
100
AcDbSpline
70
4
71
3
72
8
73
4
74
0
42
0.000000001
43
0.0000000001
44
0.0000000001
40
-1
40
-1
40
-1
40
-1
40
0
40
0
40
0
40
0
41
1
41
1
41
1
41
1
10
-7.4408019214999115
20
-0.23622298619696591
30
0
10
-7.2662975025823036
20
-0.33689861249559944
30
0
10
-7.1152840631343706
20
-0.42079496774445141
30
0
10
-7.1052165005045147
20
-0.42079496774445141
30
0
0
SPLINE
5
166
100
AcDbEntity
8
0
100
AcDbSpline
70
4
71
3
72
8
73
4
74
0
42
0.000000001
43
0.0000000001
44
0.0000000001
40
-1
40
-1
40
-1
40
-1
40
0
40
0
40
0
40
0
41
1
41
1
41
1
41
1
10
-7.1052165005045147
20
-0.42079496774445141
30
0
10
-7.0917930836646965
20
-0.42079496774445141
30
0
10
-7.0850813752448039
20
-0.27984909092636223
30
0
10
-7.0850813752448039
20
-0.10534467200875462
30
0
0
LINE
5
167
100
AcDbEntity
8
0
100
AcDbLine
10
-7.0850813752448039
20
-0.10534467200875465
30
0
11
-7.0850813752448039
21
0.21010562372693095
31
0
0
LINE
5
168
100
AcDbEntity
8
0
100
AcDbLine
10
-7.0850813752448039
20
0.21010562372693095
30
0
11
-7.4307343588700556
21
0.40810102211421823
31
0
0
LINE
5
169
100
AcDbEntity
8
0
100
AcDbLine
10
-7.4307343588700556
20
0.40810102211421823
30
0
11
-7.7730314882853673
21
0.60609642050151102
31
0
0
LINE
5
170
100
AcDbEntity
8
0
100
AcDbLine
10
-7.7730314882853673
20
0.60609642050151102
30
0
11
-7.7929288440954103
21
1.421888008713375
31
0
0
ARC
5
171
100
AcDbEntity
8
0
100
AcDbCircle
10
-8.0413660944458734
20
2.646950836750491
30
0
40
1.2499999999999982
210
-0
220
0
230
1
100
AcDbArc
50
281.46386027716244
51
282.0491876512973
0
LINE
5
172
100
AcDbEntity
8
0
100
AcDbLine
10
-7.7804269187250075
20
1.4244898980804201
30
0
11
-7.6555765909369855
21
1.354451909321275
31
0
0
SPLINE
5
173
100
AcDbEntity
8
0
100
AcDbSpline
70
4
71
3
72
8
73
4
74
0
42
0.000000001
43
0.0000000001
44
0.0000000001
40
-1
40
-1
40
-1
40
-1
40
0
40
0
40
0
40
0
41
1
41
1
41
1
41
1
10
-7.6555765909369855
20
1.354451909321275
30
0
10
-7.5314099851686898
20
1.2839789709122416
30
0
10
-7.5179865683288591
20
1.2638438456525194
30
0
10
-7.5314099851686898
20
1.1732357819837413
30
0
0
SPLINE
5
174
100
AcDbEntity
8
0
100
AcDbSpline
70
4
71
3
72
8
73
4
74
0
42
0.000000001
43
0.0000000001
44
0.0000000001
40
-1
40
-1
40
-1
40
-1
40
0
40
0
40
0
40
0
41
1
41
1
41
1
41
1
10
-7.5314099851686898
20
1.1732357819837413
30
0
10
-7.5817477983179895
20
0.85442963203810385
30
0
10
-7.2394506689026663
20
0.61951983734131844
30
0
10
-6.9743381863163032
20
0.78395669362908171
30
0
0
SPLINE
5
175
100
AcDbEntity
8
0
100
AcDbSpline
70
4
71
3
72
8
73
4
74
0
42
0.000000001
43
0.0000000001
44
0.0000000001
40
-1
40
-1
40
-1
40
-1
40
0
40
0
40
0
40
0
41
1
41
1
41
1
41
1
10
-6.9743381863163032
20
0.78395669362908171
30
0
10
-6.7528518084593365
20
0.92154671623719664
30
0
10
-6.7260049747797108
20
1.2067943240832821
30
0
10
-6.9206445189570402
20
1.3712311803710342
30
0
0
SPLINE
5
176
100
AcDbEntity
8
0
100
AcDbSpline
70
4
71
3
72
8
73
4
74
0
42
0.000000001
43
0.0000000001
44
0.0000000001
40
-1
40
-1
40
-1
40
-1
40
0
40
0
40
0
40
0
41
1
41
1
41
1
41
1
10
-6.9206445189570402
20
1.3712311803710342
30
0
10
-6.9776940405262664
20
1.4182131393104047
30
0
10
-7.0448111247253484
20
1.458483389829849
30
0
10
-7.0716579584049741
20
1.458483389829849
30
0
0
SPLINE
5
177
100
AcDbEntity
8
0
100
AcDbSpline
70
4
71
3
72
8
73
4
74
0
42
0.000000001
43
0.0000000001
44
0.0000000001
40
-1
40
-1
40
-1
40
-1
40
0
40
0
40
0
40
0
41
1
41
1
41
1
41
1
10
-7.0716579584049741
20
1.458483389829849
30
0
10
-7.1052165005045147
20
1.458483389829849
30
0
10
-7.1186399173443444
20
1.5021094945592566
30
0
10
-7.1186399173443444
20
1.6094968292777827
30
0
0
SPLINE
5
178
100
AcDbEntity
8
0
100
AcDbSpline
70
4
71
3
72
8
73
4
74
0
42
0.000000001
43
0.0000000001
44
0.0000000001
40
-1
40
-1
40
-1
40
-1
40
0
40
0
40
0
40
0
41
1
41
1
41
1
41
1
10
-7.1186399173443444
20
1.6094968292777827
30
0
10
-7.1186399173443444
20
1.6933931845266346
30
0
10
-7.1085723547144664
20
1.760510268725705
30
0
10
-7.0985047920846114
20
1.760510268725705
30
0
0
SPLINE
5
179
100
AcDbEntity
8
0
100
AcDbSpline
70
4
71
3
72
8
73
4
74
0
42
0.000000001
43
0.0000000001
44
0.0000000001
40
-1
40
-1
40
-1
40
-1
40
0
40
0
40
0
40
0
41
1
41
1
41
1
41
1
10
-7.0985047920846114
20
1.760510268725705
30
0
10
-7.088437229454744
20
1.760510268725705
30
0
10
-6.9307120815869068
20
1.6732580592669011
30
0
10
-6.7494959542493733
20
1.5692265787583271
30
0
0
LINE
5
180
100
AcDbEntity
8
0
100
AcDbLine
10
-6.7494959542493733
20
1.5692265787583273
30
0
11
-6.4172663874639291
21
1.3745870345809972
31
0
0
LINE
5
181
100
AcDbEntity
8
0
100
AcDbLine
10
-6.4172663874639291
20
1.3745870345809972
30
0
11
-6.4071988248340617
21
0.97188452938649661
31
0
0
LINE
5
182
100
AcDbEntity
8
0
100
AcDbLine
10
-6.4071988248340617
20
0.97188452938649661
30
0
11
-6.3971312622041951
21
0.57253787840197023
31
0
0
LINE
5
183
100
AcDbEntity
8
0
100
AcDbLine
10
-6.3971312622041951
20
0.57253787840197023
30
0
11
-6.1622214675074209
21
0.43159200158390348
31
0
0
SPLINE
5
184
100
AcDbEntity
8
0
100
AcDbSpline
70
4
71
3
72
8
73
4
74
0
42
0.000000001
43
0.0000000001
44
0.0000000001
40
-1
40
-1
40
-1
40
-1
40
0
40
0
40
0
40
0
41
1
41
1
41
1
41
1
10
-6.1622214675074209
20
0.43159200158390348
30
0
10
-6.0346990075291504
20
0.35105150054500334
30
0
10
-5.9172441101807802
20
0.28729027055586243
30
0
10
-5.903820693340939
20
0.28729027055586243
30
0
0
SPLINE
5
185
100
AcDbEntity
8
0
100
AcDbSpline
70
4
71
3
72
8
73
4
74
0
42
0.000000001
43
0.0000000001
44
0.0000000001
40
-1
40
-1
40
-1
40
-1
40
0
40
0
40
0
40
0
41
1
41
1
41
1
41
1
10
-7.6220180488374334
20
3.9585947762456541
30
0
10
-7.6757117161967079
20
3.9317479425660169
30
0
10
-7.7260495293460192
20
3.9082569630963317
30
0
10
-7.7394729461858374
20
3.9082569630963317
30
0
0
SPLINE
5
186
100
AcDbEntity
8
0
100
AcDbSpline
70
4
71
3
72
8
73
4
74
0
42
0.000000001
43
0.0000000001
44
0.0000000001
40
-1
40
-1
40
-1
40
-1
40
0
40
0
40
0
40
0
41
1
41
1
41
1
41
1
10
-7.7394729461858374
20
3.9082569630963317
30
0
10
-7.7495405088156932
20
3.9082569630963317
30
0
10
-7.7562522172355965
20
4.0861172362239131
30
0
10
-7.7562522172355965
20
4.304247759870929
30
0
0
LINE
5
187
100
AcDbEntity
8
0
100
AcDbLine
10
-7.7562522172355957
20
4.3042477598709281
30
0
11
-7.7562522172355965
21
4.6968827024355626
31
0
0
LINE
5
188
100
AcDbEntity
8
0
100
AcDbLine
10
-7.7562522172355965
20
4.6968827024355626
30
0
11
-7.4206667962402006
21
4.8948781008228437
31
0
0
LINE
5
189
100
AcDbEntity
8
0
100
AcDbLine
10
-7.4206667962402006
20
4.8948781008228437
30
0
11
-7.0850813752448039
21
5.0895176450001962
31
0
0
LINE
5
190
100
AcDbEntity
8
0
100
AcDbLine
10
-7.0850813752448039
20
5.0895176450001962
30
0
11
-7.0850813752448039
21
5.4049679407358706
31
0
0
SPLINE
5
191
100
AcDbEntity
8
0
100
AcDbSpline
70
4
71
3
72
8
73
4
74
0
42
0.000000001
43
0.0000000001
44
0.0000000001
40
-1
40
-1
40
-1
40
-1
40
0
40
0
40
0
40
0
41
1
41
1
41
1
41
1
10
-7.0850813752448039
20
5.4049679407358706
30
0
10
-7.0850813752448039
20
5.5794723596534892
30
0
10
-7.0951489378746704
20
5.7204182364715672
30
0
10
-7.1052165005045262
20
5.7204182364715672
30
0
0
SPLINE
5
192
100
AcDbEntity
8
0
100
AcDbSpline
70
4
71
3
72
8
73
4
74
0
42
0.000000001
43
0.0000000001
44
0.0000000001
40
-1
40
-1
40
-1
40
-1
40
0
40
0
40
0
40
0
41
1
41
1
41
1
41
1
10
-7.1052165005045262
20
5.7204182364715672
30
0
10
-7.1219957715542961
20
5.7204182364715672
30
0
10
-7.5347658393786414
20
5.4855084417747708
30
0
10
-7.6824234246166228
20
5.3915445238960631
30
0
0
SPLINE
5
193
100
AcDbEntity
8
0
100
AcDbSpline
70
4
71
3
72
8
73
4
74
0
42
0.000000001
43
0.0000000001
44
0.0000000001
40
-1
40
-1
40
-1
40
-1
40
0
40
0
40
0
40
0
41
1
41
1
41
1
41
1
10
-7.6824234246166228
20
5.3915445238960631
30
0
10
-7.7562522172355965
20
5.3445625649567043
30
0
10
-7.7562522172355965
20
5.3445625649567043
30
0
10
-7.7562522172355965
20
5.5257786922942156
30
0
0
LINE
5
194
100
AcDbEntity
8
0
100
AcDbLine
10
-7.7562522172355965
20
5.5257786922942147
30
0
11
-7.7562522172356081
21
5.7069948196317375
31
0
0
LINE
5
195
100
AcDbEntity
8
0
100
AcDbLine
10
-7.7562522172356081
20
5.7069948196317375
30
0
11
-7.0850813752448145
21
6.0962739079864194
31
0
0
LINE
5
196
100
AcDbEntity
8
0
100
AcDbLine
10
-7.0850813752448145
20
6.0962739079864194
30
0
11
-7.0850813752448145
21
6.1435412525445043
31
0
0
ARC
5
197
100
AcDbEntity
8
0
100
AcDbCircle
10
-8.0413660944458734
20
2.646950836750491
30
0
40
3.6249999999999987
210
0
220
-0
230
1
100
AcDbArc
50
45.843461186393945
51
74.704179943373916
0
LINE
5
198
100
AcDbEntity
8
0
100
AcDbLine
10
-5.516114620023326
20
5.2476680437775727
30
0
11
-5.5413884386659049
21
5.2338193760282152
31
0
0
LINE
5
199
100
AcDbEntity
8
0
100
AcDbLine
10
-5.5413884386659049
20
5.2338193760282152
30
0
11
-5.5413884386659049
21
4.4183468030093476
31
0
0
LINE
5
200
100
AcDbEntity
8
0
100
AcDbLine
10
-5.5413884386659049
20
4.4183468030093476
30
0
11
-5.6957577323237905
21
4.3310945935505547
31
0
0
SPLINE
5
201
100
AcDbEntity
8
0
100
AcDbSpline
70
4
71
3
72
8
73
4
74
0
42
0.000000001
43
0.0000000001
44
0.0000000001
40
-1
40
-1
40
-1
40
-1
40
0
40
0
40
0
40
0
41
1
41
1
41
1
41
1
10
-5.6957577323237905
20
4.3310945935505547
30
0
10
-5.7830099417825949
20
4.2841126346112173
30
0
10
-5.8568387344015909
20
4.2438423840917396
30
0
10
-5.8635504428214942
20
4.2438423840917396
30
0
0
SPLINE
5
202
100
AcDbEntity
8
0
100
AcDbSpline
70
4
71
3
72
8
73
4
74
0
42
0.000000001
43
0.0000000001
44
0.0000000001
40
-1
40
-1
40
-1
40
-1
40
0
40
0
40
0
40
0
41
1
41
1
41
1
41
1
10
-5.8635504428214942
20
4.2438423840917396
30
0
10
-5.8702621512413984
20
4.2438423840917396
30
0
10
-5.8769738596613132
20
4.4183468030093698
30
0
10
-5.8769738596613132
20
4.6297656182364699
30
0
0
SPLINE
5
203
100
AcDbEntity
8
0
100
AcDbSpline
70
4
71
3
72
8
73
4
74
0
42
0.000000001
43
0.0000000001
44
0.0000000001
40
-1
40
-1
40
-1
40
-1
40
0
40
0
40
0
40
0
41
1
41
1
41
1
41
1
10
-5.8769738596613132
20
4.6297656182364699
30
0
10
-5.8769738596613132
20
4.8411844334635701
30
0
10
-5.8836855680812281
20
5.0156888523812002
30
0
10
-5.8903972765011314
20
5.0156888523812002
30
0
0
SPLINE
5
204
100
AcDbEntity
8
0
100
AcDbSpline
70
4
71
3
72
8
73
4
74
0
42
0.000000001
43
0.0000000001
44
0.0000000001
40
-1
40
-1
40
-1
40
-1
40
0
40
0
40
0
40
0
41
1
41
1
41
1
41
1
10
-5.8903972765011314
20
5.0156888523812002
30
0
10
-5.8971089849210463
20
5.0156888523812002
30
0
10
-6.0212755906893429
20
4.9485717681821297
30
0
10
-6.1655773217173619
20
4.8646754129332548
30
0
0
LINE
5
205
100
AcDbEntity
8
0
100
AcDbLine
10
-6.1655773217173619
20
4.8646754129332548
30
0
11
-6.4306898043037357
21
4.713661973485344
31
0
0
LINE
5
206
100
AcDbEntity
8
0
100
AcDbLine
10
-6.4306898043037357
20
4.713661973485344
30
0
11
-6.4642483464032878
21
3.8948335462565242
31
0
0
LINE
5
207
100
AcDbEntity
8
0
100
AcDbLine
10
-6.4642483464032878
20
3.8948335462565242
30
0
11
-6.7931220589787813
21
3.7001940020791833
31
0
0
LINE
5
208
100
AcDbEntity
8
0
100
AcDbLine
10
-6.7931220589787813
20
3.7001940020791833
30
0
11
-7.1186399173443444
21
3.5089103121118055
31
0
0
LINE
5
209
100
AcDbEntity
8
0
100
AcDbLine
10
-7.1186399173443444
20
3.5089103121118055
30
0
11
-7.1186399173443444
21
3.6767030226095092
31
0
0
SPLINE
5
210
100
AcDbEntity
8
0
100
AcDbSpline
70
4
71
3
72
8
73
4
74
0
42
0.000000001
43
0.0000000001
44
0.0000000001
40
-1
40
-1
40
-1
40
-1
40
0
40
0
40
0
40
0
41
1
41
1
41
1
41
1
10
-7.1186399173443444
20
3.6767030226095092
30
0
10
-7.1186399173443444
20
3.7975137741678537
30
0
10
-7.1052165005045147
20
3.8411398788972502
30
0
10
-7.0716579584049741
20
3.8411398788972502
30
0
0
SPLINE
5
211
100
AcDbEntity
8
0
100
AcDbSpline
70
4
71
3
72
8
73
4
74
0
42
0.000000001
43
0.0000000001
44
0.0000000001
40
-1
40
-1
40
-1
40
-1
40
0
40
0
40
0
40
0
41
1
41
1
41
1
41
1
10
-7.0716579584049741
20
3.8411398788972502
30
0
10
-7.0448111247253484
20
3.8411398788972502
30
0
10
-6.9776940405262664
20
3.8814101294167056
30
0
10
-6.9206445189570402
20
3.9283920883560652
30
0
0
SPLINE
5
212
100
AcDbEntity
8
0
100
AcDbSpline
70
4
71
3
72
8
73
4
74
0
42
0.000000001
43
0.0000000001
44
0.0000000001
40
-1
40
-1
40
-1
40
-1
40
0
40
0
40
0
40
0
41
1
41
1
41
1
41
1
10
-6.9206445189570402
20
3.9283920883560652
30
0
10
-6.7293608289896509
20
4.0894730904338763
30
0
10
-6.7528518084593365
20
4.378076552489925
30
0
10
-6.9676264778964105
20
4.5123107208880766
30
0
0
SPLINE
5
213
100
AcDbEntity
8
0
100
AcDbSpline
70
4
71
3
72
8
73
4
74
0
42
0.000000001
43
0.0000000001
44
0.0000000001
40
-1
40
-1
40
-1
40
-1
40
0
40
0
40
0
40
0
41
1
41
1
41
1
41
1
10
-6.9676264778964105
20
4.5123107208880766
30
0
10
-7.1320633341841404
20
4.6129863471867107
30
0
10
-7.2662975025823036
20
4.5995629303468917
30
0
10
-7.4105992336103226
20
4.4653287619487401
30
0
0
SPLINE
5
214
100
AcDbEntity
8
0
100
AcDbSpline
70
4
71
3
72
8
73
4
74
0
42
0.000000001
43
0.0000000001
44
0.0000000001
40
-1
40
-1
40
-1
40
-1
40
0
40
0
40
0
40
0
41
1
41
1
41
1
41
1
10
-7.4105992336103226
20
4.4653287619487401
30
0
10
-7.5213424225388223
20
4.3646531356500953
30
0
10
-7.5314099851686898
20
4.3411621561804097
30
0
10
-7.5280541309587266
20
4.1800811541026324
30
0
0
SPLINE
5
215
100
AcDbEntity
8
0
100
AcDbSpline
70
4
71
3
72
8
73
4
74
0
42
0.000000001
43
0.0000000001
44
0.0000000001
40
-1
40
-1
40
-1
40
-1
40
0
40
0
40
0
40
0
41
1
41
1
41
1
41
1
10
-7.5280541309587266
20
4.1800811541026324
30
0
10
-7.524698276748774
20
4.0223560062347836
30
0
10
-7.5347658393786414
20
4.0055767351850138
30
0
10
-7.6220180488374334
20
3.9585947762456541
30
0
0
SPLINE
5
216
100
AcDbEntity
8
0
100
AcDbSpline
70
4
71
3
72
8
73
4
74
0
42
0.000000001
43
0.0000000001
44
0.0000000001
40
-1
40
-1
40
-1
40
-1
40
0
40
0
40
0
40
0
41
1
41
1
41
1
41
1
10
-8.9643597328190765
20
3.6901264394493278
30
0
10
-8.9643597328190765
20
3.6062300842004871
30
0
10
-8.9811390038688579
20
3.5391130000014055
30
0
10
-9.0012741291285803
20
3.5391130000014055
30
0
0
SPLINE
5
217
100
AcDbEntity
8
0
100
AcDbSpline
70
4
71
3
72
8
73
4
74
0
42
0.000000001
43
0.0000000001
44
0.0000000001
40
-1
40
-1
40
-1
40
-1
40
0
40
0
40
0
40
0
41
1
41
1
41
1
41
1
10
-9.0012741291285803
20
3.5391130000014055
30
0
10
-9.018053400178351
20
3.5391130000014055
30
0
10
-9.179134402256139
20
3.6230093552502463
30
0
10
-9.3536388211737584
20
3.7270408357588205
30
0
0
LINE
5
218
100
AcDbEntity
8
0
100
AcDbLine
10
-9.3536388211737567
20
3.7270408357588205
30
0
11
-9.6690891169094435
21
3.911612817306295
31
0
0
LINE
5
219
100
AcDbEntity
8
0
100
AcDbLine
10
-9.6690891169094435
20
3.911612817306295
30
0
11
-9.6690891169094435
21
4.7103061192753808
31
0
0
LINE
5
220
100
AcDbEntity
8
0
100
AcDbLine
10
-9.6690891169094435
20
4.7103061192753808
30
0
11
-9.9274898910759042
21
4.8546078503033998
31
0
0
SPLINE
5
221
100
AcDbEntity
8
0
100
AcDbSpline
70
4
71
3
72
8
73
4
74
0
42
0.000000001
43
0.0000000001
44
0.0000000001
40
-1
40
-1
40
-1
40
-1
40
0
40
0
40
0
40
0
41
1
41
1
41
1
41
1
10
-9.9274898910759042
20
4.8546078503033998
30
0
10
-10.071791622103945
20
4.9351483513423
30
0
10
-10.199314082082193
20
5.0022654355413811
30
0
10
-10.212737498922012
20
5.0089771439612853
30
0
0
SPLINE
5
222
100
AcDbEntity
8
0
100
AcDbSpline
70
4
71
3
72
8
73
4
74
0
42
0.000000001
43
0.0000000001
44
0.0000000001
40
-1
40
-1
40
-1
40
-1
40
0
40
0
40
0
40
0
41
1
41
1
41
1
41
1
10
-10.212737498922012
20
5.0089771439612853
30
0
10
-10.226160915761819
20
5.0156888523812002
30
0
10
-10.2429401868116
20
4.8445402876735439
30
0
10
-10.246296041021552
20
4.6331214724464331
30
0
0
LINE
5
223
100
AcDbEntity
8
0
100
AcDbLine
10
-10.246296041021553
20
4.6331214724464331
30
0
11
-10.256363603651408
21
4.2438423840917396
31
0
0
LINE
5
224
100
AcDbEntity
8
0
100
AcDbLine
10
-10.256363603651408
20
4.2438423840917396
30
0
11
-10.400665334679449
21
4.3310945935505547
31
0
0
LINE
5
225
100
AcDbEntity
8
0
100
AcDbLine
10
-10.400665334679449
20
4.3310945935505547
30
0
11
-10.541611211497527
21
4.4149909487994066
31
0
0
LINE
5
226
100
AcDbEntity
8
0
100
AcDbLine
10
-10.541611211497527
20
4.4149909487994066
30
0
11
-10.541611211497527
21
5.206972542348578
31
0
0
LINE
5
227
100
AcDbEntity
8
0
100
AcDbLine
10
-10.541611211497527
20
5.206972542348578
30
0
11
-10.583236590976414
21
5.2314274527924232
31
0
0
ARC
5
228
100
AcDbEntity
8
0
100
AcDbCircle
10
-8.0413660944458734
20
2.646950836750491
30
0
40
3.6249999999999973
210
0
220
0
230
1
100
AcDbArc
50
105.8508431112387
51
134.52381402005241
0
LINE
5
229
100
AcDbEntity
8
0
100
AcDbLine
10
-9.0314768170181789
20
6.1341138322308186
30
0
11
-9.0314768170181807
21
6.0962739079864194
31
0
0
LINE
5
230
100
AcDbEntity
8
0
100
AcDbLine
10
-9.0314768170181807
20
6.0962739079864194
30
0
11
-8.6891796876028682
21
5.8982785095991384
31
0
0
LINE
5
231
100
AcDbEntity
8
0
100
AcDbLine
10
-8.6891796876028682
20
5.8982785095991384
30
0
11
-8.3435267039775933
21
5.7002831112118448
31
0
0
LINE
5
232
100
AcDbEntity
8
0
100
AcDbLine
10
-8.3435267039775933
20
5.7002831112118448
30
0
11
-8.333459141347717
21
5.5257786922942156
31
0
0
SPLINE
5
233
100
AcDbEntity
8
0
100
AcDbSpline
70
4
71
3
72
8
73
4
74
0
42
0.000000001
43
0.0000000001
44
0.0000000001
40
-1
40
-1
40
-1
40
-1
40
0
40
0
40
0
40
0
41
1
41
1
41
1
41
1
10
-8.333459141347717
20
5.5257786922942156
30
0
10
-8.3267474329278013
20
5.4284589202055562
30
0
10
-8.3301032871377636
20
5.3512742733766192
30
0
10
-8.3401708497676204
20
5.3512742733766192
30
0
0
SPLINE
5
234
100
AcDbEntity
8
0
100
AcDbSpline
70
4
71
3
72
8
73
4
74
0
42
0.000000001
43
0.0000000001
44
0.0000000001
40
-1
40
-1
40
-1
40
-1
40
0
40
0
40
0
40
0
41
1
41
1
41
1
41
1
10
-8.3401708497676204
20
5.3512742733766192
30
0
10
-8.3468825581875343
20
5.3512742733766192
30
0
10
-8.4978959976354691
20
5.4351706286254595
30
0
10
-8.6757562707630278
20
5.5358462549240928
30
0
0
SPLINE
5
235
100
AcDbEntity
8
0
100
AcDbSpline
70
4
71
3
72
8
73
4
74
0
42
0.000000001
43
0.0000000001
44
0.0000000001
40
-1
40
-1
40
-1
40
-1
40
0
40
0
40
0
40
0
41
1
41
1
41
1
41
1
10
-8.6757562707630278
20
5.5358462549240928
30
0
10
-8.8502606896806473
20
5.6365218812226932
30
0
10
-9.0012741291285909
20
5.7204182364715672
30
0
10
-9.0113416917584459
20
5.7204182364715672
30
0
0
SPLINE
5
236
100
AcDbEntity
8
0
100
AcDbSpline
70
4
71
3
72
8
73
4
74
0
42
0.000000001
43
0.0000000001
44
0.0000000001
40
-1
40
-1
40
-1
40
-1
40
0
40
0
40
0
40
0
41
1
41
1
41
1
41
1
10
-9.0113416917584459
20
5.7204182364715672
30
0
10
-9.024765108598265
20
5.7204182364715672
30
0
10
-9.0314768170181683
20
5.5794723596534892
30
0
10
-9.0314768170181683
20
5.4049679407358706
30
0
0
LINE
5
237
100
AcDbEntity
8
0
100
AcDbLine
10
-9.0314768170181683
20
5.4049679407358706
30
0
11
-9.0314768170181683
21
5.0895176450001962
31
0
0
LINE
5
238
100
AcDbEntity
8
0
100
AcDbLine
10
-9.0314768170181683
20
5.0895176450001962
30
0
11
-8.6891796876028469
21
4.8915222466129036
31
0
0
LINE
5
239
100
AcDbEntity
8
0
100
AcDbLine
10
-8.6891796876028469
20
4.8915222466129036
30
0
11
-8.343526703977572
21
4.6935268482256109
31
0
0
LINE
5
240
100
AcDbEntity
8
0
100
AcDbLine
10
-8.343526703977572
20
4.6935268482256109
30
0
11
-8.3233915787178496
21
3.8679867125768874
31
0
0
LINE
5
241
100
AcDbEntity
8
0
100
AcDbLine
10
-8.3233915787178496
20
3.8679867125768874
30
0
11
-8.4576257471160119
21
3.9451713594058355
31
0
0
SPLINE
5
242
100
AcDbEntity
8
0
100
AcDbSpline
70
4
71
3
72
8
73
4
74
0
42
0.000000001
43
0.0000000001
44
0.0000000001
40
-1
40
-1
40
-1
40
-1
40
0
40
0
40
0
40
0
41
1
41
1
41
1
41
1
10
-8.4576257471160119
20
3.9451713594058355
30
0
10
-8.5885040613042243
20
4.0156442978148803
30
0
10
-8.5918599155141759
20
4.0257118604447353
30
0
10
-8.5851482070942726
20
4.1834370083125725
30
0
0
SPLINE
5
243
100
AcDbEntity
8
0
100
AcDbSpline
70
4
71
3
72
8
73
4
74
0
42
0.000000001
43
0.0000000001
44
0.0000000001
40
-1
40
-1
40
-1
40
-1
40
0
40
0
40
0
40
0
41
1
41
1
41
1
41
1
10
-8.5851482070942726
20
4.1834370083125725
30
0
10
-8.5784364986743569
20
4.3344504477605179
30
0
10
-8.5885040613042243
20
4.357941427230192
30
0
10
-8.7026031044426535
20
4.4653287619487401
30
0
0
SPLINE
5
244
100
AcDbEntity
8
0
100
AcDbSpline
70
4
71
3
72
8
73
4
74
0
42
0.000000001
43
0.0000000001
44
0.0000000001
40
-1
40
-1
40
-1
40
-1
40
0
40
0
40
0
40
0
41
1
41
1
41
1
41
1
10
-8.7026031044426535
20
4.4653287619487401
30
0
10
-8.8502606896806348
20
4.5995629303468917
30
0
10
-8.9844948580788095
20
4.6129863471867107
30
0
10
-9.1489317143665616
20
4.5123107208880766
30
0
0
SPLINE
5
245
100
AcDbEntity
8
0
100
AcDbSpline
70
4
71
3
72
8
73
4
74
0
42
0.000000001
43
0.0000000001
44
0.0000000001
40
-1
40
-1
40
-1
40
-1
40
0
40
0
40
0
40
0
41
1
41
1
41
1
41
1
10
-9.1489317143665616
20
4.5123107208880766
30
0
10
-9.3637063838036134
20
4.378076552489925
30
0
10
-9.3871973632733106
20
4.0894730904338763
30
0
10
-9.1959136733059097
20
3.9283920883560652
30
0
0
SPLINE
5
246
100
AcDbEntity
8
0
100
AcDbSpline
70
4
71
3
72
8
73
4
74
0
42
0.000000001
43
0.0000000001
44
0.0000000001
40
-1
40
-1
40
-1
40
-1
40
0
40
0
40
0
40
0
41
1
41
1
41
1
41
1
10
-9.1959136733059097
20
3.9283920883560652
30
0
10
-9.1388641517366942
20
3.8814101294167056
30
0
10
-9.0650353591176991
20
3.8411398788972502
30
0
10
-9.0281209628082166
20
3.8411398788972502
30
0
0
SPLINE
5
247
100
AcDbEntity
8
0
100
AcDbSpline
70
4
71
3
72
8
73
4
74
0
42
0.000000001
43
0.0000000001
44
0.0000000001
40
-1
40
-1
40
-1
40
-1
40
0
40
0
40
0
40
0
41
1
41
1
41
1
41
1
10
-9.0281209628082166
20
3.8411398788972502
30
0
10
-8.9744272954489546
20
3.8411398788972502
30
0
10
-8.9643597328190765
20
3.8176488994275872
30
0
10
-8.9643597328190765
20
3.6901264394493278
30
0
0
LINE
5
248
100
AcDbEntity
8
0
100
AcDbLine
10
-10.239584332601648
20
1.0591367388453004
30
0
11
-10.239584332601648
21
0.6732135047005926
31
0
0
SPLINE
5
249
100
AcDbEntity
8
0
100
AcDbSpline
70
4
71
3
72
8
73
4
74
0
42
0.000000001
43
0.0000000001
44
0.0000000001
40
-1
40
-1
40
-1
40
-1
40
0
40
0
40
0
40
0
41
1
41
1
41
1
41
1
10
-10.239584332601648
20
0.6732135047005926
30
0
10
-10.239584332601648
20
0.45843883526352935
30
0
10
-10.232872624181745
20
0.28393441634589939
30
0
10
-10.222805061551878
20
0.28393441634589939
30
0
0
SPLINE
5
250
100
AcDbEntity
8
0
100
AcDbSpline
70
4
71
3
72
8
73
4
74
0
42
0.000000001
43
0.0000000001
44
0.0000000001
40
-1
40
-1
40
-1
40
-1
40
0
40
0
40
0
40
0
41
1
41
1
41
1
41
1
10
-10.222805061551878
20
0.28393441634589939
30
0
10
-10.212737498922012
20
0.28393441634589939
30
0
10
-10.081859184733799
20
0.354407354754944
30
0
10
-9.9375574537057698
20
0.43830371000380713
30
0
0
LINE
5
251
100
AcDbEntity
8
0
100
AcDbLine
10
-9.9375574537057716
20
0.43830371000380713
30
0
11
-9.6724449711194076
21
0.58931714945174063
31
0
0
LINE
5
252
100
AcDbEntity
8
0
100
AcDbLine
10
-9.6724449711194076
20
0.58931714945174063
30
0
11
-9.6623774084895295
21
0.99537550885618187
31
0
0
LINE
5
253
100
AcDbEntity
8
0
100
AcDbLine
10
-9.6623774084895295
20
0.99537550885618187
30
0
11
-9.6523098458596728
21
1.4047897224705861
31
0
0
LINE
5
254
100
AcDbEntity
8
0
100
AcDbLine
10
-9.6523098458596728
20
1.4047897224705861
30
0
11
-9.3502829669638068
21
1.5826499955981455
31
0
0
SPLINE
5
255
100
AcDbEntity
8
0
100
AcDbSpline
70
4
71
3
72
8
73
4
74
0
42
0.000000001
43
0.0000000001
44
0.0000000001
40
-1
40
-1
40
-1
40
-1
40
0
40
0
40
0
40
0
41
1
41
1
41
1
41
1
10
-9.3502829669638068
20
1.5826499955981455
30
0
10
-9.1858461106760547
20
1.6799697676868159
30
0
10
-9.0281209628082166
20
1.760510268725705
30
0
10
-9.0079858375484942
20
1.760510268725705
30
0
0
SPLINE
5
256
100
AcDbEntity
8
0
100
AcDbSpline
70
4
71
3
72
8
73
4
74
0
42
0.000000001
43
0.0000000001
44
0.0000000001
40
-1
40
-1
40
-1
40
-1
40
0
40
0
40
0
40
0
41
1
41
1
41
1
41
1
10
-9.0079858375484942
20
1.760510268725705
30
0
10
-8.9811390038688579
20
1.760510268725705
30
0
10
-8.9643597328190765
20
1.7101724555764051
30
0
10
-8.9643597328190765
20
1.626276100327553
30
0
0
SPLINE
5
257
100
AcDbEntity
8
0
100
AcDbSpline
70
4
71
3
72
8
73
4
74
0
42
0.000000001
43
0.0000000001
44
0.0000000001
40
-1
40
-1
40
-1
40
-1
40
0
40
0
40
0
40
0
41
1
41
1
41
1
41
1
10
-8.9643597328190765
20
1.626276100327553
30
0
10
-8.9643597328190765
20
1.5088212029791714
30
0
10
-8.9777831496588956
20
1.4853302235094863
30
0
10
-9.0583236506978064
20
1.4551275356198974
30
0
0
SPLINE
5
258
100
AcDbEntity
8
0
100
AcDbSpline
70
4
71
3
72
8
73
4
74
0
42
0.000000001
43
0.0000000001
44
0.0000000001
40
-1
40
-1
40
-1
40
-1
40
0
40
0
40
0
40
0
41
1
41
1
41
1
41
1
10
-9.0583236506978064
20
1.4551275356198974
30
0
10
-9.461026155892295
20
1.3007582419620118
30
0
10
-9.3972649259031655
20
0.78731254783902227
30
0
10
-8.9643597328190765
20
0.73026302626981865
30
0
0
SPLINE
5
259
100
AcDbEntity
8
0
100
AcDbSpline
70
4
71
3
72
8
73
4
74
0
42
0.000000001
43
0.0000000001
44
0.0000000001
40
-1
40
-1
40
-1
40
-1
40
0
40
0
40
0
40
0
41
1
41
1
41
1
41
1
10
-8.9643597328190765
20
0.73026302626981865
30
0
10
-8.8536165438905989
20
0.71348375522003704
30
0
10
-8.8200580017910468
20
0.72690717205984445
30
0
10
-8.7093148128625693
20
0.8309386525684298
30
0
0
SPLINE
5
260
100
AcDbEntity
8
0
100
AcDbSpline
70
4
71
3
72
8
73
4
74
0
42
0.000000001
43
0.0000000001
44
0.0000000001
40
-1
40
-1
40
-1
40
-1
40
0
40
0
40
0
40
0
41
1
41
1
41
1
41
1
10
-8.7093148128625693
20
0.8309386525684298
30
0
10
-8.5885040613042243
20
0.94168184149691891
30
0
10
-8.5784364986743569
20
0.96181696675664108
30
0
10
-8.5851482070942726
20
1.1128304062045746
30
0
0
SPLINE
5
261
100
AcDbEntity
8
0
100
AcDbSpline
70
4
71
3
72
8
73
4
74
0
42
0.000000001
43
0.0000000001
44
0.0000000001
40
-1
40
-1
40
-1
40
-1
40
0
40
0
40
0
40
0
41
1
41
1
41
1
41
1
10
-8.5851482070942726
20
1.1128304062045746
30
0
10
-8.5918599155141759
20
1.2671996998624599
30
0
10
-8.5885040613042243
20
1.2772672624923267
30
0
10
-8.4576257471160119
20
1.3510960551113231
30
0
0
LINE
5
262
100
AcDbEntity
8
0
100
AcDbLine
10
-8.4576257471160119
20
1.3510960551113231
30
0
11
-8.3233915787178603
21
1.4282807019402715
31
0
0
LINE
5
263
100
AcDbEntity
8
0
100
AcDbLine
10
-8.3233915787178603
20
1.4282807019402715
30
0
11
-8.343526703977572
21
0.60274056629154804
31
0
0
LINE
5
264
100
AcDbEntity
8
0
100
AcDbLine
10
-8.343526703977572
20
0.60274056629154804
30
0
11
-8.6891796876028469
21
0.40474516790426635
31
0
0
LINE
5
265
100
AcDbEntity
8
0
100
AcDbLine
10
-8.6891796876028469
20
0.40474516790426635
30
0
11
-9.0314768170181683
21
0.20674976951696791
31
0
0
LINE
5
266
100
AcDbEntity
8
0
100
AcDbLine
10
-9.0314768170181683
20
0.20674976951696791
30
0
11
-9.0314768170181683
21
-0.10870052621870646
31
0
0
SPLINE
5
267
100
AcDbEntity
8
0
100
AcDbSpline
70
4
71
3
72
8
73
4
74
0
42
0.000000001
43
0.0000000001
44
0.0000000001
40
-1
40
-1
40
-1
40
-1
40
0
40
0
40
0
40
0
41
1
41
1
41
1
41
1
10
-9.0314768170181683
20
-0.10870052621870646
30
0
10
-9.0314768170181683
20
-0.47784448931366624
30
0
10
-9.0650353591176991
20
-0.46777692668381071
30
0
10
-8.6421977286634863
20
-0.21944371514719552
30
0
0
SPLINE
5
268
100
AcDbEntity
8
0
100
AcDbSpline
70
4
71
3
72
8
73
4
74
0
42
0.000000001
43
0.0000000001
44
0.0000000001
40
-1
40
-1
40
-1
40
-1
40
0
40
0
40
0
40
0
41
1
41
1
41
1
41
1
10
-8.6421977286634863
20
-0.21944371514719552
30
0
10
-8.4878284350056017
20
-0.12883565147842871
30
0
10
-8.3502384123974753
20
-0.051651004649491614
30
0
10
-8.343526703977572
20
-0.051651004649491614
30
0
0
SPLINE
5
269
100
AcDbEntity
8
0
100
AcDbSpline
70
4
71
3
72
8
73
4
74
0
42
0.000000001
43
0.0000000001
44
0.0000000001
40
-1
40
-1
40
-1
40
-1
40
0
40
0
40
0
40
0
41
1
41
1
41
1
41
1
10
-8.343526703977572
20
-0.051651004649491614
30
0
10
-8.333459141347717
20
-0.051651004649491614
30
0
10
-8.3267474329278013
20
-0.13219150568839172
30
0
10
-8.3267474329278013
20
-0.22615542356711038
30
0
0
LINE
5
270
100
AcDbEntity
8
0
100
AcDbLine
10
-8.3267474329278031
20
-0.22615542356711038
30
0
11
-8.3267474329278013
21
-0.4040156966946698
31
0
0
LINE
5
271
100
AcDbEntity
8
0
100
AcDbLine
10
-8.3267474329278013
20
-0.4040156966946698
30
0
11
-8.6791121249729795
21
-0.59865524087201083
31
0
0
LINE
5
272
100
AcDbEntity
8
0
100
AcDbLine
10
-8.6791121249729795
20
-0.59865524087201083
30
0
11
-9.0314768170181807
21
-0.79665063925930368
31
0
0
LINE
5
273
100
AcDbEntity
8
0
100
AcDbLine
10
-9.0314768170181807
20
-0.79665063925930368
30
0
11
-9.0314768170181807
21
-0.84021215872983579
31
0
0
ARC
5
274
100
AcDbEntity
8
0
100
AcDbCircle
10
-8.0413660944458734
20
2.646950836750491
30
0
40
3.6249999999999987
210
0
220
0
230
1
100
AcDbArc
50
225.45241143051038
51
254.14915688876127
0
LINE
5
275
100
AcDbEntity
8
0
100
AcDbLine
10
-10.584308785611338
20
0.063529177507050227
30
0
11
-10.544967065707484
21
0.085939017958612154
31
0
0
LINE
5
276
100
AcDbEntity
8
0
100
AcDbLine
10
-10.544967065707484
20
0.085939017958612154
30
0
11
-10.524831940447761
21
0.90476744518742624
31
0
0
LINE
5
277
100
AcDbEntity
8
0
100
AcDbLine
10
-10.524831940447761
20
0.90476744518742624
30
0
11
-10.383886063629678
21
0.98195209201636335
31
0
0
LINE
5
278
100
AcDbEntity
8
0
100
AcDbLine
10
-10.383886063629678
20
0.98195209201636335
30
0
11
-10.239584332601648
21
1.0591367388453004
31
0
0
CIRCLE
5
279
100
AcDbEntity
8
0
100
AcDbCircle
10
-8.0413660944458734
20
2.646950836750491
30
0
40
3.9999999999999991
210
0
220
-0
230
1
0
LWPOLYLINE
5
280
100
AcDbEntity
8
0
100
AcDbPolyline
90
12
70
1
43
0.0
10
-8.5349246016159963
20
2.5669508367504932
10
-9.3470804748670258
20
2.5669508367504932
42
-2.4142135623730949
10
-9.3745804748670256
20
2.5944508367504935
10
-9.3745804748670256
20
2.6344508367504904
42
-2.4142135623730949
10
-9.3470804748670258
20
2.6619508367504916
10
-8.5411410437980777
20
2.6619508367504903
42
-0.97043679485865286
10
-7.5415911450936681
20
2.6619508367504912
10
-6.7356517140247183
20
2.6619508367504916
42
-2.4142135623732677
10
-6.708151714024722
20
2.6344508367504917
10
-6.708151714024722
20
2.5944508367504957
42
-2.4142135623732677
10
-6.7356517140247218
20
2.5669508367504932
10
-7.5478075872757495
20
2.5669508367504923
42
-0.85096294339676648
0
SPLINE
5
281
100
AcDbEntity
8
0
100
AcDbSpline
70
4
71
3
72
8
73
4
74
0
42
0.000000001
43
0.0000000001
44
0.0000000001
40
0
40
0
40
0
40
0
40
1
40
1
40
1
40
1
41
1
41
1
41
1
41
1
10
-14.287942228031472
20
-4.6223278259966323
30
0
10
-14.564188888496382
20
-4.8139209843516122
30
0
10
-14.881872339666772
20
-4.8653357889783742
30
0
10
-15.242146888748382
20
-4.7760339775870202
30
0
0
SPLINE
5
282
100
AcDbEntity
8
0
100
AcDbSpline
70
4
71
3
72
8
73
4
74
0
42
0.000000001
43
0.0000000001
44
0.0000000001
40
0
40
0
40
0
40
0
40
1
40
1
40
1
40
1
41
1
41
1
41
1
41
1
10
-15.242146888748382
20
-4.7760339775870202
30
0
10
-15.388426557284189
20
-4.7401446176900741
30
0
10
-15.524557024937675
20
-4.6794765441823101
30
0
10
-15.666698592589452
20
-4.5864940850050004
30
0
0
SPLINE
5
283
100
AcDbEntity
8
0
100
AcDbSpline
70
4
71
3
72
8
73
4
74
0
42
0.000000001
43
0.0000000001
44
0.0000000001
40
0
40
0
40
0
40
0
40
1
40
1
40
1
40
1
41
1
41
1
41
1
41
1
10
-15.666698592589452
20
-4.5864940850050004
30
0
10
-15.788523110201554
20
-4.5072015309532274
30
0
10
-15.934522728691993
20
-4.3772874572833453
30
0
10
-16.025809428847847
20
-4.2686705273319783
30
0
0
LINE
5
284
100
AcDbEntity
8
0
100
AcDbLine
10
-16.025809428847847
20
-4.2686705273319792
30
0
11
-16.087077925562308
21
-4.1951308610339586
31
0
0
LINE
5
285
100
AcDbEntity
8
0
100
AcDbLine
10
-16.087077925562308
20
-4.1951308610339586
30
0
11
-16.02706016695458
21
-4.202038055993472
31
0
0
SPLINE
5
286
100
AcDbEntity
8
0
100
AcDbSpline
70
4
71
3
72
8
73
4
74
0
42
0.000000001
43
0.0000000001
44
0.0000000001
40
0
40
0
40
0
40
0
40
1
40
1
40
1
40
1
41
1
41
1
41
1
41
1
10
-16.02706016695458
20
-4.202038055993472
30
0
10
-15.947652533726783
20
-4.209555079777151
30
0
10
-15.84386131610956
20
-4.1919044768203015
30
0
10
-15.820632038925877
20
-4.1661985877898617
30
0
0
SPLINE
5
287
100
AcDbEntity
8
0
100
AcDbSpline
70
4
71
3
72
8
73
4
74
0
42
0.000000001
43
0.0000000001
44
0.0000000001
40
0
40
0
40
0
40
0
40
1
40
1
40
1
40
1
41
1
41
1
41
1
41
1
10
-15.820632038925877
20
-4.1661985877898617
30
0
10
-15.791326311301328
20
-4.1334890728989411
30
0
10
-15.818419855415343
20
-4.1011809033210769
30
0
10
-15.916535967904759
20
-4.0554286086788629
30
0
0
SPLINE
5
288
100
AcDbEntity
8
0
100
AcDbSpline
70
4
71
3
72
8
73
4
74
0
42
0.000000001
43
0.0000000001
44
0.0000000001
40
0
40
0
40
0
40
0
40
1
40
1
40
1
40
1
41
1
41
1
41
1
41
1
10
-15.916535967904759
20
-4.0554286086788629
30
0
10
-16.042355453332366
20
-3.9967580190788468
30
0
10
-16.137630905212042
20
-3.9298454976949699
30
0
10
-16.246381562614459
20
-3.828543324107855
30
0
0
SPLINE
5
289
100
AcDbEntity
8
0
100
AcDbSpline
70
4
71
3
72
8
73
4
74
0
42
0.000000001
43
0.0000000001
44
0.0000000001
40
0
40
0
40
0
40
0
40
1
40
1
40
1
40
1
41
1
41
1
41
1
41
1
10
-16.246381562614459
20
-3.828543324107855
30
0
10
-16.327117716574925
20
-3.7515469522842371
30
0
10
-16.345437282706854
20
-3.7275460649328269
30
0
10
-16.378470360284894
20
-3.6446879422711218
30
0
0
SPLINE
5
290
100
AcDbEntity
8
0
100
AcDbSpline
70
4
71
3
72
8
73
4
74
0
42
0.000000001
43
0.0000000001
44
0.0000000001
40
0
40
0
40
0
40
0
40
1
40
1
40
1
40
1
41
1
41
1
41
1
41
1
10
-16.378470360284894
20
-3.6446879422711218
30
0
10
-16.424440381095785
20
-3.5262858602004252
30
0
10
-16.464753945053896
20
-3.2812335481834878
30
0
10
-16.463571583955634
20
-3.1159591342490058
30
0
0
SPLINE
5
291
100
AcDbEntity
8
0
100
AcDbSpline
70
4
71
3
72
8
73
4
74
0
42
0.000000001
43
0.0000000001
44
0.0000000001
40
0
40
0
40
0
40
0
40
1
40
1
40
1
40
1
41
1
41
1
41
1
41
1
10
-16.463571583955634
20
-3.1159591342490058
30
0
10
-16.462563436384293
20
-2.8817436345644976
30
0
10
-16.388236538209384
20
-2.6198838962927047
30
0
10
-16.268645878948753
20
-2.4297219056630648
30
0
0
SPLINE
5
292
100
AcDbEntity
8
0
100
AcDbSpline
70
4
71
3
72
8
73
4
74
0
42
0.000000001
43
0.0000000001
44
0.0000000001
40
0
40
0
40
0
40
0
40
1
40
1
40
1
40
1
41
1
41
1
41
1
41
1
10
-16.268645878948753
20
-2.4297219056630648
30
0
10
-16.150131744267924
20
-2.2418685294449392
30
0
10
-15.956904987808278
20
-2.0565322511494397
30
0
10
-15.683349638792913
20
-1.8707106288232493
30
0
0
SPLINE
5
293
100
AcDbEntity
8
0
100
AcDbSpline
70
4
71
3
72
8
73
4
74
0
42
0.000000001
43
0.0000000001
44
0.0000000001
40
0
40
0
40
0
40
0
40
1
40
1
40
1
40
1
41
1
41
1
41
1
41
1
10
-15.683349638792913
20
-1.8707106288232493
30
0
10
-15.520570484980224
20
-1.7597104913602184
30
0
10
-15.53934431468444
20
-1.7607932320317141
30
0
10
-15.399355796192292
20
-1.8583929200320528
30
0
0
SPLINE
5
294
100
AcDbEntity
8
0
100
AcDbSpline
70
4
71
3
72
8
73
4
74
0
42
0.000000001
43
0.0000000001
44
0.0000000001
40
0
40
0
40
0
40
0
40
1
40
1
40
1
40
1
41
1
41
1
41
1
41
1
10
-15.399355796192292
20
-1.8583929200320528
30
0
10
-15.296538456162224
20
-1.9302275846510526
30
0
10
-15.032662585707643
20
-2.0574908329472512
30
0
10
-14.888918663369497
20
-2.1048454822758345
30
0
0
SPLINE
5
295
100
AcDbEntity
8
0
100
AcDbSpline
70
4
71
3
72
8
73
4
74
0
42
0.000000001
43
0.0000000001
44
0.0000000001
40
0
40
0
40
0
40
0
40
1
40
1
40
1
40
1
41
1
41
1
41
1
41
1
10
-14.888918663369497
20
-2.1048454822758345
30
0
10
-14.771646024137844
20
-2.1426669756379391
30
0
10
-14.548727816449736
20
-2.188998018645929
30
0
10
-14.449392046311974
20
-2.1959705640480189
30
0
0
SPLINE
5
296
100
AcDbEntity
8
0
100
AcDbSpline
70
4
71
3
72
8
73
4
74
0
42
0.000000001
43
0.0000000001
44
0.0000000001
40
0
40
0
40
0
40
0
40
1
40
1
40
1
40
1
41
1
41
1
41
1
41
1
10
-14.449392046311974
20
-2.1959705640480189
30
0
10
-14.343208215565609
20
-2.2033258064881398
30
0
10
-14.085374525567712
20
-2.1928624485361672
30
0
10
-13.980967263034641
20
-2.1769044150749886
30
0
0
SPLINE
5
297
100
AcDbEntity
8
0
100
AcDbSpline
70
4
71
3
72
8
73
4
74
0
42
0.000000001
43
0.0000000001
44
0.0000000001
40
0
40
0
40
0
40
0
40
1
40
1
40
1
40
1
41
1
41
1
41
1
41
1
10
-13.980967263034641
20
-2.1769044150749886
30
0
10
-13.835704984727748
20
-2.1547019337376851
30
0
10
-13.537118925948697
20
-2.050817474745271
30
0
10
-13.386642022177963
20
-1.9692132797160942
30
0
0
SPLINE
5
298
100
AcDbEntity
8
0
100
AcDbSpline
70
4
71
3
72
8
73
4
74
0
42
0.000000001
43
0.0000000001
44
0.0000000001
40
0
40
0
40
0
40
0
40
1
40
1
40
1
40
1
41
1
41
1
41
1
41
1
10
-13.386642022177963
20
-1.9692132797160942
30
0
10
-13.221548037862076
20
-1.880372110948606
30
0
10
-13.083003119278635
20
-1.7791509095132239
30
0
10
-12.956545751134339
20
-1.6526189482687856
30
0
0
LINE
5
299
100
AcDbEntity
8
0
100
AcDbLine
10
-12.956545751134339
20
-1.6526189482687856
30
0
11
-12.862779249605946
21
-1.5600285917469774
31
0
0
LINE
5
300
100
AcDbEntity
8
0
100
AcDbLine
10
-12.862779249605946
20
-1.5600285917469774
30
0
11
-12.798016750815812
21
-1.7405952654933579
31
0
0
SPLINE
5
301
100
AcDbEntity
8
0
100
AcDbSpline
70
4
71
3
72
8
73
4
74
0
42
0.000000001
43
0.0000000001
44
0.0000000001
40
0
40
0
40
0
40
0
40
1
40
1
40
1
40
1
41
1
41
1
41
1
41
1
10
-12.798016750815812
20
-1.7405952654933579
30
0
10
-12.710921069803216
20
-1.987788194486569
30
0
10
-12.616641333311527
20
-2.3310811037864116
30
0
10
-12.605527660459519
20
-2.4458771311713123
30
0
0
SPLINE
5
302
100
AcDbEntity
8
0
100
AcDbSpline
70
4
71
3
72
8
73
4
74
0
42
0.000000001
43
0.0000000001
44
0.0000000001
40
0
40
0
40
0
40
0
40
1
40
1
40
1
40
1
41
1
41
1
41
1
41
1
10
-12.605527660459519
20
-2.4458771311713123
30
0
10
-12.604062222749997
20
-2.4578029002669157
30
0
10
-12.642076577914064
20
-2.4428871214013603
30
0
10
-12.737423596328005
20
-2.3942101674317837
30
0
0
SPLINE
5
303
100
AcDbEntity
8
0
100
AcDbSpline
70
4
71
3
72
8
73
4
74
0
42
0.000000001
43
0.0000000001
44
0.0000000001
40
0
40
0
40
0
40
0
40
1
40
1
40
1
40
1
41
1
41
1
41
1
41
1
10
-12.737423596328005
20
-2.3942101674317837
30
0
10
-12.903877181834956
20
-2.3081597675807015
30
0
10
-13.001371033316847
20
-2.2851824865498838
30
0
10
-13.135939632359831
20
-2.3025343911863243
30
0
0
SPLINE
5
304
100
AcDbEntity
8
0
100
AcDbSpline
70
4
71
3
72
8
73
4
74
0
42
0.000000001
43
0.0000000001
44
0.0000000001
40
0
40
0
40
0
40
0
40
1
40
1
40
1
40
1
41
1
41
1
41
1
41
1
10
-13.135939632359831
20
-2.3025343911863243
30
0
10
-13.389227660068954
20
-2.3333863657122325
30
0
10
-13.563668154641023
20
-2.5598047915676947
30
0
10
-13.534353184358904
20
-2.8194026175955167
30
0
0
SPLINE
5
305
100
AcDbEntity
8
0
100
AcDbSpline
70
4
71
3
72
8
73
4
74
0
42
0.000000001
43
0.0000000001
44
0.0000000001
40
0
40
0
40
0
40
0
40
1
40
1
40
1
40
1
41
1
41
1
41
1
41
1
10
-13.534353184358904
20
-2.8194026175955167
30
0
10
-13.528951913184784
20
-2.8711068778851145
30
0
10
-13.509926087327711
20
-2.9418120996650736
30
0
10
-13.491911435607877
20
-2.9755079243265139
30
0
0
SPLINE
5
306
100
AcDbEntity
8
0
100
AcDbSpline
70
4
71
3
72
8
73
4
74
0
42
0.000000001
43
0.0000000001
44
0.0000000001
40
0
40
0
40
0
40
0
40
1
40
1
40
1
40
1
41
1
41
1
41
1
41
1
10
-13.491911435607877
20
-2.9755079243265139
30
0
10
-13.428166327046657
20
-3.0979827568386593
30
0
10
-13.284487755151092
20
-3.1846554176972686
30
0
10
-13.150068505268308
20
-3.1826922037736982
30
0
0
SPLINE
5
307
100
AcDbEntity
8
0
100
AcDbSpline
70
4
71
3
72
8
73
4
74
0
42
0.000000001
43
0.0000000001
44
0.0000000001
40
0
40
0
40
0
40
0
40
1
40
1
40
1
40
1
41
1
41
1
41
1
41
1
10
-13.150068505268308
20
-3.1826922037736982
30
0
10
-13.116444247141125
20
-3.1829131194681666
30
0
10
-13.086821172921127
20
-3.182673555498662
30
0
10
-13.085666865715373
20
-3.1832118177885702
30
0
0
SPLINE
5
308
100
AcDbEntity
8
0
100
AcDbSpline
70
4
71
3
72
8
73
4
74
0
42
0.000000001
43
0.0000000001
44
0.0000000001
40
0
40
0
40
0
40
0
40
1
40
1
40
1
40
1
41
1
41
1
41
1
41
1
10
-13.085666865715373
20
-3.1832118177885702
30
0
10
-13.08451255850961
20
-3.1837500800784797
30
0
10
-13.099434553466843
20
-3.2006819911268254
30
0
10
-13.119972519200982
20
-3.220616344128469
30
0
0
SPLINE
5
309
100
AcDbEntity
8
0
100
AcDbSpline
70
4
71
3
72
8
73
4
74
0
42
0.000000001
43
0.0000000001
44
0.0000000001
40
0
40
0
40
0
40
0
40
1
40
1
40
1
40
1
41
1
41
1
41
1
41
1
10
-13.119972519200982
20
-3.220616344128469
30
0
10
-13.163201499828896
20
-3.2651022789547985
30
0
10
-13.204264999113811
20
-3.3471358731895444
30
0
10
-13.210017886867568
20
-3.4076918940871841
30
0
0
SPLINE
5
310
100
AcDbEntity
8
0
100
AcDbSpline
70
4
71
3
72
8
73
4
74
0
42
0.000000001
43
0.0000000001
44
0.0000000001
40
0
40
0
40
0
40
0
40
1
40
1
40
1
40
1
41
1
41
1
41
1
41
1
10
-13.210017886867568
20
-3.4076918940871841
30
0
10
-13.219305262772856
20
-3.4848686955294021
30
0
10
-13.184184486477756
20
-3.6024276008981007
30
0
10
-13.132999840203023
20
-3.6614279692769189
30
0
0
SPLINE
5
311
100
AcDbEntity
8
0
100
AcDbSpline
70
4
71
3
72
8
73
4
74
0
42
0.000000001
43
0.0000000001
44
0.0000000001
40
0
40
0
40
0
40
0
40
1
40
1
40
1
40
1
41
1
41
1
41
1
41
1
10
-13.132999840203023
20
-3.6614279692769189
30
0
10
-13.07642635493753
20
-3.7299677097138844
30
0
10
-13.069500511702982
20
-3.733197283453332
30
0
10
-13.053352643005731
20
-3.6985680672805961
30
0
0
SPLINE
5
312
100
AcDbEntity
8
0
100
AcDbSpline
70
4
71
3
72
8
73
4
74
0
42
0.000000001
43
0.0000000001
44
0.0000000001
40
0
40
0
40
0
40
0
40
1
40
1
40
1
40
1
41
1
41
1
41
1
41
1
10
-13.053352643005731
20
-3.6985680672805961
30
0
10
-13.044740446367195
20
-3.6800991519884696
30
0
10
-13.048054018824267
20
-3.6630956744058665
30
0
10
-13.066834064620156
20
-3.643095970961638
30
0
0
SPLINE
5
313
100
AcDbEntity
8
0
100
AcDbSpline
70
4
71
3
72
8
73
4
74
0
42
0.000000001
43
0.0000000001
44
0.0000000001
40
0
40
0
40
0
40
0
40
1
40
1
40
1
40
1
41
1
41
1
41
1
41
1
10
-13.066834064620156
20
-3.643095970961638
30
0
10
-13.105626246043638
20
-3.5997114250818427
30
0
10
-13.114807785430475
20
-3.5139224270010918
30
0
10
-13.085203359485515
20
-3.4504355306844121
30
0
0
SPLINE
5
314
100
AcDbEntity
8
0
100
AcDbSpline
70
4
71
3
72
8
73
4
74
0
42
0.000000001
43
0.0000000001
44
0.0000000001
40
0
40
0
40
0
40
0
40
1
40
1
40
1
40
1
41
1
41
1
41
1
41
1
10
-13.085203359485515
20
-3.4504355306844121
30
0
10
-13.052907622091011
20
-3.3811770983389375
30
0
10
-12.99059368125512
20
-3.3469959296468161
30
0
10
-12.884798763638463
20
-3.3401167885798113
30
0
0
SPLINE
5
315
100
AcDbEntity
8
0
100
AcDbSpline
70
4
71
3
72
8
73
4
74
0
42
0.000000001
43
0.0000000001
44
0.0000000001
40
0
40
0
40
0
40
0
40
1
40
1
40
1
40
1
41
1
41
1
41
1
41
1
10
-12.884798763638463
20
-3.3401167885798113
30
0
10
-12.816551505430226
20
-3.3354031288558037
30
0
10
-12.794775233772709
20
-3.3399363589612143
30
0
10
-12.719129220482598
20
-3.3766159773009217
30
0
0
SPLINE
5
316
100
AcDbEntity
8
0
100
AcDbSpline
70
4
71
3
72
8
73
4
74
0
42
0.000000001
43
0.0000000001
44
0.0000000001
40
0
40
0
40
0
40
0
40
1
40
1
40
1
40
1
41
1
41
1
41
1
41
1
10
-12.719129220482598
20
-3.3766159773009217
30
0
10
-12.646946128809766
20
-3.4116808087709107
30
0
10
-12.624858726648482
20
-3.427601545682017
30
0
10
-12.58698750455294
20
-3.4789884593761751
30
0
0
SPLINE
5
317
100
AcDbEntity
8
0
100
AcDbSpline
70
4
71
3
72
8
73
4
74
0
42
0.000000001
43
0.0000000001
44
0.0000000001
40
0
40
0
40
0
40
0
40
1
40
1
40
1
40
1
41
1
41
1
41
1
41
1
10
-12.58698750455294
20
-3.4789884593761751
30
0
10
-12.534875682858592
20
-3.5510689040563519
30
0
10
-12.510921497674724
20
-3.6353146818016424
30
0
10
-12.518049608328703
20
-3.728956698536547
30
0
0
SPLINE
5
318
100
AcDbEntity
8
0
100
AcDbSpline
70
4
71
3
72
8
73
4
74
0
42
0.000000001
43
0.0000000001
44
0.0000000001
40
0
40
0
40
0
40
0
40
1
40
1
40
1
40
1
41
1
41
1
41
1
41
1
10
-12.518049608328703
20
-3.728956698536547
30
0
10
-12.525865330432788
20
-3.8391417131900938
30
0
10
-12.54401689912947
20
-3.862999467472982
30
0
10
-12.656491879919496
20
-3.9173545531362639
30
0
0
SPLINE
5
319
100
AcDbEntity
8
0
100
AcDbSpline
70
4
71
3
72
8
73
4
74
0
42
0.000000001
43
0.0000000001
44
0.0000000001
40
0
40
0
40
0
40
0
40
1
40
1
40
1
40
1
41
1
41
1
41
1
41
1
10
-12.656491879919496
20
-3.9173545531362639
30
0
10
-12.709882493613083
20
-3.9444543133419567
30
0
10
-12.797812108670108
20
-4.0004179697832818
30
0
10
-12.849121239738325
20
-4.0411360685802533
30
0
0
SPLINE
5
320
100
AcDbEntity
8
0
100
AcDbSpline
70
4
71
3
72
8
73
4
74
0
42
0.000000001
43
0.0000000001
44
0.0000000001
40
0
40
0
40
0
40
0
40
1
40
1
40
1
40
1
41
1
41
1
41
1
41
1
10
-12.849121239738325
20
-4.0411360685802533
30
0
10
-12.938892773451217
20
-4.1131044606503027
30
0
10
-12.945663051433884
20
-4.1155686403137031
30
0
10
-13.0000648392647
20
-4.1056590034008869
30
0
0
SPLINE
5
321
100
AcDbEntity
8
0
100
AcDbSpline
70
4
71
3
72
8
73
4
74
0
42
0.000000001
43
0.0000000001
44
0.0000000001
40
0
40
0
40
0
40
0
40
1
40
1
40
1
40
1
41
1
41
1
41
1
41
1
10
-13.0000648392647
20
-4.1056590034008869
30
0
10
-13.089939019970254
20
-4.0904507423066097
30
0
10
-13.221685606678536
20
-4.0233950878542011
30
0
10
-13.29072312332954
20
-3.9574750923325182
30
0
0
SPLINE
5
322
100
AcDbEntity
8
0
100
AcDbSpline
70
4
71
3
72
8
73
4
74
0
42
0.000000001
43
0.0000000001
44
0.0000000001
40
0
40
0
40
0
40
0
40
1
40
1
40
1
40
1
41
1
41
1
41
1
41
1
10
-13.29072312332954
20
-3.9574750923325182
30
0
10
-13.414713122284631
20
-3.8406348788723208
30
0
10
-13.487154426202014
20
-3.7126996408351562
30
0
10
-13.596654855971332
20
-3.4171160240094145
30
0
0
SPLINE
5
323
100
AcDbEntity
8
0
100
AcDbSpline
70
4
71
3
72
8
73
4
74
0
42
0.000000001
43
0.0000000001
44
0.0000000001
40
0
40
0
40
0
40
0
40
1
40
1
40
1
40
1
41
1
41
1
41
1
41
1
10
-13.596654855971332
20
-3.4171160240094145
30
0
10
-13.70122692641386
20
-3.1350729631489966
30
0
10
-13.799296336735736
20
-2.9867553246295788
30
0
10
-13.986163403183344
20
-2.8209208106043633
30
0
0
SPLINE
5
324
100
AcDbEntity
8
0
100
AcDbSpline
70
4
71
3
72
8
73
4
74
0
42
0.000000001
43
0.0000000001
44
0.0000000001
40
0
40
0
40
0
40
0
40
1
40
1
40
1
40
1
41
1
41
1
41
1
41
1
10
-13.986163403183344
20
-2.8209208106043633
30
0
10
-14.429317749767591
20
-2.4301798476408525
30
0
10
-15.074099539373023
20
-2.4386798287093505
30
0
10
-15.439153261581131
20
-2.8418161201301051
30
0
0
SPLINE
5
325
100
AcDbEntity
8
0
100
AcDbSpline
70
4
71
3
72
8
73
4
74
0
42
0.000000001
43
0.0000000001
44
0.0000000001
40
0
40
0
40
0
40
0
40
1
40
1
40
1
40
1
41
1
41
1
41
1
41
1
10
-15.439153261581131
20
-2.8418161201301051
30
0
10
-15.689137122450665
20
-3.1187315808101834
30
0
10
-15.748868777881244
20
-3.560249465683778
30
0
10
-15.577885151794669
20
-3.8746660465646383
30
0
0
SPLINE
5
326
100
AcDbEntity
8
0
100
AcDbSpline
70
4
71
3
72
8
73
4
74
0
42
0.000000001
43
0.0000000001
44
0.0000000001
40
0
40
0
40
0
40
0
40
1
40
1
40
1
40
1
41
1
41
1
41
1
41
1
10
-15.577885151794669
20
-3.8746660465646383
30
0
10
-15.494510604643876
20
-4.0273737821209501
30
0
10
-15.349431945481383
20
-4.1652902236051856
30
0
10
-15.197063394321345
20
-4.2363408458730936
30
0
0
SPLINE
5
327
100
AcDbEntity
8
0
100
AcDbSpline
70
4
71
3
72
8
73
4
74
0
42
0.000000001
43
0.0000000001
44
0.0000000001
40
0
40
0
40
0
40
0
40
1
40
1
40
1
40
1
41
1
41
1
41
1
41
1
10
-15.197063394321345
20
-4.2363408458730936
30
0
10
-15.109336046683746
20
-4.2772487799061327
30
0
10
-14.954749095921493
20
-4.3043641618209794
30
0
10
-14.849570223220674
20
-4.2957924512583148
30
0
0
SPLINE
5
328
100
AcDbEntity
8
0
100
AcDbSpline
70
4
71
3
72
8
73
4
74
0
42
0.000000001
43
0.0000000001
44
0.0000000001
40
0
40
0
40
0
40
0
40
1
40
1
40
1
40
1
41
1
41
1
41
1
41
1
10
-14.849570223220674
20
-4.2957924512583148
30
0
10
-14.737543289911267
20
-4.2876034377336696
30
0
10
-14.573902311121547
20
-4.2290013881020325
30
0
10
-14.488436875727919
20
-4.1662674536780413
30
0
0
SPLINE
5
329
100
AcDbEntity
8
0
100
AcDbSpline
70
4
71
3
72
8
73
4
74
0
42
0.000000001
43
0.0000000001
44
0.0000000001
40
0
40
0
40
0
40
0
40
1
40
1
40
1
40
1
41
1
41
1
41
1
41
1
10
-14.488436875727919
20
-4.1662674536780413
30
0
10
-14.232501049211011
20
-3.9820668343132577
30
0
10
-14.199676292184167
20
-3.6193467538432809
30
0
10
-14.414809858226588
20
-3.3574184756031147
30
0
0
SPLINE
5
330
100
AcDbEntity
8
0
100
AcDbSpline
70
4
71
3
72
8
73
4
74
0
42
0.000000001
43
0.0000000001
44
0.0000000001
40
0
40
0
40
0
40
0
40
1
40
1
40
1
40
1
41
1
41
1
41
1
41
1
10
-14.414809858226588
20
-3.3574184756031147
30
0
10
-14.469074729080567
20
-3.2899552597459674
30
0
10
-14.4917781761577
20
-3.2723419533391942
30
0
10
-14.558727994091655
20
-3.2411227405245073
30
0
0
SPLINE
5
331
100
AcDbEntity
8
0
100
AcDbSpline
70
4
71
3
72
8
73
4
74
0
42
0.000000001
43
0.0000000001
44
0.0000000001
40
0
40
0
40
0
40
0
40
1
40
1
40
1
40
1
41
1
41
1
41
1
41
1
10
-14.558727994091655
20
-3.2411227405245073
30
0
10
-14.673004407461685
20
-3.1878347738235782
30
0
10
-14.75518113476495
20
-3.1832424093672613
30
0
10
-14.869199335890437
20
-3.2228248492335121
30
0
0
SPLINE
5
332
100
AcDbEntity
8
0
100
AcDbSpline
70
4
71
3
72
8
73
4
74
0
42
0.000000001
43
0.0000000001
44
0.0000000001
40
0
40
0
40
0
40
0
40
1
40
1
40
1
40
1
41
1
41
1
41
1
41
1
10
-14.869199335890437
20
-3.2228248492335121
30
0
10
-14.999604969682682
20
-3.267413431052494
30
0
10
-15.036374802831695
20
-3.2980476794097262
30
0
10
-15.083819666969577
20
-3.3967798368149968
30
0
0
SPLINE
5
333
100
AcDbEntity
8
0
100
AcDbSpline
70
4
71
3
72
8
73
4
74
0
42
0.000000001
43
0.0000000001
44
0.0000000001
40
0
40
0
40
0
40
0
40
1
40
1
40
1
40
1
41
1
41
1
41
1
41
1
10
-15.083819666969577
20
-3.3967798368149968
30
0
10
-15.113424092914537
20
-3.4602667331316765
30
0
10
-15.12110911413345
20
-3.4918157247251655
30
0
10
-15.119631244240574
20
-3.545906382052225
30
0
0
SPLINE
5
334
100
AcDbEntity
8
0
100
AcDbSpline
70
4
71
3
72
8
73
4
74
0
42
0.000000001
43
0.0000000001
44
0.0000000001
40
0
40
0
40
0
40
0
40
1
40
1
40
1
40
1
41
1
41
1
41
1
41
1
10
-15.119631244240574
20
-3.545906382052225
30
0
10
-15.116454588760346
20
-3.6204634385791588
30
0
10
-15.115300281554589
20
-3.6210017008690674
30
0
10
-15.075061310696627
20
-3.6130646834972864
30
0
0
SPLINE
5
335
100
AcDbEntity
8
0
100
AcDbSpline
70
4
71
3
72
8
73
4
74
0
42
0.000000001
43
0.0000000001
44
0.0000000001
40
0
40
0
40
0
40
0
40
1
40
1
40
1
40
1
41
1
41
1
41
1
41
1
10
-15.075061310696627
20
-3.6130646834972864
30
0
10
-15.049594985635688
20
-3.6066708864609662
30
0
10
-15.048518461055872
20
-3.6043622720494515
30
0
10
-15.047843281789119
20
-3.5456543858993634
30
0
0
SPLINE
5
336
100
AcDbEntity
8
0
100
AcDbSpline
70
4
71
3
72
8
73
4
74
0
42
0.000000001
43
0.0000000001
44
0.0000000001
40
0
40
0
40
0
40
0
40
1
40
1
40
1
40
1
41
1
41
1
41
1
41
1
10
-15.047843281789119
20
-3.5456543858993634
30
0
10
-15.04672005504176
20
-3.4407804276106395
30
0
10
-14.994035701073324
20
-3.3669763329764
30
0
10
-14.895866670324676
20
-3.3312457278571266
30
0
0
SPLINE
5
337
100
AcDbEntity
8
0
100
AcDbSpline
70
4
71
3
72
8
73
4
74
0
42
0.000000001
43
0.0000000001
44
0.0000000001
40
0
40
0
40
0
40
0
40
1
40
1
40
1
40
1
41
1
41
1
41
1
41
1
10
-14.895866670324676
20
-3.3312457278571266
30
0
10
-14.677525205383738
20
-3.2517759337125445
30
0
10
-14.479808894420339
20
-3.4184536244397541
30
0
10
-14.481731785227939
20
-3.6817539360543581
30
0
0
SPLINE
5
338
100
AcDbEntity
8
0
100
AcDbSpline
70
4
71
3
72
8
73
4
74
0
42
0.000000001
43
0.0000000001
44
0.0000000001
40
0
40
0
40
0
40
0
40
1
40
1
40
1
40
1
41
1
41
1
41
1
41
1
10
-14.481731785227939
20
-3.6817539360543581
30
0
10
-14.482609231914115
20
-3.8373334126788028
30
0
10
-14.57852256651047
20
-3.9556234421393746
30
0
10
-14.747319036413124
20
-4.0132267498171403
30
0
0
SPLINE
5
339
100
AcDbEntity
8
0
100
AcDbSpline
70
4
71
3
72
8
73
4
74
0
42
0.000000001
43
0.0000000001
44
0.0000000001
40
0
40
0
40
0
40
0
40
1
40
1
40
1
40
1
41
1
41
1
41
1
41
1
10
-14.747319036413124
20
-4.0132267498171403
30
0
10
-14.853490434976136
20
-4.0480363956084764
30
0
10
-14.939512780934704
20
-4.0486773048910383
30
0
10
-15.040164639621779
20
-4.0143902996804632
30
0
0
SPLINE
5
340
100
AcDbEntity
8
0
100
AcDbSpline
70
4
71
3
72
8
73
4
74
0
42
0.000000001
43
0.0000000001
44
0.0000000001
40
0
40
0
40
0
40
0
40
1
40
1
40
1
40
1
41
1
41
1
41
1
41
1
10
-15.040164639621779
20
-4.0143902996804632
30
0
10
-15.36566683946214
20
-3.9047652221577529
30
0
10
-15.511657052335105
20
-3.5457911399163051
30
0
10
-15.361481873450668
20
-3.2237394295098656
30
0
0
SPLINE
5
341
100
AcDbEntity
8
0
100
AcDbSpline
70
4
71
3
72
8
73
4
74
0
42
0.000000001
43
0.0000000001
44
0.0000000001
40
0
40
0
40
0
40
0
40
1
40
1
40
1
40
1
41
1
41
1
41
1
41
1
10
-15.361481873450668
20
-3.2237394295098656
30
0
10
-15.201617973347876
20
-2.8809101893997808
30
0
10
-14.818397223693834
20
-2.7673059287306137
30
0
10
-14.432858616970705
20
-2.9470855335600166
30
0
0
SPLINE
5
342
100
AcDbEntity
8
0
100
AcDbSpline
70
4
71
3
72
8
73
4
74
0
42
0.000000001
43
0.0000000001
44
0.0000000001
40
0
40
0
40
0
40
0
40
1
40
1
40
1
40
1
41
1
41
1
41
1
41
1
10
-14.432858616970705
20
-2.9470855335600166
30
0
10
-14.015537670776274
20
-3.1430907897126095
30
0
10
-13.821293687047618
20
-3.5372137021416639
30
0
10
-13.909098980271057
20
-4.014826240897519
30
0
0
SPLINE
5
343
100
AcDbEntity
8
0
100
AcDbSpline
70
4
71
3
72
8
73
4
74
0
42
0.000000001
43
0.0000000001
44
0.0000000001
40
0
40
0
40
0
40
0
40
1
40
1
40
1
40
1
41
1
41
1
41
1
41
1
10
-13.909098980271057
20
-4.014826240897519
30
0
10
-13.952732495737829
20
-4.2530553566725677
30
0
10
-14.102854756363042
20
-4.4936241673175266
30
0
10
-14.287942228031472
20
-4.6223278259966323
30
0
0
SPLINE
5
344
100
AcDbEntity
8
0
100
AcDbSpline
70
4
71
3
72
8
73
4
74
0
42
0.000000001
43
0.0000000001
44
0.0000000001
40
0
40
0
40
0
40
0
40
1
40
1
40
1
40
1
41
1
41
1
41
1
41
1
10
-7.2965828809618882
20
-5.8911378317834018
30
0
10
-7.3760434324488982
20
-5.9651037077612079
30
0
10
-7.4416585135585001
20
-6.0244462871021858
30
0
10
-7.4417362961844411
20
-6.0215994104007597
30
0
0
SPLINE
5
345
100
AcDbEntity
8
0
100
AcDbSpline
70
4
71
3
72
8
73
4
74
0
42
0.000000001
43
0.0000000001
44
0.0000000001
40
0
40
0
40
0
40
0
40
1
40
1
40
1
40
1
41
1
41
1
41
1
41
1
10
-7.4417362961844411
20
-6.0215994104007597
30
0
10
-7.4423523411002881
20
-6.0199068409050946
30
0
10
-7.4385315868117052
20
-5.930343790703307
30
0
10
-7.432868913867253
20
-5.8247760048727919
30
0
0
LINE
5
346
100
AcDbEntity
8
0
100
AcDbLine
10
-7.4328689138672539
20
-5.824776004872791
30
0
11
-7.4216151345126091
21
-5.6318760006260646
31
0
0
LINE
5
347
100
AcDbEntity
8
0
100
AcDbLine
10
-7.4216151345126091
20
-5.6318760006260646
30
0
11
-7.6109744345161268
21
-5.6250838848425717
31
0
0
SPLINE
5
348
100
AcDbEntity
8
0
100
AcDbSpline
70
4
71
3
72
8
73
4
74
0
42
0.000000001
43
0.0000000001
44
0.0000000001
40
0
40
0
40
0
40
0
40
1
40
1
40
1
40
1
41
1
41
1
41
1
41
1
10
-7.6109744345161268
20
-5.6250838848425717
30
0
10
-7.714771868225033
20
-5.6216520436836923
30
0
10
-7.7998732548556697
20
-5.6142905851518954
30
0
10
-7.8000288201075518
20
-5.6085968317490504
30
0
0
SPLINE
5
349
100
AcDbEntity
8
0
100
AcDbSpline
70
4
71
3
72
8
73
4
74
0
42
0.000000001
43
0.0000000001
44
0.0000000001
40
0
40
0
40
0
40
0
40
1
40
1
40
1
40
1
41
1
41
1
41
1
41
1
10
-7.8000288201075518
20
-5.6085968317490504
30
0
10
-7.7990300781536765
20
-5.603441340636107
30
0
10
-7.7379544432411658
20
-5.5447925888369225
30
0
10
-7.6656468667748427
20
-5.4801389531311226
30
0
0
SPLINE
5
350
100
AcDbEntity
8
0
100
AcDbSpline
70
4
71
3
72
8
73
4
74
0
42
0.000000001
43
0.0000000001
44
0.0000000001
40
0
40
0
40
0
40
0
40
1
40
1
40
1
40
1
41
1
41
1
41
1
41
1
10
-7.6656468667748427
20
-5.4801389531311226
30
0
10
-7.5916467208128591
20
-5.4148692725094758
30
0
10
-7.5340340075176231
20
-5.3546057338405664
30
0
10
-7.5371142320968723
20
-5.3461428863622338
30
0
0
SPLINE
5
351
100
AcDbEntity
8
0
100
AcDbSpline
70
4
71
3
72
8
73
4
74
0
42
0.000000001
43
0.0000000001
44
0.0000000001
40
0
40
0
40
0
40
0
40
1
40
1
40
1
40
1
41
1
41
1
41
1
41
1
10
-7.5371142320968723
20
-5.3461428863622338
30
0
10
-7.5395784117602691
20
-5.3393726083795663
30
0
10
-7.5989987737271871
20
-5.2709106505685455
30
0
10
-7.6688079005459215
20
-5.1976043321483472
30
0
0
SPLINE
5
352
100
AcDbEntity
8
0
100
AcDbSpline
70
4
71
3
72
8
73
4
74
0
42
0.000000001
43
0.0000000001
44
0.0000000001
40
0
40
0
40
0
40
0
40
1
40
1
40
1
40
1
41
1
41
1
41
1
41
1
10
-7.6688079005459215
20
-5.1976043321483472
30
0
10
-7.780949913031356
20
-5.0764518042772027
30
0
10
-7.7904177185552399
20
-5.0636050758536664
30
0
10
-7.7601785994193948
20
-5.0650580813798296
30
0
0
SPLINE
5
353
100
AcDbEntity
8
0
100
AcDbSpline
70
4
71
3
72
8
73
4
74
0
42
0.000000001
43
0.0000000001
44
0.0000000001
40
0
40
0
40
0
40
0
40
1
40
1
40
1
40
1
41
1
41
1
41
1
41
1
10
-7.7601785994193948
20
-5.0650580813798296
30
0
10
-7.4353950914875444
20
-5.0858139362425474
30
0
10
-7.4029251405661203
20
-5.0854965896470992
30
0
10
-7.3991635206284379
20
-5.0563339950910686
30
0
0
SPLINE
5
354
100
AcDbEntity
8
0
100
AcDbSpline
70
4
71
3
72
8
73
4
74
0
42
0.000000001
43
0.0000000001
44
0.0000000001
40
0
40
0
40
0
40
0
40
1
40
1
40
1
40
1
41
1
41
1
41
1
41
1
10
-7.3991635206284379
20
-5.0563339950910686
30
0
10
-7.397859864262478
20
-5.0414835666680995
30
0
10
-7.3940391099738951
20
-4.9519205164663118
30
0
10
-7.3914504455170125
20
-4.8589723272731886
30
0
0
SPLINE
5
355
100
AcDbEntity
8
0
100
AcDbSpline
70
4
71
3
72
8
73
4
74
0
42
0.000000001
43
0.0000000001
44
0.0000000001
40
0
40
0
40
0
40
0
40
1
40
1
40
1
40
1
41
1
41
1
41
1
41
1
10
-7.3914504455170125
20
-4.8589723272731886
30
0
10
-7.3883235187702185
20
-4.7648698308743151
30
0
10
-7.3841138513519313
20
-4.6895411641796478
30
0
10
-7.3829595441461713
20
-4.6900794264695556
30
0
0
SPLINE
5
356
100
AcDbEntity
8
0
100
AcDbSpline
70
4
71
3
72
8
73
4
74
0
42
0.000000001
43
0.0000000001
44
0.0000000001
40
0
40
0
40
0
40
0
40
1
40
1
40
1
40
1
41
1
41
1
41
1
41
1
10
-7.3829595441461713
20
-4.6900794264695556
30
0
10
-7.3818052369404166
20
-4.6906176887594633
30
0
10
-7.3224626575994414
20
-4.7562327698690643
30
0
10
-7.2524979655288169
20
-4.8352328416921093
30
0
0
SPLINE
5
357
100
AcDbEntity
8
0
100
AcDbSpline
70
4
71
3
72
8
73
4
74
0
42
0.000000001
43
0.0000000001
44
0.0000000001
40
0
40
0
40
0
40
0
40
1
40
1
40
1
40
1
41
1
41
1
41
1
41
1
10
-7.2524979655288169
20
-4.8352328416921093
30
0
10
-7.1825332734581977
20
-4.9142329135151543
30
0
10
-7.1221141695374071
20
-4.9775393802132415
30
0
10
-7.118729030546076
20
-4.976307290381544
30
0
0
SPLINE
5
358
100
AcDbEntity
8
0
100
AcDbSpline
70
4
71
3
72
8
73
4
74
0
42
0.000000001
43
0.0000000001
44
0.0000000001
40
0
40
0
40
0
40
0
40
1
40
1
40
1
40
1
41
1
41
1
41
1
41
1
10
-7.118729030546076
20
-4.976307290381544
30
0
10
-7.1153438915547413
20
-4.975075200549842
30
0
10
-7.0480362409494761
20
-4.9151165762930171
30
0
10
-6.9713447835379441
20
-4.8440753596425807
30
0
0
LINE
5
359
100
AcDbEntity
8
0
100
AcDbLine
10
-6.9713447835379423
20
-4.8440753596425816
30
0
11
-6.8290382450168154
21
-4.7136915636511665
31
0
0
LINE
5
360
100
AcDbEntity
8
0
100
AcDbLine
10
-6.8290382450168154
20
-4.7136915636511665
30
0
11
-6.8410636345391884
21
-4.8992052449993793
31
0
0
SPLINE
5
361
100
AcDbEntity
8
0
100
AcDbSpline
70
4
71
3
72
8
73
4
74
0
42
0.000000001
43
0.0000000001
44
0.0000000001
40
0
40
0
40
0
40
0
40
1
40
1
40
1
40
1
41
1
41
1
41
1
41
1
10
-6.8410636345391884
20
-4.8992052449993793
30
0
10
-6.8468040901095817
20
-5.0019261541284674
30
0
10
-6.8500865821082551
20
-5.0903348971245004
30
0
10
-6.8487767096506165
20
-5.0965669128172557
30
0
0
SPLINE
5
362
100
AcDbEntity
8
0
100
AcDbSpline
70
4
71
3
72
8
73
4
74
0
42
0.000000001
43
0.0000000001
44
0.0000000001
40
0
40
0
40
0
40
0
40
1
40
1
40
1
40
1
41
1
41
1
41
1
41
1
10
-6.8487767096506165
20
-5.0965669128172557
30
0
10
-6.847466837192977
20
-5.1027989285100137
30
0
10
-6.7583642666551551
20
-5.1106208667057746
30
0
10
-6.6522582185347297
20
-5.1151292324444695
30
0
0
SPLINE
5
363
100
AcDbEntity
8
0
100
AcDbSpline
70
4
71
3
72
8
73
4
74
0
42
0.000000001
43
0.0000000001
44
0.0000000001
40
0
40
0
40
0
40
0
40
1
40
1
40
1
40
1
41
1
41
1
41
1
41
1
10
-6.6522582185347297
20
-5.1151292324444695
30
0
10
-6.5456139081243991
20
-5.1184832909774087
30
0
10
-6.4572051651283688
20
-5.121765782976083
30
0
10
-6.4560508579226115
20
-5.1223040452659907
30
0
0
SPLINE
5
364
100
AcDbEntity
8
0
100
AcDbSpline
70
4
71
3
72
8
73
4
74
0
42
0.000000001
43
0.0000000001
44
0.0000000001
40
0
40
0
40
0
40
0
40
1
40
1
40
1
40
1
41
1
41
1
41
1
41
1
10
-6.4560508579226115
20
-5.1223040452659907
30
0
10
-6.4548965507168541
20
-5.1228423075558984
30
0
10
-6.5182808000408796
20
-5.1804145347752701
30
0
10
-6.5967426095740169
20
-5.2492249196401302
30
0
0
SPLINE
5
365
100
AcDbEntity
8
0
100
AcDbSpline
70
4
71
3
72
8
73
4
74
0
42
0.000000001
43
0.0000000001
44
0.0000000001
40
0
40
0
40
0
40
0
40
1
40
1
40
1
40
1
41
1
41
1
41
1
41
1
10
-6.5967426095740169
20
-5.2492249196401302
30
0
10
-6.6740501119013995
20
-5.3185735667949015
30
0
10
-6.7402034553009047
20
-5.3790704533416367
30
0
10
-6.7423565044605409
20
-5.3836876821646706
30
0
0
SPLINE
5
366
100
AcDbEntity
8
0
100
AcDbSpline
70
4
71
3
72
8
73
4
74
0
42
0.000000001
43
0.0000000001
44
0.0000000001
40
0
40
0
40
0
40
0
40
1
40
1
40
1
40
1
41
1
41
1
41
1
41
1
10
-6.7423565044605409
20
-5.3836876821646706
30
0
10
-6.7445095536201736
20
-5.3883049109876984
30
0
10
-6.6892459408123184
20
-5.4506126357319049
30
0
10
-6.6217454284050987
20
-5.5228424295722895
30
0
0
SPLINE
5
367
100
AcDbEntity
8
0
100
AcDbSpline
70
4
71
3
72
8
73
4
74
0
42
0.000000001
43
0.0000000001
44
0.0000000001
40
0
40
0
40
0
40
0
40
1
40
1
40
1
40
1
41
1
41
1
41
1
41
1
10
-6.6217454284050987
20
-5.5228424295722895
30
0
10
-6.553090608792119
20
-5.5956104857025792
30
0
10
-6.4949023366568985
20
-5.6606873045222681
30
0
10
-6.4918998947035922
20
-5.6663032752991782
30
0
0
SPLINE
5
368
100
AcDbEntity
8
0
100
AcDbSpline
70
4
71
3
72
8
73
4
74
0
42
0.000000001
43
0.0000000001
44
0.0000000001
40
0
40
0
40
0
40
0
40
1
40
1
40
1
40
1
41
1
41
1
41
1
41
1
10
-6.4918998947035922
20
-5.6663032752991782
30
0
10
-6.4888974527502832
20
-5.6719192460760821
30
0
10
-6.5732272292131917
20
-5.6719441104427988
30
0
10
-6.6771024455480381
20
-5.6656653925824996
30
0
0
SPLINE
5
369
100
AcDbEntity
8
0
100
AcDbSpline
70
4
71
3
72
8
73
4
74
0
42
0.000000001
43
0.0000000001
44
0.0000000001
40
0
40
0
40
0
40
0
40
1
40
1
40
1
40
1
41
1
41
1
41
1
41
1
10
-6.6771024455480381
20
-5.6656653925824996
30
0
10
-6.7821319690886481
20
-5.6588484124322873
30
0
10
-6.8699246671688252
20
-5.6572584899292826
30
0
10
-6.871539454038551
20
-5.6607214115465512
30
0
0
SPLINE
5
370
100
AcDbEntity
8
0
100
AcDbSpline
70
4
71
3
72
8
73
4
74
0
42
0.000000001
43
0.0000000001
44
0.0000000001
40
0
40
0
40
0
40
0
40
1
40
1
40
1
40
1
41
1
41
1
41
1
41
1
10
-6.871539454038551
20
-5.6607214115465512
30
0
10
-6.8731542409082742
20
-5.6641843331638295
30
0
10
-6.8782070850285608
20
-5.7503622443742852
30
0
10
-6.8811784465234709
20
-5.8501584941760063
30
0
0
SPLINE
5
371
100
AcDbEntity
8
0
100
AcDbSpline
70
4
71
3
72
8
73
4
74
0
42
0.000000001
43
0.0000000001
44
0.0000000001
40
0
40
0
40
0
40
0
40
1
40
1
40
1
40
1
41
1
41
1
41
1
41
1
10
-6.8811784465234709
20
-5.8501584941760063
30
0
10
-6.8846880703082851
20
-5.9511090511834936
30
0
10
-6.891511266550177
20
-6.0350561306083739
30
0
10
-6.8948964055415107
20
-6.0362882204400696
30
0
0
SPLINE
5
372
100
AcDbEntity
8
0
100
AcDbSpline
70
4
71
3
72
8
73
4
74
0
42
0.000000001
43
0.0000000001
44
0.0000000001
40
0
40
0
40
0
40
0
40
1
40
1
40
1
40
1
41
1
41
1
41
1
41
1
10
-6.8948964055415107
20
-6.0362882204400696
30
0
10
-6.8994358517385992
20
-6.0369820479818612
30
0
10
-6.958700648453636
20
-5.9742138435736836
30
0
10
-7.0280492956084046
20
-5.896906341246309
30
0
0
LINE
5
373
100
AcDbEntity
8
0
100
AcDbLine
10
-7.0280492956084029
20
-5.896906341246309
30
0
11
-7.153277600486879
21
-5.7555985446790485
31
0
0
LINE
5
374
100
AcDbEntity
8
0
100
AcDbLine
10
-7.153277600486879
20
-5.7555985446790485
30
0
11
-7.2965828809618882
21
-5.8911378317834018
31
0
0
SPLINE
5
375
100
AcDbEntity
8
0
100
AcDbSpline
70
4
71
3
72
8
73
4
74
0
42
0.000000001
43
0.0000000001
44
0.0000000001
40
0
40
0
40
0
40
0
40
1
40
1
40
1
40
1
41
1
41
1
41
1
41
1
10
-12.892713943209415
20
-3.1129826973817343
30
0
10
-12.931260344571715
20
-3.1203036698376629
30
0
10
-12.964112992531161
20
-3.1274690770417126
30
0
10
-12.965267299736922
20
-3.1269308147518058
30
0
0
SPLINE
5
376
100
AcDbEntity
8
0
100
AcDbSpline
70
0
71
2
72
6
73
3
74
0
42
0.000000001
43
0.0000000001
44
0.0000000001
40
0
40
0
40
0
40
1
40
1
40
1
10
-12.965267299736922
20
-3.1269308147518058
30
0
10
-12.946577468750332
20
-3.101918753263162
30
0
10
-12.92342597419259
20
-3.0733659875312966
30
0
0
SPLINE
5
377
100
AcDbEntity
8
0
100
AcDbSpline
70
4
71
3
72
8
73
4
74
0
42
0.000000001
43
0.0000000001
44
0.0000000001
40
0
40
0
40
0
40
0
40
1
40
1
40
1
40
1
41
1
41
1
41
1
41
1
10
-12.92342597419259
20
-3.0733659875312966
30
0
10
-12.865508346485267
20
-3.0034075115523584
30
0
10
-12.842602631988708
20
-2.9241492274847709
30
0
10
-12.874923233749936
20
-2.9090778833673334
30
0
0
SPLINE
5
378
100
AcDbEntity
8
0
100
AcDbSpline
70
4
71
3
72
8
73
4
74
0
42
0.000000001
43
0.0000000001
44
0.0000000001
40
0
40
0
40
0
40
0
40
1
40
1
40
1
40
1
41
1
41
1
41
1
41
1
10
-12.874923233749936
20
-2.9090778833673334
30
0
10
-12.893392149042061
20
-2.9004656867287979
30
0
10
-12.904008045680023
20
-2.9081631401310752
30
0
10
-12.931848335595056
20
-2.952798424117606
30
0
0
SPLINE
5
379
100
AcDbEntity
8
0
100
AcDbSpline
70
4
71
3
72
8
73
4
74
0
42
0.000000001
43
0.0000000001
44
0.0000000001
40
0
40
0
40
0
40
0
40
1
40
1
40
1
40
1
41
1
41
1
41
1
41
1
10
-12.931848335595056
20
-2.952798424117606
30
0
10
-12.984299341685672
20
-3.0351431488561267
30
0
10
-13.016763076515415
20
-3.0565429395672936
30
0
10
-13.083551113105813
20
-3.0520999242711819
30
0
0
SPLINE
5
380
100
AcDbEntity
8
0
100
AcDbSpline
70
4
71
3
72
8
73
4
74
0
42
0.000000001
43
0.0000000001
44
0.0000000001
40
0
40
0
40
0
40
0
40
1
40
1
40
1
40
1
41
1
41
1
41
1
41
1
10
-13.083551113105813
20
-3.0520999242711819
30
0
10
-13.208586556182329
20
-3.0429805458011328
30
0
10
-13.318348387721981
20
-2.9046689750955079
30
0
10
-13.313619106288819
20
-2.7649386688479023
30
0
0
SPLINE
5
381
100
AcDbEntity
8
0
100
AcDbSpline
70
4
71
3
72
8
73
4
74
0
42
0.000000001
43
0.0000000001
44
0.0000000001
40
0
40
0
40
0
40
0
40
1
40
1
40
1
40
1
41
1
41
1
41
1
41
1
10
-13.313619106288819
20
-2.7649386688479023
30
0
10
-13.308877392672308
20
-2.66737325083175
30
0
10
-13.230966277612438
20
-2.5575522849411931
30
0
10
-13.146720499867147
20
-2.5335980997573269
30
0
0
SPLINE
5
382
100
AcDbEntity
8
0
100
AcDbSpline
70
4
71
3
72
8
73
4
74
0
42
0.000000001
43
0.0000000001
44
0.0000000001
40
0
40
0
40
0
40
0
40
1
40
1
40
1
40
1
41
1
41
1
41
1
41
1
10
-13.146720499867147
20
-2.5335980997573269
30
0
10
-13.028623332208532
20
-2.4973230162564688
30
0
10
-12.814382671601546
20
-2.6014409860866081
30
0
10
-12.663986739982541
20
-2.7671323670433043
30
0
0
SPLINE
5
383
100
AcDbEntity
8
0
100
AcDbSpline
70
4
71
3
72
8
73
4
74
0
42
0.000000001
43
0.0000000001
44
0.0000000001
40
0
40
0
40
0
40
0
40
1
40
1
40
1
40
1
41
1
41
1
41
1
41
1
10
-12.663986739982541
20
-2.7671323670433043
30
0
10
-12.561156967769112
20
-2.8811319198937526
30
0
10
-12.533979424937474
20
-2.9373694102887682
30
0
10
-12.50762019444111
20
-3.0887859216624705
30
0
0
SPLINE
5
384
100
AcDbEntity
8
0
100
AcDbSpline
70
4
71
3
72
8
73
4
74
0
42
0.000000001
43
0.0000000001
44
0.0000000001
40
0
40
0
40
0
40
0
40
1
40
1
40
1
40
1
41
1
41
1
41
1
41
1
10
-12.50762019444111
20
-3.0887859216624705
30
0
10
-12.49467081902492
20
-3.1664947693029188
30
0
10
-12.486649802935512
20
-3.2306630609780314
30
0
10
-12.490034941926845
20
-3.2318951508097284
30
0
0
SPLINE
5
385
100
AcDbEntity
8
0
100
AcDbSpline
70
4
71
3
72
8
73
4
74
0
42
0.000000001
43
0.0000000001
44
0.0000000001
40
0
40
0
40
0
40
0
40
1
40
1
40
1
40
1
41
1
41
1
41
1
41
1
10
-12.490034941926845
20
-3.2318951508097284
30
0
10
-12.493420080918176
20
-3.2331272406414291
30
0
10
-12.526434510221188
20
-3.2135164503269062
30
0
10
-12.563605688683262
20
-3.187751426945562
30
0
0
SPLINE
5
386
100
AcDbEntity
8
0
100
AcDbSpline
70
4
71
3
72
8
73
4
74
0
42
0.000000001
43
0.0000000001
44
0.0000000001
40
0
40
0
40
0
40
0
40
1
40
1
40
1
40
1
41
1
41
1
41
1
41
1
10
-12.563605688683262
20
-3.187751426945562
30
0
10
-12.657649050731237
20
-3.1242240445530149
30
0
10
-12.794694261620979
20
-3.0926407829753395
30
0
10
-12.892713943209415
20
-3.1129826973817343
30
0
0
SPLINE
5
387
100
AcDbEntity
8
0
100
AcDbSpline
70
4
71
3
72
8
73
4
74
0
42
0.000000001
43
0.0000000001
44
0.0000000001
40
0
40
0
40
0
40
0
40
1
40
1
40
1
40
1
41
1
41
1
41
1
41
1
10
-19.752248269105184
20
0.17139417521247824
30
0
10
-19.807928848935244
20
0.082123607239417973
30
0
10
-19.819543487527081
20
0.069270662724194687
30
0
10
-19.832474214668242
20
0.083732178017464853
30
0
0
SPLINE
5
388
100
AcDbEntity
8
0
100
AcDbSpline
70
4
71
3
72
8
73
4
74
0
42
0.000000001
43
0.0000000001
44
0.0000000001
40
0
40
0
40
0
40
0
40
1
40
1
40
1
40
1
41
1
41
1
41
1
41
1
10
-19.832474214668242
20
0.083732178017464853
30
0
10
-19.840709930360436
20
0.093193767449666703
30
0
10
-19.921667000015361
20
0.13656588114610063
30
0
10
-20.01231900698032
20
0.18024290925462583
30
0
0
LINE
5
389
100
AcDbEntity
8
0
100
AcDbLine
10
-20.012319006980324
20
0.18024290925462583
30
0
11
-20.177462720029638
21
0.26006129341294987
31
0
0
LINE
5
390
100
AcDbEntity
8
0
100
AcDbLine
10
-20.177462720029638
20
0.26006129341294987
30
0
11
-20.191482403933978
21
0.31437908252615093
31
0
0
SPLINE
5
391
100
AcDbEntity
8
0
100
AcDbSpline
70
4
71
3
72
8
73
4
74
0
42
0.000000001
43
0.0000000001
44
0.0000000001
40
0
40
0
40
0
40
0
40
1
40
1
40
1
40
1
41
1
41
1
41
1
41
1
10
-20.191482403933978
20
0.31437908252615093
30
0
10
-20.21566993699567
20
0.40716549037571004
30
0
10
-20.198470408085306
20
0.52843309742286571
30
0
10
-20.140960341782741
20
0.67587328925610746
30
0
0
SPLINE
5
392
100
AcDbEntity
8
0
100
AcDbSpline
70
4
71
3
72
8
73
4
74
0
42
0.000000001
43
0.0000000001
44
0.0000000001
40
0
40
0
40
0
40
0
40
1
40
1
40
1
40
1
41
1
41
1
41
1
41
1
10
-20.140960341782741
20
0.67587328925610746
30
0
10
-20.054617459702925
20
0.89418670030454306
30
0
10
-20.058721290602772
20
0.98182383313284383
30
0
10
-20.16811285728776
20
1.1691483526785316
30
0
0
SPLINE
5
393
100
AcDbEntity
8
0
100
AcDbSpline
70
4
71
3
72
8
73
4
74
0
42
0.000000001
43
0.0000000001
44
0.0000000001
40
0
40
0
40
0
40
0
40
1
40
1
40
1
40
1
41
1
41
1
41
1
41
1
10
-20.16811285728776
20
1.1691483526785316
30
0
10
-20.228544393391907
20
1.2746197076080641
30
0
10
-20.266972526052403
20
1.3880996464436473
30
0
10
-20.272308446783939
20
1.4791219182632778
30
0
0
SPLINE
5
394
100
AcDbEntity
8
0
100
AcDbSpline
70
4
71
3
72
8
73
4
74
0
42
0.000000001
43
0.0000000001
44
0.0000000001
40
0
40
0
40
0
40
0
40
1
40
1
40
1
40
1
41
1
41
1
41
1
41
1
10
-20.272308446783939
20
1.4791219182632778
30
0
10
-20.275401103546546
20
1.5297496539730593
30
0
10
-20.273786316676823
20
1.5332125755903354
30
0
10
-20.215946471595441
20
1.6060179282706988
30
0
0
SPLINE
5
395
100
AcDbEntity
8
0
100
AcDbSpline
70
4
71
3
72
8
73
4
74
0
42
0.000000001
43
0.0000000001
44
0.0000000001
40
0
40
0
40
0
40
0
40
1
40
1
40
1
40
1
41
1
41
1
41
1
41
1
10
-20.215946471595441
20
1.6060179282706988
30
0
10
-19.964204690787668
20
1.9228674453966581
30
0
10
-19.466228399824594
20
1.9239375909248917
30
0
10
-19.140819604319333
20
1.6091818256477655
30
0
0
SPLINE
5
396
100
AcDbEntity
8
0
100
AcDbSpline
70
4
71
3
72
8
73
4
74
0
42
0.000000001
43
0.0000000001
44
0.0000000001
40
0
40
0
40
0
40
0
40
1
40
1
40
1
40
1
41
1
41
1
41
1
41
1
10
-19.140819604319333
20
1.6091818256477655
30
0
10
-19.041919449478815
20
1.5138783198755832
30
0
10
-18.975411462933788
20
1.4154105908065311
30
0
10
-18.94499191417934
20
1.323934055414616
30
0
0
SPLINE
5
397
100
AcDbEntity
8
0
100
AcDbSpline
70
4
71
3
72
8
73
4
74
0
42
0.000000001
43
0.0000000001
44
0.0000000001
40
0
40
0
40
0
40
0
40
1
40
1
40
1
40
1
41
1
41
1
41
1
41
1
10
-18.94499191417934
20
1.323934055414616
30
0
10
-18.926277218826034
20
1.2646163404403592
30
0
10
-18.929643709542333
20
1.2001369182614801
30
0
10
-18.951575546451728
20
1.2103639017697392
30
0
0
SPLINE
5
398
100
AcDbEntity
8
0
100
AcDbSpline
70
4
71
3
72
8
73
4
74
0
42
0.000000001
43
0.0000000001
44
0.0000000001
40
0
40
0
40
0
40
0
40
1
40
1
40
1
40
1
41
1
41
1
41
1
41
1
10
-18.951575546451728
20
1.2103639017697392
30
0
10
-18.963118618509313
20
1.2157465246688242
30
0
10
-18.995756566865975
20
1.2632878197076791
30
0
10
-19.021624237239973
20
1.3132932944099325
30
0
0
SPLINE
5
399
100
AcDbEntity
8
0
100
AcDbSpline
70
4
71
3
72
8
73
4
74
0
42
0.000000001
43
0.0000000001
44
0.0000000001
40
0
40
0
40
0
40
0
40
1
40
1
40
1
40
1
41
1
41
1
41
1
41
1
10
-19.021624237239973
20
1.3132932944099325
30
0
10
-19.072127488156269
20
1.4099191048231157
30
0
10
-19.148629110331733
20
1.47791436687849
30
0
10
-19.269831366936302
20
1.5344319073188704
30
0
0
SPLINE
5
400
100
AcDbEntity
8
0
100
AcDbSpline
70
4
71
3
72
8
73
4
74
0
42
0.000000001
43
0.0000000001
44
0.0000000001
40
0
40
0
40
0
40
0
40
1
40
1
40
1
40
1
41
1
41
1
41
1
41
1
10
-19.269831366936302
20
1.5344319073188704
30
0
10
-19.375411584950186
20
1.5822594684947775
30
0
10
-19.384029997680393
20
1.5848729973183777
30
0
10
-19.477821363575504
20
1.576612417259472
30
0
0
SPLINE
5
401
100
AcDbEntity
8
0
100
AcDbSpline
70
4
71
3
72
8
73
4
74
0
42
0.000000001
43
0.0000000001
44
0.0000000001
40
0
40
0
40
0
40
0
40
1
40
1
40
1
40
1
41
1
41
1
41
1
41
1
10
-19.477821363575504
20
1.576612417259472
30
0
10
-19.647862355493221
20
1.5645591368044909
30
0
10
-19.801640399537671
20
1.4577935311264656
30
0
10
-19.835149578488831
20
1.3286729054251487
30
0
0
SPLINE
5
402
100
AcDbEntity
8
0
100
AcDbSpline
70
4
71
3
72
8
73
4
74
0
42
0.000000001
43
0.0000000001
44
0.0000000001
40
0
40
0
40
0
40
0
40
1
40
1
40
1
40
1
41
1
41
1
41
1
41
1
10
-19.835149578488831
20
1.3286729054251487
30
0
10
-19.852672670086314
20
1.2609576934151412
30
0
10
-19.848951536224497
20
1.1664724999782345
30
0
10
-19.828628270093141
20
1.1317001507369739
30
0
0
SPLINE
5
403
100
AcDbEntity
8
0
100
AcDbSpline
70
4
71
3
72
8
73
4
74
0
42
0.000000001
43
0.0000000001
44
0.0000000001
40
0
40
0
40
0
40
0
40
1
40
1
40
1
40
1
41
1
41
1
41
1
41
1
10
-19.828628270093141
20
1.1317001507369739
30
0
10
-19.810769183625183
20
1.1036980794783802
30
0
10
-19.806151954802147
20
1.1015450303187473
30
0
10
-19.771528954721095
20
1.1064796057372206
30
0
0
SPLINE
5
404
100
AcDbEntity
8
0
100
AcDbSpline
70
4
71
3
72
8
73
4
74
0
42
0.000000001
43
0.0000000001
44
0.0000000001
40
0
40
0
40
0
40
0
40
1
40
1
40
1
40
1
41
1
41
1
41
1
41
1
10
-19.771528954721095
20
1.1064796057372206
30
0
10
-19.750524293231312
20
1.1093326985303231
30
0
10
-19.731906028778976
20
1.1161091926046651
30
0
10
-19.7285986724136
20
1.1201881591377967
30
0
0
SPLINE
5
405
100
AcDbEntity
8
0
100
AcDbSpline
70
4
71
3
72
8
73
4
74
0
42
0.000000001
43
0.0000000001
44
0.0000000001
40
0
40
0
40
0
40
0
40
1
40
1
40
1
40
1
41
1
41
1
41
1
41
1
10
-19.7285986724136
20
1.1201881591377967
30
0
10
-19.726445623253962
20
1.124805387960826
30
0
10
-19.70422130411583
20
1.1664382299940488
30
0
10
-19.680998243023826
20
1.2132265631402117
30
0
0
SPLINE
5
406
100
AcDbEntity
8
0
100
AcDbSpline
70
4
71
3
72
8
73
4
74
0
42
0.000000001
43
0.0000000001
44
0.0000000001
40
0
40
0
40
0
40
0
40
1
40
1
40
1
40
1
41
1
41
1
41
1
41
1
10
-19.680998243023826
20
1.2132265631402117
30
0
10
-19.603715605063165
20
1.3669049867578893
30
0
10
-19.535396780320671
20
1.3898542138962033
30
0
10
-19.378949262627511
20
1.3154962352629036
30
0
0
SPLINE
5
407
100
AcDbEntity
8
0
100
AcDbSpline
70
4
71
3
72
8
73
4
74
0
42
0.000000001
43
0.0000000001
44
0.0000000001
40
0
40
0
40
0
40
0
40
1
40
1
40
1
40
1
41
1
41
1
41
1
41
1
10
-19.378949262627511
20
1.3154962352629036
30
0
10
-19.271598692492027
20
1.2654378423014208
30
0
10
-19.23180776911467
20
1.2272087875345701
30
0
10
-19.191537717798315
20
1.1297335843277152
30
0
0
SPLINE
5
408
100
AcDbEntity
8
0
100
AcDbSpline
70
4
71
3
72
8
73
4
74
0
42
0.000000001
43
0.0000000001
44
0.0000000001
40
0
40
0
40
0
40
0
40
1
40
1
40
1
40
1
41
1
41
1
41
1
41
1
10
-19.191537717798315
20
1.1297335843277152
30
0
10
-19.150191141902138
20
1.0345669955323797
30
0
10
-19.154932855518648
20
0.93700157751622914
30
0
10
-19.203914723900311
20
0.83195962179226524
30
0
0
SPLINE
5
409
100
AcDbEntity
8
0
100
AcDbSpline
70
4
71
3
72
8
73
4
74
0
42
0.000000001
43
0.0000000001
44
0.0000000001
40
0
40
0
40
0
40
0
40
1
40
1
40
1
40
1
41
1
41
1
41
1
41
1
10
-19.203914723900311
20
0.83195962179226524
30
0
10
-19.226599522702408
20
0.78632559585185746
30
0
10
-19.259361955852555
20
0.73414842371493372
30
0
10
-19.278823397006882
20
0.71652268512479944
30
0
0
SPLINE
5
410
100
AcDbEntity
8
0
100
AcDbSpline
70
4
71
3
72
8
73
4
74
0
42
0.000000001
43
0.0000000001
44
0.0000000001
40
0
40
0
40
0
40
0
40
1
40
1
40
1
40
1
41
1
41
1
41
1
41
1
10
-19.278823397006882
20
0.71652268512479944
30
0
10
-19.455973851303536
20
0.54758005558772838
30
0
10
-19.50974094594347
20
0.49254979065770127
30
0
10
-19.591886592788345
20
0.39172993453538174
30
0
0
SPLINE
5
411
100
AcDbEntity
8
0
100
AcDbSpline
70
4
71
3
72
8
73
4
74
0
42
0.000000001
43
0.0000000001
44
0.0000000001
40
0
40
0
40
0
40
0
40
1
40
1
40
1
40
1
41
1
41
1
41
1
41
1
10
-19.591886592788345
20
0.39172993453538174
30
0
10
-19.644266032344699
20
0.32762077721117222
30
0
10
-19.71617847958964
20
0.22765031388252438
30
0
10
-19.752248269105184
20
0.17139417521247824
30
0
0
SPLINE
5
412
100
AcDbEntity
8
0
100
AcDbSpline
70
4
71
3
72
8
73
4
74
0
42
0.000000001
43
0.0000000001
44
0.0000000001
40
0
40
0
40
0
40
0
40
1
40
1
40
1
40
1
41
1
41
1
41
1
41
1
10
-17.677714652063504
20
2.0314929661659806
30
0
10
-17.633910112595608
20
1.9506385435037044
30
0
10
-17.641122221967198
20
1.8809258475859478
30
0
10
-17.709565531503188
20
1.7582581532718524
30
0
0
SPLINE
5
413
100
AcDbEntity
8
0
100
AcDbSpline
70
4
71
3
72
8
73
4
74
0
42
0.000000001
43
0.0000000001
44
0.0000000001
40
0
40
0
40
0
40
0
40
1
40
1
40
1
40
1
41
1
41
1
41
1
41
1
10
-17.709565531503188
20
1.7582581532718524
30
0
10
-17.834377032319352
20
1.5297768930660576
30
0
10
-18.081971306625629
20
1.4990804837920322
30
0
10
-18.263766880677913
20
1.6878455766805254
30
0
0
SPLINE
5
414
100
AcDbEntity
8
0
100
AcDbSpline
70
4
71
3
72
8
73
4
74
0
42
0.000000001
43
0.0000000001
44
0.0000000001
40
0
40
0
40
0
40
0
40
1
40
1
40
1
40
1
41
1
41
1
41
1
41
1
10
-18.263766880677913
20
1.6878455766805254
30
0
10
-18.314795961700764
20
1.7411521916564903
30
0
10
-18.349443826148534
20
1.8205473927009248
30
0
10
-18.353697006208577
20
1.8927958348163396
30
0
0
SPLINE
5
415
100
AcDbEntity
8
0
100
AcDbSpline
70
4
71
3
72
8
73
4
74
0
42
0.000000001
43
0.0000000001
44
0.0000000001
40
0
40
0
40
0
40
0
40
1
40
1
40
1
40
1
41
1
41
1
41
1
41
1
10
-18.353697006208577
20
1.8927958348163396
30
0
10
-18.363830585381749
20
2.0759946856613616
30
0
10
-18.141662150060544
20
2.2239450858920056
30
0
10
-17.974287605225655
20
2.1458970538552875
30
0
0
SPLINE
5
416
100
AcDbEntity
8
0
100
AcDbSpline
70
4
71
3
72
8
73
4
74
0
42
0.000000001
43
0.0000000001
44
0.0000000001
40
0
40
0
40
0
40
0
40
1
40
1
40
1
40
1
41
1
41
1
41
1
41
1
10
-17.974287605225655
20
2.1458970538552875
30
0
10
-17.875017185530478
20
2.0996064969231663
30
0
10
-17.84460385286771
20
2.0292124056469754
30
0
10
-17.886588311480562
20
1.9391764435978642
30
0
0
SPLINE
5
417
100
AcDbEntity
8
0
100
AcDbSpline
70
4
71
3
72
8
73
4
74
0
42
0.000000001
43
0.0000000001
44
0.0000000001
40
0
40
0
40
0
40
0
40
1
40
1
40
1
40
1
41
1
41
1
41
1
41
1
10
-17.886588311480562
20
1.9391764435978642
30
0
10
-17.915654475135618
20
1.8768438544869397
30
0
10
-17.949966344712912
20
1.86052177226277
30
0
10
-17.990678227418197
20
1.8907484592152557
30
0
0
SPLINE
5
418
100
AcDbEntity
8
0
100
AcDbSpline
70
4
71
3
72
8
73
4
74
0
42
0.000000001
43
0.0000000001
44
0.0000000001
40
0
40
0
40
0
40
0
40
1
40
1
40
1
40
1
41
1
41
1
41
1
41
1
10
-17.990678227418197
20
1.8907484592152557
30
0
10
-18.009302707962203
20
1.9050544092566393
30
0
10
-18.040469002517671
20
1.9195874910841662
30
0
10
-18.06055270467952
20
1.9247367661054258
30
0
0
SPLINE
5
419
100
AcDbEntity
8
0
100
AcDbSpline
70
4
71
3
72
8
73
4
74
0
42
0.000000001
43
0.0000000001
44
0.0000000001
40
0
40
0
40
0
40
0
40
1
40
1
40
1
40
1
41
1
41
1
41
1
41
1
10
-18.06055270467952
20
1.9247367661054258
30
0
10
-18.093794265768675
20
1.9318057424084951
30
0
10
-18.09771766704991
20
1.9294193453710411
30
0
10
-18.097555885706349
20
1.9026431478524635
30
0
0
SPLINE
5
420
100
AcDbEntity
8
0
100
AcDbSpline
70
4
71
3
72
8
73
4
74
0
42
0.000000001
43
0.0000000001
44
0.0000000001
40
0
40
0
40
0
40
0
40
1
40
1
40
1
40
1
41
1
41
1
41
1
41
1
10
-18.097555885706349
20
1.9026431478524635
30
0
10
-18.09899645904915
20
1.8302391404851621
30
0
10
-18.0186492182184
20
1.7674771521686674
30
0
10
-17.933242917175676
20
1.7698106309469017
30
0
0
SPLINE
5
421
100
AcDbEntity
8
0
100
AcDbSpline
70
4
71
3
72
8
73
4
74
0
42
0.000000001
43
0.0000000001
44
0.0000000001
40
0
40
0
40
0
40
0
40
1
40
1
40
1
40
1
41
1
41
1
41
1
41
1
10
-17.933242917175676
20
1.7698106309469017
30
0
10
-17.819983894034557
20
1.7746145054802149
30
0
10
-17.716301539501668
20
1.9005242057171186
30
0
10
-17.714879614433897
20
2.0361755454315964
30
0
0
LINE
5
422
100
AcDbEntity
8
0
100
AcDbLine
10
-17.714879614433901
20
2.036175545431596
30
0
11
-17.714282217793084
21
2.0977303082831091
31
0
0
LINE
5
423
100
AcDbEntity
8
0
100
AcDbLine
10
-17.714282217793084
20
2.0977303082831091
30
0
11
-17.677714652063504
21
2.0314929661659806
31
0
0
SPLINE
5
424
100
AcDbEntity
8
0
100
AcDbSpline
70
4
71
3
72
8
73
4
74
0
42
0.000000001
43
0.0000000001
44
0.0000000001
40
0
40
0
40
0
40
0
40
1
40
1
40
1
40
1
41
1
41
1
41
1
41
1
10
-17.244430759995421
20
-2.4609407925579498
30
0
10
-17.490976563614385
20
-2.6551412636448508
30
0
10
-17.897523021353095
20
-2.7283572042958424
30
0
10
-18.244101449217499
20
-2.6398207869805357
30
0
0
SPLINE
5
425
100
AcDbEntity
8
0
100
AcDbSpline
70
4
71
3
72
8
73
4
74
0
42
0.000000001
43
0.0000000001
44
0.0000000001
40
0
40
0
40
0
40
0
40
1
40
1
40
1
40
1
41
1
41
1
41
1
41
1
10
-18.244101449217499
20
-2.6398207869805357
30
0
10
-18.333054670595114
20
-2.6166101580718939
30
0
10
-18.572301176599073
20
-2.5148848013708882
30
0
10
-18.566380291410084
20
-2.5021874221075522
30
0
0
SPLINE
5
426
100
AcDbEntity
8
0
100
AcDbSpline
70
4
71
3
72
8
73
4
74
0
42
0.000000001
43
0.0000000001
44
0.0000000001
40
0
40
0
40
0
40
0
40
1
40
1
40
1
40
1
41
1
41
1
41
1
41
1
10
-18.566380291410084
20
-2.5021874221075522
30
0
10
-18.564765504540361
20
-2.4987245004902761
30
0
10
-18.519221693409254
20
-2.4763975343594939
30
0
10
-18.465675514463786
20
-2.4549915275566452
30
0
0
SPLINE
5
427
100
AcDbEntity
8
0
100
AcDbSpline
70
4
71
3
72
8
73
4
74
0
42
0.000000001
43
0.0000000001
44
0.0000000001
40
0
40
0
40
0
40
0
40
1
40
1
40
1
40
1
41
1
41
1
41
1
41
1
10
-18.465675514463786
20
-2.4549915275566452
30
0
10
-18.196407615492646
20
-2.3416516952236983
30
0
10
-17.921477043577053
20
-2.122744077060243
30
0
10
-17.729578807850089
20
-1.8679284507248035
30
0
0
SPLINE
5
428
100
AcDbEntity
8
0
100
AcDbSpline
70
4
71
3
72
8
73
4
74
0
42
0.000000001
43
0.0000000001
44
0.0000000001
40
0
40
0
40
0
40
0
40
1
40
1
40
1
40
1
41
1
41
1
41
1
41
1
10
-17.729578807850089
20
-1.8679284507248035
30
0
10
-17.654819483903733
20
-1.7678802047702133
30
0
10
-17.637977787664685
20
-1.7377904347945712
30
0
10
-17.596537807433421
20
-1.6278263358354856
30
0
0
SPLINE
5
429
100
AcDbEntity
8
0
100
AcDbSpline
70
4
71
3
72
8
73
4
74
0
42
0.000000001
43
0.0000000001
44
0.0000000001
40
0
40
0
40
0
40
0
40
1
40
1
40
1
40
1
41
1
41
1
41
1
41
1
10
-17.596537807433421
20
-1.6278263358354856
30
0
10
-17.542951142412086
20
-1.4827725410397035
30
0
10
-17.528358926233658
20
-1.3912057908384856
30
0
10
-17.533564146080025
20
-1.2215474959587944
30
0
0
SPLINE
5
430
100
AcDbEntity
8
0
100
AcDbSpline
70
4
71
3
72
8
73
4
74
0
42
0.000000001
43
0.0000000001
44
0.0000000001
40
0
40
0
40
0
40
0
40
1
40
1
40
1
40
1
41
1
41
1
41
1
41
1
10
-17.533564146080025
20
-1.2215474959587944
30
0
10
-17.534814884186765
20
-1.1549150246202837
30
0
10
-17.536908798995494
20
-1.0991317977975605
30
0
10
-17.538140888827193
20
-1.0957466588062281
30
0
0
SPLINE
5
431
100
AcDbEntity
8
0
100
AcDbSpline
70
4
71
3
72
8
73
4
74
0
42
0.000000001
43
0.0000000001
44
0.0000000001
40
0
40
0
40
0
40
0
40
1
40
1
40
1
40
1
41
1
41
1
41
1
41
1
10
-17.538140888827193
20
-1.0957466588062281
30
0
10
-17.538756933743038
20
-1.0940540893105613
30
0
10
-17.555377714287623
20
-1.0905196011590275
30
0
10
-17.575305851197594
20
-1.0910640795406121
30
0
0
LINE
5
432
100
AcDbEntity
8
0
100
AcDbLine
10
-17.575305851197594
20
-1.0910640795406119
30
0
11
-17.610084416530533
21
-1.0903049015562341
31
0
0
LINE
5
433
100
AcDbEntity
8
0
100
AcDbLine
10
-17.610084416530533
20
-1.0903049015562341
30
0
11
-17.616279135673203
21
-1.2181094387082363
31
0
0
SPLINE
5
434
100
AcDbEntity
8
0
100
AcDbSpline
70
4
71
3
72
8
73
4
74
0
42
0.000000001
43
0.0000000001
44
0.0000000001
40
0
40
0
40
0
40
0
40
1
40
1
40
1
40
1
41
1
41
1
41
1
41
1
10
-17.616279135673203
20
-1.2181094387082363
30
0
10
-17.636142085100502
20
-1.7007032550501153
30
0
10
-18.0198856382952
20
-2.1288516079595099
30
0
10
-18.539140424701746
20
-2.2478820041695107
30
0
0
SPLINE
5
435
100
AcDbEntity
8
0
100
AcDbSpline
70
4
71
3
72
8
73
4
74
0
42
0.000000001
43
0.0000000001
44
0.0000000001
40
0
40
0
40
0
40
0
40
1
40
1
40
1
40
1
41
1
41
1
41
1
41
1
10
-18.539140424701746
20
-2.2478820041695107
30
0
10
-18.608230859611979
20
-2.2634449084093098
30
0
10
-18.718331875547911
20
-2.2795585071223741
30
0
10
-18.784348301970571
20
-2.2825018147247782
30
0
0
LINE
5
436
100
AcDbEntity
8
0
100
AcDbLine
10
-18.784348301970571
20
-2.2825018147247782
30
0
11
-18.903839340804442
21
-2.2886155617157309
31
0
0
LINE
5
437
100
AcDbEntity
8
0
100
AcDbLine
10
-18.903839340804442
20
-2.2886155617157309
30
0
11
-19.047685910135247
21
-2.154084259222818
31
0
0
SPLINE
5
438
100
AcDbEntity
8
0
100
AcDbSpline
70
4
71
3
72
8
73
4
74
0
42
0.000000001
43
0.0000000001
44
0.0000000001
40
0
40
0
40
0
40
0
40
1
40
1
40
1
40
1
41
1
41
1
41
1
41
1
10
-19.047685910135247
20
-2.154084259222818
30
0
10
-19.199152150242387
20
-2.011783936793365
30
0
10
-19.284511749117559
20
-1.9115520716943912
30
0
10
-19.357257967447023
20
-1.7933117709672541
30
0
0
LINE
5
439
100
AcDbEntity
8
0
100
AcDbLine
10
-19.357257967447026
20
-1.7933117709672541
30
0
11
-19.400829159037094
21
-1.7209979784092519
31
0
0
LINE
5
440
100
AcDbEntity
8
0
100
AcDbLine
10
-19.400829159037094
20
-1.7209979784092519
30
0
11
-19.242922419726096
21
-1.7861992820224271
31
0
0
SPLINE
5
441
100
AcDbEntity
8
0
100
AcDbSpline
70
4
71
3
72
8
73
4
74
0
42
0.000000001
43
0.0000000001
44
0.0000000001
40
0
40
0
40
0
40
0
40
1
40
1
40
1
40
1
41
1
41
1
41
1
41
1
10
-19.242922419726096
20
-1.7861992820224271
30
0
10
-18.853927107477379
20
-1.9465112296058302
30
0
10
-18.557229669521739
20
-1.9611968501193524
30
0
10
-18.259804134040127
20
-1.8356916847212985
30
0
0
SPLINE
5
442
100
AcDbEntity
8
0
100
AcDbSpline
70
4
71
3
72
8
73
4
74
0
42
0.000000001
43
0.0000000001
44
0.0000000001
40
0
40
0
40
0
40
0
40
1
40
1
40
1
40
1
41
1
41
1
41
1
41
1
10
-18.259804134040127
20
-1.8356916847212985
30
0
10
-18.135325601528557
20
-1.782718038049923
30
0
10
-18.017013734267159
20
-1.691736252306157
30
0
10
-17.921638661960717
20
-1.5746005300513493
30
0
0
SPLINE
5
443
100
AcDbEntity
8
0
100
AcDbSpline
70
4
71
3
72
8
73
4
74
0
42
0.000000001
43
0.0000000001
44
0.0000000001
40
0
40
0
40
0
40
0
40
1
40
1
40
1
40
1
41
1
41
1
41
1
41
1
10
-17.921638661960717
20
-1.5746005300513493
30
0
10
-17.862106247383668
20
-1.501179132455132
30
0
10
-17.843111501985
20
-1.4664721336564537
30
0
10
-17.795517288686916
20
-1.3523512855383133
30
0
0
SPLINE
5
444
100
AcDbEntity
8
0
100
AcDbSpline
70
4
71
3
72
8
73
4
74
0
42
0.000000001
43
0.0000000001
44
0.0000000001
40
0
40
0
40
0
40
0
40
1
40
1
40
1
40
1
41
1
41
1
41
1
41
1
10
-17.795517288686916
20
-1.3523512855383133
30
0
10
-17.702099214212353
20
-1.1218787575164471
30
0
10
-17.691610828933761
20
-0.94267487448692688
30
0
10
-17.761839949340601
20
-0.74972195198097535
30
0
0
SPLINE
5
445
100
AcDbEntity
8
0
100
AcDbSpline
70
4
71
3
72
8
73
4
74
0
42
0.000000001
43
0.0000000001
44
0.0000000001
40
0
40
0
40
0
40
0
40
1
40
1
40
1
40
1
41
1
41
1
41
1
41
1
10
-17.761839949340601
20
-0.74972195198097535
30
0
10
-17.834455466784899
20
-0.5528456281937858
30
0
10
-17.965066394562456
20
-0.42308090368410756
30
0
10
-18.206238817939912
20
-0.313430961794678
30
0
0
SPLINE
5
446
100
AcDbEntity
8
0
100
AcDbSpline
70
4
71
3
72
8
73
4
74
0
42
0.000000001
43
0.0000000001
44
0.0000000001
40
0
40
0
40
0
40
0
40
1
40
1
40
1
40
1
41
1
41
1
41
1
41
1
10
-18.206238817939912
20
-0.313430961794678
30
0
10
-18.533984281749198
20
-0.16341134816211908
30
0
10
-18.84504680409712
20
-0.22775066383836751
30
0
10
-18.992704885058934
20
-0.47508975246599267
30
0
0
SPLINE
5
447
100
AcDbEntity
8
0
100
AcDbSpline
70
4
71
3
72
8
73
4
74
0
42
0.000000001
43
0.0000000001
44
0.0000000001
40
0
40
0
40
0
40
0
40
1
40
1
40
1
40
1
41
1
41
1
41
1
41
1
10
-18.992704885058934
20
-0.47508975246599267
30
0
10
-19.102217909971525
20
-0.65870859689910832
30
0
10
-19.049823011665925
20
-0.90798922460937059
30
0
10
-18.88591138844831
20
-0.98442246977636494
30
0
0
SPLINE
5
448
100
AcDbEntity
8
0
100
AcDbSpline
70
4
71
3
72
8
73
4
74
0
42
0.000000001
43
0.0000000001
44
0.0000000001
40
0
40
0
40
0
40
0
40
1
40
1
40
1
40
1
41
1
41
1
41
1
41
1
10
-18.88591138844831
20
-0.98442246977636494
30
0
10
-18.758937595814945
20
-1.0436313216662865
30
0
10
-18.660301869310651
20
-1.0249819767555612
30
0
10
-18.56392183895866
20
-0.92377320750353886
30
0
0
SPLINE
5
449
100
AcDbEntity
8
0
100
AcDbSpline
70
4
71
3
72
8
73
4
74
0
42
0.000000001
43
0.0000000001
44
0.0000000001
40
0
40
0
40
0
40
0
40
1
40
1
40
1
40
1
41
1
41
1
41
1
41
1
10
-18.56392183895866
20
-0.92377320750353886
30
0
10
-18.501847462092272
20
-0.85996896459141225
30
0
10
-18.50123141717642
20
-0.8616615340870819
30
0
10
-18.570262717735751
20
-0.81682398268112166
30
0
0
SPLINE
5
450
100
AcDbEntity
8
0
100
AcDbSpline
70
4
71
3
72
8
73
4
74
0
42
0.000000001
43
0.0000000001
44
0.0000000001
40
0
40
0
40
0
40
0
40
1
40
1
40
1
40
1
41
1
41
1
41
1
41
1
10
-18.570262717735751
20
-0.81682398268112166
30
0
10
-18.608510420777638
20
-0.79336757371129762
30
0
10
-18.614204174180486
20
-0.79352313896317794
30
0
10
-18.632894005167081
20
-0.81853520045182615
30
0
0
SPLINE
5
451
100
AcDbEntity
8
0
100
AcDbSpline
70
4
71
3
72
8
73
4
74
0
42
0.000000001
43
0.0000000001
44
0.0000000001
40
0
40
0
40
0
40
0
40
1
40
1
40
1
40
1
41
1
41
1
41
1
41
1
10
-18.632894005167081
20
-0.81853520045182615
30
0
10
-18.696810300689332
20
-0.8983441789926776
30
0
10
-18.786217785639238
20
-0.90021717810694579
30
0
10
-18.848102327269551
20
-0.82498494231325925
30
0
0
SPLINE
5
452
100
AcDbEntity
8
0
100
AcDbSpline
70
4
71
3
72
8
73
4
74
0
42
0.000000001
43
0.0000000001
44
0.0000000001
40
0
40
0
40
0
40
0
40
1
40
1
40
1
40
1
41
1
41
1
41
1
41
1
10
-18.848102327269551
20
-0.82498494231325925
30
0
10
-18.912989310853174
20
-0.74413673574266359
30
0
10
-18.887093586586669
20
-0.6283295342205325
30
0
10
-18.783554365122303
20
-0.53889096881222376
30
0
0
SPLINE
5
453
100
AcDbEntity
8
0
100
AcDbSpline
70
4
71
3
72
8
73
4
74
0
42
0.000000001
43
0.0000000001
44
0.0000000001
40
0
40
0
40
0
40
0
40
1
40
1
40
1
40
1
41
1
41
1
41
1
41
1
10
-18.783554365122303
20
-0.53889096881222376
30
0
10
-18.677246049582447
20
-0.44652774407656248
30
0
10
-18.527671456864613
20
-0.43617324920892631
30
0
10
-18.342755172157208
20
-0.50975340158281868
30
0
0
SPLINE
5
454
100
AcDbEntity
8
0
100
AcDbSpline
70
4
71
3
72
8
73
4
74
0
42
0.000000001
43
0.0000000001
44
0.0000000001
40
0
40
0
40
0
40
0
40
1
40
1
40
1
40
1
41
1
41
1
41
1
41
1
10
-18.342755172157208
20
-0.50975340158281868
30
0
10
-18.024172599459725
20
-0.63723134948180626
30
0
10
-17.923458579855858
20
-0.88234279584964548
30
0
10
-18.062174685400333
20
-1.1858478083380231
30
0
0
SPLINE
5
455
100
AcDbEntity
8
0
100
AcDbSpline
70
4
71
3
72
8
73
4
74
0
42
0.000000001
43
0.0000000001
44
0.0000000001
40
0
40
0
40
0
40
0
40
1
40
1
40
1
40
1
41
1
41
1
41
1
41
1
10
-18.062174685400333
20
-1.1858478083380231
30
0
10
-18.143990553466413
20
-1.361302503613212
30
0
10
-18.242601415603982
20
-1.4642816249868438
30
0
10
-18.392928970214516
20
-1.5304971293031411
30
0
0
SPLINE
5
456
100
AcDbEntity
8
0
100
AcDbSpline
70
4
71
3
72
8
73
4
74
0
42
0.000000001
43
0.0000000001
44
0.0000000001
40
0
40
0
40
0
40
0
40
1
40
1
40
1
40
1
41
1
41
1
41
1
41
1
10
-18.392928970214516
20
-1.5304971293031411
30
0
10
-18.524099998082811
20
-1.5887818323393386
30
0
10
-18.665367308574197
20
-1.5903623492248824
30
0
10
-18.867436420024401
20
-1.5354844600209447
30
0
0
SPLINE
5
457
100
AcDbEntity
8
0
100
AcDbSpline
70
4
71
3
72
8
73
4
74
0
42
0.000000001
43
0.0000000001
44
0.0000000001
40
0
40
0
40
0
40
0
40
1
40
1
40
1
40
1
41
1
41
1
41
1
41
1
10
-18.867436420024401
20
-1.5354844600209447
30
0
10
-19.35714272531111
20
-1.401285962872723
30
0
10
-19.612092079097597
20
-1.016798853402797
30
0
10
-19.544914966417593
20
-0.51410890271571097
30
0
0
SPLINE
5
458
100
AcDbEntity
8
0
100
AcDbSpline
70
4
71
3
72
8
73
4
74
0
42
0.000000001
43
0.0000000001
44
0.0000000001
40
0
40
0
40
0
40
0
40
1
40
1
40
1
40
1
41
1
41
1
41
1
41
1
10
-19.544914966417593
20
-0.51410890271571097
30
0
10
-19.536931246878272
20
-0.45178252969646765
30
0
10
-19.517787152319393
20
-0.40168684018490952
30
0
10
-19.453195677530385
20
-0.26316997549396559
30
0
0
SPLINE
5
459
100
AcDbEntity
8
0
100
AcDbSpline
70
4
71
3
72
8
73
4
74
0
42
0.000000001
43
0.0000000001
44
0.0000000001
40
0
40
0
40
0
40
0
40
1
40
1
40
1
40
1
41
1
41
1
41
1
41
1
10
-19.453195677530385
20
-0.26316997549396559
30
0
10
-19.376684649737456
20
-0.10210522897777394
30
0
10
-19.363533006901829
20
-0.082942486143858699
30
0
10
-19.266309799847843
20
0.029115527623951032
30
0
0
SPLINE
5
460
100
AcDbEntity
8
0
100
AcDbSpline
70
4
71
3
72
8
73
4
74
0
42
0.000000001
43
0.0000000001
44
0.0000000001
40
0
40
0
40
0
40
0
40
1
40
1
40
1
40
1
41
1
41
1
41
1
41
1
10
-19.266309799847843
20
0.029115527623951032
30
0
10
-19.12924275115726
20
0.18442738638638809
30
0
10
-18.980853546103582
20
0.30073236412256449
30
0
10
-18.82337301647236
20
0.37626010871087384
30
0
0
SPLINE
5
461
100
AcDbEntity
8
0
100
AcDbSpline
70
4
71
3
72
8
73
4
74
0
42
0.000000001
43
0.0000000001
44
0.0000000001
40
0
40
0
40
0
40
0
40
1
40
1
40
1
40
1
41
1
41
1
41
1
41
1
10
-18.82337301647236
20
0.37626010871087384
30
0
10
-18.620886937999938
20
0.47296051222420105
30
0
10
-18.509015569942406
20
0.48684327915169234
30
0
10
-18.270942019419245
20
0.4489035170877741
30
0
0
SPLINE
5
462
100
AcDbEntity
8
0
100
AcDbSpline
70
4
71
3
72
8
73
4
74
0
42
0.000000001
43
0.0000000001
44
0.0000000001
40
0
40
0
40
0
40
0
40
1
40
1
40
1
40
1
41
1
41
1
41
1
41
1
10
-18.270942019419245
20
0.4489035170877741
30
0
10
-17.971002575540798
20
0.39897885157734814
30
0
10
-17.762455668336649
20
0.29470531649532233
30
0
10
-17.404278223589554
20
0.011044279239392886
30
0
0
SPLINE
5
463
100
AcDbEntity
8
0
100
AcDbSpline
70
4
71
3
72
8
73
4
74
0
42
0.000000001
43
0.0000000001
44
0.0000000001
40
0
40
0
40
0
40
0
40
1
40
1
40
1
40
1
41
1
41
1
41
1
41
1
10
-17.404278223589554
20
0.011044279239392886
30
0
10
-17.031017002541663
20
-0.28246104448676979
30
0
10
-16.636187993347363
20
-0.65628874467697818
30
0
10
-16.197009966303582
20
-1.1308990044394309
30
0
0
LINE
5
464
100
AcDbEntity
8
0
100
AcDbLine
10
-16.197009966303582
20
-1.1308990044394309
30
0
11
-15.986810975679633
21
-1.3582042825985403
31
0
0
LINE
5
465
100
AcDbEntity
8
0
100
AcDbLine
10
-15.986810975679633
20
-1.3582042825985403
30
0
11
-16.147735778653093
21
-1.4953645726642946
31
0
0
SPLINE
5
466
100
AcDbEntity
8
0
100
AcDbSpline
70
4
71
3
72
8
73
4
74
0
42
0.000000001
43
0.0000000001
44
0.0000000001
40
0
40
0
40
0
40
0
40
1
40
1
40
1
40
1
41
1
41
1
41
1
41
1
10
-16.147735778653093
20
-1.4953645726642946
30
0
10
-16.315353076983271
20
-1.6378359190948752
30
0
10
-16.437270998930465
20
-1.7636740527975221
30
0
10
-16.518567252981676
20
-1.8747271085197756
30
0
0
SPLINE
5
467
100
AcDbEntity
8
0
100
AcDbSpline
70
4
71
3
72
8
73
4
74
0
42
0.000000001
43
0.0000000001
44
0.0000000001
40
0
40
0
40
0
40
0
40
1
40
1
40
1
40
1
41
1
41
1
41
1
41
1
10
-16.518567252981676
20
-1.8747271085197756
30
0
10
-16.543794014073107
20
-1.9107439797760943
30
0
10
-16.570330647622178
20
-1.9405288353396564
30
0
10
-16.576562663314935
20
-1.9418387077972967
30
0
0
SPLINE
5
468
100
AcDbEntity
8
0
100
AcDbSpline
70
4
71
3
72
8
73
4
74
0
42
0.000000001
43
0.0000000001
44
0.0000000001
40
0
40
0
40
0
40
0
40
1
40
1
40
1
40
1
41
1
41
1
41
1
41
1
10
-16.576562663314935
20
-1.9418387077972967
30
0
10
-16.582256416717783
20
-1.941994273049177
30
0
10
-16.580958976443501
20
-1.9060614005104841
30
0
10
-16.57535543784995
20
-1.8608940703257186
30
0
0
SPLINE
5
469
100
AcDbEntity
8
0
100
AcDbSpline
70
4
71
3
72
8
73
4
74
0
42
0.000000001
43
0.0000000001
44
0.0000000001
40
0
40
0
40
0
40
0
40
1
40
1
40
1
40
1
41
1
41
1
41
1
41
1
10
-16.57535543784995
20
-1.8608940703257186
30
0
10
-16.522524761287197
20
-1.50047638817558
30
0
10
-16.712020815307653
20
-1.0298705018461021
30
0
10
-17.019875438757047
20
-0.75281174513759541
30
0
0
SPLINE
5
470
100
AcDbEntity
8
0
100
AcDbSpline
70
4
71
3
72
8
73
4
74
0
42
0.000000001
43
0.0000000001
44
0.0000000001
40
0
40
0
40
0
40
0
40
1
40
1
40
1
40
1
41
1
41
1
41
1
41
1
10
-17.019875438757047
20
-0.75281174513759541
30
0
10
-17.097531368138274
20
-0.68427822079230938
30
0
10
-17.266306000240096
20
-0.55498640812996247
30
0
10
-17.274152802802579
20
-0.55975920220487341
30
0
0
SPLINE
5
471
100
AcDbEntity
8
0
100
AcDbSpline
70
4
71
3
72
8
73
4
74
0
42
0.000000001
43
0.0000000001
44
0.0000000001
40
0
40
0
40
0
40
0
40
1
40
1
40
1
40
1
41
1
41
1
41
1
41
1
10
-17.274152802802579
20
-0.55975920220487341
30
0
10
-17.275845372298249
20
-0.56037524712072384
30
0
10
-17.290151322339625
20
-0.57899972766473085
30
0
10
-17.304379489755071
20
-0.60047108491016488
30
0
0
SPLINE
5
472
100
AcDbEntity
8
0
100
AcDbSpline
70
4
71
3
72
8
73
4
74
0
42
0.000000001
43
0.0000000001
44
0.0000000001
40
0
40
0
40
0
40
0
40
1
40
1
40
1
40
1
41
1
41
1
41
1
41
1
10
-17.304379489755071
20
-0.60047108491016488
30
0
10
-17.333912349165772
20
-0.64572241381254203
30
0
10
-17.335144438997467
20
-0.64233727482121239
30
0
10
-17.202847157815924
20
-0.75040351029931318
30
0
0
SPLINE
5
473
100
AcDbEntity
8
0
100
AcDbSpline
70
4
71
3
72
8
73
4
74
0
42
0.000000001
43
0.0000000001
44
0.0000000001
40
0
40
0
40
0
40
0
40
1
40
1
40
1
40
1
41
1
41
1
41
1
41
1
10
-17.202847157815924
20
-0.75040351029931318
30
0
10
-16.907391215309456
20
-0.99076400039306967
30
0
10
-16.786453550001006
20
-1.454696039640861
30
0
10
-16.898194380133276
20
-1.9113101329986093
30
0
0
SPLINE
5
474
100
AcDbEntity
8
0
100
AcDbSpline
70
4
71
3
72
8
73
4
74
0
42
0.000000001
43
0.0000000001
44
0.0000000001
40
0
40
0
40
0
40
0
40
1
40
1
40
1
40
1
41
1
41
1
41
1
41
1
10
-16.898194380133276
20
-1.9113101329986093
30
0
10
-16.954603057489315
20
-2.1407714868832413
30
0
10
-17.069271573514847
20
-2.3233915893624828
30
0
10
-17.244430759995421
20
-2.4609407925579498
30
0
0
ARC
5
475
100
AcDbEntity
8
0
100
AcDbCircle
10
-21.565272934107405
20
1.1292457036179713
30
0
40
0.49999999999999961
210
0
220
0
230
1
100
AcDbArc
50
-122.46959231641674
51
72.469592316417334
0
LINE
5
476
100
AcDbEntity
8
0
100
AcDbLine
10
-21.833698900550978
20
0.7074074638401705
30
0
11
-22.181284410319972
21
-0.037992067328266134
31
0
0
LINE
5
477
100
AcDbEntity
8
0
100
AcDbLine
10
-22.181284410319972
20
-0.037992067328266134
30
0
11
-22.122374404162592
21
-0.065462254341409204
31
0
0
LINE
5
478
100
AcDbEntity
8
0
100
AcDbLine
10
-22.122374404162592
20
-0.065462254341409204
30
0
11
-22.333683535032943
21
-0.51861614785973476
31
0
0
ARC
5
479
100
AcDbEntity
8
0
100
AcDbCircle
10
-22.122374404162592
20
-0.065462254341409204
30
0
40
0.49999999999999994
210
0
220
0
230
1
100
AcDbArc
50
244.99999999999991
51
335
0
LINE
5
480
100
AcDbEntity
8
0
100
AcDbLine
10
-21.669220510644269
20
-0.27677138521175798
30
0
11
-21.481774243630714
21
-0.36417901501274497
31
0
0
LINE
5
481
100
AcDbEntity
8
0
100
AcDbLine
10
-21.481774243630714
20
-0.36417901501274497
30
0
11
-21.512209414094315
21
-0.48068004407667309
31
0
0
SPLINE
5
482
100
AcDbEntity
8
0
100
AcDbSpline
70
4
71
3
72
8
73
4
74
0
42
0.000000001
43
0.0000000001
44
0.0000000001
40
0
40
0
40
0
40
0
40
1
40
1
40
1
40
1
41
1
41
1
41
1
41
1
10
-21.512209414094315
20
-0.48068004407667309
30
0
10
-21.6383339768939
20
-0.95307174127700134
30
0
10
-21.359041524793842
20
-1.4360390119993349
30
0
10
-20.900274382276454
20
-1.5431626133085721
30
0
0
SPLINE
5
483
100
AcDbEntity
8
0
100
AcDbSpline
70
4
71
3
72
8
73
4
74
0
42
0.000000001
43
0.0000000001
44
0.0000000001
40
0
40
0
40
0
40
0
40
1
40
1
40
1
40
1
41
1
41
1
41
1
41
1
10
-20.900274382276454
20
-1.5431626133085721
30
0
10
-20.651423153771763
20
-1.6001811194887883
30
0
10
-20.363070294592656
20
-1.4971460532900427
30
0
10
-20.211859077204267
20
-1.2964335164650205
30
0
0
SPLINE
5
484
100
AcDbEntity
8
0
100
AcDbSpline
70
4
71
3
72
8
73
4
74
0
42
0.000000001
43
0.0000000001
44
0.0000000001
40
0
40
0
40
0
40
0
40
1
40
1
40
1
40
1
41
1
41
1
41
1
41
1
10
-20.211859077204267
20
-1.2964335164650205
30
0
10
-20.049111003849966
20
-1.0800211584233603
30
0
10
-20.040430267243067
20
-0.77209177891390468
30
0
10
-20.194450901822904
20
-0.57800941356891533
30
0
0
SPLINE
5
485
100
AcDbEntity
8
0
100
AcDbSpline
70
4
71
3
72
8
73
4
74
0
42
0.000000001
43
0.0000000001
44
0.0000000001
40
0
40
0
40
0
40
0
40
1
40
1
40
1
40
1
41
1
41
1
41
1
41
1
10
-20.194450901822904
20
-0.57800941356891533
30
0
10
-20.239941794694779
20
-0.5188534799382194
30
0
10
-20.256795923117185
20
-0.50677836168240897
30
0
10
-20.354912035606603
20
-0.4610260670401945
30
0
0
SPLINE
5
486
100
AcDbEntity
8
0
100
AcDbSpline
70
4
71
3
72
8
73
4
74
0
42
0.000000001
43
0.0000000001
44
0.0000000001
40
0
40
0
40
0
40
0
40
1
40
1
40
1
40
1
41
1
41
1
41
1
41
1
10
-20.354912035606603
20
-0.4610260670401945
30
0
10
-20.456491069713302
20
-0.41365898552825403
30
0
10
-20.473111850257879
20
-0.41012449737672041
30
0
10
-20.559672458506355
20
-0.41191971386504495
30
0
0
SPLINE
5
487
100
AcDbEntity
8
0
100
AcDbSpline
70
4
71
3
72
8
73
4
74
0
42
0.000000001
43
0.0000000001
44
0.0000000001
40
0
40
0
40
0
40
0
40
1
40
1
40
1
40
1
41
1
41
1
41
1
41
1
10
-20.559672458506355
20
-0.41191971386504495
30
0
10
-20.739641735611919
20
-0.41512744980366473
30
0
10
-20.948347397593746
20
-0.55530261400609038
30
0
10
-20.857384260125013
20
-0.61036714892030552
30
0
0
SPLINE
5
488
100
AcDbEntity
8
0
100
AcDbSpline
70
4
71
3
72
8
73
4
74
0
42
0.000000001
43
0.0000000001
44
0.0000000001
40
0
40
0
40
0
40
0
40
1
40
1
40
1
40
1
41
1
41
1
41
1
41
1
10
-20.857384260125013
20
-0.61036714892030552
30
0
10
-20.833604288468063
20
-0.62567184091556394
30
0
10
-20.818293380381128
20
-0.62297431337434372
30
0
10
-20.779675412484572
20
-0.59741777350410807
30
0
0
SPLINE
5
489
100
AcDbEntity
8
0
100
AcDbSpline
70
4
71
3
72
8
73
4
74
0
42
0.000000001
43
0.0000000001
44
0.0000000001
40
0
40
0
40
0
40
0
40
1
40
1
40
1
40
1
41
1
41
1
41
1
41
1
10
-20.779675412484572
20
-0.59741777350410807
30
0
10
-20.679975593583819
20
-0.53429492595041439
30
0
10
-20.596339644662706
20
-0.52973061538660926
30
0
10
-20.509993736017009
20
-0.58264210114119153
30
0
0
SPLINE
5
490
100
AcDbEntity
8
0
100
AcDbSpline
70
4
71
3
72
8
73
4
74
0
42
0.000000001
43
0.0000000001
44
0.0000000001
40
0
40
0
40
0
40
0
40
1
40
1
40
1
40
1
41
1
41
1
41
1
41
1
10
-20.509993736017009
20
-0.58264210114119153
30
0
10
-20.436961251550503
20
-0.62794013221111777
30
0
10
-20.404939348109682
20
-0.67378885775430919
30
0
10
-20.39322206252519
20
-0.74811256640341661
30
0
0
SPLINE
5
491
100
AcDbEntity
8
0
100
AcDbSpline
70
4
71
3
72
8
73
4
74
0
42
0.000000001
43
0.0000000001
44
0.0000000001
40
0
40
0
40
0
40
0
40
1
40
1
40
1
40
1
41
1
41
1
41
1
41
1
10
-20.39322206252519
20
-0.74811256640341661
30
0
10
-20.384740566771825
20
-0.80827967417135338
30
0
10
-20.387354095595416
20
-0.81689808690156696
30
0
10
-20.449254258934882
20
-0.94964341556371878
30
0
0
SPLINE
5
492
100
AcDbEntity
8
0
100
AcDbSpline
70
4
71
3
72
8
73
4
74
0
42
0.000000001
43
0.0000000001
44
0.0000000001
40
0
40
0
40
0
40
0
40
1
40
1
40
1
40
1
41
1
41
1
41
1
41
1
10
-20.449254258934882
20
-0.94964341556371878
30
0
10
-20.505233537085356
20
-1.0696913649625361
30
0
10
-20.520538229080618
20
-1.0934713366194848
30
0
10
-20.556309320275751
20
-1.118950093863778
30
0
0
SPLINE
5
493
100
AcDbEntity
8
0
100
AcDbSpline
70
4
71
3
72
8
73
4
74
0
42
0.000000001
43
0.0000000001
44
0.0000000001
40
0
40
0
40
0
40
0
40
1
40
1
40
1
40
1
41
1
41
1
41
1
41
1
10
-20.556309320275751
20
-1.118950093863778
30
0
10
-20.62846754758187
20
-1.1682150388566979
30
0
10
-20.714794807952536
20
-1.178550885449291
30
0
10
-20.815829363677626
20
-1.1511119408473256
30
0
0
SPLINE
5
494
100
AcDbEntity
8
0
100
AcDbSpline
70
4
71
3
72
8
73
4
74
0
42
0.000000001
43
0.0000000001
44
0.0000000001
40
0
40
0
40
0
40
0
40
1
40
1
40
1
40
1
41
1
41
1
41
1
41
1
10
-20.815829363677626
20
-1.1511119408473256
30
0
10
-20.896241954950977
20
-1.1276679640608642
30
0
10
-20.911863993541676
20
-1.1189779847963819
30
0
10
-20.971433704668804
20
-1.0659047176982361
30
0
0
SPLINE
5
495
100
AcDbEntity
8
0
100
AcDbSpline
70
4
71
3
72
8
73
4
74
0
42
0.000000001
43
0.0000000001
44
0.0000000001
40
0
40
0
40
0
40
0
40
1
40
1
40
1
40
1
41
1
41
1
41
1
41
1
10
-20.971433704668804
20
-1.0659047176982361
30
0
10
-21.094652093456165
20
-0.95645082713655816
30
0
10
-21.153254143087807
20
-0.79280984834683854
30
0
10
-21.131760948041546
20
-0.62014289542216638
30
0
0
SPLINE
5
496
100
AcDbEntity
8
0
100
AcDbSpline
70
4
71
3
72
8
73
4
74
0
42
0.000000001
43
0.0000000001
44
0.0000000001
40
0
40
0
40
0
40
0
40
1
40
1
40
1
40
1
41
1
41
1
41
1
41
1
10
-21.131760948041546
20
-0.62014289542216638
30
0
10
-21.122551354762198
20
-0.54011921727852708
30
0
10
-21.112479936505821
20
-0.51249362696627998
30
0
10
-21.058342577011224
20
-0.40845041319619174
30
0
0
SPLINE
5
497
100
AcDbEntity
8
0
100
AcDbSpline
70
4
71
3
72
8
73
4
74
0
42
0.000000001
43
0.0000000001
44
0.0000000001
40
0
40
0
40
0
40
0
40
1
40
1
40
1
40
1
41
1
41
1
41
1
41
1
10
-21.058342577011224
20
-0.40845041319619174
30
0
10
-20.979750066592917
20
-0.26100400527126805
30
0
10
-20.877754065464011
20
-0.15679279406594107
30
0
10
-20.761738380430767
20
-0.106899371973811
30
0
0
LINE
5
498
100
AcDbEntity
8
0
100
AcDbLine
10
-20.761738380430767
20
-0.106899371973811
30
0
11
-20.687420887873337
21
-0.074099642273584704
31
0
0
LINE
5
499
100
AcDbEntity
8
0
100
AcDbLine
10
-20.687420887873337
20
-0.074099642273584704
30
0
11
-20.349423576189075
21
-0.28651719545965004
31
0
0
SPLINE
5
500
100
AcDbEntity
8
0
100
AcDbSpline
70
4
71
3
72
8
73
4
74
0
42
0.000000001
43
0.0000000001
44
0.0000000001
40
0
40
0
40
0
40
0
40
1
40
1
40
1
40
1
41
1
41
1
41
1
41
1
10
-20.349423576189075
20
-0.28651719545965004
30
0
10
-20.163340552092556
20
-0.40280049835489756
30
0
10
-20.006731253055833
20
-0.50393467450677398
30
0
10
-20.001958458980919
20
-0.51178147706925392
30
0
0
SPLINE
5
501
100
AcDbEntity
8
0
100
AcDbSpline
70
4
71
3
72
8
73
4
74
0
42
0.000000001
43
0.0000000001
44
0.0000000001
40
0
40
0
40
0
40
0
40
1
40
1
40
1
40
1
41
1
41
1
41
1
41
1
10
-20.001958458980919
20
-0.51178147706925392
30
0
10
-19.980558668269751
20
-0.54424521189899999
30
0
10
-19.95025117212543
20
-0.77760510269815752
30
0
10
-19.941959511608133
20
-0.97680868917190067
30
0
0
SPLINE
5
502
100
AcDbEntity
8
0
100
AcDbSpline
70
4
71
3
72
8
73
4
74
0
42
0.000000001
43
0.0000000001
44
0.0000000001
40
0
40
0
40
0
40
0
40
1
40
1
40
1
40
1
41
1
41
1
41
1
41
1
10
-19.941959511608133
20
-0.97680868917190067
30
0
10
-19.937000071822936
20
-1.095761465715861
30
0
10
-19.923260437963968
20
-1.244103968602007
30
0
10
-19.911854282883237
20
-1.307040170445416
30
0
0
SPLINE
5
503
100
AcDbEntity
8
0
100
AcDbSpline
70
4
71
3
72
8
73
4
74
0
42
0.000000001
43
0.0000000001
44
0.0000000001
40
0
40
0
40
0
40
0
40
1
40
1
40
1
40
1
41
1
41
1
41
1
41
1
10
-19.911854282883237
20
-1.307040170445416
30
0
10
-19.862527176973519
20
-1.5900228389088031
30
0
10
-19.691907599649937
20
-1.9745348127454458
30
0
10
-19.496086125601632
20
-2.2387001388628662
30
0
0
SPLINE
5
504
100
AcDbEntity
8
0
100
AcDbSpline
70
4
71
3
72
8
73
4
74
0
42
0.000000001
43
0.0000000001
44
0.0000000001
40
0
40
0
40
0
40
0
40
1
40
1
40
1
40
1
41
1
41
1
41
1
41
1
10
-19.496086125601632
20
-2.2387001388628662
30
0
10
-19.438047202626617
20
-2.3191656483954382
30
0
10
-19.388321777969733
20
-2.3873226917943726
30
0
10
-19.386551425848129
20
-2.3895535235799494
30
0
0
SPLINE
5
505
100
AcDbEntity
8
0
100
AcDbSpline
70
4
71
3
72
8
73
4
74
0
42
0.000000001
43
0.0000000001
44
0.0000000001
40
0
40
0
40
0
40
0
40
1
40
1
40
1
40
1
41
1
41
1
41
1
41
1
10
-19.386551425848129
20
-2.3895535235799494
30
0
10
-19.385319336016426
20
-2.3929386625712805
30
0
10
-19.420629947547596
20
-2.4144162359083938
30
0
10
-19.465019451472941
20
-2.4372814643290841
30
0
0
SPLINE
5
506
100
AcDbEntity
8
0
100
AcDbSpline
70
4
71
3
72
8
73
4
74
0
42
0.000000001
43
0.0000000001
44
0.0000000001
40
0
40
0
40
0
40
0
40
1
40
1
40
1
40
1
41
1
41
1
41
1
41
1
10
-19.465019451472941
20
-2.4372814643290841
30
0
10
-19.509947217688197
20
-2.4613009999555384
30
0
10
-19.601339754362495
20
-2.5156498695271354
30
0
10
-19.667421531227745
20
-2.5579111886595665
30
0
0
SPLINE
5
507
100
AcDbEntity
8
0
100
AcDbSpline
70
4
71
3
72
8
73
4
74
0
42
0.000000001
43
0.0000000001
44
0.0000000001
40
0
40
0
40
0
40
0
40
1
40
1
40
1
40
1
41
1
41
1
41
1
41
1
10
-19.667421531227745
20
-2.5579111886595665
30
0
10
-19.765428780632824
20
-2.6204179912974124
30
0
10
-19.795817248928877
20
-2.6343536764841242
30
0
10
-19.821134224829606
20
-2.6253587828075649
30
0
0
SPLINE
5
508
100
AcDbEntity
8
0
100
AcDbSpline
70
4
71
3
72
8
73
4
74
0
42
0.000000001
43
0.0000000001
44
0.0000000001
40
0
40
0
40
0
40
0
40
1
40
1
40
1
40
1
41
1
41
1
41
1
41
1
10
-19.821134224829606
20
-2.6253587828075649
30
0
10
-19.850452384637517
20
-2.6159034094670379
30
0
10
-19.852378302011008
20
-2.6079788242786157
30
0
10
-19.842241533312041
20
-2.5410352224363391
30
0
0
SPLINE
5
509
100
AcDbEntity
8
0
100
AcDbSpline
70
4
71
3
72
8
73
4
74
0
42
0.000000001
43
0.0000000001
44
0.0000000001
40
0
40
0
40
0
40
0
40
1
40
1
40
1
40
1
41
1
41
1
41
1
41
1
10
-19.842241533312041
20
-2.5410352224363391
30
0
10
-19.794703264839082
20
-2.2371723772766532
30
0
10
-20.011404915583686
20
-1.8761416767765511
30
0
10
-20.292427396689394
20
-1.7886631357660219
30
0
0
SPLINE
5
510
100
AcDbEntity
8
0
100
AcDbSpline
70
4
71
3
72
8
73
4
74
0
42
0.000000001
43
0.0000000001
44
0.0000000001
40
0
40
0
40
0
40
0
40
1
40
1
40
1
40
1
41
1
41
1
41
1
41
1
10
-20.292427396689394
20
-1.7886631357660219
30
0
10
-20.59815080877998
20
-1.6938822705746015
30
0
10
-20.924941206237051
20
-1.9124974065093363
30
0
10
-20.953316731876114
20
-2.2295118945046437
30
0
0
SPLINE
5
511
100
AcDbEntity
8
0
100
AcDbSpline
70
4
71
3
72
8
73
4
74
0
42
0.000000001
43
0.0000000001
44
0.0000000001
40
0
40
0
40
0
40
0
40
1
40
1
40
1
40
1
41
1
41
1
41
1
41
1
10
-20.953316731876114
20
-2.2295118945046437
30
0
10
-20.961443584483959
20
-2.3283094023524953
30
0
10
-20.935563481926604
20
-2.4204797652862053
30
0
10
-20.881376393698559
20
-2.4850961044419257
30
0
0
SPLINE
5
512
100
AcDbEntity
8
0
100
AcDbSpline
70
4
71
3
72
8
73
4
74
0
42
0.000000001
43
0.0000000001
44
0.0000000001
40
0
40
0
40
0
40
0
40
1
40
1
40
1
40
1
41
1
41
1
41
1
41
1
10
-20.881376393698559
20
-2.4850961044419257
30
0
10
-20.843660736854901
20
-2.5307892647332384
30
0
10
-20.826268346142587
20
-2.541710075783286
30
0
10
-20.738158301466964
20
-2.5757699492077193
30
0
0
SPLINE
5
513
100
AcDbEntity
8
0
100
AcDbSpline
70
4
71
3
72
8
73
4
74
0
42
0.000000001
43
0.0000000001
44
0.0000000001
40
0
40
0
40
0
40
0
40
1
40
1
40
1
40
1
41
1
41
1
41
1
41
1
10
-20.738158301466964
20
-2.5757699492077193
30
0
10
-20.682907120842472
20
-2.5959127857204738
30
0
10
-20.635736090658288
20
-2.6122877862038694
30
0
10
-20.631196644461188
20
-2.6115939586620782
30
0
0
SPLINE
5
514
100
AcDbEntity
8
0
100
AcDbSpline
70
4
71
3
72
8
73
4
74
0
42
0.000000001
43
0.0000000001
44
0.0000000001
40
0
40
0
40
0
40
0
40
1
40
1
40
1
40
1
41
1
41
1
41
1
41
1
10
-20.631196644461188
20
-2.6115939586620782
30
0
10
-20.62727324317996
20
-2.6092075616246198
30
0
10
-20.621430140616901
20
-2.5936633056598613
30
0
10
-20.617973435091308
20
-2.5741956484138573
30
0
0
SPLINE
5
515
100
AcDbEntity
8
0
100
AcDbSpline
70
4
71
3
72
8
73
4
74
0
42
0.000000001
43
0.0000000001
44
0.0000000001
40
0
40
0
40
0
40
0
40
1
40
1
40
1
40
1
41
1
41
1
41
1
41
1
10
-20.617973435091308
20
-2.5741956484138573
30
0
10
-20.611980983368053
20
-2.5432627017362188
30
0
10
-20.61552168761127
20
-2.5388010381650696
30
0
10
-20.679008583927953
20
-2.509196612220109
30
0
0
SPLINE
5
516
100
AcDbEntity
8
0
100
AcDbSpline
70
4
71
3
72
8
73
4
74
0
42
0.000000001
43
0.0000000001
44
0.0000000001
40
0
40
0
40
0
40
0
40
1
40
1
40
1
40
1
41
1
41
1
41
1
41
1
10
-20.679008583927953
20
-2.509196612220109
30
0
10
-20.812908219795862
20
-2.4467581865907357
30
0
10
-20.841784548214843
20
-2.3700542969958476
30
0
10
-20.78896949336124
20
-2.2176141793015502
30
0
0
SPLINE
5
517
100
AcDbEntity
8
0
100
AcDbSpline
70
4
71
3
72
8
73
4
74
0
42
0.000000001
43
0.0000000001
44
0.0000000001
40
0
40
0
40
0
40
0
40
1
40
1
40
1
40
1
41
1
41
1
41
1
41
1
10
-20.78896949336124
20
-2.2176141793015502
30
0
10
-20.752529438991033
20
-2.1123450917914361
30
0
10
-20.701687003678465
20
-2.0545457327859267
30
0
10
-20.623751024251874
20
-2.0290545433582721
30
0
0
SPLINE
5
518
100
AcDbEntity
8
0
100
AcDbSpline
70
4
71
3
72
8
73
4
74
0
42
0.000000001
43
0.0000000001
44
0.0000000001
40
0
40
0
40
0
40
0
40
1
40
1
40
1
40
1
41
1
41
1
41
1
41
1
10
-20.623751024251874
20
-2.0290545433582721
30
0
10
-20.548661921526712
20
-2.0036411365565612
30
0
10
-20.479487487898862
20
-2.0120075531339161
30
0
10
-20.37790845379217
20
-2.0593746346458537
30
0
0
SPLINE
5
519
100
AcDbEntity
8
0
100
AcDbSpline
70
4
71
3
72
8
73
4
74
0
42
0.000000001
43
0.0000000001
44
0.0000000001
40
0
40
0
40
0
40
0
40
1
40
1
40
1
40
1
41
1
41
1
41
1
41
1
10
-20.37790845379217
20
-2.0593746346458537
30
0
10
-20.255551889981835
20
-2.1164304373761422
30
0
10
-20.193816697511721
20
-2.2070513638827101
30
0
10
-20.186237512811253
20
-2.3384681718121856
30
0
0
SPLINE
5
520
100
AcDbEntity
8
0
100
AcDbSpline
70
4
71
3
72
8
73
4
74
0
42
0.000000001
43
0.0000000001
44
0.0000000001
40
0
40
0
40
0
40
0
40
1
40
1
40
1
40
1
41
1
41
1
41
1
41
1
10
-20.186237512811253
20
-2.3384681718121856
30
0
10
-20.181750984873382
20
-2.4192572440318751
30
0
10
-20.236809303695921
20
-2.5313028256163319
30
0
10
-20.335342383207546
20
-2.6371288236913877
30
0
0
LINE
5
521
100
AcDbEntity
8
0
100
AcDbLine
10
-20.335342383207543
20
-2.6371288236913881
30
0
11
-20.408953616039831
21
-2.7166328878201562
31
0
0
LINE
5
522
100
AcDbEntity
8
0
100
AcDbLine
10
-20.408953616039831
20
-2.7166328878201562
30
0
11
-20.622145805959523
21
-2.7760189798028829
31
0
0
SPLINE
5
523
100
AcDbEntity
8
0
100
AcDbSpline
70
4
71
3
72
8
73
4
74
0
42
0.000000001
43
0.0000000001
44
0.0000000001
40
0
40
0
40
0
40
0
40
1
40
1
40
1
40
1
41
1
41
1
41
1
41
1
10
-20.622145805959523
20
-2.7760189798028829
30
0
10
-20.924661482111489
20
-2.8612073917170315
30
0
10
-21.208552677719453
20
-2.9607017536725615
30
0
10
-21.364262855229068
20
-3.0384603300464375
30
0
0
SPLINE
5
524
100
AcDbEntity
8
0
100
AcDbSpline
70
4
71
3
72
8
73
4
74
0
42
0.000000001
43
0.0000000001
44
0.0000000001
40
0
40
0
40
0
40
0
40
1
40
1
40
1
40
1
41
1
41
1
41
1
41
1
10
-21.364262855229068
20
-3.0384603300464375
30
0
10
-21.719073972219768
20
-3.2116872201019455
30
0
10
-21.959530893214513
20
-3.4410489535598057
30
0
10
-22.167247218859917
20
-3.805128635220862
30
0
0
SPLINE
5
525
100
AcDbEntity
8
0
100
AcDbSpline
70
4
71
3
72
8
73
4
74
0
42
0.000000001
43
0.0000000001
44
0.0000000001
40
0
40
0
40
0
40
0
40
1
40
1
40
1
40
1
41
1
41
1
41
1
41
1
10
-22.167247218859917
20
-3.805128635220862
30
0
10
-22.247227384361803
20
-3.943496150751598
30
0
10
-22.326143457467225
20
-4.0373901636393725
30
0
10
-22.401304126726654
20
-4.0810391378553863
30
0
0
SPLINE
5
526
100
AcDbEntity
8
0
100
AcDbSpline
70
4
71
3
72
8
73
4
74
0
42
0.000000001
43
0.0000000001
44
0.0000000001
40
0
40
0
40
0
40
0
40
1
40
1
40
1
40
1
41
1
41
1
41
1
41
1
10
-22.401304126726654
20
-4.0810391378553863
30
0
10
-22.466925423927933
20
-4.119299273080637
30
0
10
-22.612116135700564
20
-4.1232661870036313
30
0
10
-22.685991796869065
20
-4.0888174004494928
30
0
0
SPLINE
5
527
100
AcDbEntity
8
0
100
AcDbSpline
70
4
71
3
72
8
73
4
74
0
42
0.000000001
43
0.0000000001
44
0.0000000001
40
0
40
0
40
0
40
0
40
1
40
1
40
1
40
1
41
1
41
1
41
1
41
1
10
-22.685991796869065
20
-4.0888174004494928
30
0
10
-22.769101915683631
20
-4.0500625155760908
30
0
10
-22.803186653474778
20
-4.0538427837888049
30
0
10
-22.82525540736102
20
-4.1011693792248787
30
0
0
SPLINE
5
528
100
AcDbEntity
8
0
100
AcDbSpline
70
4
71
3
72
8
73
4
74
0
42
0.000000001
43
0.0000000001
44
0.0000000001
40
0
40
0
40
0
40
0
40
1
40
1
40
1
40
1
41
1
41
1
41
1
41
1
10
-22.82525540736102
20
-4.1011693792248787
30
0
10
-22.835482390869284
20
-4.1231012161342759
30
0
10
-22.839477358684782
20
-4.1437231805860399
30
0
10
-22.833705822655997
20
-4.1464144920355777
30
0
0
SPLINE
5
529
100
AcDbEntity
8
0
100
AcDbSpline
70
4
71
3
72
8
73
4
74
0
42
0.000000001
43
0.0000000001
44
0.0000000001
40
0
40
0
40
0
40
0
40
1
40
1
40
1
40
1
41
1
41
1
41
1
41
1
10
-22.833705822655997
20
-4.1464144920355777
30
0
10
-22.827934286627208
20
-4.1491058034851189
30
0
10
-22.772910237788857
20
-4.1817904540093291
30
0
10
-22.710960345715964
20
-4.2177046782729892
30
0
0
SPLINE
5
530
100
AcDbEntity
8
0
100
AcDbSpline
70
4
71
3
72
8
73
4
74
0
42
0.000000001
43
0.0000000001
44
0.0000000001
40
0
40
0
40
0
40
0
40
1
40
1
40
1
40
1
41
1
41
1
41
1
41
1
10
-22.710960345715964
20
-4.2177046782729892
30
0
10
-22.606683784068046
20
-4.2803826678718684
30
0
10
-22.519112001682331
20
-4.3155968485020519
30
0
10
-22.401073968374625
20
-4.3397222206469532
30
0
0
SPLINE
5
531
100
AcDbEntity
8
0
100
AcDbSpline
70
4
71
3
72
8
73
4
74
0
42
0.000000001
43
0.0000000001
44
0.0000000001
40
0
40
0
40
0
40
0
40
1
40
1
40
1
40
1
41
1
41
1
41
1
41
1
10
-22.401073968374625
20
-4.3397222206469532
30
0
10
-22.368986714491228
20
-4.3462529346601171
30
0
10
-22.368831149239345
20
-4.3519466880629611
30
0
10
-22.38263932306668
20
-4.4930646493941513
30
0
0
SPLINE
5
532
100
AcDbEntity
8
0
100
AcDbSpline
70
4
71
3
72
8
73
4
74
0
42
0.000000001
43
0.0000000001
44
0.0000000001
40
0
40
0
40
0
40
0
40
1
40
1
40
1
40
1
41
1
41
1
41
1
41
1
10
-22.38263932306668
20
-4.4930646493941513
30
0
10
-22.440090417978258
20
-5.1014717350719536
30
0
10
-22.161771843465356
20
-5.6739242733701296
30
0
10
-21.661322130181315
20
-5.9719317467433122
30
0
0
SPLINE
5
533
100
AcDbEntity
8
0
100
AcDbSpline
70
4
71
3
72
8
73
4
74
0
42
0.000000001
43
0.0000000001
44
0.0000000001
40
0
40
0
40
0
40
0
40
1
40
1
40
1
40
1
41
1
41
1
41
1
41
1
10
-21.661322130181315
20
-5.9719317467433122
30
0
10
-21.52811010576351
20
-6.0509131702913193
30
0
10
-21.499868470535418
20
-6.0626771580433605
30
0
10
-21.346351828261298
20
-6.1131835984854526
30
0
0
SPLINE
5
534
100
AcDbEntity
8
0
100
AcDbSpline
70
4
71
3
72
8
73
4
74
0
42
0.000000001
43
0.0000000001
44
0.0000000001
40
0
40
0
40
0
40
0
40
1
40
1
40
1
40
1
41
1
41
1
41
1
41
1
10
-21.346351828261298
20
-6.1131835984854526
30
0
10
-21.082488389990079
20
-6.1982819585502025
30
0
10
-20.773099788862783
20
-6.1978060201369853
30
0
10
-20.542988120078114
20
-6.1111770348800309
30
0
0
SPLINE
5
535
100
AcDbEntity
8
0
100
AcDbSpline
70
4
71
3
72
8
73
4
74
0
42
0.000000001
43
0.0000000001
44
0.0000000001
40
0
40
0
40
0
40
0
40
1
40
1
40
1
40
1
41
1
41
1
41
1
41
1
10
-20.542988120078114
20
-6.1111770348800309
30
0
10
-20.349496935282254
20
-6.0397936072674376
30
0
10
-20.213876676026167
20
-5.9358033117565743
30
0
10
-20.060279061600323
20
-5.7390141762127884
30
0
0
SPLINE
5
536
100
AcDbEntity
8
0
100
AcDbSpline
70
4
71
3
72
8
73
4
74
0
42
0.000000001
43
0.0000000001
44
0.0000000001
40
0
40
0
40
0
40
0
40
1
40
1
40
1
40
1
41
1
41
1
41
1
41
1
10
-20.060279061600323
20
-5.7390141762127884
30
0
10
-19.924294753581247
20
-5.5649284877461369
30
0
10
-19.866162426271135
20
-5.4402633095242869
30
0
10
-19.820752342591089
20
-5.2253474696505418
30
0
0
SPLINE
5
537
100
AcDbEntity
8
0
100
AcDbSpline
70
4
71
3
72
8
73
4
74
0
42
0.000000001
43
0.0000000001
44
0.0000000001
40
0
40
0
40
0
40
0
40
1
40
1
40
1
40
1
41
1
41
1
41
1
41
1
10
-19.820752342591089
20
-5.2253474696505418
30
0
10
-19.752598325758036
20
-4.9043971481906352
30
0
10
-19.802989524064216
20
-4.6658879823702168
30
0
10
-19.996041904037035
20
-4.3987979969254303
30
0
0
SPLINE
5
538
100
AcDbEntity
8
0
100
AcDbSpline
70
4
71
3
72
8
73
4
74
0
42
0.000000001
43
0.0000000001
44
0.0000000001
40
0
40
0
40
0
40
0
40
1
40
1
40
1
40
1
41
1
41
1
41
1
41
1
10
-19.996041904037035
20
-4.3987979969254303
30
0
10
-20.119817203389346
20
-4.2272510812223238
30
0
10
-20.205708848462741
20
-4.1492559674448364
30
0
10
-20.36931555726828
20
-4.0631277849678131
30
0
0
SPLINE
5
539
100
AcDbEntity
8
0
100
AcDbSpline
70
4
71
3
72
8
73
4
74
0
42
0.000000001
43
0.0000000001
44
0.0000000001
40
0
40
0
40
0
40
0
40
1
40
1
40
1
40
1
41
1
41
1
41
1
41
1
10
-20.36931555726828
20
-4.0631277849678131
30
0
10
-20.526534685129171
20
-3.9813834834359998
30
0
10
-20.640111054865731
20
-3.9537174070478871
30
0
10
-20.801844764556989
20
-3.9569967095207699
30
0
0
SPLINE
5
540
100
AcDbEntity
8
0
100
AcDbSpline
70
4
71
3
72
8
73
4
74
0
42
0.000000001
43
0.0000000001
44
0.0000000001
40
0
40
0
40
0
40
0
40
1
40
1
40
1
40
1
41
1
41
1
41
1
41
1
10
-20.801844764556989
20
-3.9569967095207699
30
0
10
-21.033057822288196
20
-3.9616045327263363
30
0
10
-21.283545675463444
20
-4.0949440685035112
30
0
10
-21.431449536486436
20
-4.291577638795407
30
0
0
SPLINE
5
541
100
AcDbEntity
8
0
100
AcDbSpline
70
4
71
3
72
8
73
4
74
0
42
0.000000001
43
0.0000000001
44
0.0000000001
40
0
40
0
40
0
40
0
40
1
40
1
40
1
40
1
41
1
41
1
41
1
41
1
10
-21.431449536486436
20
-4.291577638795407
30
0
10
-21.502901504067413
20
-4.3875469182168718
30
0
10
-21.524431995663747
20
-4.4337192064471829
30
0
10
-21.5509437648461
20
-4.5478338384736521
30
0
0
SPLINE
5
542
100
AcDbEntity
8
0
100
AcDbSpline
70
4
71
3
72
8
73
4
74
0
42
0.000000001
43
0.0000000001
44
0.0000000001
40
0
40
0
40
0
40
0
40
1
40
1
40
1
40
1
41
1
41
1
41
1
41
1
10
-21.5509437648461
20
-4.5478338384736521
30
0
10
-21.612112804093698
20
-4.8116132780272558
30
0
10
-21.538862593458521
20
-5.0734295036572963
30
0
10
-21.358999152871398
20
-5.2331875672416377
30
0
0
SPLINE
5
543
100
AcDbEntity
8
0
100
AcDbSpline
70
4
71
3
72
8
73
4
74
0
42
0.000000001
43
0.0000000001
44
0.0000000001
40
0
40
0
40
0
40
0
40
1
40
1
40
1
40
1
41
1
41
1
41
1
41
1
10
-21.358999152871398
20
-5.2331875672416377
30
0
10
-21.177981405078519
20
-5.3934838931158877
30
0
10
-20.863658228532753
20
-5.4276309547837291
30
0
10
-20.678875671276405
20
-5.3086222334146544
30
0
0
SPLINE
5
544
100
AcDbEntity
8
0
100
AcDbSpline
70
4
71
3
72
8
73
4
74
0
42
0.000000001
43
0.0000000001
44
0.0000000001
40
0
40
0
40
0
40
0
40
1
40
1
40
1
40
1
41
1
41
1
41
1
41
1
10
-20.678875671276405
20
-5.3086222334146544
30
0
10
-20.482322910176336
20
-5.1824543209332079
30
0
10
-20.431782199750064
20
-4.8842074465504277
30
0
10
-20.567119219434989
20
-4.6440305756010654
30
0
0
LINE
5
545
100
AcDbEntity
8
0
100
AcDbLine
10
-20.567119219434989
20
-4.6440305756010654
30
0
11
-20.602454695332874
21
-4.5811783724752688
31
0
0
LINE
5
546
100
AcDbEntity
8
0
100
AcDbLine
10
-20.602454695332874
20
-4.5811783724752688
30
0
11
-20.637071479322252
21
-4.6071953920094746
31
0
0
SPLINE
5
547
100
AcDbEntity
8
0
100
AcDbSpline
70
4
71
3
72
8
73
4
74
0
42
0.000000001
43
0.0000000001
44
0.0000000001
40
0
40
0
40
0
40
0
40
1
40
1
40
1
40
1
41
1
41
1
41
1
41
1
10
-20.637071479322252
20
-4.6071953920094746
30
0
10
-20.670533956105864
20
-4.6337506738335819
30
0
10
-20.670533956105864
20
-4.6337506738335819
30
0
10
-20.642202106068474
20
-4.6905264265184998
30
0
0
SPLINE
5
548
100
AcDbEntity
8
0
100
AcDbSpline
70
4
71
3
72
8
73
4
74
0
42
0.000000001
43
0.0000000001
44
0.0000000001
40
0
40
0
40
0
40
0
40
1
40
1
40
1
40
1
41
1
41
1
41
1
41
1
10
-20.642202106068474
20
-4.6905264265184998
30
0
10
-20.621029447143446
20
-4.7355319753596978
30
0
10
-20.617482526808555
20
-4.7610760830465777
30
0
10
-20.629084733217034
20
-4.8160939157932479
30
0
0
SPLINE
5
549
100
AcDbEntity
8
0
100
AcDbSpline
70
4
71
3
72
8
73
4
74
0
42
0.000000001
43
0.0000000001
44
0.0000000001
40
0
40
0
40
0
40
0
40
1
40
1
40
1
40
1
41
1
41
1
41
1
41
1
10
-20.629084733217034
20
-4.8160939157932479
30
0
10
-20.666809795678169
20
-4.9994607640735076
30
0
10
-20.827740814743301
20
-5.1155386100235383
30
0
10
-20.995102927394839
20
-5.0796554662182754
30
0
0
SPLINE
5
550
100
AcDbEntity
8
0
100
AcDbSpline
70
4
71
3
72
8
73
4
74
0
42
0.000000001
43
0.0000000001
44
0.0000000001
40
0
40
0
40
0
40
0
40
1
40
1
40
1
40
1
41
1
41
1
41
1
41
1
10
-20.995102927394839
20
-5.0796554662182754
30
0
10
-21.13037778616297
20
-5.0503030364261736
30
0
10
-21.21927808928136
20
-4.9456095077560507
30
0
10
-21.225936314653904
20
-4.8061903320122088
30
0
0
SPLINE
5
551
100
AcDbEntity
8
0
100
AcDbSpline
70
4
71
3
72
8
73
4
74
0
42
0.000000001
43
0.0000000001
44
0.0000000001
40
0
40
0
40
0
40
0
40
1
40
1
40
1
40
1
41
1
41
1
41
1
41
1
10
-21.225936314653904
20
-4.8061903320122088
30
0
10
-21.229417884546208
20
-4.7413282127953034
30
0
10
-21.222576040029288
20
-4.7206284657176036
30
0
10
-21.174670696227437
20
-4.6178951244051536
30
0
0
SPLINE
5
552
100
AcDbEntity
8
0
100
AcDbSpline
70
4
71
3
72
8
73
4
74
0
42
0.000000001
43
0.0000000001
44
0.0000000001
40
0
40
0
40
0
40
0
40
1
40
1
40
1
40
1
41
1
41
1
41
1
41
1
10
-21.174670696227437
20
-4.6178951244051536
30
0
10
-21.127841877005412
20
-4.5174703975042201
30
0
10
-21.113075447300059
20
-4.4948447330530303
30
0
10
-21.06015152936212
20
-4.4506637126387876
30
0
0
SPLINE
5
553
100
AcDbEntity
8
0
100
AcDbSpline
70
4
71
3
72
8
73
4
74
0
42
0.000000001
43
0.0000000001
44
0.0000000001
40
0
40
0
40
0
40
0
40
1
40
1
40
1
40
1
41
1
41
1
41
1
41
1
10
-21.06015152936212
20
-4.4506637126387876
30
0
10
-20.897534156892991
20
-4.312887377657181
30
0
10
-20.733420266255948
20
-4.2924490323498103
30
0
10
-20.534879426865594
20
-4.3850301462140546
30
0
0
SPLINE
5
554
100
AcDbEntity
8
0
100
AcDbSpline
70
4
71
3
72
8
73
4
74
0
42
0.000000001
43
0.0000000001
44
0.0000000001
40
0
40
0
40
0
40
0
40
1
40
1
40
1
40
1
41
1
41
1
41
1
41
1
10
-20.534879426865594
20
-4.3850301462140546
30
0
10
-20.254921038156347
20
-4.5169821898675506
30
0
10
-20.095953395974668
20
-4.7878524435250549
30
0
10
-20.123103047873705
20
-5.0871696263959656
30
0
0
SPLINE
5
555
100
AcDbEntity
8
0
100
AcDbSpline
70
4
71
3
72
8
73
4
74
0
42
0.000000001
43
0.0000000001
44
0.0000000001
40
0
40
0
40
0
40
0
40
1
40
1
40
1
40
1
41
1
41
1
41
1
41
1
10
-20.123103047873705
20
-5.0871696263959656
30
0
10
-20.128467022497755
20
-5.1619600308007261
30
0
10
-20.140613707287827
20
-5.1970497266374283
30
0
10
-20.200360821467655
20
-5.3251778264765477
30
0
0
SPLINE
5
556
100
AcDbEntity
8
0
100
AcDbSpline
70
4
71
3
72
8
73
4
74
0
42
0.000000001
43
0.0000000001
44
0.0000000001
40
0
40
0
40
0
40
0
40
1
40
1
40
1
40
1
41
1
41
1
41
1
41
1
10
-20.200360821467655
20
-5.3251778264765477
30
0
10
-20.252572263588771
20
-5.4371456254350639
30
0
10
-20.2830260823274
20
-5.4903993221518066
30
0
10
-20.321715616758226
20
-5.5341914294363397
30
0
0
SPLINE
5
557
100
AcDbEntity
8
0
100
AcDbSpline
70
4
71
3
72
8
73
4
74
0
42
0.000000001
43
0.0000000001
44
0.0000000001
40
0
40
0
40
0
40
0
40
1
40
1
40
1
40
1
41
1
41
1
41
1
41
1
10
-20.321715616758226
20
-5.5341914294363397
30
0
10
-20.489858745194958
20
-5.7199819713041329
30
0
10
-20.667727891400116
20
-5.8000553781812041
30
0
10
-20.894174371148083
20
-5.7914275598335268
30
0
0
SPLINE
5
558
100
AcDbEntity
8
0
100
AcDbSpline
70
4
71
3
72
8
73
4
74
0
42
0.000000001
43
0.0000000001
44
0.0000000001
40
0
40
0
40
0
40
0
40
1
40
1
40
1
40
1
41
1
41
1
41
1
41
1
10
-20.894174371148083
20
-5.7914275598335268
30
0
10
-21.025364047291415
20
-5.7864649305225431
30
0
10
-21.214891344730173
20
-5.7318141731047501
30
0
10
-21.34617745177448
20
-5.6607573347451616
30
0
0
SPLINE
5
559
100
AcDbEntity
8
0
100
AcDbSpline
70
4
71
3
72
8
73
4
74
0
42
0.000000001
43
0.0000000001
44
0.0000000001
40
0
40
0
40
0
40
0
40
1
40
1
40
1
40
1
41
1
41
1
41
1
41
1
10
-21.34617745177448
20
-5.6607573347451616
30
0
10
-21.67870192575036
20
-5.4818084744343976
30
0
10
-21.892920748556524
20
-5.190795384264141
30
0
10
-21.934951746377024
20
-4.8620293407001425
30
0
0
SPLINE
5
560
100
AcDbEntity
8
0
100
AcDbSpline
70
4
71
3
72
8
73
4
74
0
42
0.000000001
43
0.0000000001
44
0.0000000001
40
0
40
0
40
0
40
0
40
1
40
1
40
1
40
1
41
1
41
1
41
1
41
1
10
-21.934951746377024
20
-4.8620293407001425
30
0
10
-22.000118617046112
20
-4.3538384984121663
30
0
10
-21.72436032717777
20
-3.810691850698448
30
0
10
-21.259245926831721
20
-3.5244797714555149
30
0
0
SPLINE
5
561
100
AcDbEntity
8
0
100
AcDbSpline
70
4
71
3
72
8
73
4
74
0
42
0.000000001
43
0.0000000001
44
0.0000000001
40
0
40
0
40
0
40
0
40
1
40
1
40
1
40
1
41
1
41
1
41
1
41
1
10
-21.259245926831721
20
-3.5244797714555149
30
0
10
-21.114080079425801
20
-3.4361830810696108
30
0
10
-20.786875904472311
20
-3.3161321051049035
30
0
10
-20.420963546812967
20
-3.2155363542028415
30
0
0
SPLINE
5
562
100
AcDbEntity
8
0
100
AcDbSpline
70
4
71
3
72
8
73
4
74
0
42
0.000000001
43
0.0000000001
44
0.0000000001
40
0
40
0
40
0
40
0
40
1
40
1
40
1
40
1
41
1
41
1
41
1
41
1
10
-20.420963546812967
20
-3.2155363542028415
30
0
10
-20.276706226551632
20
-3.177406919862757
30
0
10
-20.157915231351222
20
-3.1456712825589888
30
0
10
-20.155606616939703
20
-3.1467478071388069
30
0
0
SPLINE
5
563
100
AcDbEntity
8
0
100
AcDbSpline
70
4
71
3
72
8
73
4
74
0
42
0.000000001
43
0.0000000001
44
0.0000000001
40
0
40
0
40
0
40
0
40
1
40
1
40
1
40
1
41
1
41
1
41
1
41
1
10
-20.155606616939703
20
-3.1467478071388069
30
0
10
-20.153298002528182
20
-3.1478243317186245
30
0
10
-20.162902725028921
20
-3.1925311822394158
30
0
10
-20.177967853054675
20
-3.2459342281163628
30
0
0
SPLINE
5
564
100
AcDbEntity
8
0
100
AcDbSpline
70
4
71
3
72
8
73
4
74
0
42
0.000000001
43
0.0000000001
44
0.0000000001
40
0
40
0
40
0
40
0
40
1
40
1
40
1
40
1
41
1
41
1
41
1
41
1
10
-20.177967853054675
20
-3.2459342281163628
30
0
10
-20.192494718790524
20
-3.2981829667875493
30
0
10
-20.207930111670947
20
-3.400598961504556
30
0
10
-20.210524992219515
20
-3.4724647065819521
30
0
0
SPLINE
5
565
100
AcDbEntity
8
0
100
AcDbSpline
70
4
71
3
72
8
73
4
74
0
42
0.000000001
43
0.0000000001
44
0.0000000001
40
0
40
0
40
0
40
0
40
1
40
1
40
1
40
1
41
1
41
1
41
1
41
1
10
-20.210524992219515
20
-3.4724647065819521
30
0
10
-20.22656097126654
20
-3.8865779168377648
30
0
10
-20.003926003149584
20
-4.2770761263059862
30
0
10
-19.635462440543328
20
-4.478404871006755
30
0
0
SPLINE
5
566
100
AcDbEntity
8
0
100
AcDbSpline
70
4
71
3
72
8
73
4
74
0
42
0.000000001
43
0.0000000001
44
0.0000000001
40
0
40
0
40
0
40
0
40
1
40
1
40
1
40
1
41
1
41
1
41
1
41
1
10
-19.635462440543328
20
-4.478404871006755
30
0
10
-19.538267287381846
20
-4.5321595334633367
30
0
10
-19.50833308265808
20
-4.5433074762995282
30
0
10
-19.400067769286345
20
-4.564281057330918
30
0
0
LINE
5
567
100
AcDbEntity
8
0
100
AcDbLine
10
-19.400067769286345
20
-4.564281057330918
30
0
11
-19.276952027491646
21
-4.5865582947282686
31
0
0
LINE
5
568
100
AcDbEntity
8
0
100
AcDbLine
10
-19.276952027491646
20
-4.5865582947282686
30
0
11
-19.283625874573325
21
-4.6551166834402711
31
0
0
SPLINE
5
569
100
AcDbEntity
8
0
100
AcDbSpline
70
4
71
3
72
8
73
4
74
0
42
0.000000001
43
0.0000000001
44
0.0000000001
40
0
40
0
40
0
40
0
40
1
40
1
40
1
40
1
41
1
41
1
41
1
41
1
10
-19.283625874573325
20
-4.6551166834402711
30
0
10
-19.299198184430598
20
-4.8150862571016102
30
0
10
-19.238813350493984
20
-5.0231229559083532
30
0
10
-19.141677331683404
20
-5.1372780740106858
30
0
0
SPLINE
5
570
100
AcDbEntity
8
0
100
AcDbSpline
70
4
71
3
72
8
73
4
74
0
42
0.000000001
43
0.0000000001
44
0.0000000001
40
0
40
0
40
0
40
0
40
1
40
1
40
1
40
1
41
1
41
1
41
1
41
1
10
-19.141677331683404
20
-5.1372780740106858
30
0
10
-18.94086214786573
20
-5.3756659445634067
30
0
10
-18.582992644096606
20
-5.3977970223263432
30
0
10
-18.382003083792107
20
-5.1837586291387776
30
0
0
SPLINE
5
571
100
AcDbEntity
8
0
100
AcDbSpline
70
4
71
3
72
8
73
4
74
0
42
0.000000001
43
0.0000000001
44
0.0000000001
40
0
40
0
40
0
40
0
40
1
40
1
40
1
40
1
41
1
41
1
41
1
41
1
10
-18.382003083792107
20
-5.1837586291387776
30
0
10
-18.238548454156891
20
-5.0328306513215457
30
0
10
-18.220238130682535
20
-4.7645241977542128
30
0
10
-18.344156563103368
20
-4.6294484168797139
30
0
0
SPLINE
5
572
100
AcDbEntity
8
0
100
AcDbSpline
70
4
71
3
72
8
73
4
74
0
42
0.000000001
43
0.0000000001
44
0.0000000001
40
0
40
0
40
0
40
0
40
1
40
1
40
1
40
1
41
1
41
1
41
1
41
1
10
-18.344156563103368
20
-4.6294484168797139
30
0
10
-18.381178392405246
20
-4.5882947027854906
30
0
10
-18.470060047248602
20
-4.5468485064625463
30
0
10
-18.529461760940475
20
-4.5416338809987042
30
0
0
SPLINE
5
573
100
AcDbEntity
8
0
100
AcDbSpline
70
4
71
3
72
8
73
4
74
0
42
0.000000001
43
0.0000000001
44
0.0000000001
40
0
40
0
40
0
40
0
40
1
40
1
40
1
40
1
41
1
41
1
41
1
41
1
10
-18.529461760940475
20
-4.5416338809987042
30
0
10
-18.591710351333788
20
-4.5364970381608014
30
0
10
-18.707576687206821
20
-4.571001769540052
30
0
10
-18.752193322918313
20
-4.606408811972198
30
0
0
SPLINE
5
574
100
AcDbEntity
8
0
100
AcDbSpline
70
4
71
3
72
8
73
4
74
0
42
0.000000001
43
0.0000000001
44
0.0000000001
40
0
40
0
40
0
40
0
40
1
40
1
40
1
40
1
41
1
41
1
41
1
41
1
10
-18.752193322918313
20
-4.606408811972198
30
0
10
-18.798963007789435
20
-4.646433083227377
30
0
10
-18.818878712516049
20
-4.6891424498404186
30
0
10
-18.827550043505486
20
-4.7680118207783
30
0
0
SPLINE
5
575
100
AcDbEntity
8
0
100
AcDbSpline
70
4
71
3
72
8
73
4
74
0
42
0.000000001
43
0.0000000001
44
0.0000000001
40
0
40
0
40
0
40
0
40
1
40
1
40
1
40
1
41
1
41
1
41
1
41
1
10
-18.827550043505486
20
-4.7680118207783
30
0
10
-18.833841193549148
20
-4.8297221488816948
30
0
10
-18.834379455839052
20
-4.8308764560874495
30
0
10
-18.796831796430627
20
-4.8287109747444639
30
0
0
SPLINE
5
576
100
AcDbEntity
8
0
100
AcDbSpline
70
4
71
3
72
8
73
4
74
0
42
0.000000001
43
0.0000000001
44
0.0000000001
40
0
40
0
40
0
40
0
40
1
40
1
40
1
40
1
41
1
41
1
41
1
41
1
10
-18.796831796430627
20
-4.8287109747444639
30
0
10
-18.763823583219299
20
-4.8272393209432591
30
0
10
-18.756592825572667
20
-4.8207739573726762
30
0
10
-18.739063517883512
20
-4.7741411894783985
30
0
0
SPLINE
5
577
100
AcDbEntity
8
0
100
AcDbSpline
70
4
71
3
72
8
73
4
74
0
42
0.000000001
43
0.0000000001
44
0.0000000001
40
0
40
0
40
0
40
0
40
1
40
1
40
1
40
1
41
1
41
1
41
1
41
1
10
-18.739063517883512
20
-4.7741411894783985
30
0
10
-18.713998538135645
20
-4.7113481207035042
30
0
10
-18.693149441897738
20
-4.7028012745075536
30
0
10
-18.618968866317154
20
-4.7275551237516593
30
0
0
SPLINE
5
578
100
AcDbEntity
8
0
100
AcDbSpline
70
4
71
3
72
8
73
4
74
0
42
0.000000001
43
0.0000000001
44
0.0000000001
40
0
40
0
40
0
40
0
40
1
40
1
40
1
40
1
41
1
41
1
41
1
41
1
10
-18.618968866317154
20
-4.7275551237516593
30
0
10
-18.554022748382625
20
-4.7480028746764997
30
0
10
-18.525158852147001
20
-4.7825418760399385
30
0
10
-18.51413539410429
20
-4.8523261384919616
30
0
0
SPLINE
5
579
100
AcDbEntity
8
0
100
AcDbSpline
70
4
71
3
72
8
73
4
74
0
42
0.000000001
43
0.0000000001
44
0.0000000001
40
0
40
0
40
0
40
0
40
1
40
1
40
1
40
1
41
1
41
1
41
1
41
1
10
-18.51413539410429
20
-4.8523261384919616
30
0
10
-18.495479833101882
20
-4.9720443091119737
30
0
10
-18.597475834230792
20
-5.0762555203173045
30
0
10
-18.733665436235182
20
-5.0759879024552923
30
0
0
SPLINE
5
580
100
AcDbEntity
8
0
100
AcDbSpline
70
4
71
3
72
8
73
4
74
0
42
0.000000001
43
0.0000000001
44
0.0000000001
40
0
40
0
40
0
40
0
40
1
40
1
40
1
40
1
41
1
41
1
41
1
41
1
10
-18.733665436235182
20
-5.0759879024552923
30
0
10
-18.909173049769603
20
-5.0756549341507009
30
0
10
-19.017170745279333
20
-4.91849175111492
30
0
10
-18.985223434938661
20
-4.7113511472693927
30
0
0
SPLINE
5
581
100
AcDbEntity
8
0
100
AcDbSpline
70
4
71
3
72
8
73
4
74
0
42
0.000000001
43
0.0000000001
44
0.0000000001
40
0
40
0
40
0
40
0
40
1
40
1
40
1
40
1
41
1
41
1
41
1
41
1
10
-18.985223434938661
20
-4.7113511472693927
30
0
10
-18.965254811952832
20
-4.5871588808948722
30
0
10
-18.921798699538769
20
-4.5301311320570932
30
0
10
-18.778480986880407
20
-4.4367567331841915
30
0
0
SPLINE
5
582
100
AcDbEntity
8
0
100
AcDbSpline
70
4
71
3
72
8
73
4
74
0
42
0.000000001
43
0.0000000001
44
0.0000000001
40
0
40
0
40
0
40
0
40
1
40
1
40
1
40
1
41
1
41
1
41
1
41
1
10
-18.778480986880407
20
-4.4367567331841915
30
0
10
-18.63908667550329
20
-4.345768731348743
30
0
10
-18.559243426978242
20
-4.2649547947623372
30
0
10
-18.491416162358107
20
-4.1405945309525718
30
0
0
SPLINE
5
583
100
AcDbEntity
8
0
100
AcDbSpline
70
4
71
3
72
8
73
4
74
0
42
0.000000001
43
0.0000000001
44
0.0000000001
40
0
40
0
40
0
40
0
40
1
40
1
40
1
40
1
41
1
41
1
41
1
41
1
10
-18.491416162358107
20
-4.1405945309525718
30
0
10
-18.426818471477429
20
-4.0231601103773551
30
0
10
-18.402764665866787
20
-3.9233576444839513
30
0
10
-18.405648839118285
20
-3.7969407624155318
30
0
0
SPLINE
5
584
100
AcDbEntity
8
0
100
AcDbSpline
70
4
71
3
72
8
73
4
74
0
42
0.000000001
43
0.0000000001
44
0.0000000001
40
0
40
0
40
0
40
0
40
1
40
1
40
1
40
1
41
1
41
1
41
1
41
1
10
-18.405648839118285
20
-3.7969407624155318
30
0
10
-18.415670365681329
20
-3.4718585561632773
30
0
10
-18.695737617474919
20
-3.2316474152297237
30
0
10
-18.946542817245604
20
-3.3325170000854754
30
0
0
SPLINE
5
585
100
AcDbEntity
8
0
100
AcDbSpline
70
4
71
3
72
8
73
4
74
0
42
0.000000001
43
0.0000000001
44
0.0000000001
40
0
40
0
40
0
40
0
40
1
40
1
40
1
40
1
41
1
41
1
41
1
41
1
10
-18.946542817245604
20
-3.3325170000854754
30
0
10
-19.03501691068422
20
-3.3685525196168316
30
0
10
-19.058862232783746
20
-3.3925658391516014
30
0
10
-19.087228352805329
20
-3.4805203185753433
30
0
0
SPLINE
5
586
100
AcDbEntity
8
0
100
AcDbSpline
70
4
71
3
72
8
73
4
74
0
42
0.000000001
43
0.0000000001
44
0.0000000001
40
0
40
0
40
0
40
0
40
1
40
1
40
1
40
1
41
1
41
1
41
1
41
1
10
-19.087228352805329
20
-3.4805203185753433
30
0
10
-19.116132735116828
20
-3.5696291052048399
30
0
10
-19.112974727911638
20
-3.5809388293845972
30
0
10
-19.058190243042784
20
-3.5840004056888093
30
0
0
SPLINE
5
587
100
AcDbEntity
8
0
100
AcDbSpline
70
4
71
3
72
8
73
4
74
0
42
0.000000001
43
0.0000000001
44
0.0000000001
40
0
40
0
40
0
40
0
40
1
40
1
40
1
40
1
41
1
41
1
41
1
41
1
10
-19.058190243042784
20
-3.5840004056888093
30
0
10
-19.01479326497963
20
-3.5873731124967807
30
0
10
-19.013638957773875
20
-3.5879113747866875
30
0
10
-18.994267731428849
20
-3.525273871263682
30
0
0
SPLINE
5
588
100
AcDbEntity
8
0
100
AcDbSpline
70
4
71
3
72
8
73
4
74
0
42
0.000000001
43
0.0000000001
44
0.0000000001
40
0
40
0
40
0
40
0
40
1
40
1
40
1
40
1
41
1
41
1
41
1
41
1
10
-18.994267731428849
20
-3.525273871263682
30
0
10
-18.975817464411769
20
-3.4706387355550357
30
0
10
-18.968126227101173
20
-3.4601721880772693
30
0
10
-18.928736649036878
20
-3.4420019711055518
30
0
0
SPLINE
5
589
100
AcDbEntity
8
0
100
AcDbSpline
70
4
71
3
72
8
73
4
74
0
42
0.000000001
43
0.0000000001
44
0.0000000001
40
0
40
0
40
0
40
0
40
1
40
1
40
1
40
1
41
1
41
1
41
1
41
1
10
-18.928736649036878
20
-3.4420019711055518
30
0
10
-18.891577902758158
20
-3.4256021062554463
30
0
10
-18.868802889146764
20
-3.4249798452479125
30
0
10
-18.818784982261153
20
-3.4412770631053644
30
0
0
SPLINE
5
590
100
AcDbEntity
8
0
100
AcDbSpline
70
4
71
3
72
8
73
4
74
0
42
0.000000001
43
0.0000000001
44
0.0000000001
40
0
40
0
40
0
40
0
40
1
40
1
40
1
40
1
41
1
41
1
41
1
41
1
10
-18.818784982261153
20
-3.4412770631053644
30
0
10
-18.601476529258267
20
-3.5116929921823874
30
0
10
-18.558459221667256
20
-3.7931386564019864
30
0
10
-18.728742967080269
20
-4.0257113153242612
30
0
0
SPLINE
5
591
100
AcDbEntity
8
0
100
AcDbSpline
70
4
71
3
72
8
73
4
74
0
42
0.000000001
43
0.0000000001
44
0.0000000001
40
0
40
0
40
0
40
0
40
1
40
1
40
1
40
1
41
1
41
1
41
1
41
1
10
-18.728742967080269
20
-4.0257113153242612
30
0
10
-18.908870998963508
20
-4.2733677505473322
30
0
10
-19.161686114825301
20
-4.3423834293975103
30
0
10
-19.431794000972641
20
-4.2164300535589474
30
0
0
SPLINE
5
592
100
AcDbEntity
8
0
100
AcDbSpline
70
4
71
3
72
8
73
4
74
0
42
0.000000001
43
0.0000000001
44
0.0000000001
40
0
40
0
40
0
40
0
40
1
40
1
40
1
40
1
41
1
41
1
41
1
41
1
10
-19.431794000972641
20
-4.2164300535589474
30
0
10
-19.673044206976034
20
-4.1039332349680979
30
0
10
-19.797591116496083
20
-3.9249999963664783
30
0
10
-19.819753111757507
20
-3.6560899300666518
30
0
0
SPLINE
5
593
100
AcDbEntity
8
0
100
AcDbSpline
70
4
71
3
72
8
73
4
74
0
42
0.000000001
43
0.0000000001
44
0.0000000001
40
0
40
0
40
0
40
0
40
1
40
1
40
1
40
1
41
1
41
1
41
1
41
1
10
-19.819753111757507
20
-3.6560899300666518
30
0
10
-19.841603976515177
20
-3.3985673705725206
30
0
10
-19.76719307962265
20
-3.1606369531178813
30
0
10
-19.604361007550736
20
-2.968153915893363
30
0
0
SPLINE
5
594
100
AcDbEntity
8
0
100
AcDbSpline
70
4
71
3
72
8
73
4
74
0
42
0.000000001
43
0.0000000001
44
0.0000000001
40
0
40
0
40
0
40
0
40
1
40
1
40
1
40
1
41
1
41
1
41
1
41
1
10
-19.604361007550736
20
-2.968153915893363
30
0
10
-19.48898623180007
20
-2.8322381478426606
30
0
10
-19.429674732917487
20
-2.7924410083736304
30
0
10
-19.222182512492328
20
-2.7121280375270573
30
0
0
LINE
5
595
100
AcDbEntity
8
0
100
AcDbLine
10
-19.222182512492331
20
-2.7121280375270573
30
0
11
-19.099240984224547
21
-2.6654641891743753
31
0
0
LINE
5
596
100
AcDbEntity
8
0
100
AcDbLine
10
-19.099240984224547
20
-2.6654641891743753
30
0
11
-18.975030069574988
21
-2.7486801445073916
31
0
0
SPLINE
5
597
100
AcDbEntity
8
0
100
AcDbSpline
70
4
71
3
72
8
73
4
74
0
42
0.000000001
43
0.0000000001
44
0.0000000001
40
0
40
0
40
0
40
0
40
1
40
1
40
1
40
1
41
1
41
1
41
1
41
1
10
-18.975030069574988
20
-2.7486801445073916
30
0
10
-18.811955406967687
20
-2.8570450783058958
30
0
10
-18.547852404726953
20
-2.9717665125906469
30
0
10
-18.365562081026514
20
-3.0118001894632878
30
0
0
LINE
5
598
100
AcDbEntity
8
0
100
AcDbLine
10
-18.365562081026514
20
-3.0118001894632873
30
0
11
-18.240598204484261
21
-3.0391551353476429
31
0
0
LINE
5
599
100
AcDbEntity
8
0
100
AcDbLine
10
-18.240598204484261
20
-3.0391551353476429
30
0
11
-18.180166668380107
21
-3.1446264902771781
31
0
0
SPLINE
5
600
100
AcDbEntity
8
0
100
AcDbSpline
70
4
71
3
72
8
73
4
74
0
42
0.000000001
43
0.0000000001
44
0.0000000001
40
0
40
0
40
0
40
0
40
1
40
1
40
1
40
1
41
1
41
1
41
1
41
1
10
-18.180166668380107
20
-3.1446264902771781
30
0
10
-18.090482322910624
20
-3.2988712300772698
30
0
10
-18.017359623634817
20
-3.3891810260800743
30
0
10
-17.981504533722056
20
-3.3876315896529321
30
0
0
SPLINE
5
601
100
AcDbEntity
8
0
100
AcDbSpline
70
4
71
3
72
8
73
4
74
0
42
0.000000001
43
0.0000000001
44
0.0000000001
40
0
40
0
40
0
40
0
40
1
40
1
40
1
40
1
41
1
41
1
41
1
41
1
10
-17.981504533722056
20
-3.3876315896529321
30
0
10
-17.943956874313638
20
-3.3854661083099393
30
0
10
-17.939190296330402
20
-3.3722304667566951
30
0
10
-17.934837495843588
20
-3.2604306652334234
30
0
0
SPLINE
5
602
100
AcDbEntity
8
0
100
AcDbSpline
70
4
71
3
72
8
73
4
74
0
42
0.000000001
43
0.0000000001
44
0.0000000001
40
0
40
0
40
0
40
0
40
1
40
1
40
1
40
1
41
1
41
1
41
1
41
1
10
-17.934837495843588
20
-3.2604306652334234
30
0
10
-17.932852444119199
20
-3.2079547947760889
30
0
10
-17.922715675420243
20
-3.1410111929338136
30
0
10
-17.912105994873954
20
-3.1122312954158038
30
0
0
LINE
5
603
100
AcDbEntity
8
0
100
AcDbLine
10
-17.912105994873954
20
-3.1122312954158042
30
0
11
-17.891347113445349
21
-3.0586726842869791
31
0
0
LINE
5
604
100
AcDbEntity
8
0
100
AcDbLine
10
-17.891347113445349
20
-3.0586726842869791
30
0
11
-17.743698438101003
21
-3.0403936042309239
31
0
0
SPLINE
5
605
100
AcDbEntity
8
0
100
AcDbSpline
70
4
71
3
72
8
73
4
74
0
42
0.000000001
43
0.0000000001
44
0.0000000001
40
0
40
0
40
0
40
0
40
1
40
1
40
1
40
1
41
1
41
1
41
1
41
1
10
-17.743698438101003
20
-3.0403936042309239
30
0
10
-17.421702672519672
20
-3.000826786073826
30
0
10
-17.081819766577876
20
-2.8234493629509312
30
0
10
-16.888067180011689
20
-2.5947938892182192
30
0
0
SPLINE
5
606
100
AcDbEntity
8
0
100
AcDbSpline
70
4
71
3
72
8
73
4
74
0
42
0.000000001
43
0.0000000001
44
0.0000000001
40
0
40
0
40
0
40
0
40
1
40
1
40
1
40
1
41
1
41
1
41
1
41
1
10
-16.888067180011689
20
-2.5947938892182192
30
0
10
-16.865992210033763
20
-2.5685497378978712
30
0
10
-16.851452912114564
20
-2.5584658874581314
30
0
10
-16.857373797303556
20
-2.5711632667214701
30
0
0
SPLINE
5
607
100
AcDbEntity
8
0
100
AcDbSpline
70
4
71
3
72
8
73
4
74
0
42
0.000000001
43
0.0000000001
44
0.0000000001
40
0
40
0
40
0
40
0
40
1
40
1
40
1
40
1
41
1
41
1
41
1
41
1
10
-16.857373797303556
20
-2.5711632667214701
30
0
10
-16.899585387702551
20
-2.6737410427820349
30
0
10
-16.934031147690796
20
-3.0188416007535639
30
0
10
-16.920817343938378
20
-3.2105032990769109
30
0
0
LINE
5
608
100
AcDbEntity
8
0
100
AcDbLine
10
-16.920817343938378
20
-3.2105032990769109
30
0
11
-16.913782637619502
21
-3.321991970096418
31
0
0
LINE
5
609
100
AcDbEntity
8
0
100
AcDbLine
10
-16.913782637619502
20
-3.321991970096418
30
0
11
-16.961796844505681
21
-3.3164662141288139
31
0
0
SPLINE
5
610
100
AcDbEntity
8
0
100
AcDbSpline
70
4
71
3
72
8
73
4
74
0
42
0.000000001
43
0.0000000001
44
0.0000000001
40
0
40
0
40
0
40
0
40
1
40
1
40
1
40
1
41
1
41
1
41
1
41
1
10
-16.961796844505681
20
-3.3164662141288139
30
0
10
-17.25511535956166
20
-3.2794660596678651
30
0
10
-17.598013139640123
20
-3.4090626237824027
30
0
10
-17.772304285051991
20
-3.6200923589249805
30
0
0
SPLINE
5
611
100
AcDbEntity
8
0
100
AcDbSpline
70
4
71
3
72
8
73
4
74
0
42
0.000000001
43
0.0000000001
44
0.0000000001
40
0
40
0
40
0
40
0
40
1
40
1
40
1
40
1
41
1
41
1
41
1
41
1
10
-17.772304285051991
20
-3.6200923589249805
30
0
10
-17.830760175049221
20
-3.6912051421096801
30
0
10
-17.91396369819887
20
-3.857580944990695
30
0
10
-17.935942237275821
20
-3.9499193053596411
30
0
0
SPLINE
5
612
100
AcDbEntity
8
0
100
AcDbSpline
70
4
71
3
72
8
73
4
74
0
42
0.000000001
43
0.0000000001
44
0.0000000001
40
0
40
0
40
0
40
0
40
1
40
1
40
1
40
1
41
1
41
1
41
1
41
1
10
-17.935942237275821
20
-3.9499193053596411
30
0
10
-18.029699496146648
20
-4.3348170028002047
30
0
10
-17.851609597206924
20
-4.7424866872862648
30
0
10
-17.522632043565935
20
-4.8958914399101534
30
0
0
SPLINE
5
613
100
AcDbEntity
8
0
100
AcDbSpline
70
4
71
3
72
8
73
4
74
0
42
0.000000001
43
0.0000000001
44
0.0000000001
40
0
40
0
40
0
40
0
40
1
40
1
40
1
40
1
41
1
41
1
41
1
41
1
10
-17.522632043565935
20
-4.8958914399101534
30
0
10
-17.371417799611656
20
-4.9664037998881518
30
0
10
-17.186293031393149
20
-4.964194805903408
30
0
10
-17.040738270857528
20
-4.8901324990246255
30
0
0
SPLINE
5
614
100
AcDbEntity
8
0
100
AcDbSpline
70
4
71
3
72
8
73
4
74
0
42
0.000000001
43
0.0000000001
44
0.0000000001
40
0
40
0
40
0
40
0
40
1
40
1
40
1
40
1
41
1
41
1
41
1
41
1
10
-17.040738270857528
20
-4.8901324990246255
30
0
10
-16.902492050594489
20
-4.8196886790150009
30
0
10
-16.778803776525681
20
-4.6960813770979293
30
0
10
-16.718518400055938
20
-4.5667989700530516
30
0
0
SPLINE
5
615
100
AcDbEntity
8
0
100
AcDbSpline
70
4
71
3
72
8
73
4
74
0
42
0.000000001
43
0.0000000001
44
0.0000000001
40
0
40
0
40
0
40
0
40
1
40
1
40
1
40
1
41
1
41
1
41
1
41
1
10
-16.718518400055938
20
-4.5667989700530516
30
0
10
-16.541968368965993
20
-4.1881862065644722
30
0
10
-16.918340895051525
20
-3.7808058147813499
30
0
10
-17.272224836622616
20
-3.9671127811382201
30
0
0
SPLINE
5
616
100
AcDbEntity
8
0
100
AcDbSpline
70
4
71
3
72
8
73
4
74
0
42
0.000000001
43
0.0000000001
44
0.0000000001
40
0
40
0
40
0
40
0
40
1
40
1
40
1
40
1
41
1
41
1
41
1
41
1
10
-17.272224836622616
20
-3.9671127811382201
30
0
10
-17.337923916449839
20
-4.0025260396620457
30
0
10
-17.355154525818584
20
-4.0183814261305679
30
0
10
-17.384992299641368
20
-4.0733276923429793
30
0
0
SPLINE
5
617
100
AcDbEntity
8
0
100
AcDbSpline
70
4
71
3
72
8
73
4
74
0
42
0.000000001
43
0.0000000001
44
0.0000000001
40
0
40
0
40
0
40
0
40
1
40
1
40
1
40
1
41
1
41
1
41
1
41
1
10
-17.384992299641368
20
-4.0733276923429793
30
0
10
-17.430056982833463
20
-4.154900806913763
30
0
10
-17.448488601575516
20
-4.2727832749695862
30
0
10
-17.41693960998203
20
-4.2804682961885092
30
0
0
SPLINE
5
618
100
AcDbEntity
8
0
100
AcDbSpline
70
4
71
3
72
8
73
4
74
0
42
0.000000001
43
0.0000000001
44
0.0000000001
40
0
40
0
40
0
40
0
40
1
40
1
40
1
40
1
41
1
41
1
41
1
41
1
10
-17.41693960998203
20
-4.2804682961885092
30
0
10
-17.401473136643215
20
-4.2834645220501324
30
0
10
-17.392011547211006
20
-4.2752288063579469
30
0
10
-17.383016653534444
20
-4.2499118304572141
30
0
0
SPLINE
5
619
100
AcDbEntity
8
0
100
AcDbSpline
70
4
71
3
72
8
73
4
74
0
42
0.000000001
43
0.0000000001
44
0.0000000001
40
0
40
0
40
0
40
0
40
1
40
1
40
1
40
1
41
1
41
1
41
1
41
1
10
-17.383016653534444
20
-4.2499118304572141
30
0
10
-17.327510287231295
20
-4.091700176734129
30
0
10
-17.288204707884628
20
-4.0496006389452548
30
0
10
-17.185872711885239
20
-4.0411067110085268
30
0
0
SPLINE
5
620
100
AcDbEntity
8
0
100
AcDbSpline
70
4
71
3
72
8
73
4
74
0
42
0.000000001
43
0.0000000001
44
0.0000000001
40
0
40
0
40
0
40
0
40
1
40
1
40
1
40
1
41
1
41
1
41
1
41
1
10
-17.185872711885239
20
-4.0411067110085268
30
0
10
-17.064228623891744
20
-4.0303757351945428
30
0
10
-16.946171942308993
20
-4.1177484396866202
30
0
10
-16.908509203724552
20
-4.2449244997394162
30
0
0
SPLINE
5
621
100
AcDbEntity
8
0
100
AcDbSpline
70
4
71
3
72
8
73
4
74
0
42
0.000000001
43
0.0000000001
44
0.0000000001
40
0
40
0
40
0
40
0
40
1
40
1
40
1
40
1
41
1
41
1
41
1
41
1
10
-16.908509203724552
20
-4.2449244997394162
30
0
10
-16.85628851894587
20
-4.425264041699652
30
0
10
-17.034425283013046
20
-4.6415270505811179
30
0
10
-17.241631237301153
20
-4.6488977517704813
30
0
0
SPLINE
5
622
100
AcDbEntity
8
0
100
AcDbSpline
70
4
71
3
72
8
73
4
74
0
42
0.000000001
43
0.0000000001
44
0.0000000001
40
0
40
0
40
0
40
0
40
1
40
1
40
1
40
1
41
1
41
1
41
1
41
1
10
-17.241631237301153
20
-4.6488977517704813
30
0
10
-17.352043383740845
20
-4.6536238436778499
30
0
10
-17.503419409038685
20
-4.5563352861812749
30
0
10
-17.569395349385484
20
-4.4356308057907423
30
0
0
SPLINE
5
623
100
AcDbEntity
8
0
100
AcDbSpline
70
4
71
3
72
8
73
4
74
0
42
0.000000001
43
0.0000000001
44
0.0000000001
40
0
40
0
40
0
40
0
40
1
40
1
40
1
40
1
41
1
41
1
41
1
41
1
10
-17.569395349385484
20
-4.4356308057907423
30
0
10
-17.61011966427413
20
-4.3632392306068013
30
0
10
-17.620993773156634
20
-4.2780662774418996
30
0
10
-17.601330064582882
20
-4.1635689483774074
30
0
0
SPLINE
5
624
100
AcDbEntity
8
0
100
AcDbSpline
70
4
71
3
72
8
73
4
74
0
42
0.000000001
43
0.0000000001
44
0.0000000001
40
0
40
0
40
0
40
0
40
1
40
1
40
1
40
1
41
1
41
1
41
1
41
1
10
-17.601330064582882
20
-4.1635689483774074
30
0
10
-17.561081688107453
20
-3.9265719224340585
30
0
10
-17.422860332211123
20
-3.7717983259615271
30
0
10
-17.224817269034812
20
-3.7418859590385893
30
0
0
SPLINE
5
625
100
AcDbEntity
8
0
100
AcDbSpline
70
4
71
3
72
8
73
4
74
0
42
0.000000001
43
0.0000000001
44
0.0000000001
40
0
40
0
40
0
40
0
40
1
40
1
40
1
40
1
41
1
41
1
41
1
41
1
10
-17.224817269034812
20
-3.7418859590385893
30
0
10
-17.126642022194492
20
-3.7272377980350484
30
0
10
-16.942043084082535
20
-3.7683479994875126
30
0
10
-16.841229444051891
20
-3.8294112022166678
30
0
0
SPLINE
5
626
100
AcDbEntity
8
0
100
AcDbSpline
70
4
71
3
72
8
73
4
74
0
42
0.000000001
43
0.0000000001
44
0.0000000001
40
0
40
0
40
0
40
0
40
1
40
1
40
1
40
1
41
1
41
1
41
1
41
1
10
-16.841229444051891
20
-3.8294112022166678
30
0
10
-16.769429049417084
20
-3.8713240942952529
30
0
10
-16.761193333724897
20
-3.8807856837274604
30
0
10
-16.715307311631626
20
-3.9752584449810073
30
0
0
SPLINE
5
627
100
AcDbEntity
8
0
100
AcDbSpline
70
4
71
3
72
8
73
4
74
0
42
0.000000001
43
0.0000000001
44
0.0000000001
40
0
40
0
40
0
40
0
40
1
40
1
40
1
40
1
41
1
41
1
41
1
41
1
10
-16.715307311631626
20
-3.9752584449810073
30
0
10
-16.551859357603767
20
-4.3058353267424767
30
0
10
-16.307939677951669
20
-4.5994557296446539
30
0
10
-15.999559224395716
20
-4.8331952909159508
30
0
0
SPLINE
5
628
100
AcDbEntity
8
0
100
AcDbSpline
70
4
71
3
72
8
73
4
74
0
42
0.000000001
43
0.0000000001
44
0.0000000001
40
0
40
0
40
0
40
0
40
1
40
1
40
1
40
1
41
1
41
1
41
1
41
1
10
-15.999559224395716
20
-4.8331952909159508
30
0
10
-15.907591128881441
20
-4.9041867788329503
30
0
10
-15.856107784286301
20
-4.9324097657860131
30
0
10
-15.660413821597377
20
-5.0250686622761966
30
0
0
SPLINE
5
629
100
AcDbEntity
8
0
100
AcDbSpline
70
4
71
3
72
8
73
4
74
0
42
0.000000001
43
0.0000000001
44
0.0000000001
40
0
40
0
40
0
40
0
40
1
40
1
40
1
40
1
41
1
41
1
41
1
41
1
10
-15.660413821597377
20
-5.0250686622761966
30
0
10
-15.459564367795505
20
-5.1187263007202555
30
0
10
-15.411777292695465
20
-5.1367938706993153
30
0
10
-15.29712439837909
20
-5.162151332675915
30
0
0
SPLINE
5
630
100
AcDbEntity
8
0
100
AcDbSpline
70
4
71
3
72
8
73
4
74
0
42
0.000000001
43
0.0000000001
44
0.0000000001
40
0
40
0
40
0
40
0
40
1
40
1
40
1
40
1
41
1
41
1
41
1
41
1
10
-15.29712439837909
20
-5.162151332675915
30
0
10
-14.618979752416815
20
-5.3111443134219884
30
0
10
-14.002203060635868
20
-5.0492785220184224
30
0
10
-13.692366249068066
20
-4.481269161976253
30
0
0
SPLINE
5
631
100
AcDbEntity
8
0
100
AcDbSpline
70
4
71
3
72
8
73
4
74
0
42
0.000000001
43
0.0000000001
44
0.0000000001
40
0
40
0
40
0
40
0
40
1
40
1
40
1
40
1
41
1
41
1
41
1
41
1
10
-13.692366249068066
20
-4.481269161976253
30
0
10
-13.636458537451855
20
-4.3794567799917399
30
0
10
-13.592560593648868
20
-4.2551805148995925
30
0
10
-13.559057630789379
20
-4.1049774450825502
30
0
0
LINE
5
632
100
AcDbEntity
8
0
100
AcDbLine
10
-13.559057630789383
20
-4.1049774450825502
30
0
11
-13.55298739644018
21
-4.0768913751063343
31
0
0
LINE
5
633
100
AcDbEntity
8
0
100
AcDbLine
10
-13.55298739644018
20
-4.0768913751063343
30
0
11
-13.461324215337994
21
-4.1575778003333719
31
0
0
SPLINE
5
634
100
AcDbEntity
8
0
100
AcDbSpline
70
4
71
3
72
8
73
4
74
0
42
0.000000001
43
0.0000000001
44
0.0000000001
40
0
40
0
40
0
40
0
40
1
40
1
40
1
40
1
41
1
41
1
41
1
41
1
10
-13.461324215337994
20
-4.1575778003333719
30
0
10
-13.388363297405741
20
-4.2211113988175963
30
0
10
-13.342573706213454
20
-4.2494899510225395
30
0
10
-13.246150163219703
20
-4.2958582905806022
30
0
0
LINE
5
635
100
AcDbEntity
8
0
100
AcDbLine
10
-13.246150163219703
20
-4.2958582905806031
30
0
11
-13.123793599409366
21
-4.3529140933108916
31
0
0
LINE
5
636
100
AcDbEntity
8
0
100
AcDbLine
10
-13.123793599409366
20
-4.3529140933108916
30
0
11
-13.164695317350725
21
-4.4617238850642131
31
0
0
SPLINE
5
637
100
AcDbEntity
8
0
100
AcDbSpline
70
4
71
3
72
8
73
4
74
0
42
0.000000001
43
0.0000000001
44
0.0000000001
40
0
40
0
40
0
40
0
40
1
40
1
40
1
40
1
41
1
41
1
41
1
41
1
10
-13.164695317350725
20
-4.4617238850642131
30
0
10
-13.325922008170386
20
-4.8798040092430224
30
0
10
-13.144636805475399
20
-5.4252780826032021
30
0
10
-12.763541214048383
20
-5.6718457240229974
30
0
0
SPLINE
5
638
100
AcDbEntity
8
0
100
AcDbSpline
70
4
71
3
72
8
73
4
74
0
42
0.000000001
43
0.0000000001
44
0.0000000001
40
0
40
0
40
0
40
0
40
1
40
1
40
1
40
1
41
1
41
1
41
1
41
1
10
-12.763541214048383
20
-5.6718457240229974
30
0
10
-12.689276639750178
20
-5.7205288940842589
30
0
10
-12.556154830141677
20
-5.7544985526993875
30
0
10
-12.438816840467439
20
-5.7530020345314661
30
0
0
SPLINE
5
639
100
AcDbEntity
8
0
100
AcDbSpline
70
4
71
3
72
8
73
4
74
0
42
0.000000001
43
0.0000000001
44
0.0000000001
40
0
40
0
40
0
40
0
40
1
40
1
40
1
40
1
41
1
41
1
41
1
41
1
10
-12.438816840467439
20
-5.7530020345314661
30
0
10
-12.30262723846305
20
-5.7532696523934765
30
0
10
-12.108520008751341
20
-5.6835787942765466
30
0
10
-12.002056127959609
20
-5.5969093229437261
30
0
0
SPLINE
5
640
100
AcDbEntity
8
0
100
AcDbSpline
70
4
71
3
72
8
73
4
74
0
42
0.000000001
43
0.0000000001
44
0.0000000001
40
0
40
0
40
0
40
0
40
1
40
1
40
1
40
1
41
1
41
1
41
1
41
1
10
-12.002056127959609
20
-5.5969093229437261
30
0
10
-11.707741897515637
20
-5.3575290894887111
30
0
10
-11.694941708299739
20
-4.9292592783517213
30
0
10
-11.976306400367612
20
-4.7249810099568617
30
0
0
SPLINE
5
641
100
AcDbEntity
8
0
100
AcDbSpline
70
4
71
3
72
8
73
4
74
0
42
0.000000001
43
0.0000000001
44
0.0000000001
40
0
40
0
40
0
40
0
40
1
40
1
40
1
40
1
41
1
41
1
41
1
41
1
10
-11.976306400367612
20
-4.7249810099568617
30
0
10
-12.124530634551942
20
-4.6179197325243182
30
0
10
-12.286264344243207
20
-4.6211990349972014
30
0
10
-12.445580576438623
20
-4.73381395932996
30
0
0
LINE
5
642
100
AcDbEntity
8
0
100
AcDbLine
10
-12.445580576438623
20
-4.73381395932996
30
0
11
-12.50035262912411
21
-4.7729172712572039
31
0
0
LINE
5
643
100
AcDbEntity
8
0
100
AcDbLine
10
-12.50035262912411
20
-4.7729172712572039
30
0
11
-12.477415834169156
21
-4.7990712077682476
31
0
0
SPLINE
5
644
100
AcDbEntity
8
0
100
AcDbSpline
70
4
71
3
72
8
73
4
74
0
42
0.000000001
43
0.0000000001
44
0.0000000001
40
0
40
0
40
0
40
0
40
1
40
1
40
1
40
1
41
1
41
1
41
1
41
1
10
-12.477415834169156
20
-4.7990712077682476
30
0
10
-12.456249391335806
20
-4.822994312493722
30
0
10
-12.45170994513872
20
-4.8223004849519295
30
0
10
-12.39247622888208
20
-4.7796564687814707
30
0
0
SPLINE
5
645
100
AcDbEntity
8
0
100
AcDbSpline
70
4
71
3
72
8
73
4
74
0
42
0.000000001
43
0.0000000001
44
0.0000000001
40
0
40
0
40
0
40
0
40
1
40
1
40
1
40
1
41
1
41
1
41
1
41
1
10
-12.39247622888208
20
-4.7796564687814707
30
0
10
-12.315318075714904
20
-4.7256965123395789
30
0
10
-12.288775226074153
20
-4.7169941008917444
30
0
10
-12.207214543686723
20
-4.7198938958523895
30
0
0
SPLINE
5
646
100
AcDbEntity
8
0
100
AcDbSpline
70
4
71
3
72
8
73
4
74
0
42
0.000000001
43
0.0000000001
44
0.0000000001
40
0
40
0
40
0
40
0
40
1
40
1
40
1
40
1
41
1
41
1
41
1
41
1
10
-12.207214543686723
20
-4.7198938958523895
30
0
10
-12.079487789160668
20
-4.7232417382936536
30
0
10
-11.937184440165327
20
-4.8430003949895344
30
0
10
-11.898134046497312
20
-4.9792553474365064
30
0
0
SPLINE
5
647
100
AcDbEntity
8
0
100
AcDbSpline
70
4
71
3
72
8
73
4
74
0
42
0.000000001
43
0.0000000001
44
0.0000000001
40
0
40
0
40
0
40
0
40
1
40
1
40
1
40
1
41
1
41
1
41
1
41
1
10
-11.898134046497312
20
-4.9792553474365064
30
0
10
-11.864783622323813
20
-5.0945834210196326
30
0
10
-11.898053237305479
20
-5.253327120940952
30
0
10
-11.978966794318659
20
-5.3575321160546014
30
0
0
SPLINE
5
648
100
AcDbEntity
8
0
100
AcDbSpline
70
4
71
3
72
8
73
4
74
0
42
0.000000001
43
0.0000000001
44
0.0000000001
40
0
40
0
40
0
40
0
40
1
40
1
40
1
40
1
41
1
41
1
41
1
41
1
10
-11.978966794318659
20
-5.3575321160546014
30
0
10
-12.055956950050595
20
-5.4593507141307933
30
0
10
-12.207283246615001
20
-5.5307217095600372
30
0
10
-12.356397359668872
20
-5.5370750205204846
30
0
0
SPLINE
5
649
100
AcDbEntity
8
0
100
AcDbSpline
70
4
71
3
72
8
73
4
74
0
42
0.000000001
43
0.0000000001
44
0.0000000001
40
0
40
0
40
0
40
0
40
1
40
1
40
1
40
1
41
1
41
1
41
1
41
1
10
-12.356397359668872
20
-5.5370750205204846
30
0
10
-12.435493862392901
20
-5.5409455035424999
30
0
10
-12.45442325734899
20
-5.5363344908111554
30
0
10
-12.547922141015377
20
-5.4927352453285749
30
0
0
SPLINE
5
650
100
AcDbEntity
8
0
100
AcDbSpline
70
4
71
3
72
8
73
4
74
0
42
0.000000001
43
0.0000000001
44
0.0000000001
40
0
40
0
40
0
40
0
40
1
40
1
40
1
40
1
41
1
41
1
41
1
41
1
10
-12.547922141015377
20
-5.4927352453285749
30
0
10
-12.685284698500562
20
-5.4286820328294745
30
0
10
-12.738855741812753
20
-5.3657582631694192
30
0
10
-12.803923155014974
20
-5.1948865267330691
30
0
0
SPLINE
5
651
100
AcDbEntity
8
0
100
AcDbSpline
70
4
71
3
72
8
73
4
74
0
42
0.000000001
43
0.0000000001
44
0.0000000001
40
0
40
0
40
0
40
0
40
1
40
1
40
1
40
1
41
1
41
1
41
1
41
1
10
-12.803923155014974
20
-5.1948865267330691
30
0
10
-12.856053624984355
20
-5.05955874970571
30
0
10
-12.874954966047937
20
-4.8891350607499673
30
0
10
-12.849753069323222
20
-4.7687884130307472
30
0
0
SPLINE
5
652
100
AcDbEntity
8
0
100
AcDbSpline
70
4
71
3
72
8
73
4
74
0
42
0.000000001
43
0.0000000001
44
0.0000000001
40
0
40
0
40
0
40
0
40
1
40
1
40
1
40
1
41
1
41
1
41
1
41
1
10
-12.849753069323222
20
-4.7687884130307472
30
0
10
-12.790976643204759
20
-4.4800031280801749
30
0
10
-12.460950455916562
20
-4.275544593026618
30
0
10
-12.10338586655952
20
-4.3073706080995899
30
0
0
LINE
5
653
100
AcDbEntity
8
0
100
AcDbLine
10
-12.10338586655952
20
-4.3073706080995899
30
0
11
-11.98858362308294
21
-4.3173393793633084
31
0
0
LINE
5
654
100
AcDbEntity
8
0
100
AcDbLine
10
-11.98858362308294
20
-4.3173393793633084
30
0
11
-11.853965295306523
21
-4.4686470276526773
31
0
0
SPLINE
5
655
100
AcDbEntity
8
0
100
AcDbSpline
70
4
71
3
72
8
73
4
74
0
42
0.000000001
43
0.0000000001
44
0.0000000001
40
0
40
0
40
0
40
0
40
1
40
1
40
1
40
1
41
1
41
1
41
1
41
1
10
-11.853965295306523
20
-4.4686470276526773
30
0
10
-11.759909501075192
20
-4.5743392982766782
30
0
10
-11.672785766170085
20
-4.6557195510455029
30
0
10
-11.565578329103126
20
-4.7422490788355898
30
0
0
LINE
5
656
100
AcDbEntity
8
0
100
AcDbLine
10
-11.565578329103126
20
-4.7422490788355898
30
0
11
-11.410655383470392
21
-4.8650817440190348
31
0
0
LINE
5
657
100
AcDbEntity
8
0
100
AcDbLine
10
-11.410655383470392
20
-4.8650817440190348
30
0
11
-11.407777426310576
21
-4.9704161819717259
31
0
0
SPLINE
5
658
100
AcDbEntity
8
0
100
AcDbSpline
70
4
71
3
72
8
73
4
74
0
42
0.000000001
43
0.0000000001
44
0.0000000001
40
0
40
0
40
0
40
0
40
1
40
1
40
1
40
1
41
1
41
1
41
1
41
1
10
-11.407777426310576
20
-4.9704161819717259
30
0
10
-11.406760036081659
20
-5.0285080232059665
30
0
10
-11.395497014069454
20
-5.1279153598779894
30
0
10
-11.381860027203144
20
-5.1890812095997996
30
0
0
SPLINE
5
659
100
AcDbEntity
8
0
100
AcDbSpline
70
4
71
3
72
8
73
4
74
0
42
0.000000001
43
0.0000000001
44
0.0000000001
40
0
40
0
40
0
40
0
40
1
40
1
40
1
40
1
41
1
41
1
41
1
41
1
10
-11.381860027203144
20
-5.1890812095997996
30
0
10
-11.358742802629589
20
-5.3052586759765985
30
0
10
-11.276731046195666
20
-5.5332172956016317
30
0
10
-11.23677834147475
20
-5.59822254788706
30
0
0
SPLINE
5
660
100
AcDbEntity
8
0
100
AcDbSpline
70
4
71
3
72
8
73
4
74
0
42
0.000000001
43
0.0000000001
44
0.0000000001
40
0
40
0
40
0
40
0
40
1
40
1
40
1
40
1
41
1
41
1
41
1
41
1
10
-11.23677834147475
20
-5.59822254788706
30
0
10
-11.214762505847734
20
-5.6323788522124696
30
0
10
-11.213608198641976
20
-5.6329171145023782
30
0
10
-11.180833333308465
20
-5.6229048305969078
30
0
0
SPLINE
5
661
100
AcDbEntity
8
0
100
AcDbSpline
70
4
71
3
72
8
73
4
74
0
42
0.000000001
43
0.0000000001
44
0.0000000001
40
0
40
0
40
0
40
0
40
1
40
1
40
1
40
1
41
1
41
1
41
1
41
1
10
-11.180833333308465
20
-5.6229048305969078
30
0
10
-11.148058467974959
20
-5.6128925466914312
30
0
10
-11.142598062449935
20
-5.6041963513352799
30
0
10
-11.102234606798485
20
-5.4965408667877114
30
0
0
SPLINE
5
662
100
AcDbEntity
8
0
100
AcDbSpline
70
4
71
3
72
8
73
4
74
0
42
0.000000001
43
0.0000000001
44
0.0000000001
40
0
40
0
40
0
40
0
40
1
40
1
40
1
40
1
41
1
41
1
41
1
41
1
10
-11.102234606798485
20
-5.4965408667877114
30
0
10
-11.070327782533688
20
-5.4130480509351226
30
0
10
-11.035645648101724
20
-5.3477130198708895
30
0
10
-10.973810835204844
20
-5.2542857027387662
30
0
0
SPLINE
5
663
100
AcDbEntity
8
0
100
AcDbSpline
70
4
71
3
72
8
73
4
74
0
42
0.000000001
43
0.0000000001
44
0.0000000001
40
0
40
0
40
0
40
0
40
1
40
1
40
1
40
1
41
1
41
1
41
1
41
1
10
-10.973810835204844
20
-5.2542857027387662
30
0
10
-10.928435021508976
20
-5.1841000949736822
30
0
10
-10.887287523506439
20
-5.1259958215560815
30
0
10
-10.885056691720864
20
-5.1242254694344735
30
0
0
SPLINE
5
664
100
AcDbEntity
8
0
100
AcDbSpline
70
4
71
3
72
8
73
4
74
0
42
0.000000001
43
0.0000000001
44
0.0000000001
40
0
40
0
40
0
40
0
40
1
40
1
40
1
40
1
41
1
41
1
41
1
41
1
10
-10.885056691720864
20
-5.1242254694344735
30
0
10
-10.88167155272953
20
-5.1229933796027742
30
0
10
-10.826653719982859
20
-5.13459558601126
30
0
10
-10.762401429590126
20
-5.1505038907390066
30
0
0
LINE
5
665
100
AcDbEntity
8
0
100
AcDbLine
10
-10.762401429590126
20
-5.1505038907390066
30
0
11
-10.645362138236287
21
-5.1797847539968442
31
0
0
LINE
5
666
100
AcDbEntity
8
0
100
AcDbLine
10
-10.645362138236287
20
-5.1797847539968442
30
0
11
-10.573589797493987
21
-5.3875103222998248
31
0
0
SPLINE
5
667
100
AcDbEntity
8
0
100
AcDbSpline
70
4
71
3
72
8
73
4
74
0
42
0.000000001
43
0.0000000001
44
0.0000000001
40
0
40
0
40
0
40
0
40
1
40
1
40
1
40
1
41
1
41
1
41
1
41
1
10
-10.573589797493987
20
-5.3875103222998248
30
0
10
-10.494502700387432
20
-5.6126998478493757
30
0
10
-10.438688393106311
20
-5.7160181536192773
30
0
10
-10.324620463247394
20
-5.845095266678844
30
0
0
SPLINE
5
668
100
AcDbEntity
8
0
100
AcDbSpline
70
4
71
3
72
8
73
4
74
0
42
0.000000001
43
0.0000000001
44
0.0000000001
40
0
40
0
40
0
40
0
40
1
40
1
40
1
40
1
41
1
41
1
41
1
41
1
10
-10.324620463247394
20
-5.845095266678844
30
0
10
-10.165294988394409
20
-6.0247876832648348
30
0
10
-9.9213472548497972
20
-6.1525954099426228
30
0
10
-9.7401458879125329
20
-6.1527728129953347
30
0
0
SPLINE
5
669
100
AcDbEntity
8
0
100
AcDbSpline
70
4
71
3
72
8
73
4
74
0
42
0.000000001
43
0.0000000001
44
0.0000000001
40
0
40
0
40
0
40
0
40
1
40
1
40
1
40
1
41
1
41
1
41
1
41
1
10
-9.7401458879125329
20
-6.1527728129953347
30
0
10
-9.5207808166509942
20
-6.1524773042007173
30
0
10
-9.339766095424002
20
-6.0415487332719522
30
0
10
-9.2525676044588465
20
-5.8545509659391781
30
0
0
SPLINE
5
670
100
AcDbEntity
8
0
100
AcDbSpline
70
4
71
3
72
8
73
4
74
0
42
0.000000001
43
0.0000000001
44
0.0000000001
40
0
40
0
40
0
40
0
40
1
40
1
40
1
40
1
41
1
41
1
41
1
41
1
10
-9.2525676044588465
20
-5.8545509659391781
30
0
10
-9.1755960970019412
20
-5.6894850355158013
30
0
10
-9.1874938122050409
20
-5.5251377970009354
30
0
10
-9.2879496195643672
20
-5.3728967572002713
30
0
0
SPLINE
5
671
100
AcDbEntity
8
0
100
AcDbSpline
70
4
71
3
72
8
73
4
74
0
42
0.000000001
43
0.0000000001
44
0.0000000001
40
0
40
0
40
0
40
0
40
1
40
1
40
1
40
1
41
1
41
1
41
1
41
1
10
-9.2879496195643672
20
-5.3728967572002713
30
0
10
-9.3640031942592259
20
-5.2587354230062617
30
0
10
-9.5316888695978808
20
-5.1692998841638476
30
0
10
-9.6481774664784439
20
-5.1810296019317059
30
0
0
SPLINE
5
672
100
AcDbEntity
8
0
100
AcDbSpline
70
4
71
3
72
8
73
4
74
0
42
0.000000001
43
0.0000000001
44
0.0000000001
40
0
40
0
40
0
40
0
40
1
40
1
40
1
40
1
41
1
41
1
41
1
41
1
10
-9.6481774664784439
20
-5.1810296019317059
30
0
10
-9.7175012492665012
20
-5.1880518760672283
30
0
10
-9.8008976342181118
20
-5.2222392608510377
30
0
10
-9.8442821800979061
20
-5.2610314422745166
30
0
0
SPLINE
5
673
100
AcDbEntity
8
0
100
AcDbSpline
70
4
71
3
72
8
73
4
74
0
42
0.000000001
43
0.0000000001
44
0.0000000001
40
0
40
0
40
0
40
0
40
1
40
1
40
1
40
1
41
1
41
1
41
1
41
1
10
-9.8442821800979061
20
-5.2610314422745166
30
0
10
-9.890435820053181
20
-5.302748283025366
30
0
10
-9.9272647875530975
20
-5.3937829870283487
30
0
10
-9.9248597422406046
20
-5.4609537206567715
30
0
0
LINE
5
674
100
AcDbEntity
8
0
100
AcDbLine
10
-9.9248597422406046
20
-5.4609537206567715
30
0
11
-9.9226880448059305
21
-5.5195838241809172
31
0
0
LINE
5
675
100
AcDbEntity
8
0
100
AcDbLine
10
-9.9226880448059305
20
-5.5195838241809172
30
0
11
-9.8888366548926054
21
-5.5072629258639303
31
0
0
SPLINE
5
676
100
AcDbEntity
8
0
100
AcDbSpline
70
4
71
3
72
8
73
4
74
0
42
0.000000001
43
0.0000000001
44
0.0000000001
40
0
40
0
40
0
40
0
40
1
40
1
40
1
40
1
41
1
41
1
41
1
41
1
10
-9.8888366548926054
20
-5.5072629258639303
30
0
10
-9.8561395721850413
20
-5.4944037652570339
30
0
10
-9.8550630476052223
20
-5.4920951508455191
30
0
10
-9.8568458319101886
20
-5.4476994308284841
30
0
0
SPLINE
5
677
100
AcDbEntity
8
0
100
AcDbSpline
70
4
71
3
72
8
73
4
74
0
42
0.000000001
43
0.0000000001
44
0.0000000001
40
0
40
0
40
0
40
0
40
1
40
1
40
1
40
1
41
1
41
1
41
1
41
1
10
-9.8568458319101886
20
-5.4476994308284841
30
0
10
-9.8610336615276477
20
-5.3361329771830395
30
0
10
-9.7413341391826727
20
-5.2542300838334564
30
0
10
-9.6056765833765088
20
-5.2767344530169531
30
0
0
SPLINE
5
678
100
AcDbEntity
8
0
100
AcDbSpline
70
4
71
3
72
8
73
4
74
0
42
0.000000001
43
0.0000000001
44
0.0000000001
40
0
40
0
40
0
40
0
40
1
40
1
40
1
40
1
41
1
41
1
41
1
41
1
10
-9.6056765833765088
20
-5.2767344530169531
30
0
10
-9.5575845938643837
20
-5.285107085685981
30
0
10
-9.4591511347795265
20
-5.3633293312496164
30
0
10
-9.4186601677686976
20
-5.42718027632929
30
0
0
SPLINE
5
679
100
AcDbEntity
8
0
100
AcDbSpline
70
4
71
3
72
8
73
4
74
0
42
0.000000001
43
0.0000000001
44
0.0000000001
40
0
40
0
40
0
40
0
40
1
40
1
40
1
40
1
41
1
41
1
41
1
41
1
10
-9.4186601677686976
20
-5.42718027632929
30
0
10
-9.3733964066829607
20
-5.4988780239714385
30
0
10
-9.3639037367923592
20
-5.5960545288578878
30
0
10
-9.3949611682634835
20
-5.689780544310417
30
0
0
SPLINE
5
680
100
AcDbEntity
8
0
100
AcDbSpline
70
4
71
3
72
8
73
4
74
0
42
0.000000001
43
0.0000000001
44
0.0000000001
40
0
40
0
40
0
40
0
40
1
40
1
40
1
40
1
41
1
41
1
41
1
41
1
10
-9.3949611682634835
20
-5.689780544310417
30
0
10
-9.4111806034949979
20
-5.7426453278974536
30
0
10
-9.4264852954902558
20
-5.7664252995544052
30
0
10
-9.4714846282397769
20
-5.8086804025951553
30
0
0
SPLINE
5
681
100
AcDbEntity
8
0
100
AcDbSpline
70
4
71
3
72
8
73
4
74
0
42
0.000000001
43
0.0000000001
44
0.0000000001
40
0
40
0
40
0
40
0
40
1
40
1
40
1
40
1
41
1
41
1
41
1
41
1
10
-9.4714846282397769
20
-5.8086804025951553
30
0
10
-9.5770213336118974
20
-5.9084299502293378
30
0
10
-9.684735952510362
20
-5.9284669502236449
30
0
10
-9.8434080858974191
20
-5.8769617678276793
30
0
0
SPLINE
5
682
100
AcDbEntity
8
0
100
AcDbSpline
70
4
71
3
72
8
73
4
74
0
42
0.000000001
43
0.0000000001
44
0.0000000001
40
0
40
0
40
0
40
0
40
1
40
1
40
1
40
1
41
1
41
1
41
1
41
1
10
-9.8434080858974191
20
-5.8769617678276793
30
0
10
-9.9802261650010191
20
-5.8328366922385486
30
0
10
-10.081668282130863
20
-5.7279160317822804
30
0
10
-10.153583755941691
20
-5.5566615983079037
30
0
0
SPLINE
5
683
100
AcDbEntity
8
0
100
AcDbSpline
70
4
71
3
72
8
73
4
74
0
42
0.000000001
43
0.0000000001
44
0.0000000001
40
0
40
0
40
0
40
0
40
1
40
1
40
1
40
1
41
1
41
1
41
1
41
1
10
-10.153583755941691
20
-5.5566615983079037
30
0
10
-10.185229178436156
20
-5.4828823680403795
30
0
10
-10.252091808126702
20
-5.2254500233555481
30
0
10
-10.245094398357891
20
-5.2104440296806942
30
0
0
SPLINE
5
684
100
AcDbEntity
8
0
100
AcDbSpline
70
4
71
3
72
8
73
4
74
0
42
0.000000001
43
0.0000000001
44
0.0000000001
40
0
40
0
40
0
40
0
40
1
40
1
40
1
40
1
41
1
41
1
41
1
41
1
10
-10.245094398357891
20
-5.2104440296806942
30
0
10
-10.242403086908352
20
-5.2046724936519082
30
0
10
-10.176697790989452
20
-5.1903416792438062
30
0
10
-10.100681512844675
20
-5.1780083487434609
30
0
0
SPLINE
5
685
100
AcDbEntity
8
0
100
AcDbSpline
70
4
71
3
72
8
73
4
74
0
42
0.000000001
43
0.0000000001
44
0.0000000001
40
0
40
0
40
0
40
0
40
1
40
1
40
1
40
1
41
1
41
1
41
1
41
1
10
-10.100681512844675
20
-5.1780083487434609
30
0
10
-9.8181593240452596
20
-5.1326824267409288
30
0
10
-9.5205906554951181
20
-4.9707061265142718
30
0
10
-9.3314490816602813
20
-4.7609800477376556
30
0
0
SPLINE
5
686
100
AcDbEntity
8
0
100
AcDbSpline
70
4
71
3
72
8
73
4
74
0
42
0.000000001
43
0.0000000001
44
0.0000000001
40
0
40
0
40
0
40
0
40
1
40
1
40
1
40
1
41
1
41
1
41
1
41
1
10
-9.3314490816602813
20
-4.7609800477376556
30
0
10
-9.2816831709275256
20
-4.7054893031436533
30
0
10
-9.2339925267284642
20
-4.657462664074111
30
0
10
-9.227222248745802
20
-4.6549984844107186
30
0
0
SPLINE
5
687
100
AcDbEntity
8
0
100
AcDbSpline
70
4
71
3
72
8
73
4
74
0
42
0.000000001
43
0.0000000001
44
0.0000000001
40
0
40
0
40
0
40
0
40
1
40
1
40
1
40
1
41
1
41
1
41
1
41
1
10
-9.227222248745802
20
-4.6549984844107186
30
0
10
-9.2204519707631363
20
-4.6525343047473227
30
0
10
-9.0116841478645213
20
-4.7231835817021572
30
0
10
-8.7613612655586355
20
-4.8132103010937044
30
0
0
LINE
5
688
100
AcDbEntity
8
0
100
AcDbLine
10
-8.7613612655586337
20
-4.8132103010937044
30
0
11
-8.3073482688411318
21
-4.9757344321876431
31
0
0
LINE
5
689
100
AcDbEntity
8
0
100
AcDbLine
10
-8.3073482688411318
20
-4.9757344321876431
30
0
11
-8.1423290405852971
21
-5.1552712835217527
31
0
0
LINE
5
690
100
AcDbEntity
8
0
100
AcDbLine
10
-8.1423290405852971
20
-5.1552712835217527
30
0
11
-7.9756172428338026
21
-5.3341920899400073
31
0
0
LINE
5
691
100
AcDbEntity
8
0
100
AcDbLine
10
-7.9756172428338026
20
-5.3341920899400073
30
0
11
-8.2876163462188028
21
-5.6145113378864604
31
0
0
SPLINE
5
692
100
AcDbEntity
8
0
100
AcDbSpline
70
4
71
3
72
8
73
4
74
0
42
0.000000001
43
0.0000000001
44
0.0000000001
40
0
40
0
40
0
40
0
40
1
40
1
40
1
40
1
41
1
41
1
41
1
41
1
10
-8.2876163462188028
20
-5.6145113378864604
30
0
10
-8.4594619602423169
20
-5.769064018664527
30
0
10
-8.5983833597721091
20
-5.8982157248242419
30
0
10
-8.5971512699404133
20
-5.9016008638155721
30
0
0
SPLINE
5
693
100
AcDbEntity
8
0
100
AcDbSpline
70
4
71
3
72
8
73
4
74
0
42
0.000000001
43
0.0000000001
44
0.0000000001
40
0
40
0
40
0
40
0
40
1
40
1
40
1
40
1
41
1
41
1
41
1
41
1
10
-8.5971512699404133
20
-5.9016008638155721
30
0
10
-8.5970734873144714
20
-5.9044477405169955
30
0
10
-8.4087907118907772
20
-5.9135484707120041
30
0
10
-8.1806516626471417
20
-5.9215602441438389
30
0
0
SPLINE
5
694
100
AcDbEntity
8
0
100
AcDbSpline
70
4
71
3
72
8
73
4
74
0
42
0.000000001
43
0.0000000001
44
0.0000000001
40
0
40
0
40
0
40
0
40
1
40
1
40
1
40
1
41
1
41
1
41
1
41
1
10
-8.1806516626471417
20
-5.9215602441438389
30
0
10
-7.9519743511136003
20
-5.9284177103699136
30
0
10
-7.7636137930639606
20
-5.94036531726635
30
0
10
-7.7606113511106551
20
-5.9459812880432548
30
0
0
SPLINE
5
695
100
AcDbEntity
8
0
100
AcDbSpline
70
4
71
3
72
8
73
4
74
0
42
0.000000001
43
0.0000000001
44
0.0000000001
40
0
40
0
40
0
40
0
40
1
40
1
40
1
40
1
41
1
41
1
41
1
41
1
10
-7.7606113511106551
20
-5.9459812880432548
30
0
10
-7.7587632163631062
20
-5.9510589965302536
30
0
10
-7.7662491596883907
20
-6.1358788503366757
30
0
10
-7.7779572026153234
20
-6.3538624826063126
30
0
0
SPLINE
5
696
100
AcDbEntity
8
0
100
AcDbSpline
70
4
71
3
72
8
73
4
74
0
42
0.000000001
43
0.0000000001
44
0.0000000001
40
0
40
0
40
0
40
0
40
1
40
1
40
1
40
1
41
1
41
1
41
1
41
1
10
-7.7779572026153234
20
-6.3538624826063126
30
0
10
-7.7890492006264012
20
-6.5735386843716155
30
0
10
-7.798765975737262
20
-6.760128890299649
30
0
10
-7.7979165829435884
20
-6.770362089899586
30
0
0
SPLINE
5
697
100
AcDbEntity
8
0
100
AcDbSpline
70
4
71
3
72
8
73
4
74
0
42
0.000000001
43
0.0000000001
44
0.0000000001
40
0
40
0
40
0
40
0
40
1
40
1
40
1
40
1
41
1
41
1
41
1
41
1
10
-7.7979165829435884
20
-6.770362089899586
30
0
10
-7.796451145234065
20
-6.7822878589951872
30
0
10
-7.673988744905281
20
-6.6763778622025125
30
0
10
-7.4895297503360627
20
-6.5038167457962892
30
0
0
SPLINE
5
698
100
AcDbEntity
8
0
100
AcDbSpline
70
4
71
3
72
8
73
4
74
0
42
0.000000001
43
0.0000000001
44
0.0000000001
40
0
40
0
40
0
40
0
40
1
40
1
40
1
40
1
41
1
41
1
41
1
41
1
10
-7.4895297503360627
20
-6.5038167457962892
30
0
10
-7.3212248405557672
20
-6.3448024014470725
30
0
10
-7.1794565643245436
20
-6.2155729126614148
30
0
10
-7.1737628109216951
20
-6.2154173474095344
30
0
0
SPLINE
5
699
100
AcDbEntity
8
0
100
AcDbSpline
70
4
71
3
72
8
73
4
74
0
42
0.000000001
43
0.0000000001
44
0.0000000001
40
0
40
0
40
0
40
0
40
1
40
1
40
1
40
1
41
1
41
1
41
1
41
1
10
-7.1737628109216951
20
-6.2154173474095344
30
0
10
-7.1697616270145108
20
-6.2158778270734985
30
0
10
-7.0406099208547985
20
-6.3547992266032978
30
0
10
-6.8878275921983425
20
-6.5244140088412355
30
0
0
SPLINE
5
700
100
AcDbEntity
8
0
100
AcDbSpline
70
4
71
3
72
8
73
4
74
0
42
0.000000001
43
0.0000000001
44
0.0000000001
40
0
40
0
40
0
40
0
40
1
40
1
40
1
40
1
41
1
41
1
41
1
41
1
10
-6.8878275921983425
20
-6.5244140088412355
30
0
10
-6.7350452635418794
20
-6.6940287910791669
30
0
10
-6.6082021717936819
20
-6.8318736660291473
30
0
10
-6.6048170328023508
20
-6.8306415761974462
30
0
0
SPLINE
5
701
100
AcDbEntity
8
0
100
AcDbSpline
70
4
71
3
72
8
73
4
74
0
42
0.000000001
43
0.0000000001
44
0.0000000001
40
0
40
0
40
0
40
0
40
1
40
1
40
1
40
1
41
1
41
1
41
1
41
1
10
-6.6048170328023508
20
-6.8306415761974462
30
0
10
-6.6002775866052596
20
-6.829947748655659
30
0
10
-6.5870636198929402
20
-6.5002420974886883
30
0
10
-6.5746399116233931
20
-6.0999027910760306
30
0
0
LINE
5
702
100
AcDbEntity
8
0
100
AcDbLine
10
-6.5746399116233931
20
-6.0999027910760288
30
0
11
-6.5702871111365821
21
-5.9881029895527611
31
0
0
LINE
5
703
100
AcDbEntity
8
0
100
AcDbLine
10
-6.5702871111365821
20
-5.9881029895527611
30
0
11
-6.1480159678145165
21
-6.0107536813305646
31
0
0
SPLINE
5
704
100
AcDbEntity
8
0
100
AcDbSpline
70
4
71
3
72
8
73
4
74
0
42
0.000000001
43
0.0000000001
44
0.0000000001
40
0
40
0
40
0
40
0
40
1
40
1
40
1
40
1
41
1
41
1
41
1
41
1
10
-6.1480159678145165
20
-6.0107536813305646
30
0
10
-5.9151819071219114
20
-6.0237653806234572
30
0
10
-5.727592959240007
20
-6.0283266646213756
30
0
10
-5.7300571389034047
20
-6.0215563866387107
30
0
0
SPLINE
5
705
100
AcDbEntity
8
0
100
AcDbSpline
70
4
71
3
72
8
73
4
74
0
42
0.000000001
43
0.0000000001
44
0.0000000001
40
0
40
0
40
0
40
0
40
1
40
1
40
1
40
1
41
1
41
1
41
1
41
1
10
-5.7300571389034047
20
-6.0215563866387107
30
0
10
-5.7325213185668016
20
-6.014786108656045
30
0
10
-5.8582101031092453
20
-5.8774794959959733
30
0
10
-6.009066514392214
20
-5.7157892989464649
30
0
0
SPLINE
5
706
100
AcDbEntity
8
0
100
AcDbSpline
70
4
71
3
72
8
73
4
74
0
42
0.000000001
43
0.0000000001
44
0.0000000001
40
0
40
0
40
0
40
0
40
1
40
1
40
1
40
1
41
1
41
1
41
1
41
1
10
-6.009066514392214
20
-5.7157892989464649
30
0
10
-6.1616154951708504
20
-5.5547151468127982
30
0
10
-6.2850734479277168
20
-5.4156381820311221
30
0
10
-6.2841524885997817
20
-5.407635814216758
30
0
0
SPLINE
5
707
100
AcDbEntity
8
0
100
AcDbSpline
70
4
71
3
72
8
73
4
74
0
42
0.000000001
43
0.0000000001
44
0.0000000001
40
0
40
0
40
0
40
0
40
1
40
1
40
1
40
1
41
1
41
1
41
1
41
1
10
-6.2841524885997817
20
-5.407635814216758
30
0
10
-6.2832315292718466
20
-5.3996334464023974
30
0
10
-6.1466187441535673
20
-5.2694052156628661
30
0
10
-5.9797730559911164
20
-5.1195475463337674
30
0
0
SPLINE
5
708
100
AcDbEntity
8
0
100
AcDbSpline
70
4
71
3
72
8
73
4
74
0
42
0.000000001
43
0.0000000001
44
0.0000000001
40
0
40
0
40
0
40
0
40
1
40
1
40
1
40
1
41
1
41
1
41
1
41
1
10
-5.9797730559911164
20
-5.1195475463337674
30
0
10
-5.8146199373243297
20
-4.9703059219205246
30
0
10
-5.6796219390757727
20
-4.8435406127982681
30
0
10
-5.6808540289074738
20
-4.8401554738069326
30
0
0
SPLINE
5
709
100
AcDbEntity
8
0
100
AcDbSpline
70
4
71
3
72
8
73
4
74
0
42
0.000000001
43
0.0000000001
44
0.0000000001
40
0
40
0
40
0
40
0
40
1
40
1
40
1
40
1
41
1
41
1
41
1
41
1
10
-5.6808540289074738
20
-4.8401554738069326
30
0
10
-5.682702163655021
20
-4.8350777653199373
30
0
10
-5.8704466767888084
20
-4.8248227279191687
30
0
10
-6.0991239883223498
20
-4.8179652616930913
30
0
0
SPLINE
5
710
100
AcDbEntity
8
0
100
AcDbSpline
70
4
71
3
72
8
73
4
74
0
42
0.000000001
43
0.0000000001
44
0.0000000001
40
0
40
0
40
0
40
0
40
1
40
1
40
1
40
1
41
1
41
1
41
1
41
1
10
-6.0991239883223498
20
-4.8179652616930913
30
0
10
-6.3272630375659853
20
-4.8099534882612565
30
0
10
-6.5155458129896804
20
-4.8008527580662479
30
0
10
-6.5167779028213788
20
-4.7974676190749177
30
0
0
SPLINE
5
711
100
AcDbEntity
8
0
100
AcDbSpline
70
4
71
3
72
8
73
4
74
0
42
0.000000001
43
0.0000000001
44
0.0000000001
40
0
40
0
40
0
40
0
40
1
40
1
40
1
40
1
41
1
41
1
41
1
41
1
10
-6.5167779028213788
20
-4.7974676190749177
30
0
10
-6.5180099926530772
20
-4.7940824800835848
30
0
10
-6.508293217542219
20
-4.6074922741555522
30
0
10
-6.4962024775772633
20
-4.3826605812773121
30
0
0
SPLINE
5
712
100
AcDbEntity
8
0
100
AcDbSpline
70
4
71
3
72
8
73
4
74
0
42
0.000000001
43
0.0000000001
44
0.0000000001
40
0
40
0
40
0
40
0
40
1
40
1
40
1
40
1
41
1
41
1
41
1
41
1
10
-6.4962024775772633
20
-4.3826605812773121
30
0
10
-6.484111737612305
20
-4.1578288883990675
30
0
10
-6.4789344086985405
20
-3.9719325100128313
30
0
10
-6.4835516375215674
20
-3.9697794608531991
30
0
0
SPLINE
5
713
100
AcDbEntity
8
0
100
AcDbSpline
70
4
71
3
72
8
73
4
74
0
42
0.000000001
43
0.0000000001
44
0.0000000001
40
0
40
0
40
0
40
0
40
1
40
1
40
1
40
1
41
1
41
1
41
1
41
1
10
-6.4835516375215674
20
-3.9697794608531991
30
0
10
-6.4881688663446022
20
-3.9676264116935678
30
0
10
-6.6272458311262783
20
-4.0910843644504267
30
0
10
-6.7917051222512761
20
-4.244865435060766
30
0
0
SPLINE
5
714
100
AcDbEntity
8
0
100
AcDbSpline
70
4
71
3
72
8
73
4
74
0
42
0.000000001
43
0.0000000001
44
0.0000000001
40
0
40
0
40
0
40
0
40
1
40
1
40
1
40
1
41
1
41
1
41
1
41
1
10
-6.7917051222512761
20
-4.244865435060766
30
0
10
-6.9561644133762686
20
-4.3986465056710973
30
0
10
-7.0940092883262498
20
-4.5254895974192975
30
0
10
-7.0962401201118235
20
-4.5272599495409072
30
0
0
SPLINE
5
715
100
AcDbEntity
8
0
100
AcDbSpline
70
4
71
3
72
8
73
4
74
0
42
0.000000001
43
0.0000000001
44
0.0000000001
40
0
40
0
40
0
40
0
40
1
40
1
40
1
40
1
41
1
41
1
41
1
41
1
10
-7.0962401201118235
20
-4.5272599495409072
30
0
10
-7.0996252591031572
20
-4.5284920393726047
30
0
10
-7.2264683508513574
20
-4.3906471644226235
30
0
10
-7.3804049867135735
20
-4.2204941198947807
30
0
0
SPLINE
5
716
100
AcDbEntity
8
0
100
AcDbSpline
70
4
71
3
72
8
73
4
74
0
42
0.000000001
43
0.0000000001
44
0.0000000001
40
0
40
0
40
0
40
0
40
1
40
1
40
1
40
1
41
1
41
1
41
1
41
1
10
-7.3804049867135735
20
-4.2204941198947807
30
0
10
-7.5331873153700339
20
-4.050879337656851
30
0
10
-7.6623390215297436
20
-3.9119579381270544
30
0
10
-7.6662624228109895
20
-3.9143443351645097
30
0
0
SPLINE
5
717
100
AcDbEntity
8
0
100
AcDbSpline
70
4
71
3
72
8
73
4
74
0
42
0.000000001
43
0.0000000001
44
0.0000000001
40
0
40
0
40
0
40
0
40
1
40
1
40
1
40
1
41
1
41
1
41
1
41
1
10
-7.6662624228109895
20
-3.9143443351645097
30
0
10
-7.6713401312979848
20
-3.9161924699120578
30
0
10
-7.681056906408843
20
-4.1027826758400829
30
0
10
-7.6891464624666224
20
-4.3280748483822942
30
0
0
SPLINE
5
718
100
AcDbEntity
8
0
100
AcDbSpline
70
4
71
3
72
8
73
4
74
0
42
0.000000001
43
0.0000000001
44
0.0000000001
40
0
40
0
40
0
40
0
40
1
40
1
40
1
40
1
41
1
41
1
41
1
41
1
10
-7.6891464624666224
20
-4.3280748483822942
30
0
10
-7.6970026706465706
20
-4.561907651028779
30
0
10
-7.7091836254208284
20
-4.7417275789741398
30
0
10
-7.7176464728991627
20
-4.744807803553388
30
0
0
SPLINE
5
719
100
AcDbEntity
8
0
100
AcDbSpline
70
4
71
3
72
8
73
4
74
0
42
0.000000001
43
0.0000000001
44
0.0000000001
40
0
40
0
40
0
40
0
40
1
40
1
40
1
40
1
41
1
41
1
41
1
41
1
10
-7.7176464728991627
20
-4.744807803553388
30
0
10
-7.7255710580875823
20
-4.746733720926879
30
0
10
-7.833907937993585
20
-4.7439957073097929
30
0
10
-7.9594038607340654
20
-4.738877512746928
30
0
0
LINE
5
720
100
AcDbEntity
8
0
100
AcDbLine
10
-7.9594038607340645
20
-4.738877512746928
30
0
11
-8.1859281231079724
21
-4.7274028176978193
31
0
0
LINE
5
721
100
AcDbEntity
8
0
100
AcDbLine
10
-8.1859281231079724
20
-4.7274028176978193
30
0
11
-8.6011800188603953
21
-4.5028510119050429
31
0
0
SPLINE
5
722
100
AcDbEntity
8
0
100
AcDbSpline
70
4
71
3
72
8
73
4
74
0
42
0.000000001
43
0.0000000001
44
0.0000000001
40
0
40
0
40
0
40
0
40
1
40
1
40
1
40
1
41
1
41
1
41
1
41
1
10
-8.6011800188603953
20
-4.5028510119050429
30
0
10
-8.8296612790661921
20
-4.378039511088879
30
0
10
-9.0165096972387637
20
-4.2754523294108484
30
0
10
-9.0171257421546116
20
-4.2737597599151771
30
0
0
SPLINE
5
723
100
AcDbEntity
8
0
100
AcDbSpline
70
4
71
3
72
8
73
4
74
0
42
0.000000001
43
0.0000000001
44
0.0000000001
40
0
40
0
40
0
40
0
40
1
40
1
40
1
40
1
41
1
41
1
41
1
41
1
10
-9.0171257421546116
20
-4.2737597599151771
30
0
10
-9.0177417870704559
20
-4.2720671904195111
30
0
10
-9.0121320323852334
20
-4.2479823043504776
30
0
10
-9.0049074908302753
20
-4.2204344966641756
30
0
0
LINE
5
724
100
AcDbEntity
8
0
100
AcDbLine
10
-9.0049074908302753
20
-4.2204344966641756
30
0
11
-8.9897645801785799
21
-4.1698783274886511
31
0
0
LINE
5
725
100
AcDbEntity
8
0
100
AcDbLine
10
-8.9897645801785799
20
-4.1698783274886511
30
0
11
-8.8857275825001736
21
-4.2029332428675259
31
0
0
SPLINE
5
726
100
AcDbEntity
8
0
100
AcDbSpline
70
4
71
3
72
8
73
4
74
0
42
0.000000001
43
0.0000000001
44
0.0000000001
40
0
40
0
40
0
40
0
40
1
40
1
40
1
40
1
41
1
41
1
41
1
41
1
10
-8.8857275825001736
20
-4.2029332428675259
30
0
10
-8.5994718276555826
20
-4.2942574025333551
30
0
10
-8.3009511193191177
20
-4.2296909550709652
30
0
10
-8.0791062466850274
20
-4.0281881598031708
30
0
0
SPLINE
5
727
100
AcDbEntity
8
0
100
AcDbSpline
70
4
71
3
72
8
73
4
74
0
42
0.000000001
43
0.0000000001
44
0.0000000001
40
0
40
0
40
0
40
0
40
1
40
1
40
1
40
1
41
1
41
1
41
1
41
1
10
-8.0791062466850274
20
-4.0281881598031708
30
0
10
-7.8950299491538338
20
-3.8624751040055516
30
0
10
-7.7976946894897123
20
-3.608533734830504
30
0
10
-7.8343057678610499
20
-3.3947192839032909
30
0
0
SPLINE
5
728
100
AcDbEntity
8
0
100
AcDbSpline
70
4
71
3
72
8
73
4
74
0
42
0.000000001
43
0.0000000001
44
0.0000000001
40
0
40
0
40
0
40
0
40
1
40
1
40
1
40
1
41
1
41
1
41
1
41
1
10
-7.8343057678610499
20
-3.3947192839032909
30
0
10
-7.8472551432772466
20
-3.3170104362628487
30
0
10
-7.9316346484735902
20
-3.1483757477037528
30
0
10
-7.9946734973096598
20
-3.0726052496201519
30
0
0
SPLINE
5
729
100
AcDbEntity
8
0
100
AcDbSpline
70
4
71
3
72
8
73
4
74
0
42
0.000000001
43
0.0000000001
44
0.0000000001
40
0
40
0
40
0
40
0
40
1
40
1
40
1
40
1
41
1
41
1
41
1
41
1
10
-7.9946734973096598
20
-3.0726052496201519
30
0
10
-8.0394705626397531
20
-3.0179887621865475
30
0
10
-8.059787612679429
20
-3.0042988570610127
30
0
10
-8.1671381828149059
20
-2.9542404640995308
30
0
0
SPLINE
5
730
100
AcDbEntity
8
0
100
AcDbSpline
70
4
71
3
72
8
73
4
74
0
42
0.000000001
43
0.0000000001
44
0.0000000001
40
0
40
0
40
0
40
0
40
1
40
1
40
1
40
1
41
1
41
1
41
1
41
1
10
-8.1671381828149059
20
-2.9542404640995308
30
0
10
-8.2756430601561437
20
-2.9036438088481447
30
0
10
-8.2968810695237547
20
-2.8979562715369731
30
0
10
-8.3680529870593592
20
-2.8999008371855002
30
0
0
SPLINE
5
731
100
AcDbEntity
8
0
100
AcDbSpline
70
4
71
3
72
8
73
4
74
0
42
0.000000001
43
0.0000000001
44
0.0000000001
40
0
40
0
40
0
40
0
40
1
40
1
40
1
40
1
41
1
41
1
41
1
41
1
10
-8.3680529870593592
20
-2.8999008371855002
30
0
10
-8.4671554093192949
20
-2.9014689218876808
30
0
10
-8.5911734621668963
20
-2.9504413846518762
30
0
10
-8.6702513166158806
20
-3.0175592000210734
30
0
0
SPLINE
5
732
100
AcDbEntity
8
0
100
AcDbSpline
70
4
71
3
72
8
73
4
74
0
42
0.000000001
43
0.0000000001
44
0.0000000001
40
0
40
0
40
0
40
0
40
1
40
1
40
1
40
1
41
1
41
1
41
1
41
1
10
-8.6702513166158806
20
-3.0175592000210734
30
0
10
-8.7587907604970781
20
-3.0929127310824547
30
0
10
-8.8103861577023412
20
-3.2065730995366382
30
0
10
-8.7987404386521071
20
-3.2991323756000468
30
0
0
SPLINE
5
733
100
AcDbEntity
8
0
100
AcDbSpline
70
4
71
3
72
8
73
4
74
0
42
0.000000001
43
0.0000000001
44
0.0000000001
40
0
40
0
40
0
40
0
40
1
40
1
40
1
40
1
41
1
41
1
41
1
41
1
10
-8.7987404386521071
20
-3.2991323756000468
30
0
10
-8.7896366818912117
20
-3.3820744969793761
30
0
10
-8.767154150508544
20
-3.4333120615133286
30
0
10
-8.7159695042338114
20
-3.4923124298921442
30
0
0
SPLINE
5
734
100
AcDbEntity
8
0
100
AcDbSpline
70
4
71
3
72
8
73
4
74
0
42
0.000000001
43
0.0000000001
44
0.0000000001
40
0
40
0
40
0
40
0
40
1
40
1
40
1
40
1
41
1
41
1
41
1
41
1
10
-8.7159695042338114
20
-3.4923124298921442
30
0
10
-8.6759452329786306
20
-3.5390821147632723
30
0
10
-8.6064534527553391
20
-3.5799184822620447
30
0
10
-8.5735230221699492
20
-3.5755999517594228
30
0
0
SPLINE
5
735
100
AcDbEntity
8
0
100
AcDbSpline
70
4
71
3
72
8
73
4
74
0
42
0.000000001
43
0.0000000001
44
0.0000000001
40
0
40
0
40
0
40
0
40
1
40
1
40
1
40
1
41
1
41
1
41
1
41
1
10
-8.5735230221699492
20
-3.5755999517594228
30
0
10
-8.5632898225700096
20
-3.5747505589657469
30
0
10
-8.55282949118393
20
-3.5613593521606188
30
0
10
-8.549833265322297
20
-3.5458928788218
30
0
0
SPLINE
5
736
100
AcDbEntity
8
0
100
AcDbSpline
70
4
71
3
72
8
73
4
74
0
42
0.000000001
43
0.0000000001
44
0.0000000001
40
0
40
0
40
0
40
0
40
1
40
1
40
1
40
1
41
1
41
1
41
1
41
1
10
-8.549833265322297
20
-3.5458928788218
30
0
10
-8.5464543424226456
20
-3.523578344874378
30
0
10
-8.5558443653205938
20
-3.5135784931522638
30
0
10
-8.6090980620373365
20
-3.4831246744136251
30
0
0
SPLINE
5
737
100
AcDbEntity
8
0
100
AcDbSpline
70
4
71
3
72
8
73
4
74
0
42
0.000000001
43
0.0000000001
44
0.0000000001
40
0
40
0
40
0
40
0
40
1
40
1
40
1
40
1
41
1
41
1
41
1
41
1
10
-8.6090980620373365
20
-3.4831246744136251
30
0
10
-8.684899640579328
20
-3.4407513026710674
30
0
10
-8.720079551225334
20
-3.3835928529481203
30
0
10
-8.7217969850877122
20
-3.299879121401065
30
0
0
SPLINE
5
738
100
AcDbEntity
8
0
100
AcDbSpline
70
4
71
3
72
8
73
4
74
0
42
0.000000001
43
0.0000000001
44
0.0000000001
40
0
40
0
40
0
40
0
40
1
40
1
40
1
40
1
41
1
41
1
41
1
41
1
10
-8.7217969850877122
20
-3.299879121401065
30
0
10
-8.7228205914083077
20
-3.2207048360511004
30
0
10
-8.696828436240823
20
-3.1709918435775695
30
0
10
-8.6287491754678278
20
-3.1184195422192564
30
0
0
SPLINE
5
739
100
AcDbEntity
8
0
100
AcDbSpline
70
4
71
3
72
8
73
4
74
0
42
0.000000001
43
0.0000000001
44
0.0000000001
40
0
40
0
40
0
40
0
40
1
40
1
40
1
40
1
41
1
41
1
41
1
41
1
10
-8.6287491754678278
20
-3.1184195422192564
30
0
10
-8.5070521692150987
20
-3.0262056666437958
30
0
10
-8.4168015075631963
20
-3.0134834230137431
30
0
10
-8.2955992509586203
20
-3.0700009634541199
30
0
0
SPLINE
5
740
100
AcDbEntity
8
0
100
AcDbSpline
70
4
71
3
72
8
73
4
74
0
42
0.000000001
43
0.0000000001
44
0.0000000001
40
0
40
0
40
0
40
0
40
1
40
1
40
1
40
1
41
1
41
1
41
1
41
1
10
-8.2955992509586203
20
-3.0700009634541199
30
0
10
-8.15300341973456
20
-3.1378997946085208
30
0
10
-8.0708671785071537
20
-3.2661399470577681
30
0
10
-8.0652792616227487
20
-3.4289501813288519
30
0
0
SPLINE
5
741
100
AcDbEntity
8
0
100
AcDbSpline
70
4
71
3
72
8
73
4
74
0
42
0.000000001
43
0.0000000001
44
0.0000000001
40
0
40
0
40
0
40
0
40
1
40
1
40
1
40
1
41
1
41
1
41
1
41
1
10
-8.0652792616227487
20
-3.4289501813288519
30
0
10
-8.0624013044629255
20
-3.5342846192815447
30
0
10
-8.0902353782862857
20
-3.6000023473838012
30
0
10
-8.1743847251305919
20
-3.6900507416162718
30
0
0
SPLINE
5
742
100
AcDbEntity
8
0
100
AcDbSpline
70
4
71
3
72
8
73
4
74
0
42
0.000000001
43
0.0000000001
44
0.0000000001
40
0
40
0
40
0
40
0
40
1
40
1
40
1
40
1
41
1
41
1
41
1
41
1
10
-8.1743847251305919
20
-3.6900507416162718
30
0
10
-8.3322230874331247
20
-3.8567563232760844
30
0
10
-8.5563485205862158
20
-3.8913699177396714
30
0
10
-8.7803619011291811
20
-3.7841001567960237
30
0
0
SPLINE
5
743
100
AcDbEntity
8
0
100
AcDbSpline
70
4
71
3
72
8
73
4
74
0
42
0.000000001
43
0.0000000001
44
0.0000000001
40
0
40
0
40
0
40
0
40
1
40
1
40
1
40
1
41
1
41
1
41
1
41
1
10
-8.7803619011291811
20
-3.7841001567960237
30
0
10
-8.9356551116165832
20
-3.7102804404526308
30
0
10
-8.9695189337132639
20
-3.6804364505381679
30
0
10
-8.9881620625323144
20
-3.6028831681496096
30
0
0
SPLINE
5
744
100
AcDbEntity
8
0
100
AcDbSpline
70
4
71
3
72
8
73
4
74
0
42
0.000000001
43
0.0000000001
44
0.0000000001
40
0
40
0
40
0
40
0
40
1
40
1
40
1
40
1
41
1
41
1
41
1
41
1
10
-8.9881620625323144
20
-3.6028831681496096
30
0
10
-9.0363877794954917
20
-3.4019216617376151
30
0
10
-9.1591114186347049
20
-3.1437363551600903
30
0
10
-9.2801114078198488
20
-2.9903472242453462
30
0
0
SPLINE
5
745
100
AcDbEntity
8
0
100
AcDbSpline
70
4
71
3
72
8
73
4
74
0
42
0.000000001
43
0.0000000001
44
0.0000000001
40
0
40
0
40
0
40
0
40
1
40
1
40
1
40
1
41
1
41
1
41
1
41
1
10
-9.2801114078198488
20
-2.9903472242453462
30
0
10
-9.5988525723351117
20
-2.5859506261404888
30
0
10
-10.139587958644661
20
-2.3984455140163026
30
0
10
-10.579046198693712
20
-2.5392273175171032
30
0
0
SPLINE
5
746
100
AcDbEntity
8
0
100
AcDbSpline
70
4
71
3
72
8
73
4
74
0
42
0.000000001
43
0.0000000001
44
0.0000000001
40
0
40
0
40
0
40
0
40
1
40
1
40
1
40
1
41
1
41
1
41
1
41
1
10
-10.579046198693712
20
-2.5392273175171032
30
0
10
-11.111135281340445
20
-2.7098904074824417
30
0
10
-11.371439530053317
20
-3.2138683928263356
30
0
10
-11.179012600613815
20
-3.7083258173470277
30
0
0
SPLINE
5
747
100
AcDbEntity
8
0
100
AcDbSpline
70
4
71
3
72
8
73
4
74
0
42
0.000000001
43
0.0000000001
44
0.0000000001
40
0
40
0
40
0
40
0
40
1
40
1
40
1
40
1
41
1
41
1
41
1
41
1
10
-11.179012600613815
20
-3.7083258173470277
30
0
10
-11.106014386131495
20
-3.8983540805256158
30
0
10
-10.926371861238842
20
-4.0917364022371405
30
0
10
-10.746299937140614
20
-4.1757053194628471
30
0
0
SPLINE
5
748
100
AcDbEntity
8
0
100
AcDbSpline
70
4
71
3
72
8
73
4
74
0
42
0.000000001
43
0.0000000001
44
0.0000000001
40
0
40
0
40
0
40
0
40
1
40
1
40
1
40
1
41
1
41
1
41
1
41
1
10
-10.746299937140614
20
-4.1757053194628471
30
0
10
-10.531598796869655
20
-4.2758221053858074
30
0
10
-10.277377377649236
20
-4.2791326512769894
30
0
10
-10.106745205182383
20
-4.1844421638547677
30
0
0
SPLINE
5
749
100
AcDbEntity
8
0
100
AcDbSpline
70
4
71
3
72
8
73
4
74
0
42
0.000000001
43
0.0000000001
44
0.0000000001
40
0
40
0
40
0
40
0
40
1
40
1
40
1
40
1
41
1
41
1
41
1
41
1
10
-10.106745205182383
20
-4.1844421638547677
30
0
10
-10.028737659221537
20
-4.1407154070128165
30
0
10
-9.8907434351113483
20
-3.9984836245517403
30
0
10
-9.8568329108471247
20
-3.9257622705889923
30
0
0
SPLINE
5
750
100
AcDbEntity
8
0
100
AcDbSpline
70
4
71
3
72
8
73
4
74
0
42
0.000000001
43
0.0000000001
44
0.0000000001
40
0
40
0
40
0
40
0
40
1
40
1
40
1
40
1
41
1
41
1
41
1
41
1
10
-9.8568329108471247
20
-3.9257622705889923
30
0
10
-9.7847057639993995
20
-3.7710851050174417
30
0
10
-9.7943010808826632
20
-3.5867319469666641
30
0
10
-9.8806718538950715
20
-3.4494906847491738
30
0
0
SPLINE
5
751
100
AcDbEntity
8
0
100
AcDbSpline
70
4
71
3
72
8
73
4
74
0
42
0.000000001
43
0.0000000001
44
0.0000000001
40
0
40
0
40
0
40
0
40
1
40
1
40
1
40
1
41
1
41
1
41
1
41
1
10
-9.8806718538950715
20
-3.4494906847491738
30
0
10
-9.9759721701414605
20
-3.298248386902384
30
0
10
-10.186989473100688
20
-3.1661221297219697
30
0
10
-10.343878822182775
20
-3.1590126673430325
30
0
0
SPLINE
5
752
100
AcDbEntity
8
0
100
AcDbSpline
70
4
71
3
72
8
73
4
74
0
42
0.000000001
43
0.0000000001
44
0.0000000001
40
0
40
0
40
0
40
0
40
1
40
1
40
1
40
1
41
1
41
1
41
1
41
1
10
-10.343878822182775
20
-3.1590126673430325
30
0
10
-10.436288749085987
20
-3.1552696956803903
30
0
10
-10.532538078552815
20
-3.1778424418723588
30
0
10
-10.603775346531005
20
-3.2191050190509136
30
0
0
SPLINE
5
753
100
AcDbEntity
8
0
100
AcDbSpline
70
4
71
3
72
8
73
4
74
0
42
0.000000001
43
0.0000000001
44
0.0000000001
40
0
40
0
40
0
40
0
40
1
40
1
40
1
40
1
41
1
41
1
41
1
41
1
10
-10.603775346531005
20
-3.2191050190509136
30
0
10
-10.653703038607324
20
-3.2478195661263376
30
0
10
-10.655933870392895
20
-3.2495899182479437
30
0
10
-10.641537705542214
20
-3.2759772026368097
30
0
0
SPLINE
5
754
100
AcDbEntity
8
0
100
AcDbSpline
70
4
71
3
72
8
73
4
74
0
42
0.000000001
43
0.0000000001
44
0.0000000001
40
0
40
0
40
0
40
0
40
1
40
1
40
1
40
1
41
1
41
1
41
1
41
1
10
-10.641537705542214
20
-3.2759772026368097
30
0
10
-10.628911892813138
20
-3.3001336552401082
30
0
10
-10.619833000418955
20
-3.2987460001565272
30
0
10
-10.543051328198127
20
-3.2727165484389658
30
0
0
SPLINE
5
755
100
AcDbEntity
8
0
100
AcDbSpline
70
4
71
3
72
8
73
4
74
0
42
0.000000001
43
0.0000000001
44
0.0000000001
40
0
40
0
40
0
40
0
40
1
40
1
40
1
40
1
41
1
41
1
41
1
41
1
10
-10.543051328198127
20
-3.2727165484389658
30
0
10
-10.497890214105047
20
-3.25723764291679
30
0
10
-10.4264911647833
20
-3.2427512632568058
30
0
10
-10.385480583757603
20
-3.2422005687835398
30
0
0
SPLINE
5
756
100
AcDbEntity
8
0
100
AcDbSpline
70
4
71
3
72
8
73
4
74
0
42
0.000000001
43
0.0000000001
44
0.0000000001
40
0
40
0
40
0
40
0
40
1
40
1
40
1
40
1
41
1
41
1
41
1
41
1
10
-10.385480583757603
20
-3.2422005687835398
30
0
10
-10.199279290959282
20
-3.2376829603872777
30
0
10
-9.9896309948086
20
-3.4239776575206933
30
0
10
-9.9638753770447295
20
-3.6158664876301847
30
0
0
SPLINE
5
757
100
AcDbEntity
8
0
100
AcDbSpline
70
4
71
3
72
8
73
4
74
0
42
0.000000001
43
0.0000000001
44
0.0000000001
40
0
40
0
40
0
40
0
40
1
40
1
40
1
40
1
41
1
41
1
41
1
41
1
10
-9.9638753770447295
20
-3.6158664876301847
30
0
10
-9.9375814969909531
20
-3.8066010105339214
30
0
10
-10.112105990280645
20
-4.0090901155722296
30
0
10
-10.32669205137559
20
-4.0383148710450607
30
0
0
SPLINE
5
758
100
AcDbEntity
8
0
100
AcDbSpline
70
4
71
3
72
8
73
4
74
0
42
0.000000001
43
0.0000000001
44
0.0000000001
40
0
40
0
40
0
40
0
40
1
40
1
40
1
40
1
41
1
41
1
41
1
41
1
10
-10.32669205137559
20
-4.0383148710450607
30
0
10
-10.63783857244113
20
-4.0787248659041495
30
0
10
-10.946374591248958
20
-3.8392915512300054
30
0
10
-11.001407882744877
20
-3.514299559787049
30
0
0
SPLINE
5
759
100
AcDbEntity
8
0
100
AcDbSpline
70
4
71
3
72
8
73
4
74
0
42
0.000000001
43
0.0000000001
44
0.0000000001
40
0
40
0
40
0
40
0
40
1
40
1
40
1
40
1
41
1
41
1
41
1
41
1
10
-11.001407882744877
20
-3.514299559787049
30
0
10
-11.051817729326087
20
-3.2125430616194537
30
0
10
-10.855009782547363
20
-2.9080206589021658
30
0
10
-10.537189414400137
20
-2.79905227533107
30
0
0
SPLINE
5
760
100
AcDbEntity
8
0
100
AcDbSpline
70
4
71
3
72
8
73
4
74
0
42
0.000000001
43
0.0000000001
44
0.0000000001
40
0
40
0
40
0
40
0
40
1
40
1
40
1
40
1
41
1
41
1
41
1
41
1
10
-10.537189414400137
20
-2.79905227533107
30
0
10
-10.26568446755175
20
-2.7050245349922455
30
0
10
-9.8993272519375779
20
-2.8084051646388426
30
0
10
-9.6477287671582292
20
-3.0493941318318067
30
0
0
SPLINE
5
761
100
AcDbEntity
8
0
100
AcDbSpline
70
4
71
3
72
8
73
4
74
0
42
0.000000001
43
0.0000000001
44
0.0000000001
40
0
40
0
40
0
40
0
40
1
40
1
40
1
40
1
41
1
41
1
41
1
41
1
10
-9.6477287671582292
20
-3.0493941318318067
30
0
10
-9.4400001722893627
20
-3.2488466878925242
30
0
10
-9.3174320984020316
20
-3.5013382410671996
30
0
10
-9.3108205751970363
20
-3.7433227606882489
30
0
0
SPLINE
5
762
100
AcDbEntity
8
0
100
AcDbSpline
70
4
71
3
72
8
73
4
74
0
42
0.000000001
43
0.0000000001
44
0.0000000001
40
0
40
0
40
0
40
0
40
1
40
1
40
1
40
1
41
1
41
1
41
1
41
1
10
-9.3108205751970363
20
-3.7433227606882489
30
0
10
-9.3067758786481001
20
-3.891360349162301
30
0
10
-9.3245261020317205
20
-3.9716173751837633
30
0
10
-9.3940397200558454
20
-4.1176761280251011
30
0
0
SPLINE
5
763
100
AcDbEntity
8
0
100
AcDbSpline
70
4
71
3
72
8
73
4
74
0
42
0.000000001
43
0.0000000001
44
0.0000000001
40
0
40
0
40
0
40
0
40
1
40
1
40
1
40
1
41
1
41
1
41
1
41
1
10
-9.3940397200558454
20
-4.1176761280251011
30
0
10
-9.4500189982063159
20
-4.2377240774239207
30
0
10
-9.4659397351174217
20
-4.2598114795852027
30
0
10
-9.5512433891674853
20
-4.3493216115277651
30
0
0
SPLINE
5
764
100
AcDbEntity
8
0
100
AcDbSpline
70
4
71
3
72
8
73
4
74
0
42
0.000000001
43
0.0000000001
44
0.0000000001
40
0
40
0
40
0
40
0
40
1
40
1
40
1
40
1
41
1
41
1
41
1
41
1
10
-9.5512433891674853
20
-4.3493216115277651
30
0
10
-9.7656179401854377
20
-4.5739821174449791
30
0
10
-10.040346244681599
20
-4.696018145134075
30
0
10
-10.347192883519554
20
-4.7061112382313803
30
0
0
SPLINE
5
765
100
AcDbEntity
8
0
100
AcDbSpline
70
4
71
3
72
8
73
4
74
0
42
0.000000001
43
0.0000000001
44
0.0000000001
40
0
40
0
40
0
40
0
40
1
40
1
40
1
40
1
41
1
41
1
41
1
41
1
10
-10.347192883519554
20
-4.7061112382313803
30
0
10
-10.556707452219182
20
-4.71240541484093
30
0
10
-10.802711804022451
20
-4.6553091260347745
30
0
10
-11.043962010025838
20
-4.5428123074439188
30
0
0
SPLINE
5
766
100
AcDbEntity
8
0
100
AcDbSpline
70
4
71
3
72
8
73
4
74
0
42
0.000000001
43
0.0000000001
44
0.0000000001
40
0
40
0
40
0
40
0
40
1
40
1
40
1
40
1
41
1
41
1
41
1
41
1
10
-11.043962010025838
20
-4.5428123074439188
30
0
10
-11.252891614268012
20
-4.4453868329705042
30
0
10
-11.403268897611978
20
-4.3429427843609902
30
0
10
-11.56074002162573
20
-4.1894105203777245
30
0
0
SPLINE
5
767
100
AcDbEntity
8
0
100
AcDbSpline
70
4
71
3
72
8
73
4
74
0
42
0.000000001
43
0.0000000001
44
0.0000000001
40
0
40
0
40
0
40
0
40
1
40
1
40
1
40
1
41
1
41
1
41
1
41
1
10
-11.56074002162573
20
-4.1894105203777245
30
0
10
-11.848666508165161
20
-3.91180728528763
30
0
10
-12.031582119439022
20
-3.5777736980005703
30
0
10
-12.136508833027063
20
-3.1367660215243744
30
0
0
SPLINE
5
768
100
AcDbEntity
8
0
100
AcDbSpline
70
4
71
3
72
8
73
4
74
0
42
0.000000001
43
0.0000000001
44
0.0000000001
40
0
40
0
40
0
40
0
40
1
40
1
40
1
40
1
41
1
41
1
41
1
41
1
10
-12.136508833027063
20
-3.1367660215243744
30
0
10
-12.177030880496281
20
-2.9675028558660665
30
0
10
-12.308556388550199
20
-2.3454555937961667
30
0
10
-12.305171249558866
20
-2.3442235039644688
30
0
0
SPLINE
5
769
100
AcDbEntity
8
0
100
AcDbSpline
70
4
71
3
72
8
73
4
74
0
42
0.000000001
43
0.0000000001
44
0.0000000001
40
0
40
0
40
0
40
0
40
1
40
1
40
1
40
1
41
1
41
1
41
1
41
1
10
-12.305171249558866
20
-2.3442235039644688
30
0
10
-12.302940417773289
20
-2.3424531518428586
30
0
10
-12.259537223618457
20
-2.3669083027665638
30
0
10
-12.20743783410747
20
-2.396823859215286
30
0
0
SPLINE
5
770
100
AcDbEntity
8
0
100
AcDbSpline
70
4
71
3
72
8
73
4
74
0
42
0.000000001
43
0.0000000001
44
0.0000000001
40
0
40
0
40
0
40
0
40
1
40
1
40
1
40
1
41
1
41
1
41
1
41
1
10
-12.20743783410747
20
-2.396823859215286
30
0
10
-11.612179364699406
20
-2.7446625937637994
30
0
10
-10.897065644734578
20
-2.4949248388752654
30
0
10
-10.741050389852974
20
-1.8861039757010387
30
0
0
LINE
5
771
100
AcDbEntity
8
0
100
AcDbLine
10
-10.741050389852973
20
-1.8861039757010387
30
0
11
-10.732827106344144
21
-1.8534006769017894
31
0
0
LINE
5
772
100
AcDbEntity
8
0
100
AcDbLine
10
-10.732827106344144
20
-1.8534006769017894
30
0
11
-10.610165628121729
21
-1.9007615423220501
31
0
0
SPLINE
5
773
100
AcDbEntity
8
0
100
AcDbSpline
70
4
71
3
72
8
73
4
74
0
42
0.000000001
43
0.0000000001
44
0.0000000001
40
0
40
0
40
0
40
0
40
1
40
1
40
1
40
1
41
1
41
1
41
1
41
1
10
-10.610165628121729
20
-1.9007615423220501
30
0
10
-10.542217068233899
20
-1.9268252640237979
30
0
10
-10.458341555343278
20
-1.9518840276799876
30
0
10
-10.421176592972882
20
-1.9565666069455987
30
0
0
SPLINE
5
774
100
AcDbEntity
8
0
100
AcDbSpline
70
4
71
3
72
8
73
4
74
0
42
0.000000001
43
0.0000000001
44
0.0000000001
40
0
40
0
40
0
40
0
40
1
40
1
40
1
40
1
41
1
41
1
41
1
41
1
10
-10.421176592972882
20
-1.9565666069455987
30
0
10
-10.175334022513178
20
-1.9868866982331845
30
0
10
-9.9547803740616949
20
-1.8423992196198145
30
0
10
-9.8960630822941322
20
-1.6140143903149988
30
0
0
SPLINE
5
775
100
AcDbEntity
8
0
100
AcDbSpline
70
4
71
3
72
8
73
4
74
0
42
0.000000001
43
0.0000000001
44
0.0000000001
40
0
40
0
40
0
40
0
40
1
40
1
40
1
40
1
41
1
41
1
41
1
41
1
10
-9.8960630822941322
20
-1.6140143903149988
30
0
10
-9.8111389357563024
20
-1.2812098662937481
30
0
10
-10.093611232862385
20
-0.97382799173177126
30
0
10
-10.411055120063265
20
-1.0548658705785365
30
0
0
SPLINE
5
776
100
AcDbEntity
8
0
100
AcDbSpline
70
4
71
3
72
8
73
4
74
0
42
0.000000001
43
0.0000000001
44
0.0000000001
40
0
40
0
40
0
40
0
40
1
40
1
40
1
40
1
41
1
41
1
41
1
41
1
10
-10.411055120063265
20
-1.0548658705785365
30
0
10
-10.469374093083653
20
-1.0684250748189026
30
0
10
-10.607464748094813
20
-1.1445626482313782
30
0
10
-10.601382081562257
20
-1.1586414664866143
30
0
0
SPLINE
5
777
100
AcDbEntity
8
0
100
AcDbSpline
70
4
71
3
72
8
73
4
74
0
42
0.000000001
43
0.0000000001
44
0.0000000001
40
0
40
0
40
0
40
0
40
1
40
1
40
1
40
1
41
1
41
1
41
1
41
1
10
-10.601382081562257
20
-1.1586414664866143
30
0
10
-10.599611729440651
20
-1.1608722982721909
30
0
10
-10.590143923916763
20
-1.1737190266957294
30
0
10
-10.580060073477034
20
-1.1882583246149396
30
0
0
SPLINE
5
778
100
AcDbEntity
8
0
100
AcDbSpline
70
4
71
3
72
8
73
4
74
0
42
0.000000001
43
0.0000000001
44
0.0000000001
40
0
40
0
40
0
40
0
40
1
40
1
40
1
40
1
41
1
41
1
41
1
41
1
10
-10.580060073477034
20
-1.1882583246149396
30
0
10
-10.562356552260958
20
-1.2105666424706827
30
0
10
-10.556662798858108
20
-1.2104110772187981
30
0
10
-10.526429895813939
20
-1.1907816386292391
30
0
0
SPLINE
5
779
100
AcDbEntity
8
0
100
AcDbSpline
70
4
71
3
72
8
73
4
74
0
42
0.000000001
43
0.0000000001
44
0.0000000001
40
0
40
0
40
0
40
0
40
1
40
1
40
1
40
1
41
1
41
1
41
1
41
1
10
-10.526429895813939
20
-1.1907816386292391
30
0
10
-10.465964089725601
20
-1.1515227614501087
30
0
10
-10.38579727851344
20
-1.1242612199008513
30
0
10
-10.337322591963284
20
-1.1257857919612788
30
0
0
SPLINE
5
780
100
AcDbEntity
8
0
100
AcDbSpline
70
4
71
3
72
8
73
4
74
0
42
0.000000001
43
0.0000000001
44
0.0000000001
40
0
40
0
40
0
40
0
40
1
40
1
40
1
40
1
41
1
41
1
41
1
41
1
10
-10.337322591963284
20
-1.1257857919612788
30
0
10
-10.272304907494499
20
-1.1279979754718157
30
0
10
-10.157950711498531
20
-1.1841328188741722
30
0
10
-10.112615383878532
20
-1.2375949991020176
30
0
0
SPLINE
5
781
100
AcDbEntity
8
0
100
AcDbSpline
70
4
71
3
72
8
73
4
74
0
42
0.000000001
43
0.0000000001
44
0.0000000001
40
0
40
0
40
0
40
0
40
1
40
1
40
1
40
1
41
1
41
1
41
1
41
1
10
-10.112615383878532
20
-1.2375949991020176
30
0
10
-10.092603248250944
20
-1.2609798415375821
30
0
10
-10.067889885082703
20
-1.310447053949932
30
0
10
-10.057183773635437
20
-1.34776136548053
30
0
0
SPLINE
5
782
100
AcDbEntity
8
0
100
AcDbSpline
70
4
71
3
72
8
73
4
74
0
42
0.000000001
43
0.0000000001
44
0.0000000001
40
0
40
0
40
0
40
0
40
1
40
1
40
1
40
1
41
1
41
1
41
1
41
1
10
-10.057183773635437
20
-1.34776136548053
30
0
10
-10.012355627846949
20
-1.5077900734927703
30
0
10
-10.108489878137769
20
-1.6597043610805158
30
0
10
-10.269601326821507
20
-1.6857586771647932
30
0
0
SPLINE
5
783
100
AcDbEntity
8
0
100
AcDbSpline
70
4
71
3
72
8
73
4
74
0
42
0.000000001
43
0.0000000001
44
0.0000000001
40
0
40
0
40
0
40
0
40
1
40
1
40
1
40
1
41
1
41
1
41
1
41
1
10
-10.269601326821507
20
-1.6857586771647932
30
0
10
-10.320073497279404
20
-1.6945450873302468
30
0
10
-10.335001708328317
20
-1.69039455426286
30
0
10
-10.442968323379647
20
-1.6386435918057205
30
0
0
SPLINE
5
784
100
AcDbEntity
8
0
100
AcDbSpline
70
4
71
3
72
8
73
4
74
0
42
0.000000001
43
0.0000000001
44
0.0000000001
40
0
40
0
40
0
40
0
40
1
40
1
40
1
40
1
41
1
41
1
41
1
41
1
10
-10.442968323379647
20
-1.6386435918057205
30
0
10
-10.507071264612177
20
-1.6073465963650893
30
0
10
-10.602035585988087
20
-1.5518215817869019
30
0
10
-10.653752278461045
20
-1.5150579647295712
30
0
0
SPLINE
5
785
100
AcDbEntity
8
0
100
AcDbSpline
70
4
71
3
72
8
73
4
74
0
42
0.000000001
43
0.0000000001
44
0.0000000001
40
0
40
0
40
0
40
0
40
1
40
1
40
1
40
1
41
1
41
1
41
1
41
1
10
-10.653752278461045
20
-1.5150579647295712
30
0
10
-10.742717932022025
20
-1.449682447589475
30
0
10
-10.750337602798364
20
-1.441913427652938
30
0
10
-10.799459414722756
20
-1.3332840655182108
30
0
0
SPLINE
5
786
100
AcDbEntity
8
0
100
AcDbSpline
70
4
71
3
72
8
73
4
74
0
42
0.000000001
43
0.0000000001
44
0.0000000001
40
0
40
0
40
0
40
0
40
1
40
1
40
1
40
1
41
1
41
1
41
1
41
1
10
-10.799459414722756
20
-1.3332840655182108
30
0
10
-10.915101645375536
20
-1.0840220860829861
30
0
10
-11.157142109821701
20
-0.9008916122464381
30
0
10
-11.405137729441039
20
-0.87518874978188854
30
0
0
SPLINE
5
787
100
AcDbEntity
8
0
100
AcDbSpline
70
4
71
3
72
8
73
4
74
0
42
0.000000001
43
0.0000000001
44
0.0000000001
40
0
40
0
40
0
40
0
40
1
40
1
40
1
40
1
41
1
41
1
41
1
41
1
10
-11.405137729441039
20
-0.87518874978188854
30
0
10
-11.520017755543556
20
-0.86237310181674809
30
0
10
-11.588187231125852
20
-0.86993363824218062
30
0
10
-11.700590645381617
20
-0.9060531564911527
30
0
0
SPLINE
5
788
100
AcDbEntity
8
0
100
AcDbSpline
70
4
71
3
72
8
73
4
74
0
42
0.000000001
43
0.0000000001
44
0.0000000001
40
0
40
0
40
0
40
0
40
1
40
1
40
1
40
1
41
1
41
1
41
1
41
1
10
-11.700590645381617
20
-0.9060531564911527
30
0
10
-11.823687738901286
20
-0.94702325144098287
30
0
10
-11.943231695994386
20
-1.0346198981934165
30
0
10
-12.015066360613377
20
-1.1374372382234836
30
0
0
SPLINE
5
789
100
AcDbEntity
8
0
100
AcDbSpline
70
4
71
3
72
8
73
4
74
0
42
0.000000001
43
0.0000000001
44
0.0000000001
40
0
40
0
40
0
40
0
40
1
40
1
40
1
40
1
41
1
41
1
41
1
41
1
10
-12.015066360613377
20
-1.1374372382234836
30
0
10
-12.074287644686663
20
-1.2222461426253999
30
0
10
-12.153633116997653
20
-1.4255535599989808
30
0
10
-12.13170128008826
20
-1.4357805435072413
30
0
0
SPLINE
5
790
100
AcDbEntity
8
0
100
AcDbSpline
70
4
71
3
72
8
73
4
74
0
42
0.000000001
43
0.0000000001
44
0.0000000001
40
0
40
0
40
0
40
0
40
1
40
1
40
1
40
1
41
1
41
1
41
1
41
1
10
-12.13170128008826
20
-1.4357805435072413
30
0
10
-12.088991913475217
20
-1.455696248233854
30
0
10
-12.08122289353868
20
-1.4480765774575173
30
0
10
-12.033090417950691
20
-1.3328014221336124
30
0
0
SPLINE
5
791
100
AcDbEntity
8
0
100
AcDbSpline
70
4
71
3
72
8
73
4
74
0
42
0.000000001
43
0.0000000001
44
0.0000000001
40
0
40
0
40
0
40
0
40
1
40
1
40
1
40
1
41
1
41
1
41
1
41
1
10
-12.033090417950691
20
-1.3328014221336124
30
0
10
-11.998258934358523
20
-1.2520777003565013
30
0
10
-11.96941990248961
20
-1.202286925257031
30
0
10
-11.931884675264548
20
-1.1579565556825886
30
0
0
SPLINE
5
792
100
AcDbEntity
8
0
100
AcDbSpline
70
4
71
3
72
8
73
4
74
0
42
0.000000001
43
0.0000000001
44
0.0000000001
40
0
40
0
40
0
40
0
40
1
40
1
40
1
40
1
41
1
41
1
41
1
41
1
10
-11.931884675264548
20
-1.1579565556825886
30
0
10
-11.764052677331582
20
-0.96077850700909706
30
0
10
-11.507846206386773
20
-0.91161318244294831
30
0
10
-11.259670157148834
20
-1.0273395747732514
30
0
0
SPLINE
5
793
100
AcDbEntity
8
0
100
AcDbSpline
70
4
71
3
72
8
73
4
74
0
42
0.000000001
43
0.0000000001
44
0.0000000001
40
0
40
0
40
0
40
0
40
1
40
1
40
1
40
1
41
1
41
1
41
1
41
1
10
-11.259670157148834
20
-1.0273395747732514
30
0
10
-11.152857849303262
20
-1.0785522749404897
30
0
10
-11.097600452587086
20
-1.1197775555689735
30
0
10
-11.022169138899759
20
-1.2111638761515915
30
0
0
SPLINE
5
794
100
AcDbEntity
8
0
100
AcDbSpline
70
4
71
3
72
8
73
4
74
0
42
0.000000001
43
0.0000000001
44
0.0000000001
40
0
40
0
40
0
40
0
40
1
40
1
40
1
40
1
41
1
41
1
41
1
41
1
10
-11.022169138899759
20
-1.2111638761515915
30
0
10
-10.949662484539806
20
-1.2997811026587283
30
0
10
-10.878434622179087
20
-1.4875785340517389
30
0
10
-10.877093669263044
20
-1.599222770323129
30
0
0
SPLINE
5
795
100
AcDbEntity
8
0
100
AcDbSpline
70
4
71
3
72
8
73
4
74
0
42
0.000000001
43
0.0000000001
44
0.0000000001
40
0
40
0
40
0
40
0
40
1
40
1
40
1
40
1
41
1
41
1
41
1
41
1
10
-10.877093669263044
20
-1.599222770323129
30
0
10
-10.867190411401817
20
-2.0451058878668946
30
0
10
-11.249888520475098
20
-2.3655334057861439
30
0
10
-11.711567890136488
20
-2.2978055986328751
30
0
0
SPLINE
5
796
100
AcDbEntity
8
0
100
AcDbSpline
70
4
71
3
72
8
73
4
74
0
42
0.000000001
43
0.0000000001
44
0.0000000001
40
0
40
0
40
0
40
0
40
1
40
1
40
1
40
1
41
1
41
1
41
1
41
1
10
-11.711567890136488
20
-2.2978055986328751
30
0
10
-12.075986756193814
20
-2.2445144424061523
30
0
10
-12.45957760774262
20
-1.8857643024250608
30
0
10
-12.629061526135485
20
-1.4385432585311468
30
0
0
LINE
5
797
100
AcDbEntity
8
0
100
AcDbLine
10
-12.629061526135485
20
-1.4385432585311468
30
0
11
-12.675725374488165
21
-1.3156017302633563
31
0
0
LINE
5
798
100
AcDbEntity
8
0
100
AcDbLine
10
-12.675725374488165
20
-1.3156017302633563
30
0
11
-12.608053675119908
21
-1.1855477130507441
31
0
0
SPLINE
5
799
100
AcDbEntity
8
0
100
AcDbSpline
70
4
71
3
72
8
73
4
74
0
42
0.000000001
43
0.0000000001
44
0.0000000001
40
0
40
0
40
0
40
0
40
1
40
1
40
1
40
1
41
1
41
1
41
1
41
1
10
-12.608053675119908
20
-1.1855477130507441
30
0
10
-12.474863325543033
20
-0.93005690744855696
30
0
10
-12.398856290055823
20
-0.62541623602945806
30
0
10
-12.398398836957741
20
-0.35019015531925524
30
0
0
SPLINE
5
800
100
AcDbEntity
8
0
100
AcDbSpline
70
4
71
3
72
8
73
4
74
0
42
0.000000001
43
0.0000000001
44
0.0000000001
40
0
40
0
40
0
40
0
40
1
40
1
40
1
40
1
41
1
41
1
41
1
41
1
10
-12.398398836957741
20
-0.35019015531925524
30
0
10
-12.398190353446637
20
-0.27440100896062364
30
0
10
-12.395362125020254
20
-0.21107589398749979
30
0
10
-12.39366955552458
20
-0.21045984907165
30
0
0
SPLINE
5
801
100
AcDbEntity
8
0
100
AcDbSpline
70
4
71
3
72
8
73
4
74
0
42
0.000000001
43
0.0000000001
44
0.0000000001
40
0
40
0
40
0
40
0
40
1
40
1
40
1
40
1
41
1
41
1
41
1
41
1
10
-12.39366955552458
20
-0.21045984907165
30
0
10
-12.390822678823163
20
-0.21038206644571053
30
0
10
-12.361815649519007
20
-0.20844993298054185
30
0
10
-12.329345698597589
20
-0.20813258638509854
30
0
0
SPLINE
5
802
100
AcDbEntity
8
0
100
AcDbSpline
70
4
71
3
72
8
73
4
74
0
42
0.000000001
43
0.0000000001
44
0.0000000001
40
0
40
0
40
0
40
0
40
1
40
1
40
1
40
1
41
1
41
1
41
1
41
1
10
-12.329345698597589
20
-0.20813258638509854
30
0
10
-12.200697984743591
20
-0.2034780610119914
30
0
10
-12.046142114439736
20
-0.12518122234820844
30
0
10
-11.953996615872745
20
-0.014971343327945268
30
0
0
SPLINE
5
803
100
AcDbEntity
8
0
100
AcDbSpline
70
4
71
3
72
8
73
4
74
0
42
0.000000001
43
0.0000000001
44
0.0000000001
40
0
40
0
40
0
40
0
40
1
40
1
40
1
40
1
41
1
41
1
41
1
41
1
10
-11.953996615872745
20
-0.014971343327945268
30
0
10
-11.873387973271655
20
0.079538714475681588
30
0
10
-11.816195253564517
20
0.25944885723034372
30
0
10
-11.844299971815772
20
0.32876642392671829
30
0
0
LINE
5
804
100
AcDbEntity
8
0
100
AcDbLine
10
-11.844299971815772
20
0.32876642392671834
30
0
11
-11.860161574375972
21
0.36707947741119251
31
0
0
LINE
5
805
100
AcDbEntity
8
0
100
AcDbLine
10
-11.860161574375972
20
0.36707947741119251
30
0
11
-11.901399287187813
21
0.35398696892647097
31
0
0
SPLINE
5
806
100
AcDbEntity
8
0
100
AcDbSpline
70
4
71
3
72
8
73
4
74
0
42
0.000000001
43
0.0000000001
44
0.0000000001
40
0
40
0
40
0
40
0
40
1
40
1
40
1
40
1
41
1
41
1
41
1
41
1
10
-11.901399287187813
20
0.35398696892647097
30
0
10
-11.924556997837232
20
0.34651664731033904
30
0
10
-11.97010080896834
20
0.32418968117955066
30
0
10
-12.002026281508176
20
0.30394419767413489
30
0
0
SPLINE
5
807
100
AcDbEntity
8
0
100
AcDbSpline
70
4
71
3
72
8
73
4
74
0
42
0.000000001
43
0.0000000001
44
0.0000000001
40
0
40
0
40
0
40
0
40
1
40
1
40
1
40
1
41
1
41
1
41
1
41
1
10
-12.002026281508176
20
0.30394419767413489
30
0
10
-12.118496230113704
20
0.22896714755910677
30
0
10
-12.292538405938602
20
0.21737434676809253
30
0
10
-12.451904366867444
20
0.27341897536114712
30
0
0
LINE
5
808
100
AcDbEntity
8
0
100
AcDbLine
10
-12.451904366867444
20
0.27341897536114707
30
0
11
-12.54278350561855
21
0.30455418945821244
31
0
0
LINE
5
809
100
AcDbEntity
8
0
100
AcDbLine
10
-12.54278350561855
20
0.30455418945821244
30
0
11
-12.592975626031084
21
0.38979249306569597
31
0
0
SPLINE
5
810
100
AcDbEntity
8
0
100
AcDbSpline
70
4
71
3
72
8
73
4
74
0
42
0.000000001
43
0.0000000001
44
0.0000000001
40
0
40
0
40
0
40
0
40
1
40
1
40
1
40
1
41
1
41
1
41
1
41
1
10
-12.592975626031084
20
0.38979249306569597
30
0
10
-12.764646863567771
20
0.6876660760279163
30
0
10
-13.050563434016093
20
0.93341540511243348
30
0
10
-13.384768045304286
20
1.0695833322758985
30
0
0
SPLINE
5
811
100
AcDbEntity
8
0
100
AcDbSpline
70
4
71
3
72
8
73
4
74
0
42
0.000000001
43
0.0000000001
44
0.0000000001
40
0
40
0
40
0
40
0
40
1
40
1
40
1
40
1
41
1
41
1
41
1
41
1
10
-13.384768045304286
20
1.0695833322758985
30
0
10
-13.706275277329139
20
1.1998303742503709
30
0
10
-13.976579214804225
20
1.2078297154988482
30
0
10
-14.262928373983906
20
1.0940231874102582
30
0
0
SPLINE
5
812
100
AcDbEntity
8
0
100
AcDbSpline
70
4
71
3
72
8
73
4
74
0
42
0.000000001
43
0.0000000001
44
0.0000000001
40
0
40
0
40
0
40
0
40
1
40
1
40
1
40
1
41
1
41
1
41
1
41
1
10
-14.262928373983906
20
1.0940231874102582
30
0
10
-14.422412603614561
20
1.0292669047117988
30
0
10
-14.709281376809111
20
0.8510587370702698
30
0
10
-14.890977493394526
20
0.70250472410713372
30
0
0
SPLINE
5
813
100
AcDbEntity
8
0
100
AcDbSpline
70
4
71
3
72
8
73
4
74
0
42
0.000000001
43
0.0000000001
44
0.0000000001
40
0
40
0
40
0
40
0
40
1
40
1
40
1
40
1
41
1
41
1
41
1
41
1
10
-14.890977493394526
20
0.70250472410713372
30
0
10
-14.967902298683887
20
0.64000413756097108
30
0
10
-15.033056900129514
20
0.58466274212717562
30
0
10
-15.035209949289154
20
0.58004551330414633
30
0
0
SPLINE
5
814
100
AcDbEntity
8
0
100
AcDbSpline
70
4
71
3
72
8
73
4
74
0
42
0.000000001
43
0.0000000001
44
0.0000000001
40
0
40
0
40
0
40
0
40
1
40
1
40
1
40
1
41
1
41
1
41
1
41
1
10
-15.035209949289154
20
0.58004551330414633
30
0
10
-15.037362998448787
20
0.57542828448111849
30
0
10
-15.026663103093195
20
0.55919641706624201
30
0
10
-15.011423761540525
20
0.54365837719316168
30
0
0
LINE
5
815
100
AcDbEntity
8
0
100
AcDbLine
10
-15.011423761540522
20
0.54365837719316168
30
0
11
-14.983869737762539
21
0.51535139152248366
31
0
0
LINE
5
816
100
AcDbEntity
8
0
100
AcDbLine
10
-14.983869737762539
20
0.51535139152248366
30
0
11
-14.899791957452495
21
0.58716421834065191
31
0
0
SPLINE
5
817
100
AcDbEntity
8
0
100
AcDbSpline
70
4
71
3
72
8
73
4
74
0
42
0.000000001
43
0.0000000001
44
0.0000000001
40
0
40
0
40
0
40
0
40
1
40
1
40
1
40
1
41
1
41
1
41
1
41
1
10
-14.899791957452495
20
0.58716421834065191
30
0
10
-14.724943901475678
20
0.7361009283418104
30
0
10
-14.474384481766169
20
0.88767603153328789
30
0
10
-14.27196996982801
20
0.96614086763231366
30
0
0
SPLINE
5
818
100
AcDbEntity
8
0
100
AcDbSpline
70
4
71
3
72
8
73
4
74
0
42
0.000000001
43
0.0000000001
44
0.0000000001
40
0
40
0
40
0
40
0
40
1
40
1
40
1
40
1
41
1
41
1
41
1
41
1
10
-14.27196996982801
20
0.96614086763231366
30
0
10
-13.907762613847684
20
1.1082854618499847
30
0
10
-13.499396075253941
20
1.0106110177895915
30
0
10
-13.134053223302795
20
0.6940973325742118
30
0
0
SPLINE
5
819
100
AcDbEntity
8
0
100
AcDbSpline
70
4
71
3
72
8
73
4
74
0
42
0.000000001
43
0.0000000001
44
0.0000000001
40
0
40
0
40
0
40
0
40
1
40
1
40
1
40
1
41
1
41
1
41
1
41
1
10
-13.134053223302795
20
0.6940973325742118
30
0
10
-12.674122530922087
20
0.29412812805631738
30
0
10
-12.53768731181642
20
-0.2782123576317313
30
0
10
-12.764958482951245
20
-0.86504846563733739
30
0
0
LINE
5
820
100
AcDbEntity
8
0
100
AcDbLine
10
-12.764958482951245
20
-0.86504846563733717
30
0
11
-12.810166299211872
21
-0.98309271503672357
31
0
0
LINE
5
821
100
AcDbEntity
8
0
100
AcDbLine
10
-12.810166299211872
20
-0.98309271503672357
30
0
11
-12.869910223865912
21
-0.86107836218854827
31
0
0
SPLINE
5
822
100
AcDbEntity
8
0
100
AcDbSpline
70
4
71
3
72
8
73
4
74
0
42
0.000000001
43
0.0000000001
44
0.0000000001
40
0
40
0
40
0
40
0
40
1
40
1
40
1
40
1
41
1
41
1
41
1
41
1
10
-12.869910223865912
20
-0.86107836218854827
30
0
10
-13.016958313043656
20
-0.5676602267057963
30
0
10
-13.207618079887336
20
-0.32557608665798116
30
0
10
-13.438348820153742
20
-0.13928760561624901
30
0
0
SPLINE
5
823
100
AcDbEntity
8
0
100
AcDbSpline
70
4
71
3
72
8
73
4
74
0
42
0.000000001
43
0.0000000001
44
0.0000000001
40
0
40
0
40
0
40
0
40
1
40
1
40
1
40
1
41
1
41
1
41
1
41
1
10
-13.438348820153742
20
-0.13928760561624901
30
0
10
-13.765820450009345
20
0.12583916590497682
30
0
10
-14.112184178270962
20
0.26908228546318819
30
0
10
-14.547236699573986
20
0.3215831832471428
30
0
0
LINE
5
824
100
AcDbEntity
8
0
100
AcDbLine
10
-14.547236699573986
20
0.32158318324714286
30
0
11
-14.709592670272782
21
0.34107889438565175
31
0
0
LINE
5
825
100
AcDbEntity
8
0
100
AcDbLine
10
-14.709592670272782
20
0.34107889438565175
30
0
11
-14.710656762669235
21
0.29660539174268397
31
0
0
SPLINE
5
826
100
AcDbEntity
8
0
100
AcDbSpline
70
4
71
3
72
8
73
4
74
0
42
0.000000001
43
0.0000000001
44
0.0000000001
40
0
40
0
40
0
40
0
40
1
40
1
40
1
40
1
41
1
41
1
41
1
41
1
10
-14.710656762669235
20
0.29660539174268397
30
0
10
-14.711565289813811
20
0.24643813569686204
30
0
10
-14.717336825842604
20
0.24912944714640456
30
0
10
-14.549053753863129
20
0.221248671155506
30
0
0
SPLINE
5
827
100
AcDbEntity
8
0
100
AcDbSpline
70
4
71
3
72
8
73
4
74
0
42
0.000000001
43
0.0000000001
44
0.0000000001
40
0
40
0
40
0
40
0
40
1
40
1
40
1
40
1
41
1
41
1
41
1
41
1
10
-14.549053753863129
20
0.221248671155506
30
0
10
-14.281201563868088
20
0.17785471965824526
30
0
10
-13.957846197095682
20
0.042529969196774174
30
0
10
-13.719657567396499
20
-0.12475133426292863
30
0
0
SPLINE
5
828
100
AcDbEntity
8
0
100
AcDbSpline
70
4
71
3
72
8
73
4
74
0
42
0.000000001
43
0.0000000001
44
0.0000000001
40
0
40
0
40
0
40
0
40
1
40
1
40
1
40
1
41
1
41
1
41
1
41
1
10
-13.719657567396499
20
-0.12475133426292863
30
0
10
-13.382114519284524
20
-0.36225251547190179
30
0
10
-13.20491752578023
20
-0.61211189154794077
30
0
10
-13.032885429006345
20
-1.0900325342416668
30
0
0
LINE
5
829
100
AcDbEntity
8
0
100
AcDbLine
10
-13.032885429006345
20
-1.0900325342416668
30
0
11
-12.982830225570654
21
-1.2328244167934799
31
0
0
LINE
5
830
100
AcDbEntity
8
0
100
AcDbLine
10
-12.982830225570654
20
-1.2328244167934799
30
0
11
-13.090980459766373
21
-1.3411923771578784
31
0
0
SPLINE
5
831
100
AcDbEntity
8
0
100
AcDbSpline
70
4
71
3
72
8
73
4
74
0
42
0.000000001
43
0.0000000001
44
0.0000000001
40
0
40
0
40
0
40
0
40
1
40
1
40
1
40
1
41
1
41
1
41
1
41
1
10
-13.090980459766373
20
-1.3411923771578784
30
0
10
-13.300127953137128
20
-1.5486160576146588
30
0
10
-13.572768558916236
20
-1.7053528680107599
30
0
10
-13.856205490951906
20
-1.7797636019433796
30
0
0
SPLINE
5
832
100
AcDbEntity
8
0
100
AcDbSpline
70
4
71
3
72
8
73
4
74
0
42
0.000000001
43
0.0000000001
44
0.0000000001
40
0
40
0
40
0
40
0
40
1
40
1
40
1
40
1
41
1
41
1
41
1
41
1
10
-13.856205490951906
20
-1.7797636019433796
30
0
10
-13.932604466134707
20
-1.7989449930523345
30
0
10
-13.99546288535219
20
-1.8131980248344917
30
0
10
-13.997233237473791
20
-1.8109671930489137
30
0
0
SPLINE
5
833
100
AcDbEntity
8
0
100
AcDbSpline
70
4
71
3
72
8
73
4
74
0
42
0.000000001
43
0.0000000001
44
0.0000000001
40
0
40
0
40
0
40
0
40
1
40
1
40
1
40
1
41
1
41
1
41
1
41
1
10
-13.997233237473791
20
-1.8109671930489137
30
0
10
-13.997311020099733
20
-1.8081203163474924
30
0
10
-13.97139043146651
20
-1.776642891288267
30
0
10
-13.938777347476559
20
-1.7398544098642155
30
0
0
SPLINE
5
834
100
AcDbEntity
8
0
100
AcDbSpline
70
4
71
3
72
8
73
4
74
0
42
0.000000001
43
0.0000000001
44
0.0000000001
40
0
40
0
40
0
40
0
40
1
40
1
40
1
40
1
41
1
41
1
41
1
41
1
10
-13.938777347476559
20
-1.7398544098642155
30
0
10
-13.860782233699069
20
-1.6539627647908119
30
0
10
-13.776872450824266
20
-1.5342912963383384
30
0
10
-13.704661305258924
20
-1.4035434515839393
30
0
0
SPLINE
5
835
100
AcDbEntity
8
0
100
AcDbSpline
70
4
71
3
72
8
73
4
74
0
42
0.000000001
43
0.0000000001
44
0.0000000001
40
0
40
0
40
0
40
0
40
1
40
1
40
1
40
1
41
1
41
1
41
1
41
1
10
-13.704661305258924
20
-1.4035434515839393
30
0
10
-13.428735017955349
20
-0.9082554455045142
30
0
10
-13.651061882134423
20
-0.25791984603897272
30
0
10
-14.165409984055101
20
-0.056018569064101631
30
0
0
SPLINE
5
836
100
AcDbEntity
8
0
100
AcDbSpline
70
4
71
3
72
8
73
4
74
0
42
0.000000001
43
0.0000000001
44
0.0000000001
40
0
40
0
40
0
40
0
40
1
40
1
40
1
40
1
41
1
41
1
41
1
41
1
10
-14.165409984055101
20
-0.056018569064101631
30
0
10
-14.387724579010728
20
0.030784792679671654
30
0
10
-14.607627912562169
20
0.029334976679296423
30
0
10
-14.819426231306597
20
-0.060212451813340714
30
0
0
SPLINE
5
837
100
AcDbEntity
8
0
100
AcDbSpline
70
4
71
3
72
8
73
4
74
0
42
0.000000001
43
0.0000000001
44
0.0000000001
40
0
40
0
40
0
40
0
40
1
40
1
40
1
40
1
41
1
41
1
41
1
41
1
10
-14.819426231306597
20
-0.060212451813340714
30
0
10
-14.999681774549209
20
-0.13636245740917624
30
0
10
-15.162831193216563
20
-0.2963755437122626
30
0
10
-15.212877153994683
20
-0.44589100207919774
30
0
0
SPLINE
5
838
100
AcDbEntity
8
0
100
AcDbSpline
70
4
71
3
72
8
73
4
74
0
42
0.000000001
43
0.0000000001
44
0.0000000001
40
0
40
0
40
0
40
0
40
1
40
1
40
1
40
1
41
1
41
1
41
1
41
1
10
-15.212877153994683
20
-0.44589100207919774
30
0
10
-15.23132742101177
20
-0.50052613778784216
30
0
10
-15.25767119275889
20
-0.66249941144861579
30
0
10
-15.25089469868454
20
-0.68111767590093941
30
0
0
SPLINE
5
839
100
AcDbEntity
8
0
100
AcDbSpline
70
4
71
3
72
8
73
4
74
0
42
0.000000001
43
0.0000000001
44
0.0000000001
40
0
40
0
40
0
40
0
40
1
40
1
40
1
40
1
41
1
41
1
41
1
41
1
10
-15.25089469868454
20
-0.68111767590093941
30
0
10
-15.248968781311053
20
-0.68904226108936717
30
0
10
-15.147635527265544
20
-0.68570382426558041
30
0
10
-15.143329428946279
20
-0.67646936661951917
30
0
0
SPLINE
5
840
100
AcDbEntity
8
0
100
AcDbSpline
70
4
71
3
72
8
73
4
74
0
42
0.000000001
43
0.0000000001
44
0.0000000001
40
0
40
0
40
0
40
0
40
1
40
1
40
1
40
1
41
1
41
1
41
1
41
1
10
-15.143329428946279
20
-0.67646936661951917
30
0
10
-15.141714642076558
20
-0.67300644500224227
30
0
10
-15.138491284428779
20
-0.64499815765196666
30
0
10
-15.138730848398287
20
-0.61537508343196701
30
0
0
SPLINE
5
841
100
AcDbEntity
8
0
100
AcDbSpline
70
4
71
3
72
8
73
4
74
0
42
0.000000001
43
0.0000000001
44
0.0000000001
40
0
40
0
40
0
40
0
40
1
40
1
40
1
40
1
41
1
41
1
41
1
41
1
10
-15.138730848398287
20
-0.61537508343196701
30
0
10
-15.135442140307932
20
-0.54804878455166439
30
0
10
-15.069313661275139
20
-0.40322212154202708
30
0
10
-15.015468784009265
20
-0.35103873331341645
30
0
0
SPLINE
5
842
100
AcDbEntity
8
0
100
AcDbSpline
70
4
71
3
72
8
73
4
74
0
42
0.000000001
43
0.0000000001
44
0.0000000001
40
0
40
0
40
0
40
0
40
1
40
1
40
1
40
1
41
1
41
1
41
1
41
1
10
-15.015468784009265
20
-0.35103873331341645
30
0
10
-14.942240248215008
20
-0.27838272979325718
30
0
10
-14.818150628833141
20
-0.21117469961476118
30
0
10
-14.716745808253368
20
-0.18960069537666882
30
0
0
SPLINE
5
843
100
AcDbEntity
8
0
100
AcDbSpline
70
4
71
3
72
8
73
4
74
0
42
0.000000001
43
0.0000000001
44
0.0000000001
40
0
40
0
40
0
40
0
40
1
40
1
40
1
40
1
41
1
41
1
41
1
41
1
10
-14.716745808253368
20
-0.18960069537666882
30
0
10
-14.380833005760357
20
-0.11717501316844287
30
0
10
-14.034217281345882
20
-0.33220609517810501
30
0
10
-13.938322757984475
20
-0.67203608286067618
30
0
0
SPLINE
5
844
100
AcDbEntity
8
0
100
AcDbSpline
70
4
71
3
72
8
73
4
74
0
42
0.000000001
43
0.0000000001
44
0.0000000001
40
0
40
0
40
0
40
0
40
1
40
1
40
1
40
1
41
1
41
1
41
1
41
1
10
-13.938322757984475
20
-0.67203608286067618
30
0
10
-13.817319742233437
20
-1.0966501105784379
30
0
10
-14.067733002308529
20
-1.4829789757443319
30
0
10
-14.583966698486734
20
-1.6708726750784195
30
0
0
LINE
5
845
100
AcDbEntity
8
0
100
AcDbLine
10
-14.583966698486734
20
-1.6708726750784195
30
0
11
-14.751531078557697
21
-1.7318611217475179
31
0
0
LINE
5
846
100
AcDbEntity
8
0
100
AcDbLine
10
-14.751531078557697
20
-1.7318611217475179
30
0
11
-14.869270413544996
21
-1.6769583681768665
31
0
0
SPLINE
5
847
100
AcDbEntity
8
0
100
AcDbSpline
70
4
71
3
72
8
73
4
74
0
42
0.000000001
43
0.0000000001
44
0.0000000001
40
0
40
0
40
0
40
0
40
1
40
1
40
1
40
1
41
1
41
1
41
1
41
1
10
-14.869270413544996
20
-1.6769583681768665
30
0
10
-15.156692907778702
20
-1.5429310579896767
30
0
10
-15.511951909290111
20
-1.2409566706934989
30
0
10
-15.74725939230369
20
-0.92886735249920049
30
0
0
SPLINE
5
848
100
AcDbEntity
8
0
100
AcDbSpline
70
4
71
3
72
8
73
4
74
0
42
0.000000001
43
0.0000000001
44
0.0000000001
40
0
40
0
40
0
40
0
40
1
40
1
40
1
40
1
41
1
41
1
41
1
41
1
10
-15.74725939230369
20
-0.92886735249920049
30
0
10
-15.922835382846575
20
-0.69662749892161446
30
0
10
-16.101289330549282
20
-0.35905320739134072
30
0
10
-16.167218568728536
20
-0.1357833831235967
30
0
0
SPLINE
5
849
100
AcDbEntity
8
0
100
AcDbSpline
70
4
71
3
72
8
73
4
74
0
42
0.000000001
43
0.0000000001
44
0.0000000001
40
0
40
0
40
0
40
0
40
1
40
1
40
1
40
1
41
1
41
1
41
1
41
1
10
-16.167218568728536
20
-0.1357833831235967
30
0
10
-16.199259120444388
20
-0.026687325233222283
30
0
10
-16.18842230811196
20
0.014634386296237062
30
0
10
-16.114344379524031
20
0.077057190216459528
30
0
0
SPLINE
5
850
100
AcDbEntity
8
0
100
AcDbSpline
70
4
71
3
72
8
73
4
74
0
42
0.000000001
43
0.0000000001
44
0.0000000001
40
0
40
0
40
0
40
0
40
1
40
1
40
1
40
1
41
1
41
1
41
1
41
1
10
-16.114344379524031
20
0.077057190216459528
30
0
10
-16.0007275237116
20
0.17303890182128071
30
0
10
-15.855459029313037
20
0.17415893904285634
30
0
10
-15.713777941325224
20
0.077175295958367543
30
0
0
SPLINE
5
851
100
AcDbEntity
8
0
100
AcDbSpline
70
4
71
3
72
8
73
4
74
0
42
0.000000001
43
0.0000000001
44
0.0000000001
40
0
40
0
40
0
40
0
40
1
40
1
40
1
40
1
41
1
41
1
41
1
41
1
10
-15.713777941325224
20
0.077175295958367543
30
0
10
-15.574405467748925
20
-0.018731822546310416
30
0
10
-15.525809485931079
20
-0.17068038011824321
30
0
10
-15.590400960720086
20
-0.30919724480918576
30
0
0
SPLINE
5
852
100
AcDbEntity
8
0
100
AcDbSpline
70
4
71
3
72
8
73
4
74
0
42
0.000000001
43
0.0000000001
44
0.0000000001
40
0
40
0
40
0
40
0
40
1
40
1
40
1
40
1
41
1
41
1
41
1
41
1
10
-15.590400960720086
20
-0.30919724480918576
30
0
10
-15.628079321013674
20
-0.38999874921223637
30
0
10
-15.671463866893466
20
-0.42879093063571549
30
0
10
-15.756170124302718
20
-0.456746299726765
30
0
0
LINE
5
853
100
AcDbEntity
8
0
100
AcDbLine
10
-15.75617012430272
20
-0.45674629972676489
30
0
11
-15.825027211335129
21
-0.48084983407083542
31
0
0
LINE
5
854
100
AcDbEntity
8
0
100
AcDbLine
10
-15.825027211335129
20
-0.48084983407083542
30
0
11
-15.815702538879767
21
-0.53016769732298152
31
0
0
SPLINE
5
855
100
AcDbEntity
8
0
100
AcDbSpline
70
4
71
3
72
8
73
4
74
0
42
0.000000001
43
0.0000000001
44
0.0000000001
40
0
40
0
40
0
40
0
40
1
40
1
40
1
40
1
41
1
41
1
41
1
41
1
10
-15.815702538879767
20
-0.53016769732298152
30
0
10
-15.811001311339121
20
-0.55625006729976278
30
0
10
-15.804069252012891
20
-0.58056208515493835
30
0
10
-15.799452023189854
20
-0.58271513431457411
30
0
0
SPLINE
5
856
100
AcDbEntity
8
0
100
AcDbSpline
70
4
71
3
72
8
73
4
74
0
42
0.000000001
43
0.0000000001
44
0.0000000001
40
0
40
0
40
0
40
0
40
1
40
1
40
1
40
1
41
1
41
1
41
1
41
1
10
-15.799452023189854
20
-0.58271513431457411
30
0
10
-15.794834794366828
20
-0.58486818347420766
30
0
10
-15.74336388195505
20
-0.5709262821958131
30
0
10
-15.685200474186544
20
-0.55167332455259577
30
0
0
SPLINE
5
857
100
AcDbEntity
8
0
100
AcDbSpline
70
4
71
3
72
8
73
4
74
0
42
0.000000001
43
0.0000000001
44
0.0000000001
40
0
40
0
40
0
40
0
40
1
40
1
40
1
40
1
41
1
41
1
41
1
41
1
10
-15.685200474186544
20
-0.55167332455259577
30
0
10
-15.542869071298702
20
-0.50561930502408781
30
0
10
-15.466560310925198
20
-0.44142614898226312
30
0
10
-15.408966245904994
20
-0.31791527796617325
30
0
0
SPLINE
5
858
100
AcDbEntity
8
0
100
AcDbSpline
70
4
71
3
72
8
73
4
74
0
42
0.000000001
43
0.0000000001
44
0.0000000001
40
0
40
0
40
0
40
0
40
1
40
1
40
1
40
1
41
1
41
1
41
1
41
1
10
-15.408966245904994
20
-0.31791527796617325
30
0
10
-15.321229492649927
20
-0.12976320342763997
30
0
10
-15.350220900244929
20
0.076282227563034599
30
0
10
-15.486226883104932
20
0.23666876824658531
30
0
0
SPLINE
5
859
100
AcDbEntity
8
0
100
AcDbSpline
70
4
71
3
72
8
73
4
74
0
42
0.000000001
43
0.0000000001
44
0.0000000001
40
0
40
0
40
0
40
0
40
1
40
1
40
1
40
1
41
1
41
1
41
1
41
1
10
-15.486226883104932
20
0.23666876824658531
30
0
10
-15.528021506481716
20
0.28566928490328802
30
0
10
-15.560575456120761
20
0.30928125912499099
30
0
10
-15.651921290627511
20
0.35749773343060598
30
0
0
SPLINE
5
860
100
AcDbEntity
8
0
100
AcDbSpline
70
4
71
3
72
8
73
4
74
0
42
0.000000001
43
0.0000000001
44
0.0000000001
40
0
40
0
40
0
40
0
40
1
40
1
40
1
40
1
41
1
41
1
41
1
41
1
10
-15.651921290627511
20
0.35749773343060598
30
0
10
-15.784283922251644
20
0.4262459573786736
30
0
10
-15.885240695350802
20
0.45083802527922301
30
0
10
-16.018427855401885
20
0.44548967236432452
30
0
0
SPLINE
5
861
100
AcDbEntity
8
0
100
AcDbSpline
70
4
71
3
72
8
73
4
74
0
42
0.000000001
43
0.0000000001
44
0.0000000001
40
0
40
0
40
0
40
0
40
1
40
1
40
1
40
1
41
1
41
1
41
1
41
1
10
-16.018427855401885
20
0.44548967236432452
30
0
10
-16.114605618334458
20
0.44115249358666281
30
0
10
-16.167769100241902
20
0.42659454739241559
30
0
10
-16.269012139478111
20
0.37824434563575415
30
0
0
LINE
5
862
100
AcDbEntity
8
0
100
AcDbLine
10
-16.269012139478107
20
0.3782443456357541
30
0
11
-16.337558096006756
21
0.3427533044859874
31
0
0
LINE
5
863
100
AcDbEntity
8
0
100
AcDbLine
10
-16.337558096006756
20
0.3427533044859874
30
0
11
-16.426119214728875
21
0.601872002574803
31
0
0
SPLINE
5
864
100
AcDbEntity
8
0
100
AcDbSpline
70
4
71
3
72
8
73
4
74
0
42
0.000000001
43
0.0000000001
44
0.0000000001
40
0
40
0
40
0
40
0
40
1
40
1
40
1
40
1
41
1
41
1
41
1
41
1
10
-16.426119214728875
20
0.601872002574803
30
0
10
-16.473327541463142
20
0.74474166775255835
30
0
10
-16.577277350898143
20
1.0040097150015801
30
0
10
-16.654426098447843
20
1.179109767131256
30
0
0
LINE
5
865
100
AcDbEntity
8
0
100
AcDbLine
10
-16.654426098447843
20
1.179109767131256
30
0
11
-16.795864432940359
21
1.4966127886830396
31
0
0
LINE
5
866
100
AcDbEntity
8
0
100
AcDbLine
10
-16.795864432940359
20
1.4966127886830396
30
0
11
-16.783509264639189
21
1.6074916308783773
31
0
0
SPLINE
5
867
100
AcDbEntity
8
0
100
AcDbSpline
70
4
71
3
72
8
73
4
74
0
42
0.000000001
43
0.0000000001
44
0.0000000001
40
0
40
0
40
0
40
0
40
1
40
1
40
1
40
1
41
1
41
1
41
1
41
1
10
-16.783509264639189
20
1.6074916308783773
30
0
10
-16.773534277283787
20
1.7012114302392289
30
0
10
-16.762541899699482
20
1.7368393883658433
30
0
10
-16.714636555897634
20
1.8395727296782931
30
0
0
SPLINE
5
868
100
AcDbEntity
8
0
100
AcDbSpline
70
4
71
3
72
8
73
4
74
0
42
0.000000001
43
0.0000000001
44
0.0000000001
40
0
40
0
40
0
40
0
40
1
40
1
40
1
40
1
41
1
41
1
41
1
41
1
10
-16.714636555897634
20
1.8395727296782931
30
0
10
-16.66673121209579
20
1.9423060709907396
30
0
10
-16.647580901445231
20
1.9713193163865688
30
0
10
-16.586583049158662
20
2.0328149448871771
30
0
0
SPLINE
5
869
100
AcDbEntity
8
0
100
AcDbSpline
70
4
71
3
72
8
73
4
74
0
42
0.000000001
43
0.0000000001
44
0.0000000001
40
0
40
0
40
0
40
0
40
1
40
1
40
1
40
1
41
1
41
1
41
1
41
1
10
-16.586583049158662
20
2.0328149448871771
30
0
10
-16.391358808791267
20
2.2284622054085594
30
0
10
-16.174165434964401
20
2.2873878177273204
30
0
10
-15.949697790849147
20
2.2052016848065765
30
0
0
SPLINE
5
870
100
AcDbEntity
8
0
100
AcDbSpline
70
4
71
3
72
8
73
4
74
0
42
0.000000001
43
0.0000000001
44
0.0000000001
40
0
40
0
40
0
40
0
40
1
40
1
40
1
40
1
41
1
41
1
41
1
41
1
10
-15.949697790849147
20
2.2052016848065765
30
0
10
-15.667132089407973
20
2.1029504979990268
30
0
10
-15.478619155632247
20
1.8351666850124464
30
0
10
-15.489614722742347
20
1.5493962741985412
30
0
0
SPLINE
5
871
100
AcDbEntity
8
0
100
AcDbSpline
70
4
71
3
72
8
73
4
74
0
42
0.000000001
43
0.0000000001
44
0.0000000001
40
0
40
0
40
0
40
0
40
1
40
1
40
1
40
1
41
1
41
1
41
1
41
1
10
-15.489614722742347
20
1.5493962741985412
30
0
10
-15.496335271991581
20
1.3782725416093287
30
0
10
-15.571321727724088
20
1.2656824816432906
30
0
10
-15.694963299625341
20
1.2446405236034257
30
0
0
SPLINE
5
872
100
AcDbEntity
8
0
100
AcDbSpline
70
4
71
3
72
8
73
4
74
0
42
0.000000001
43
0.0000000001
44
0.0000000001
40
0
40
0
40
0
40
0
40
1
40
1
40
1
40
1
41
1
41
1
41
1
41
1
10
-15.694963299625341
20
1.2446405236034257
30
0
10
-15.787983055352722
20
1.2289936206460121
30
0
10
-15.816607387618852
20
1.2339095477894493
30
0
10
-15.859783449987539
20
1.2709065127246053
30
0
0
SPLINE
5
873
100
AcDbEntity
8
0
100
AcDbSpline
70
4
71
3
72
8
73
4
74
0
42
0.000000001
43
0.0000000001
44
0.0000000001
40
0
40
0
40
0
40
0
40
1
40
1
40
1
40
1
41
1
41
1
41
1
41
1
10
-15.859783449987539
20
1.2709065127246053
30
0
10
-15.910579183132562
20
1.3156724975963003
30
0
10
-15.91789393949681
20
1.3331364548428724
30
0
10
-15.936238369995447
20
1.4414671186571881
30
0
0
SPLINE
5
874
100
AcDbEntity
8
0
100
AcDbSpline
70
4
71
3
72
8
73
4
74
0
42
0.000000001
43
0.0000000001
44
0.0000000001
40
0
40
0
40
0
40
0
40
1
40
1
40
1
40
1
41
1
41
1
41
1
41
1
10
-15.936238369995447
20
1.4414671186571881
30
0
10
-15.954738365745971
20
1.5554915358743586
30
0
10
-15.972986365343626
20
1.5977279906400688
30
0
10
-16.019780914581478
20
1.6420334958478027
30
0
0
SPLINE
5
875
100
AcDbEntity
8
0
100
AcDbSpline
70
4
71
3
72
8
73
4
74
0
42
0.000000001
43
0.0000000001
44
0.0000000001
40
0
40
0
40
0
40
0
40
1
40
1
40
1
40
1
41
1
41
1
41
1
41
1
10
-16.019780914581478
20
1.6420334958478027
30
0
10
-16.060110100248743
20
1.6791082434088969
30
0
10
-16.100893549488287
20
1.6910993629470858
30
0
10
-16.170911159818132
20
1.6886165350086499
30
0
0
SPLINE
5
876
100
AcDbEntity
8
0
100
AcDbSpline
70
4
71
3
72
8
73
4
74
0
42
0.000000001
43
0.0000000001
44
0.0000000001
40
0
40
0
40
0
40
0
40
1
40
1
40
1
40
1
41
1
41
1
41
1
41
1
10
-16.170911159818132
20
1.6886165350086499
30
0
10
-16.254008846449345
20
1.6852065316506013
30
0
10
-16.345006253902259
20
1.5955408344561506
30
0
10
-16.353982499303783
20
1.5069765262082415
30
0
0
SPLINE
5
877
100
AcDbEntity
8
0
100
AcDbSpline
70
4
71
3
72
8
73
4
74
0
42
0.000000001
43
0.0000000001
44
0.0000000001
40
0
40
0
40
0
40
0
40
1
40
1
40
1
40
1
41
1
41
1
41
1
41
1
10
-16.353982499303783
20
1.5069765262082415
30
0
10
-16.366564799391099
20
1.3835558700014514
30
0
10
-16.240480885627274
20
1.2109324297185335
30
0
10
-16.085803720055718
20
1.1388052828708093
30
0
0
SPLINE
5
878
100
AcDbEntity
8
0
100
AcDbSpline
70
4
71
3
72
8
73
4
74
0
42
0.000000001
43
0.0000000001
44
0.0000000001
40
0
40
0
40
0
40
0
40
1
40
1
40
1
40
1
41
1
41
1
41
1
41
1
10
-16.085803720055718
20
1.1388052828708093
30
0
10
-15.867101395877581
20
1.03822801728388
30
0
10
-15.597802416448044
20
1.0461556290381886
30
0
10
-15.449873691058327
20
1.1584594228671814
30
0
0
SPLINE
5
879
100
AcDbEntity
8
0
100
AcDbSpline
70
4
71
3
72
8
73
4
74
0
42
0.000000001
43
0.0000000001
44
0.0000000001
40
0
40
0
40
0
40
0
40
1
40
1
40
1
40
1
41
1
41
1
41
1
41
1
10
-15.449873691058327
20
1.1584594228671814
30
0
10
-15.379563598499756
20
1.2128020763471035
30
0
10
-15.304434009698729
20
1.3618632711417484
30
0
10
-15.290541837153766
20
1.4790519116557823
30
0
0
SPLINE
5
880
100
AcDbEntity
8
0
100
AcDbSpline
70
4
71
3
72
8
73
4
74
0
42
0.000000001
43
0.0000000001
44
0.0000000001
40
0
40
0
40
0
40
0
40
1
40
1
40
1
40
1
41
1
41
1
41
1
41
1
10
-15.290541837153766
20
1.4790519116557823
30
0
10
-15.275495357403047
20
1.5957022898799087
30
0
10
-15.284462197187104
20
1.7361979902035662
30
0
10
-15.310575647622281
20
1.8369089832415448
30
0
0
SPLINE
5
881
100
AcDbEntity
8
0
100
AcDbSpline
70
4
71
3
72
8
73
4
74
0
42
0.000000001
43
0.0000000001
44
0.0000000001
40
0
40
0
40
0
40
0
40
1
40
1
40
1
40
1
41
1
41
1
41
1
41
1
10
-15.310575647622281
20
1.8369089832415448
30
0
10
-15.328907645937562
20
1.9030747588244095
30
0
10
-15.327992902701309
20
1.9321595707545065
30
0
10
-15.307013105578241
20
2.0193424400105142
30
0
0
SPLINE
5
882
100
AcDbEntity
8
0
100
AcDbSpline
70
4
71
3
72
8
73
4
74
0
42
0.000000001
43
0.0000000001
44
0.0000000001
40
0
40
0
40
0
40
0
40
1
40
1
40
1
40
1
41
1
41
1
41
1
41
1
10
-15.307013105578241
20
2.0193424400105142
30
0
10
-15.253678436709766
20
2.2361841972577543
30
0
10
-15.124063061360289
20
2.3514064343224312
30
0
10
-14.932628494823081
20
2.3520784240633903
30
0
0
SPLINE
5
883
100
AcDbEntity
8
0
100
AcDbSpline
70
4
71
3
72
8
73
4
74
0
42
0.000000001
43
0.0000000001
44
0.0000000001
40
0
40
0
40
0
40
0
40
1
40
1
40
1
40
1
41
1
41
1
41
1
41
1
10
-14.932628494823081
20
2.3520784240633903
30
0
10
-14.737808789294549
20
2.3539825036360544
30
0
10
-14.577095659357985
20
2.1652111946558814
30
0
10
-14.646531494756161
20
2.0163055651131212
30
0
0
SPLINE
5
884
100
AcDbEntity
8
0
100
AcDbSpline
70
4
71
3
72
8
73
4
74
0
42
0.000000001
43
0.0000000001
44
0.0000000001
40
0
40
0
40
0
40
0
40
1
40
1
40
1
40
1
41
1
41
1
41
1
41
1
10
-14.646531494756161
20
2.0163055651131212
30
0
10
-14.675597658411222
20
1.9539729760021936
30
0
10
-14.742522611978462
20
1.9008624123539732
30
0
10
-14.791535560818518
20
1.9012326772086421
30
0
0
SPLINE
5
885
100
AcDbEntity
8
0
100
AcDbSpline
70
4
71
3
72
8
73
4
74
0
42
0.000000001
43
0.0000000001
44
0.0000000001
40
0
40
0
40
0
40
0
40
1
40
1
40
1
40
1
41
1
41
1
41
1
41
1
10
-14.791535560818518
20
1.9012326772086421
30
0
10
-14.841702816864341
20
1.9021412043532184
30
0
10
-14.924274673388995
20
1.9420503964323841
30
0
10
-14.964221162018234
20
1.9859732046020846
30
0
0
SPLINE
5
886
100
AcDbEntity
8
0
100
AcDbSpline
70
4
71
3
72
8
73
4
74
0
42
0.000000001
43
0.0000000001
44
0.0000000001
40
0
40
0
40
0
40
0
40
1
40
1
40
1
40
1
41
1
41
1
41
1
41
1
10
-14.964221162018234
20
1.9859732046020846
30
0
10
-15.00239729852586
20
2.0276651809862085
30
0
10
-15.013246543041648
20
2.0285083576882066
30
0
10
-15.03862886938496
20
1.9981852398347337
30
0
0
SPLINE
5
887
100
AcDbEntity
8
0
100
AcDbSpline
70
4
71
3
72
8
73
4
74
0
42
0.000000001
43
0.0000000001
44
0.0000000001
40
0
40
0
40
0
40
0
40
1
40
1
40
1
40
1
41
1
41
1
41
1
41
1
10
-15.03862886938496
20
1.9981852398347337
30
0
10
-15.05239655713644
20
1.9807150664964845
30
0
10
-15.049238549931253
20
1.9694053423167313
30
0
10
-15.022222788443173
20
1.9399440494402926
30
0
0
SPLINE
5
888
100
AcDbEntity
8
0
100
AcDbSpline
70
4
71
3
72
8
73
4
74
0
42
0.000000001
43
0.0000000001
44
0.0000000001
40
0
40
0
40
0
40
0
40
1
40
1
40
1
40
1
41
1
41
1
41
1
41
1
10
-15.022222788443173
20
1.9399440494402926
30
0
10
-15.003981004937192
20
1.9187900387903045
30
0
10
-14.956265496371412
20
1.8824869013969365
30
0
10
-14.917401748413672
20
1.8573379229314468
30
0
0
SPLINE
5
889
100
AcDbEntity
8
0
100
AcDbSpline
70
4
71
3
72
8
73
4
74
0
42
0.000000001
43
0.0000000001
44
0.0000000001
40
0
40
0
40
0
40
0
40
1
40
1
40
1
40
1
41
1
41
1
41
1
41
1
10
-14.917401748413672
20
1.8573379229314468
30
0
10
-14.855374073714831
20
1.8185768219663678
30
0
10
-14.838137248254403
20
1.8133497643191632
30
0
10
-14.782892283721592
20
1.814289371922132
30
0
0
SPLINE
5
890
100
AcDbEntity
8
0
100
AcDbSpline
70
4
71
3
72
8
73
4
74
0
42
0.000000001
43
0.0000000001
44
0.0000000001
40
0
40
0
40
0
40
0
40
1
40
1
40
1
40
1
41
1
41
1
41
1
41
1
10
-14.782892283721592
20
1.814289371922132
30
0
10
-14.656475401653173
20
1.8171735451736375
30
0
10
-14.519168788993099
20
1.9428623297160763
30
0
10
-14.504433439746146
20
2.0709002147458939
30
0
0
SPLINE
5
891
100
AcDbEntity
8
0
100
AcDbSpline
70
4
71
3
72
8
73
4
74
0
42
0.000000001
43
0.0000000001
44
0.0000000001
40
0
40
0
40
0
40
0
40
1
40
1
40
1
40
1
41
1
41
1
41
1
41
1
10
-14.504433439746146
20
2.0709002147458939
30
0
10
-14.485015511233573
20
2.2361030621461162
30
0
10
-14.566697488888693
20
2.3894268426182728
30
0
10
-14.727768451496569
20
2.4870203145269327
30
0
0
SPLINE
5
892
100
AcDbEntity
8
0
100
AcDbSpline
70
4
71
3
72
8
73
4
74
0
42
0.000000001
43
0.0000000001
44
0.0000000001
40
0
40
0
40
0
40
0
40
1
40
1
40
1
40
1
41
1
41
1
41
1
41
1
10
-14.727768451496569
20
2.4870203145269327
30
0
10
-14.858749644128791
20
2.567772090196546
30
0
10
-14.993862721553368
20
2.5703483224700752
30
0
10
-15.174196047421924
20
2.4970451935756701
30
0
0
SPLINE
5
893
100
AcDbEntity
8
0
100
AcDbSpline
70
4
71
3
72
8
73
4
74
0
42
0.000000001
43
0.0000000001
44
0.0000000001
40
0
40
0
40
0
40
0
40
1
40
1
40
1
40
1
41
1
41
1
41
1
41
1
10
-15.174196047421924
20
2.4970451935756701
30
0
10
-15.275056389620108
20
2.4555430524276112
30
0
10
-15.406292767930982
20
2.3579403378613888
30
0
10
-15.45674629011385
20
2.2859065953487505
30
0
0
SPLINE
5
894
100
AcDbEntity
8
0
100
AcDbSpline
70
4
71
3
72
8
73
4
74
0
42
0.000000001
43
0.0000000001
44
0.0000000001
40
0
40
0
40
0
40
0
40
1
40
1
40
1
40
1
41
1
41
1
41
1
41
1
10
-15.45674629011385
20
2.2859065953487505
30
0
10
-15.472050982109103
20
2.262126623691803
30
0
10
-15.489126026225975
20
2.2405774838204326
30
0
10
-15.493049427507213
20
2.2381910867829728
30
0
0
SPLINE
5
895
100
AcDbEntity
8
0
100
AcDbSpline
70
4
71
3
72
8
73
4
74
0
42
0.000000001
43
0.0000000001
44
0.0000000001
40
0
40
0
40
0
40
0
40
1
40
1
40
1
40
1
41
1
41
1
41
1
41
1
10
-15.493049427507213
20
2.2381910867829728
30
0
10
-15.497511091078358
20
2.2346503825397619
30
0
10
-15.541763678026864
20
2.2693387330633983
30
0
10
-15.592021148881981
20
2.3152590251408518
30
0
0
SPLINE
5
896
100
AcDbEntity
8
0
100
AcDbSpline
70
4
71
3
72
8
73
4
74
0
42
0.000000001
43
0.0000000001
44
0.0000000001
40
0
40
0
40
0
40
0
40
1
40
1
40
1
40
1
41
1
41
1
41
1
41
1
10
-15.592021148881981
20
2.3152590251408518
30
0
10
-15.765574791150406
20
2.4734800844814093
30
0
10
-15.985885686106593
20
2.5495119843353375
30
0
10
-16.22755907522388
20
2.5315129543246493
30
0
0
SPLINE
5
897
100
AcDbEntity
8
0
100
AcDbSpline
70
4
71
3
72
8
73
4
74
0
42
0.000000001
43
0.0000000001
44
0.0000000001
40
0
40
0
40
0
40
0
40
1
40
1
40
1
40
1
41
1
41
1
41
1
41
1
10
-16.22755907522388
20
2.5315129543246493
30
0
10
-16.519244155135095
20
2.508728698055688
30
0
10
-16.805263535535978
20
2.3202873308142191
30
0
10
-16.966378173745504
20
2.0440905620426473
30
0
0
SPLINE
5
898
100
AcDbEntity
8
0
100
AcDbSpline
70
4
71
3
72
8
73
4
74
0
42
0.000000001
43
0.0000000001
44
0.0000000001
40
0
40
0
40
0
40
0
40
1
40
1
40
1
40
1
41
1
41
1
41
1
41
1
10
-16.966378173745504
20
2.0440905620426473
30
0
10
-16.998985041643767
20
1.9862196365028697
30
0
10
-17.029594425634286
20
1.9386596931889766
30
0
10
-17.034133871831383
20
1.9379658656471908
30
0
0
SPLINE
5
899
100
AcDbEntity
8
0
100
AcDbSpline
70
4
71
3
72
8
73
4
74
0
42
0.000000001
43
0.0000000001
44
0.0000000001
40
0
40
0
40
0
40
0
40
1
40
1
40
1
40
1
41
1
41
1
41
1
41
1
10
-17.034133871831383
20
1.9379658656471908
30
0
10
-17.04936699729237
20
1.9324214614045414
30
0
10
-17.532417940812522
20
2.7197930291022576
30
0
10
-17.646588517664107
20
2.9360467953261531
30
0
0
SPLINE
5
900
100
AcDbEntity
8
0
100
AcDbSpline
70
4
71
3
72
8
73
4
74
0
42
0.000000001
43
0.0000000001
44
0.0000000001
40
0
40
0
40
0
40
0
40
1
40
1
40
1
40
1
41
1
41
1
41
1
41
1
10
-17.646588517664107
20
2.9360467953261531
30
0
10
-17.870079094666405
20
3.3578606485100395
30
0
10
-17.956440462061352
20
3.7241619192990951
30
0
10
-17.918849127051271
20
4.1001176413223188
30
0
0
SPLINE
5
901
100
AcDbEntity
8
0
100
AcDbSpline
70
4
71
3
72
8
73
4
74
0
42
0.000000001
43
0.0000000001
44
0.0000000001
40
0
40
0
40
0
40
0
40
1
40
1
40
1
40
1
41
1
41
1
41
1
41
1
10
-17.918849127051271
20
4.1001176413223188
30
0
10
-17.885174977230758
20
4.4526045221923614
30
0
10
-17.730227004271402
20
4.7668094300363171
30
0
10
-17.50268216214279
20
4.9473853464402655
30
0
0
SPLINE
5
902
100
AcDbEntity
8
0
100
AcDbSpline
70
4
71
3
72
8
73
4
74
0
42
0.000000001
43
0.0000000001
44
0.0000000001
40
0
40
0
40
0
40
0
40
1
40
1
40
1
40
1
41
1
41
1
41
1
41
1
10
-17.50268216214279
20
4.9473853464402655
30
0
10
-17.306368965012219
20
5.1031763331417075
30
0
10
-17.06702283858149
20
5.185499220079393
30
0
10
-16.830959204149433
20
5.1794133640210482
30
0
0
SPLINE
5
903
100
AcDbEntity
8
0
100
AcDbSpline
70
4
71
3
72
8
73
4
74
0
42
0.000000001
43
0.0000000001
44
0.0000000001
40
0
40
0
40
0
40
0
40
1
40
1
40
1
40
1
41
1
41
1
41
1
41
1
10
-16.830959204149433
20
5.1794133640210482
30
0
10
-16.676456252104803
20
5.1762273029233539
30
0
10
-16.589889427764643
20
5.1569400752959531
30
0
10
-16.4336752579493
20
5.0911227267669235
30
0
0
SPLINE
5
904
100
AcDbEntity
8
0
100
AcDbSpline
70
4
71
3
72
8
73
4
74
0
42
0.000000001
43
0.0000000001
44
0.0000000001
40
0
40
0
40
0
40
0
40
1
40
1
40
1
40
1
41
1
41
1
41
1
41
1
10
-16.4336752579493
20
5.0911227267669235
30
0
10
-16.313244611512459
20
5.0419915092250598
30
0
10
-16.274458646180658
20
5.0196894074609908
30
0
10
-16.192957098144142
20
4.9563891568545886
30
0
0
SPLINE
5
905
100
AcDbEntity
8
0
100
AcDbSpline
70
4
71
3
72
8
73
4
74
0
42
0.000000001
43
0.0000000001
44
0.0000000001
40
0
40
0
40
0
40
0
40
1
40
1
40
1
40
1
41
1
41
1
41
1
41
1
10
-16.192957098144142
20
4.9563891568545886
30
0
10
-16.015946750350125
20
4.8176357547600341
30
0
10
-15.886393698877345
20
4.622315083491662
30
0
10
-15.837013674708404
20
4.420815314789758
30
0
0
SPLINE
5
906
100
AcDbEntity
8
0
100
AcDbSpline
70
4
71
3
72
8
73
4
74
0
42
0.000000001
43
0.0000000001
44
0.0000000001
40
0
40
0
40
0
40
0
40
1
40
1
40
1
40
1
41
1
41
1
41
1
41
1
10
-15.837013674708404
20
4.420815314789758
30
0
10
-15.786168212829956
20
4.2073897769922537
30
0
10
-15.800663998107398
20
4.0497288177424249
30
0
10
-15.890015538232191
20
3.8581138215866226
30
0
0
SPLINE
5
907
100
AcDbEntity
8
0
100
AcDbSpline
70
4
71
3
72
8
73
4
74
0
42
0.000000001
43
0.0000000001
44
0.0000000001
40
0
40
0
40
0
40
0
40
1
40
1
40
1
40
1
41
1
41
1
41
1
41
1
10
-15.890015538232191
20
3.8581138215866226
30
0
10
-16.044574598061846
20
3.5296745302355448
30
0
10
-16.335133424659809
20
3.3405393354522834
30
0
10
-16.602142437952864
20
3.3947825314653368
30
0
0
SPLINE
5
908
100
AcDbEntity
8
0
100
AcDbSpline
70
4
71
3
72
8
73
4
74
0
42
0.000000001
43
0.0000000001
44
0.0000000001
40
0
40
0
40
0
40
0
40
1
40
1
40
1
40
1
41
1
41
1
41
1
41
1
10
-16.602142437952864
20
3.3947825314653368
30
0
10
-16.845682610092737
20
3.4451085422888279
30
0
10
-17.06503205964513
20
3.6527905979500561
30
0
10
-17.111649205830258
20
3.8782974700950499
30
0
0
SPLINE
5
909
100
AcDbEntity
8
0
100
AcDbSpline
70
4
71
3
72
8
73
4
74
0
42
0.000000001
43
0.0000000001
44
0.0000000001
40
0
40
0
40
0
40
0
40
1
40
1
40
1
40
1
41
1
41
1
41
1
41
1
10
-17.111649205830258
20
3.8782974700950499
30
0
10
-17.139156527440694
20
4.0091697996429367
30
0
10
-17.128176582039746
20
4.0869626460010045
30
0
10
-17.068507250485855
20
4.217937622541549
30
0
0
SPLINE
5
910
100
AcDbEntity
8
0
100
AcDbSpline
70
4
71
3
72
8
73
4
74
0
42
0.000000001
43
0.0000000001
44
0.0000000001
40
0
40
0
40
0
40
0
40
1
40
1
40
1
40
1
41
1
41
1
41
1
41
1
10
-17.068507250485855
20
4.217937622541549
30
0
10
-17.017910595234468
20
4.326442499882786
30
0
10
-17.010757620213774
20
4.3357547401547878
30
0
10
-16.948138764965805
20
4.3796308461569495
30
0
0
SPLINE
5
911
100
AcDbEntity
8
0
100
AcDbSpline
70
4
71
3
72
8
73
4
74
0
42
0.000000001
43
0.0000000001
44
0.0000000001
40
0
40
0
40
0
40
0
40
1
40
1
40
1
40
1
41
1
41
1
41
1
41
1
10
-16.948138764965805
20
4.3796308461569495
30
0
10
-16.868749780013054
20
4.4353611547204466
30
0
10
-16.795197681531672
20
4.4544647632034646
30
0
10
-16.690168157991064
20
4.4476477830532506
30
0
0
SPLINE
5
912
100
AcDbEntity
8
0
100
AcDbSpline
70
4
71
3
72
8
73
4
74
0
42
0.000000001
43
0.0000000001
44
0.0000000001
40
0
40
0
40
0
40
0
40
1
40
1
40
1
40
1
41
1
41
1
41
1
41
1
10
-16.690168157991064
20
4.4476477830532506
30
0
10
-16.457872359588368
20
4.4334817765546015
30
0
10
-16.299713624124504
20
4.2964925104899772
30
0
10
-16.3031983835426
20
4.1112121770195795
30
0
0
SPLINE
5
913
100
AcDbEntity
8
0
100
AcDbSpline
70
4
71
3
72
8
73
4
74
0
42
0.000000001
43
0.0000000001
44
0.0000000001
40
0
40
0
40
0
40
0
40
1
40
1
40
1
40
1
41
1
41
1
41
1
41
1
10
-16.3031983835426
20
4.1112121770195795
30
0
10
-16.306085746319894
20
3.9874866064007066
30
0
10
-16.357155313418605
20
3.9171454333837379
30
0
10
-16.461867490363773
20
3.891492462612522
30
0
0
SPLINE
5
914
100
AcDbEntity
8
0
100
AcDbSpline
70
4
71
3
72
8
73
4
74
0
42
0.000000001
43
0.0000000001
44
0.0000000001
40
0
40
0
40
0
40
0
40
1
40
1
40
1
40
1
41
1
41
1
41
1
41
1
10
-16.461867490363773
20
3.891492462612522
30
0
10
-16.526956741366817
20
3.8754690787087571
30
0
10
-16.526418479076906
20
3.8766233859145158
30
0
10
-16.517327154499373
20
3.8358461527666448
30
0
0
SPLINE
5
915
100
AcDbEntity
8
0
100
AcDbSpline
70
4
71
3
72
8
73
4
74
0
42
0.000000001
43
0.0000000001
44
0.0000000001
40
0
40
0
40
0
40
0
40
1
40
1
40
1
40
1
41
1
41
1
41
1
41
1
10
-16.517327154499373
20
3.8358461527666448
30
0
10
-16.510855574837112
20
3.8075329510042879
30
0
10
-16.508008698135693
20
3.8076107336302289
30
0
10
-16.426992494129848
20
3.8246390755795474
30
0
0
SPLINE
5
916
100
AcDbEntity
8
0
100
AcDbSpline
70
4
71
3
72
8
73
4
74
0
42
0.000000001
43
0.0000000001
44
0.0000000001
40
0
40
0
40
0
40
0
40
1
40
1
40
1
40
1
41
1
41
1
41
1
41
1
10
-16.426992494129848
20
3.8246390755795474
30
0
10
-16.322740796848656
20
3.8462908624435799
30
0
10
-16.271431665780444
20
3.8870089612405465
30
0
10
-16.215601736790166
20
3.9916682199264839
30
0
0
SPLINE
5
917
100
AcDbEntity
8
0
100
AcDbSpline
70
4
71
3
72
8
73
4
74
0
42
0.000000001
43
0.0000000001
44
0.0000000001
40
0
40
0
40
0
40
0
40
1
40
1
40
1
40
1
41
1
41
1
41
1
41
1
10
-16.215601736790166
20
3.9916682199264839
30
0
10
-16.117476218683287
20
4.1749759338558432
30
0
10
-16.148854023315742
20
4.384944766127755
30
0
10
-16.302174614262107
20
4.5534052411599335
30
0
0
SPLINE
5
918
100
AcDbEntity
8
0
100
AcDbSpline
70
4
71
3
72
8
73
4
74
0
42
0.000000001
43
0.0000000001
44
0.0000000001
40
0
40
0
40
0
40
0
40
1
40
1
40
1
40
1
41
1
41
1
41
1
41
1
10
-16.302174614262107
20
4.5534052411599335
30
0
10
-16.339196443563978
20
4.5945589552541488
30
0
10
-16.383371247886544
20
4.6264004290763667
30
0
10
-16.466636931952991
20
4.6708490673526173
30
0
0
SPLINE
5
919
100
AcDbEntity
8
0
100
AcDbSpline
70
4
71
3
72
8
73
4
74
0
42
0.000000001
43
0.0000000001
44
0.0000000001
40
0
40
0
40
0
40
0
40
1
40
1
40
1
40
1
41
1
41
1
41
1
41
1
10
-16.466636931952991
20
4.6708490673526173
30
0
10
-16.565524654610147
20
4.7239876848933484
30
0
10
-16.591995937716629
20
4.7335208408598151
30
0
10
-16.672019615860268
20
4.7427304341391565
30
0
0
SPLINE
5
920
100
AcDbEntity
8
0
100
AcDbSpline
70
4
71
3
72
8
73
4
74
0
42
0.000000001
43
0.0000000001
44
0.0000000001
40
0
40
0
40
0
40
0
40
1
40
1
40
1
40
1
41
1
41
1
41
1
41
1
10
-16.672019615860268
20
4.7427304341391565
30
0
10
-16.842916216663333
20
4.761992797399845
30
0
10
-16.996252429318844
20
4.7224757079761774
30
0
10
-17.116717345739882
20
4.6268766934093826
30
0
0
SPLINE
5
921
100
AcDbEntity
8
0
100
AcDbSpline
70
4
71
3
72
8
73
4
74
0
42
0.000000001
43
0.0000000001
44
0.0000000001
40
0
40
0
40
0
40
0
40
1
40
1
40
1
40
1
41
1
41
1
41
1
41
1
10
-17.116717345739882
20
4.6268766934093826
30
0
10
-17.212104850229682
20
4.551905859386026
30
0
10
-17.268790388105305
20
4.4785622444157491
30
0
10
-17.324769666255779
20
4.3585142950169349
30
0
0
SPLINE
5
922
100
AcDbEntity
8
0
100
AcDbSpline
70
4
71
3
72
8
73
4
74
0
42
0.000000001
43
0.0000000001
44
0.0000000001
40
0
40
0
40
0
40
0
40
1
40
1
40
1
40
1
41
1
41
1
41
1
41
1
10
-17.324769666255779
20
4.3585142950169349
30
0
10
-17.494400070202861
20
3.9977544019046327
30
0
10
-17.369084740040876
20
3.5612923877172071
30
0
10
-17.015446741490873
20
3.2769375229194839
30
0
0
SPLINE
5
923
100
AcDbEntity
8
0
100
AcDbSpline
70
4
71
3
72
8
73
4
74
0
42
0.000000001
43
0.0000000001
44
0.0000000001
40
0
40
0
40
0
40
0
40
1
40
1
40
1
40
1
41
1
41
1
41
1
41
1
10
-17.015446741490873
20
3.2769375229194839
30
0
10
-16.919321896817525
20
3.1997918019356666
30
0
10
-16.717318135809901
20
3.1055959012016991
30
0
10
-16.606821990652595
20
3.0863926722919168
30
0
0
SPLINE
5
924
100
AcDbEntity
8
0
100
AcDbSpline
70
4
71
3
72
8
73
4
74
0
42
0.000000001
43
0.0000000001
44
0.0000000001
40
0
40
0
40
0
40
0
40
1
40
1
40
1
40
1
41
1
41
1
41
1
41
1
10
-16.606821990652595
20
3.0863926722919168
30
0
10
-16.343431464228694
20
3.0394580165514431
30
0
10
-16.062153797444335
20
3.130333965776761
30
0
10
-15.848311292624611
20
3.3327577203724852
30
0
0
SPLINE
5
925
100
AcDbEntity
8
0
100
AcDbSpline
70
4
71
3
72
8
73
4
74
0
42
0.000000001
43
0.0000000001
44
0.0000000001
40
0
40
0
40
0
40
0
40
1
40
1
40
1
40
1
41
1
41
1
41
1
41
1
10
-15.848311292624611
20
3.3327577203724852
30
0
10
-15.818311737458261
20
3.3609277890663223
30
0
10
-15.752086827524494
20
3.4396602430273546
30
0
10
-15.701477740089748
20
3.5060002321371408
30
0
0
SPLINE
5
926
100
AcDbEntity
8
0
100
AcDbSpline
70
4
71
3
72
8
73
4
74
0
42
0.000000001
43
0.0000000001
44
0.0000000001
40
0
40
0
40
0
40
0
40
1
40
1
40
1
40
1
41
1
41
1
41
1
41
1
10
-15.701477740089748
20
3.5060002321371408
30
0
10
-15.571725447763427
20
3.6787760481461453
30
0
10
-15.510979591629722
20
3.8120596390982153
30
0
10
-15.468799081689122
20
4.0200496357374123
30
0
0
SPLINE
5
927
100
AcDbEntity
8
0
100
AcDbSpline
70
4
71
3
72
8
73
4
74
0
42
0.000000001
43
0.0000000001
44
0.0000000001
40
0
40
0
40
0
40
0
40
1
40
1
40
1
40
1
41
1
41
1
41
1
41
1
10
-15.468799081689122
20
4.0200496357374123
30
0
10
-15.36422987485258
20
4.5305988211703392
30
0
10
-15.561967860656901
20
5.0317487410477497
30
0
10
-15.986783992834193
20
5.3352414843126743
30
0
0
SPLINE
5
928
100
AcDbEntity
8
0
100
AcDbSpline
70
4
71
3
72
8
73
4
74
0
42
0.000000001
43
0.0000000001
44
0.0000000001
40
0
40
0
40
0
40
0
40
1
40
1
40
1
40
1
41
1
41
1
41
1
41
1
10
-15.986783992834193
20
5.3352414843126743
30
0
10
-16.585374682974361
20
5.7633310287909651
30
0
10
-17.380256895404184
20
5.7011573574176175
30
0
10
-17.896702264619275
20
5.1873320590375966
30
0
0
SPLINE
5
929
100
AcDbEntity
8
0
100
AcDbSpline
70
4
71
3
72
8
73
4
74
0
42
0.000000001
43
0.0000000001
44
0.0000000001
40
0
40
0
40
0
40
0
40
1
40
1
40
1
40
1
41
1
41
1
41
1
41
1
10
-17.896702264619275
20
5.1873320590375966
30
0
10
-17.959930948691429
20
5.1240660784153791
30
0
10
-18.032232309066071
20
5.0383299985938583
30
0
10
-18.066687311711874
20
4.9855367815410787
30
0
0
SPLINE
5
930
100
AcDbEntity
8
0
100
AcDbSpline
70
4
71
3
72
8
73
4
74
0
42
0.000000001
43
0.0000000001
44
0.0000000001
40
0
40
0
40
0
40
0
40
1
40
1
40
1
40
1
41
1
41
1
41
1
41
1
10
-18.066687311711874
20
4.9855367815410787
30
0
10
-18.098911482572127
20
4.9345139166099132
30
0
10
-18.135597317003519
20
4.8799503474355248
30
0
10
-18.147672435259327
20
4.8630962190131282
30
0
0
LINE
5
931
100
AcDbEntity
8
0
100
AcDbLine
10
-18.147672435259327
20
4.8630962190131282
30
0
11
-18.170207884901217
21
4.8328508837855972
31
0
0
LINE
5
932
100
AcDbEntity
8
0
100
AcDbLine
10
-18.170207884901217
20
4.8328508837855972
30
0
11
-18.267941300352607
21
4.8854512390364189
31
0
0
SPLINE
5
933
100
AcDbEntity
8
0
100
AcDbSpline
70
4
71
3
72
8
73
4
74
0
42
0.000000001
43
0.0000000001
44
0.0000000001
40
0
40
0
40
0
40
0
40
1
40
1
40
1
40
1
41
1
41
1
41
1
41
1
10
-18.267941300352607
20
4.8854512390364189
30
0
10
-18.382451061600459
20
4.9472798358416181
30
0
10
-18.496973255031669
20
5.0512733208782779
30
0
10
-18.560712147501214
20
5.1526657092746904
30
0
0
SPLINE
5
934
100
AcDbEntity
8
0
100
AcDbSpline
70
4
71
3
72
8
73
4
74
0
42
0.000000001
43
0.0000000001
44
0.0000000001
40
0
40
0
40
0
40
0
40
1
40
1
40
1
40
1
41
1
41
1
41
1
41
1
10
-18.560712147501214
20
5.1526657092746904
30
0
10
-18.585114380165685
20
5.1907454148813459
30
0
10
-18.60689686791488
20
5.2163610891024792
30
0
10
-18.610126441654334
20
5.2094352458679323
30
0
0
SPLINE
5
935
100
AcDbEntity
8
0
100
AcDbSpline
70
4
71
3
72
8
73
4
74
0
42
0.000000001
43
0.0000000001
44
0.0000000001
40
0
40
0
40
0
40
0
40
1
40
1
40
1
40
1
41
1
41
1
41
1
41
1
10
-18.610126441654334
20
5.2094352458679323
30
0
10
-18.61335601539378
20
5.2025094026333774
30
0
10
-18.615341067118177
20
5.150033532176054
30
0
10
-18.61601624638493
20
5.0913256460259628
30
0
0
SPLINE
5
936
100
AcDbEntity
8
0
100
AcDbSpline
70
4
71
3
72
8
73
4
74
0
42
0.000000001
43
0.0000000001
44
0.0000000001
40
0
40
0
40
0
40
0
40
1
40
1
40
1
40
1
41
1
41
1
41
1
41
1
10
-18.61601624638493
20
5.0913256460259628
30
0
10
-18.616881260887752
20
4.8935812811700581
30
0
10
-18.523637562900017
20
4.6716275454516367
30
0
10
-18.386794619429701
20
4.5431726933996002
30
0
0
SPLINE
5
937
100
AcDbEntity
8
0
100
AcDbSpline
70
4
71
3
72
8
73
4
74
0
42
0.000000001
43
0.0000000001
44
0.0000000001
40
0
40
0
40
0
40
0
40
1
40
1
40
1
40
1
41
1
41
1
41
1
41
1
10
-18.386794619429701
20
4.5431726933996002
30
0
10
-18.351698707501317
20
4.5099435644938097
30
0
10
-18.319987934564271
20
4.4754823457563084
30
0
10
-18.315753402779261
20
4.4664812359880681
30
0
0
SPLINE
5
938
100
AcDbEntity
8
0
100
AcDbSpline
70
4
71
3
72
8
73
4
74
0
42
0.000000001
43
0.0000000001
44
0.0000000001
40
0
40
0
40
0
40
0
40
1
40
1
40
1
40
1
41
1
41
1
41
1
41
1
10
-18.315753402779261
20
4.4664812359880681
30
0
10
-18.3103645637885
20
4.4569418639299228
30
0
10
-18.317271758748014
20
4.3969241053221957
30
0
10
-18.329717141858488
20
4.3310570280597336
30
0
0
SPLINE
5
939
100
AcDbEntity
8
0
100
AcDbSpline
70
4
71
3
72
8
73
4
74
0
42
0.000000001
43
0.0000000001
44
0.0000000001
40
0
40
0
40
0
40
0
40
1
40
1
40
1
40
1
41
1
41
1
41
1
41
1
10
-18.329717141858488
20
4.3310570280597336
30
0
10
-18.406931402810681
20
3.9454717191690638
30
0
10
-18.338606524936402
20
3.4259711527013326
30
0
10
-18.154816656502152
20
2.9973745893514216
30
0
0
SPLINE
5
940
100
AcDbEntity
8
0
100
AcDbSpline
70
4
71
3
72
8
73
4
74
0
42
0.000000001
43
0.0000000001
44
0.0000000001
40
0
40
0
40
0
40
0
40
1
40
1
40
1
40
1
41
1
41
1
41
1
41
1
10
-18.154816656502152
20
2.9973745893514216
30
0
10
-18.116550305185221
20
2.9106708480344223
30
0
10
-17.914991565092318
20
2.4990839783587933
30
0
10
-17.829691100568045
20
2.3384516576140673
30
0
0
SPLINE
5
941
100
AcDbEntity
8
0
100
AcDbSpline
70
4
71
3
72
8
73
4
74
0
42
0.000000001
43
0.0000000001
44
0.0000000001
40
0
40
0
40
0
40
0
40
1
40
1
40
1
40
1
41
1
41
1
41
1
41
1
10
-17.829691100568045
20
2.3384516576140673
30
0
10
-17.823070171745584
20
2.325527146564585
30
0
10
-17.844924226029036
20
2.3329072533714159
30
0
10
-17.905025983354385
20
2.3637437691480794
30
0
0
SPLINE
5
942
100
AcDbEntity
8
0
100
AcDbSpline
70
4
71
3
72
8
73
4
74
0
42
0.000000001
43
0.0000000001
44
0.0000000001
40
0
40
0
40
0
40
0
40
1
40
1
40
1
40
1
41
1
41
1
41
1
41
1
10
-17.905025983354385
20
2.3637437691480794
30
0
10
-18.169829029228588
20
2.5040870937456452
30
0
10
-18.460406504101595
20
2.3781992313095657
30
0
10
-18.580193214689981
20
2.0700832060898366
30
0
0
SPLINE
5
943
100
AcDbEntity
8
0
100
AcDbSpline
70
4
71
3
72
8
73
4
74
0
42
0.000000001
43
0.0000000001
44
0.0000000001
40
0
40
0
40
0
40
0
40
1
40
1
40
1
40
1
41
1
41
1
41
1
41
1
10
-18.580193214689981
20
2.0700832060898366
30
0
10
-18.630861436475637
20
1.9433427613342953
30
0
10
-18.631835314062794
20
1.8538574937584527
30
0
10
-18.584626987328527
20
1.7109878285806961
30
0
0
SPLINE
5
944
100
AcDbEntity
8
0
100
AcDbSpline
70
4
71
3
72
8
73
4
74
0
42
0.000000001
43
0.0000000001
44
0.0000000001
40
0
40
0
40
0
40
0
40
1
40
1
40
1
40
1
41
1
41
1
41
1
41
1
10
-18.584626987328527
20
1.7109878285806961
30
0
10
-18.545427244500306
20
1.5901215668466031
30
0
10
-18.454672590542685
20
1.4592678855737513
30
0
10
-18.35800948357943
20
1.3832764717956925
30
0
0
SPLINE
5
945
100
AcDbEntity
8
0
100
AcDbSpline
70
4
71
3
72
8
73
4
74
0
42
0.000000001
43
0.0000000001
44
0.0000000001
40
0
40
0
40
0
40
0
40
1
40
1
40
1
40
1
41
1
41
1
41
1
41
1
10
-18.35800948357943
20
1.3832764717956925
30
0
10
-18.284049823693305
20
1.3248983644244037
30
0
10
-18.130299833541365
20
1.2658512938780397
30
0
10
-18.033810940105038
20
1.2588009658500086
30
0
0
SPLINE
5
946
100
AcDbEntity
8
0
100
AcDbSpline
70
4
71
3
72
8
73
4
74
0
42
0.000000001
43
0.0000000001
44
0.0000000001
40
0
40
0
40
0
40
0
40
1
40
1
40
1
40
1
41
1
41
1
41
1
41
1
10
-18.033810940105038
20
1.2588009658500086
30
0
10
-17.850528090542397
20
1.2450052242060288
30
0
10
-17.623873127283318
20
1.3121665522169783
30
0
10
-17.463480370508091
20
1.4270900909612512
30
0
0
LINE
5
947
100
AcDbEntity
8
0
100
AcDbLine
10
-17.463480370508091
20
1.4270900909612512
30
0
11
-17.370706394841886
21
1.4934425122543922
31
0
0
LINE
5
948
100
AcDbEntity
8
0
100
AcDbLine
10
-17.370706394841886
20
1.4934425122543922
30
0
11
-17.267235713345897
21
1.2934206134453698
31
0
0
SPLINE
5
949
100
AcDbEntity
8
0
100
AcDbSpline
70
4
71
3
72
8
73
4
74
0
42
0.000000001
43
0.0000000001
44
0.0000000001
40
0
40
0
40
0
40
0
40
1
40
1
40
1
40
1
41
1
41
1
41
1
41
1
10
-17.267235713345897
20
1.2934206134453698
30
0
10
-17.086084238101964
20
0.94053541382815997
30
0
10
-16.776400291139961
20
0.20027893148951623
30
0
10
-16.833739170481497
20
0.25512255070927065
30
0
0
SPLINE
5
950
100
AcDbEntity
8
0
100
AcDbSpline
70
4
71
3
72
8
73
4
74
0
42
0.000000001
43
0.0000000001
44
0.0000000001
40
0
40
0
40
0
40
0
40
1
40
1
40
1
40
1
41
1
41
1
41
1
41
1
10
-16.833739170481497
20
0.25512255070927065
30
0
10
-16.985899238130429
20
0.40196231933581161
30
0
10
-17.206630126674728
20
0.5976408232754965
30
0
10
-17.291516813702575
20
0.65970898405019562
30
0
0
SPLINE
5
951
100
AcDbEntity
8
0
100
AcDbSpline
70
4
71
3
72
8
73
4
74
0
42
0.000000001
43
0.0000000001
44
0.0000000001
40
0
40
0
40
0
40
0
40
1
40
1
40
1
40
1
41
1
41
1
41
1
41
1
10
-17.291516813702575
20
0.65970898405019562
30
0
10
-17.689861662773378
20
0.95366857134864647
30
0
10
-18.126015573022933
20
1.0881906311839922
30
0
10
-18.525259706580737
20
1.0396756215178722
30
0
0
LINE
5
952
100
AcDbEntity
8
0
100
AcDbLine
10
-18.525259706580737
20
1.0396756215178722
30
0
11
-18.659828305623723
21
1.0223237168814285
31
0
0
LINE
5
953
100
AcDbEntity
8
0
100
AcDbLine
10
-18.659828305623723
20
1.0223237168814285
30
0
11
-18.665098875912676
21
1.1526640002310908
31
0
0
SPLINE
5
954
100
AcDbEntity
8
0
100
AcDbSpline
70
4
71
3
72
8
73
4
74
0
42
0.000000001
43
0.0000000001
44
0.0000000001
40
0
40
0
40
0
40
0
40
1
40
1
40
1
40
1
41
1
41
1
41
1
41
1
10
-18.665098875912676
20
1.1526640002310908
30
0
10
-18.677422800795554
20
1.4577402869474361
30
0
10
-18.785594709832193
20
1.6838445557332438
30
0
10
-19.007246557704423
20
1.8715206918585614
30
0
0
SPLINE
5
955
100
AcDbEntity
8
0
100
AcDbSpline
70
4
71
3
72
8
73
4
74
0
42
0.000000001
43
0.0000000001
44
0.0000000001
40
0
40
0
40
0
40
0
40
1
40
1
40
1
40
1
41
1
41
1
41
1
41
1
10
-19.007246557704423
20
1.8715206918585614
30
0
10
-19.124460062585179
20
1.9697426408664269
30
0
10
-19.366864575794331
20
2.0827777217471874
30
0
10
-19.520297219350823
20
2.1093548413721277
30
0
0
SPLINE
5
956
100
AcDbEntity
8
0
100
AcDbSpline
70
4
71
3
72
8
73
4
74
0
42
0.000000001
43
0.0000000001
44
0.0000000001
40
0
40
0
40
0
40
0
40
1
40
1
40
1
40
1
41
1
41
1
41
1
41
1
10
-19.520297219350823
20
2.1093548413721277
30
0
10
-19.735595756262594
20
2.1479168644435727
30
0
10
-19.981419678447264
20
2.1149896233839742
30
0
10
-20.170365200954354
20
2.0232175791974383
30
0
0
LINE
5
957
100
AcDbEntity
8
0
100
AcDbLine
10
-20.17036520095435
20
2.0232175791974378
30
0
11
-20.264837962207896
21
1.9773315571041674
31
0
0
LINE
5
958
100
AcDbEntity
8
0
100
AcDbLine
10
-20.264837962207896
20
1.9773315571041674
30
0
11
-20.555017570533909
21
2.1126445307070103
31
0
0
ARC
5
959
100
AcDbEntity
8
0
100
AcDbCircle
10
-21.008171464052232
20
2.3239536615773564
30
0
40
0.499999999999995
210
-0
220
0
230
1
100
AcDbArc
50
-24.999999999999716
51
64.999999999999829
0
LINE
5
960
100
AcDbEntity
8
0
100
AcDbLine
10
-20.796862333181881
20
2.7771075550956805
30
0
11
-21.008171464052232
21
2.3239536615773564
31
0
0
LINE
5
961
100
AcDbEntity
8
0
100
AcDbLine
10
-21.008171464052232
20
2.3239536615773564
30
0
11
-21.067081470209612
21
2.3514238485905032
31
0
0
LINE
5
962
100
AcDbEntity
8
0
100
AcDbLine
10
-21.067081470209612
20
2.3514238485905032
30
0
11
-21.414666979978598
21
1.6060243174220628
31
0
0
ENDSEC
0
SECTION
2
OBJECTS
0
DICTIONARY
5
C
100
AcDbDictionary
3
ACAD_GROUP
350
D
3
ACAD_MLINESTYLE
350
17
0
DICTIONARY
5
D
100
AcDbDictionary
0
DICTIONARY
5
1A
330
C
100
AcDbDictionary
0
DICTIONARY
5
17
100
AcDbDictionary
0
ENDSEC
0
EOF
