0
SECTION
2
HEADER
9
$INSUNITS
70
1
9
$ACADVER
1
AC1014
9
$HANDSEED
5
FFFF
0
ENDSEC
0
SECTION
2
TABLES
0
TABLE
2
VPORT
5
8
100
AcDbSymbolTable
0
ENDTAB
0
TABLE
2
LTYPE
5
5
100
AcDbSymbolTable
0
LTYPE
5
14
100
AcDbSymbolTableRecord
100
AcDbLinetypeTableRecord
2
BYBLOCK
70
0
0
LTYPE
5
15
100
AcDbSymbolTableRecord
100
AcDbLinetypeTableRecord
2
BYLAYER
70
0
0
ENDTAB
0
TABLE
2
LAYER
5
2
100
AcDbSymbolTable
70
2
0
LAYER
5
50
100
AcDbSymbolTableRecord
100
AcDbLayerTableRecord
2
0
70
0
6
CONTINUOUS
0
ENDTAB
0
TABLE
2
STYLE
5
3
100
AcDbSymbolTable
70
1
0
STYLE
5
11
100
AcDbSymbolTableRecord
100
AcDbTextStyleTableRecord
2
STANDARD
70
0
0
ENDTAB
0
TABLE
2
VIEW
5
6
100
AcDbSymbolTable
70
0
0
ENDTAB
0
TABLE
2
UCS
5
7
100
AcDbSymbolTable
70
0
0
ENDTAB
0
TABLE
2
APPID
5
9
100
AcDbSymbolTable
70
2
0
APPID
5
12
100
AcDbSymbolTableRecord
100
AcDbRegAppTableRecord
2
ACAD
70
0
0
ENDTAB
0
TABLE
2
DIMSTYLE
5
A
100
AcDbSymbolTable
70
1
0
ENDTAB
0
TABLE
2
BLOCK_RECORD
5
1
100
AcDbSymbolTable
70
1
0
BLOCK_RECORD
5
1F
100
AcDbSymbolTableRecord
100
AcDbBlockTableRecord
2
*MODEL_SPACE
0
BLOCK_RECORD
5
1B
100
AcDbSymbolTableRecord
100
AcDbBlockTableRecord
2
*PAPER_SPACE
0
ENDTAB
0
ENDSEC
0
SECTION
2
BLOCKS
0
BLOCK
5
20
100
AcDbEntity
100
AcDbBlockBegin
2
*MODEL_SPACE
0
ENDBLK
5
21
100
AcDbEntity
100
AcDbBlockEnd
0
BLOCK
5
1C
100
AcDbEntity
100
AcDbBlockBegin
2
*PAPER_SPACE
0
ENDBLK
5
1D
100
AcDbEntity
100
AcDbBlockEnd
0
ENDSEC
0
SECTION
2
ENTITIES
0
LINE
5
100
100
AcDbEntity
8
0
100
AcDbLine
10
6.5000002074429366
20
1.2689913790096823
30
0
11
6.5000002074429366
21
1.0047463752105998
31
0
0
ARC
5
101
100
AcDbEntity
8
0
100
AcDbCircle
10
2.6443755881691158
20
0.78244198919604013
30
0
40
0.0877819745205798
210
0
220
0
230
1
100
AcDbArc
50
270.90057286553014
51
309.14572767002204
0
LINE
5
102
100
AcDbEntity
8
0
100
AcDbLine
10
5.9972350032760735
20
1.2686684694769572
30
0
11
6.2000001978686479
21
1.1000000351057275
31
0
0
ARC
5
103
100
AcDbEntity
8
0
100
AcDbCircle
10
6.0973917141091967
20
1.3434590656444574
30
0
40
0.12499999999999975
210
0
220
-0
230
1
100
AcDbArc
50
22.832448545400997
51
50.248643497512973
0
ARC
5
104
100
AcDbEntity
8
0
100
AcDbCircle
10
6.0973917141091967
20
1.3434590656444574
30
0
40
0.12500000000000008
210
0
220
-0
230
1
100
AcDbArc
50
50.248643497512973
51
175.96030352157982
0
ARC
5
105
100
AcDbEntity
8
0
100
AcDbCircle
10
6.0973917141091967
20
1.3434590656444574
30
0
40
0.12500000000000155
210
0
220
-0
230
1
100
AcDbArc
50
4.0396964784202103
51
22.832448545400997
0
CIRCLE
5
106
100
AcDbEntity
8
0
100
AcDbCircle
10
5.5031589532219849
20
1.3522650160803418
30
0
40
0.10000000000000003
210
0
220
0
230
1
0
SPLINE
5
107
100
AcDbEntity
8
0
100
AcDbSpline
70
4
71
2
72
6
73
3
74
0
42
0.000000001
43
0.0000000001
44
0.0000000001
40
0
40
0
40
0
40
0.36530547877299852
40
0.36530547877299852
40
0.36530547877299852
41
1
41
4.6581315317512848
41
1
10
2.6997919069566585
20
0.71436330925313096
30
0
10
2.7597228805741656
20
0.76888983630931473
30
0
10
2.8087346513198952
20
0.70991842162994556
30
0
0
ARC
5
108
100
AcDbEntity
8
0
100
AcDbCircle
10
5.9793575498763589
20
1.4974801409042298
30
0
40
0.20356923627094861
210
0
220
-0
230
1
100
AcDbArc
50
47.784854834506639
51
84.180001604190807
0
LINE
5
109
100
AcDbEntity
8
0
100
AcDbLine
10
2.8087346513198952
20
0.70991842162994556
30
0
11
2.8747722417003096
21
0.60467025836149035
31
0
0
ARC
5
110
100
AcDbEntity
8
0
100
AcDbCircle
10
2.6250518200720561
20
0.76072271398308422
30
0
40
0.37959224736866937
210
0
220
0
230
1
100
AcDbArc
50
335.08860895303883
51
344.79850295398921
0
ARC
5
111
100
AcDbEntity
8
0
100
AcDbCircle
10
6.2731205286241716
20
1.199534445102804
30
0
40
0.12350579558572616
210
0
220
0
230
1
100
AcDbArc
50
-156.35494450798839
51
53.6981164717902
0
ARC
5
112
100
AcDbEntity
8
0
100
AcDbCircle
10
2.4395751243388992
20
13.811963494199533
30
0
40
13.118912926181386
210
0
220
0
230
1
100
AcDbArc
50
266.56055041961338
51
270.90051206704959
0
ARC
5
113
100
AcDbEntity
8
0
100
AcDbCircle
10
6.0973917141091967
20
1.3434590656444574
30
0
40
0.12500000000000014
210
0
220
0
230
1
100
AcDbArc
50
175.96030352157982
51
243.73983234056595
0
ARC
5
114
100
AcDbEntity
8
0
100
AcDbCircle
10
1.8555208011986897
20
2.5230671949688093
30
0
40
1.8177566838873729
210
0
220
0
230
1
100
AcDbArc
50
242.41332069976013
51
270.48851480755525
0
LINE
5
115
100
AcDbEntity
8
0
100
AcDbLine
10
6.1773238646674429
20
1.4395624022521625
30
0
11
6.3462408593796971
21
1.2990688550998792
31
0
0
ARC
5
116
100
AcDbEntity
8
0
100
AcDbCircle
10
3.5344806233635944
20
0.51361096676071527
30
0
40
0.56281157471164067
210
0
220
-0
230
1
100
AcDbArc
50
36.515677865029609
51
164.7985133792956
0
ARC
5
117
100
AcDbEntity
8
0
100
AcDbCircle
10
6.2737761724843981
20
0.98734121885512427
30
0
40
0.28908709710433345
210
0
220
0
230
1
100
AcDbArc
50
287.16555512146994
51
305.75308430089723
0
CIRCLE
5
118
100
AcDbEntity
8
0
100
AcDbCircle
10
4.0304526087656516
20
1.3522650160803418
30
0
40
0.09999999999999995
210
0
220
0
230
1
0
LINE
5
119
100
AcDbEntity
8
0
100
AcDbLine
10
6.1161390552001
20
1.6482490161978676
30
0
11
6.4770343543899633
21
1.3208352698837813
31
0
0
LINE
5
120
100
AcDbEntity
8
0
100
AcDbLine
10
6.499253951477348
20
0.99531272173465468
30
0
11
6.4668839845684163
21
0.79199364302191733
31
0
0
ARC
5
121
100
AcDbEntity
8
0
100
AcDbCircle
10
6.2950326743052827
20
0.92688465991756042
30
0
40
0.22506352720868433
210
0
220
0
230
1
100
AcDbArc
50
259.52153744629362
51
292.2057742916158
0
ARC
5
122
100
AcDbEntity
8
0
100
AcDbCircle
10
6.4400002074432638
20
1.0047463752105783
30
0
40
0.059999999999671337
210
0
220
0
230
1
100
AcDbArc
50
-9.0460102326494294
51
0
0
ARC
5
123
100
AcDbEntity
8
0
100
AcDbCircle
10
6.4076302405339938
20
0.80142729649786815
30
0
40
0.060000000000010489
210
0
220
0
230
1
100
AcDbArc
50
305.75308430090138
51
350.95398976737567
0
ARC
5
124
100
AcDbEntity
8
0
100
AcDbCircle
10
6.4300002074429292
20
1.2689913790096787
30
0
40
0.070000000000007501
210
0
220
-0
230
1
100
AcDbArc
50
0
51
47.7848548345046
0
ARC
5
125
100
AcDbEntity
8
0
100
AcDbCircle
10
4.1056686578517931
20
0.97441403404496274
30
0
40
0.17314729395958811
210
0
220
0
230
1
100
AcDbArc
50
226.64900017254556
51
280.05790663027614
0
ARC
5
126
100
AcDbEntity
8
0
100
AcDbCircle
10
4.9770812402189968
20
-3.938571606060369
30
0
40
4.8165208100919408
210
0
220
-0
230
1
100
AcDbArc
50
74.625126414237783
51
100.05790663028482
0
LINE
5
127
100
AcDbEntity
8
0
100
AcDbLine
10
2.2767449815099718
20
1.8408884803153593
30
0
11
3.8232369936534654
21
1.839890213772323
31
0
0
ARC
5
128
100
AcDbEntity
8
0
100
AcDbCircle
10
2.1414225372941584
20
3.0709055885385026
30
0
40
2.4357102749930029
210
0
220
0
230
1
100
AcDbArc
50
217.14914096297437
51
242.44118687186295
0
ARC
5
129
100
AcDbEntity
8
0
100
AcDbCircle
10
2.092015563487581
20
-2.0481007940590468
30
0
40
3.8933741836718094
210
0
220
-0
230
1
100
AcDbArc
50
87.280458855471139
51
98.746162262555401
0
SPLINE
5
130
100
AcDbEntity
8
0
100
AcDbSpline
70
4
71
2
72
6
73
3
74
0
42
0.000000001
43
0.0000000001
44
0.0000000001
40
0
40
0
40
0
40
0.27754524410913273
40
0.27754524410913273
40
0.27754524410913273
41
1
41
1.3436716554052033
41
1
10
2.8747722417003096
20
0.60467025836149035
30
0
10
2.9211160935451264
20
0.55510789440741848
30
0
10
2.969326914713184
20
0.60083233443434536
30
0
0
LINE
5
131
100
AcDbEntity
8
0
100
AcDbLine
10
0.20000000638285992
20
1.6000000510628773
30
0
11
1.500000047871447
21
1.8000000574457429
31
0
0
ARC
5
132
100
AcDbEntity
8
0
100
AcDbCircle
10
3.8121483540540937
20
-15.338380144608687
30
0
40
17.178273937261114
210
0
220
-0
230
1
100
AcDbArc
50
82.682846335870479
51
89.963015359050218
0
ENDSEC
0
SECTION
2
OBJECTS
0
DICTIONARY
5
C
100
AcDbDictionary
3
ACAD_GROUP
350
D
3
ACAD_MLINESTYLE
350
17
0
DICTIONARY
5
D
100
AcDbDictionary
0
DICTIONARY
5
1A
330
C
100
AcDbDictionary
0
DICTIONARY
5
17
100
AcDbDictionary
0
ENDSEC
0
EOF
