0
SECTION
2
HEADER
9
$INSUNITS
70
1
9
$ACADVER
1
AC1014
9
$HANDSEED
5
FFFF
0
ENDSEC
0
SECTION
2
TABLES
0
TABLE
2
VPORT
5
8
100
AcDbSymbolTable
0
ENDTAB
0
TABLE
2
LTYPE
5
5
100
AcDbSymbolTable
0
LTYPE
5
14
100
AcDbSymbolTableRecord
100
AcDbLinetypeTableRecord
2
BYBLOCK
70
0
0
LTYPE
5
15
100
AcDbSymbolTableRecord
100
AcDbLinetypeTableRecord
2
BYLAYER
70
0
0
ENDTAB
0
TABLE
2
LAYER
5
2
100
AcDbSymbolTable
70
2
0
LAYER
5
50
100
AcDbSymbolTableRecord
100
AcDbLayerTableRecord
2
0
70
0
6
CONTINUOUS
0
ENDTAB
0
TABLE
2
STYLE
5
3
100
AcDbSymbolTable
70
1
0
STYLE
5
11
100
AcDbSymbolTableRecord
100
AcDbTextStyleTableRecord
2
STANDARD
70
0
0
ENDTAB
0
TABLE
2
VIEW
5
6
100
AcDbSymbolTable
70
0
0
ENDTAB
0
TABLE
2
UCS
5
7
100
AcDbSymbolTable
70
0
0
ENDTAB
0
TABLE
2
APPID
5
9
100
AcDbSymbolTable
70
2
0
APPID
5
12
100
AcDbSymbolTableRecord
100
AcDbRegAppTableRecord
2
ACAD
70
0
0
ENDTAB
0
TABLE
2
DIMSTYLE
5
A
100
AcDbSymbolTable
70
1
0
ENDTAB
0
TABLE
2
BLOCK_RECORD
5
1
100
AcDbSymbolTable
70
1
0
BLOCK_RECORD
5
1F
100
AcDbSymbolTableRecord
100
AcDbBlockTableRecord
2
*MODEL_SPACE
0
BLOCK_RECORD
5
1B
100
AcDbSymbolTableRecord
100
AcDbBlockTableRecord
2
*PAPER_SPACE
0
ENDTAB
0
ENDSEC
0
SECTION
2
BLOCKS
0
BLOCK
5
20
100
AcDbEntity
100
AcDbBlockBegin
2
*MODEL_SPACE
0
ENDBLK
5
21
100
AcDbEntity
100
AcDbBlockEnd
0
BLOCK
5
1C
100
AcDbEntity
100
AcDbBlockBegin
2
*PAPER_SPACE
0
ENDBLK
5
1D
100
AcDbEntity
100
AcDbBlockEnd
0
ENDSEC
0
SECTION
2
ENTITIES
0
CIRCLE
5
100
100
AcDbEntity
8
0
100
AcDbCircle
10
0.47440009548157547
20
-9.0793838345985876
30
0
40
0.12499999999999822
210
-0
220
0
230
1
0
CIRCLE
5
101
100
AcDbEntity
8
0
100
AcDbCircle
10
0.47440009548157547
20
-9.7223114404973501
30
0
40
0.12499999999999822
210
-0
220
0
230
1
0
CIRCLE
5
102
100
AcDbEntity
8
0
100
AcDbCircle
10
0.47440009548157547
20
-8.436456228699825
30
0
40
0.12499999999999822
210
-0
220
0
230
1
0
CIRCLE
5
103
100
AcDbEntity
8
0
100
AcDbCircle
10
0.47440009548157547
20
-10.568456901310016
30
0
40
0.12499999999999822
210
-0
220
0
230
1
0
CIRCLE
5
104
100
AcDbEntity
8
0
100
AcDbCircle
10
0.47440009548157269
20
-7.590307639835399
30
0
40
0.12499999999999822
210
-0
220
0
230
1
0
LWPOLYLINE
5
105
100
AcDbEntity
8
0
100
AcDbPolyline
90
12
70
1
43
0.0
10
6.2868041711041327
20
-10.532132400272401
10
6.2868041711041327
20
-10.535401214359322
10
6.366705561179816
20
-10.535401214359322
10
6.366705561179816
20
-10.532132400272401
10
6.3699743752667297
20
-10.532132400272401
10
6.3699743752667297
20
-7.626621192691835
10
6.366705561179816
20
-7.626621192691835
10
6.366705561179816
20
-7.6233523786049258
10
6.2868041711041327
20
-7.6233523786049258
10
6.2868041711041327
20
-7.626621192691835
10
6.2835353570172181
20
-7.626621192691835
10
6.283535357017219
20
-10.532132400272401
0
LWPOLYLINE
5
106
100
AcDbEntity
8
0
100
AcDbPolyline
90
12
70
1
43
0.0
10
7.4620829720684885
20
-10.532132400272401
10
7.4620829720684885
20
-10.535401214359322
10
7.5419859261700513
20
-10.535401214359322
10
7.5419859261700513
20
-10.532132400272401
10
7.5452547402569659
20
-10.532132400272401
10
7.5452547402569659
20
-7.626621192691835
10
7.5419859261700513
20
-7.626621192691835
10
7.5419859261700513
20
-7.6233523786049258
10
7.4620829720684885
20
-7.6233523786049258
10
7.4620829720684885
20
-7.626621192691835
10
7.4588141579815748
20
-7.626621192691835
10
7.4588141579815748
20
-10.532132400272401
0
SPLINE
5
107
100
AcDbEntity
8
0
100
AcDbSpline
70
4
71
3
72
8
73
4
74
0
42
0.000000001
43
0.0000000001
44
0.0000000001
40
0
40
0
40
0
40
0
40
1
40
1
40
1
40
1
41
1
41
1
41
1
41
1
10
9.9845489144513042
20
-6.3933555066566843
30
0
10
10.012598154563609
20
-6.3933555066566843
30
0
10
10.03949314357728
20
-6.3821789777260207
30
0
10
10.059312479514782
20
-6.3623346173744588
30
0
0
ARC
5
108
100
AcDbEntity
8
0
100
AcDbCircle
10
10.589885315848406
20
-9.0793794839390713
30
0
40
2.7533900859471925
210
0
220
0
230
1
100
AcDbArc
50
102.70029952862483
51
257.29978387724577
0
SPLINE
5
109
100
AcDbEntity
8
0
100
AcDbSpline
70
4
71
3
72
8
73
4
74
0
42
0.000000001
43
0.0000000001
44
0.0000000001
40
0
40
0
40
0
40
0
40
1
40
1
40
1
40
1
41
1
41
1
41
1
41
1
10
10.059221766013806
20
-11.79633451819233
30
0
10
10.039376623649305
20
-11.77651518225483
30
0
10
10.012602064628309
20
-11.76538870215229
30
0
10
9.9845528245160047
20
-11.765404342411081
30
0
0
SPLINE
5
110
100
AcDbEntity
8
0
100
AcDbSpline
70
4
71
3
72
8
73
4
74
0
42
0.000000001
43
0.0000000001
44
0.0000000001
40
0
40
0
40
0
40
0
40
1
40
1
40
1
40
1
41
1
41
1
41
1
41
1
10
10.090241091270153
20
-11.871098083255809
30
0
10
10.090228579063121
20
-11.843048843143501
30
0
10
10.079066126365369
20
-11.816156982181589
30
0
10
10.059221766013806
20
-11.79633451819233
30
0
0
LINE
5
111
100
AcDbEntity
8
0
100
AcDbLine
10
10.090241091270153
20
-11.871098083255809
30
0
11
10.090241091270153
21
-12.561152557132765
31
0
0
SPLINE
5
112
100
AcDbEntity
8
0
100
AcDbSpline
70
4
71
3
72
8
73
4
74
0
42
0.000000001
43
0.0000000001
44
0.0000000001
40
0
40
0
40
0
40
0
40
1
40
1
40
1
40
1
41
1
41
1
41
1
41
1
10
10.059313261527723
20
-12.635822280643499
30
0
10
10.079131815452282
20
-12.615977920291943
30
0
10
10.090260641593639
20
-12.589201797245064
30
0
10
10.090241091270153
20
-12.561152557132765
30
0
0
SPLINE
5
113
100
AcDbEntity
8
0
100
AcDbSpline
70
4
71
3
72
8
73
4
74
0
42
0.000000001
43
0.0000000001
44
0.0000000001
40
0
40
0
40
0
40
0
40
1
40
1
40
1
40
1
41
1
41
1
41
1
41
1
10
9.9845496964642457
20
-12.66684316992573
30
0
10
10.012598936576552
20
-12.66684316992573
30
0
10
10.039493925590223
20
-12.65566664099506
30
0
10
10.059313261527723
20
-12.635822280643499
30
0
0
LINE
5
114
100
AcDbEntity
8
0
100
AcDbLine
10
9.9845496964642457
20
-12.66684316992573
30
0
11
5.6219283242413436
21
-11.436843169925723
31
0
0
SPLINE
5
115
100
AcDbEntity
8
0
100
AcDbSpline
70
4
71
3
72
8
73
4
74
0
42
0.000000001
43
0.0000000001
44
0.0000000001
40
0
40
0
40
0
40
0
40
1
40
1
40
1
40
1
41
1
41
1
41
1
41
1
10
5.5424984879681478
20
-11.469744018314401
30
0
10
5.5635197777935881
20
-11.448698486087837
30
0
10
5.5921789879986656
20
-11.436861938236273
30
0
10
5.6219283242413427
20
-11.436843169925723
30
0
0
SPLINE
5
116
100
AcDbEntity
8
0
100
AcDbSpline
70
4
71
3
72
8
73
4
74
0
42
0.000000001
43
0.0000000001
44
0.0000000001
40
0
40
0
40
0
40
0
40
1
40
1
40
1
40
1
41
1
41
1
41
1
41
1
10
5.5097024293133643
20
-11.549071410892523
30
0
10
5.5096899171063329
20
-11.519326766727486
30
0
10
5.5214811082074053
20
-11.49078955054096
30
0
10
5.5424984879681478
20
-11.469744018314401
30
0
0
LINE
5
117
100
AcDbEntity
8
0
100
AcDbLine
10
5.5097024293133643
20
-11.549071410892523
30
0
11
5.5097024293133643
21
-11.730661071537057
31
0
0
SPLINE
5
118
100
AcDbEntity
8
0
100
AcDbSpline
70
4
71
3
72
8
73
4
74
0
42
0.000000001
43
0.0000000001
44
0.0000000001
40
0
40
0
40
0
40
0
40
1
40
1
40
1
40
1
41
1
41
1
41
1
41
1
10
5.4787730355450535
20
-11.805330795047801
30
0
10
5.4985923714825535
20
-11.785486434696228
30
0
10
5.5097204156109711
20
-11.758710311649359
30
0
10
5.5097024293133643
20
-11.730661071537057
30
0
0
SPLINE
5
119
100
AcDbEntity
8
0
100
AcDbSpline
70
4
71
3
72
8
73
4
74
0
42
0.000000001
43
0.0000000001
44
0.0000000001
40
0
40
0
40
0
40
0
40
1
40
1
40
1
40
1
41
1
41
1
41
1
41
1
10
5.4040110345074552
20
-11.836351684330031
30
0
10
5.4320602746197588
20
-11.836351684330031
30
0
10
5.4589552636334338
20
-11.825175155399362
30
0
10
5.4787730355450535
20
-11.805330795047801
30
0
0
LINE
5
120
100
AcDbEntity
8
0
100
AcDbLine
10
5.4040110345074552
20
-11.836351684330031
30
0
11
4.7502748055645831
21
-11.836351684330031
31
0
0
SPLINE
5
121
100
AcDbEntity
8
0
100
AcDbSpline
70
4
71
3
72
8
73
4
74
0
42
0.000000001
43
0.0000000001
44
0.0000000001
40
0
40
0
40
0
40
0
40
1
40
1
40
1
40
1
41
1
41
1
41
1
41
1
10
4.6756058640667808
20
-11.805421508548783
30
0
10
4.6954510064312851
20
-11.825240844486283
30
0
10
4.7222255654522796
20
-11.836367324588817
30
0
10
4.7502748055645831
20
-11.836351684330031
30
0
0
SPLINE
5
122
100
AcDbEntity
8
0
100
AcDbSpline
70
4
71
3
72
8
73
4
74
0
42
0.000000001
43
0.0000000001
44
0.0000000001
40
0
40
0
40
0
40
0
40
1
40
1
40
1
40
1
41
1
41
1
41
1
41
1
10
4.6445865388104348
20
-11.730657943485308
30
0
10
4.6445990510174662
20
-11.758707183597606
30
0
10
4.6557615037152198
20
-11.785599044559518
30
0
10
4.6756058640667808
20
-11.805421508548783
30
0
0
LINE
5
123
100
AcDbEntity
8
0
100
AcDbLine
10
4.6445865388104348
20
-11.730657943485308
30
0
11
4.6445865388104348
21
-11.57584127783589
31
0
0
LINE
5
124
100
AcDbEntity
8
0
100
AcDbLine
10
4.6445865388104348
20
-11.57584127783589
30
0
11
4.6971471924969554
21
-11.52328062414937
31
0
0
LINE
5
125
100
AcDbEntity
8
0
100
AcDbLine
10
4.6971471924969554
20
-11.52328062414937
30
0
11
5.0771444840618978
21
-11.52328062414937
31
0
0
LINE
5
126
100
AcDbEntity
8
0
100
AcDbLine
10
5.0771444840618978
20
-11.52328062414937
30
0
11
5.0771444840618978
21
-11.520011810062449
31
0
0
LINE
5
127
100
AcDbEntity
8
0
100
AcDbLine
10
5.0771444840618978
20
-11.520011810062449
30
0
11
5.0804132981488124
21
-11.520011810062444
31
0
0
LINE
5
128
100
AcDbEntity
8
0
100
AcDbLine
10
5.0804132981488124
20
-11.520011810062444
30
0
11
5.0804132981488124
21
-11.440111984012644
31
0
0
LINE
5
129
100
AcDbEntity
8
0
100
AcDbLine
10
5.0804132981488124
20
-11.440111984012644
30
0
11
5.0771444840618978
21
-11.440111984012644
31
0
0
LINE
5
130
100
AcDbEntity
8
0
100
AcDbLine
10
5.0771444840618978
20
-11.440111984012644
30
0
11
5.0771444840618978
21
-11.43684316992573
31
0
0
LINE
5
131
100
AcDbEntity
8
0
100
AcDbLine
10
5.0771444840618978
20
-11.43684316992573
30
0
11
1.9900381417462256
21
-11.436843169925723
31
0
0
SPLINE
5
132
100
AcDbEntity
8
0
100
AcDbSpline
70
4
71
3
72
8
73
4
74
0
42
0.000000001
43
0.0000000001
44
0.0000000001
40
0
40
0
40
0
40
0
40
1
40
1
40
1
40
1
41
1
41
1
41
1
41
1
10
1.9106090874859698
20
-11.469744018314396
30
0
10
1.9316311593243483
20
-11.448698486087842
30
0
10
1.9602903695294276
20
-11.436861938236273
30
0
10
1.9900381417462263
20
-11.43684316992573
30
0
0
SPLINE
5
133
100
AcDbEntity
8
0
100
AcDbSpline
70
4
71
3
72
8
73
4
74
0
42
0.000000001
43
0.0000000001
44
0.0000000001
40
0
40
0
40
0
40
0
40
1
40
1
40
1
40
1
41
1
41
1
41
1
41
1
10
1.8778145928570624
20
-11.549071410892529
30
0
10
1.8778145928570624
20
-11.519326766727492
30
0
10
1.8895917077252273
20
-11.490789550540965
30
0
10
1.9106090874859698
20
-11.469744018314412
30
0
0
LINE
5
134
100
AcDbEntity
8
0
100
AcDbLine
10
1.8778145928570624
20
-11.549071410892529
30
0
11
1.877814592857068
21
-11.730661071537062
31
0
0
SPLINE
5
135
100
AcDbEntity
8
0
100
AcDbSpline
70
4
71
3
72
8
73
4
74
0
42
0.000000001
43
0.0000000001
44
0.0000000001
40
0
40
0
40
0
40
0
40
1
40
1
40
1
40
1
41
1
41
1
41
1
41
1
10
1.8468859811016933
20
-11.805330795047801
30
0
10
1.8667037530133159
20
-11.785486434696233
30
0
10
1.8778333611676119
20
-11.758710311649365
30
0
10
1.8778145928570624
20
-11.730661071537062
30
0
0
SPLINE
5
136
100
AcDbEntity
8
0
100
AcDbSpline
70
4
71
3
72
8
73
4
74
0
42
0.000000001
43
0.0000000001
44
0.0000000001
40
0
40
0
40
0
40
0
40
1
40
1
40
1
40
1
41
1
41
1
41
1
41
1
10
1.7721239800640951
20
-11.836351684330031
30
0
10
1.8001732201763985
20
-11.836351684330031
30
0
10
1.8270666451641937
20
-11.825175155399362
30
0
10
1.8468859811016933
20
-11.805330795047801
30
0
0
LINE
5
137
100
AcDbEntity
8
0
100
AcDbLine
10
1.7721239800640951
20
-11.836351684330031
30
0
11
1.1183861870953486
21
-11.836351684330031
31
0
0
SPLINE
5
138
100
AcDbEntity
8
0
100
AcDbSpline
70
4
71
3
72
8
73
4
74
0
42
0.000000001
43
0.0000000001
44
0.0000000001
40
0
40
0
40
0
40
0
40
1
40
1
40
1
40
1
41
1
41
1
41
1
41
1
10
1.0437180276104809
20
-11.805421508548783
30
0
10
1.0635623879620455
20
-11.825240844486283
30
0
10
1.0903369469830426
20
-11.836367324588817
30
0
10
1.1183861870953486
20
-11.836351684330031
30
0
0
SPLINE
5
139
100
AcDbEntity
8
0
100
AcDbSpline
70
4
71
3
72
8
73
4
74
0
42
0.000000001
43
0.0000000001
44
0.0000000001
40
0
40
0
40
0
40
0
40
1
40
1
40
1
40
1
41
1
41
1
41
1
41
1
10
1.0126971383282581
20
-11.730657943485308
30
0
10
1.0126971383282581
20
-11.758707183597606
30
0
10
1.0238721032330425
20
-11.785599044559518
30
0
10
1.0437180276104809
20
-11.805421508548783
30
0
0
LINE
5
140
100
AcDbEntity
8
0
100
AcDbLine
10
1.0126971383282581
20
-11.730657943485308
30
0
11
1.0126971383282581
21
-11.57584127783589
31
0
0
LINE
5
141
100
AcDbEntity
8
0
100
AcDbLine
10
1.0126971383282581
20
-11.57584127783589
30
0
11
1.0652577920147788
21
-11.52328062414937
31
0
0
LINE
5
142
100
AcDbEntity
8
0
100
AcDbLine
10
1.0652577920147788
20
-11.52328062414937
30
0
11
1.4452550835797204
21
-11.52328062414937
31
0
0
LINE
5
143
100
AcDbEntity
8
0
100
AcDbLine
10
1.4452550835797204
20
-11.52328062414937
30
0
11
1.4452550835797204
21
-11.520011810062449
31
0
0
LINE
5
144
100
AcDbEntity
8
0
100
AcDbLine
10
1.4452550835797204
20
-11.520011810062449
30
0
11
1.4485238976666355
21
-11.520011810062444
31
0
0
LINE
5
145
100
AcDbEntity
8
0
100
AcDbLine
10
1.4485238976666355
20
-11.520011810062444
30
0
11
1.4485238976666355
21
-11.440111984012644
31
0
0
LINE
5
146
100
AcDbEntity
8
0
100
AcDbLine
10
1.4485238976666355
20
-11.440111984012644
30
0
11
1.4452550835797204
21
-11.440111984012644
31
0
0
LINE
5
147
100
AcDbEntity
8
0
100
AcDbLine
10
1.4452550835797204
20
-11.440111984012644
30
0
11
1.4452550835797204
21
-11.43684316992573
31
0
0
LINE
5
148
100
AcDbEntity
8
0
100
AcDbLine
10
1.4452550835797204
20
-11.43684316992573
30
0
11
0.35568896724671445
21
-11.43684316992573
31
0
0
SPLINE
5
149
100
AcDbEntity
8
0
100
AcDbSpline
70
4
71
3
72
8
73
4
74
0
42
0.000000001
43
0.0000000001
44
0.0000000001
40
0
40
0
40
0
40
0
40
1
40
1
40
1
40
1
41
1
41
1
41
1
41
1
10
0.28102080776184968
20
-11.405912994144481
30
0
10
0.30086673213929099
20
-11.425732330081987
30
0
10
0.32763972713440842
20
-11.436858810184525
30
0
10
0.35568896724671467
20
-11.43684316992573
30
0
0
SPLINE
5
150
100
AcDbEntity
8
0
100
AcDbSpline
70
4
71
3
72
8
73
4
74
0
42
0.000000001
43
0.0000000001
44
0.0000000001
40
0
40
0
40
0
40
0
40
1
40
1
40
1
40
1
41
1
41
1
41
1
41
1
10
0.24999991847962413
20
-11.331149429081005
30
0
10
0.24999991847962413
20
-11.35919866919331
30
0
10
0.26117644741028795
20
-11.386093658206981
30
0
10
0.28102080776184968
20
-11.405912994144481
30
0
0
LINE
5
151
100
AcDbEntity
8
0
100
AcDbLine
10
0.24999991847962413
20
-11.331149429081005
30
0
11
0.24999991847962411
21
-11.136381286380816
31
0
0
LINE
5
152
100
AcDbEntity
8
0
100
AcDbLine
10
0.24999991847962411
20
-11.136381286380816
30
0
11
0.30256057216614474
21
-11.083820632694286
31
0
0
LINE
5
153
100
AcDbEntity
8
0
100
AcDbLine
10
0.30256057216614474
20
-11.083820632694286
30
0
11
0.64623961879700909
21
-11.083820632694286
31
0
0
LINE
5
154
100
AcDbEntity
8
0
100
AcDbLine
10
0.64623961879700909
20
-11.083820632694286
30
0
11
0.64623961879700897
21
-11.08055181860737
31
0
0
LINE
5
155
100
AcDbEntity
8
0
100
AcDbLine
10
0.64623961879700897
20
-11.08055181860737
30
0
11
0.64950843288391824
21
-11.08055181860737
31
0
0
LINE
5
156
100
AcDbEntity
8
0
100
AcDbLine
10
0.64950843288391824
20
-11.08055181860737
30
0
11
0.64950843288391824
21
-11.000651992557565
31
0
0
LINE
5
157
100
AcDbEntity
8
0
100
AcDbLine
10
0.64950843288391824
20
-11.000651992557565
30
0
11
0.64623961879700897
21
-11.000651992557565
31
0
0
LINE
5
158
100
AcDbEntity
8
0
100
AcDbLine
10
0.64623961879700897
20
-11.000651992557565
30
0
11
0.64623961879700897
21
-10.997383178470656
31
0
0
LINE
5
159
100
AcDbEntity
8
0
100
AcDbLine
10
0.64623961879700897
20
-10.997383178470656
30
0
11
0.30256057216614463
21
-10.997383178470656
31
0
0
LINE
5
160
100
AcDbEntity
8
0
100
AcDbLine
10
0.30256057216614463
20
-10.997383178470656
30
0
11
0.24999991847962413
21
-10.944822524784129
31
0
0
LINE
5
161
100
AcDbEntity
8
0
100
AcDbLine
10
0.24999991847962413
20
-10.944822524784129
30
0
11
0.24999991847962397
21
-10.192091277835891
31
0
0
LINE
5
162
100
AcDbEntity
8
0
100
AcDbLine
10
0.24999991847962397
20
-10.192091277835891
30
0
11
0.30256057216614474
21
-10.139530624149359
31
0
0
LINE
5
163
100
AcDbEntity
8
0
100
AcDbLine
10
0.30256057216614474
20
-10.139530624149359
30
0
11
0.64623961879700909
21
-10.139530624149359
31
0
0
LINE
5
164
100
AcDbEntity
8
0
100
AcDbLine
10
0.64623961879700909
20
-10.139530624149359
30
0
11
0.64623961879700897
21
-10.13626181006245
31
0
0
LINE
5
165
100
AcDbEntity
8
0
100
AcDbLine
10
0.64623961879700897
20
-10.13626181006245
30
0
11
0.64950843288391824
21
-10.13626181006245
31
0
0
LINE
5
166
100
AcDbEntity
8
0
100
AcDbLine
10
0.64950843288391824
20
-10.13626181006245
30
0
11
0.64950843288391824
21
-10.05636198401265
31
0
0
LINE
5
167
100
AcDbEntity
8
0
100
AcDbLine
10
0.64950843288391824
20
-10.05636198401265
30
0
11
0.64623961879700897
21
-10.05636198401265
31
0
0
LINE
5
168
100
AcDbEntity
8
0
100
AcDbLine
10
0.64623961879700897
20
-10.05636198401265
30
0
11
0.64623961879700897
21
-10.053093169925731
31
0
0
LINE
5
169
100
AcDbEntity
8
0
100
AcDbLine
10
0.64623961879700897
20
-10.053093169925731
30
0
11
0.30256057216614463
21
-10.053093169925731
31
0
0
LINE
5
170
100
AcDbEntity
8
0
100
AcDbLine
10
0.30256057216614463
20
-10.053093169925731
30
0
11
0.24999991847962413
21
-10.000532516239204
31
0
0
LINE
5
171
100
AcDbEntity
8
0
100
AcDbLine
10
0.24999991847962413
20
-10.000532516239204
30
0
11
0.24999991847962375
21
-8.1582351529579586
31
0
0
LINE
5
172
100
AcDbEntity
8
0
100
AcDbLine
10
0.24999991847962375
20
-8.1582351529579586
30
0
11
0.30256057216614474
21
-8.1056744992714336
31
0
0
LINE
5
173
100
AcDbEntity
8
0
100
AcDbLine
10
0.30256057216614474
20
-8.1056744992714336
30
0
11
0.64623961879700909
21
-8.1056744992714336
31
0
0
LINE
5
174
100
AcDbEntity
8
0
100
AcDbLine
10
0.64623961879700909
20
-8.1056744992714336
30
0
11
0.64623961879700897
21
-8.1024041211586386
31
0
0
LINE
5
175
100
AcDbEntity
8
0
100
AcDbLine
10
0.64623961879700897
20
-8.1024041211586386
30
0
11
0.64950843288391824
21
-8.1024041211586439
31
0
0
LINE
5
176
100
AcDbEntity
8
0
100
AcDbLine
10
0.64950843288391824
20
-8.1024041211586439
30
0
11
0.64950843288391824
21
-8.0225027310829535
31
0
0
LINE
5
177
100
AcDbEntity
8
0
100
AcDbLine
10
0.64950843288391824
20
-8.0225027310829535
30
0
11
0.64623961879700897
21
-8.0225027310829535
31
0
0
LINE
5
178
100
AcDbEntity
8
0
100
AcDbLine
10
0.64623961879700897
20
-8.0225027310829535
30
0
11
0.64623961879700897
21
-8.0192339169960452
31
0
0
LINE
5
179
100
AcDbEntity
8
0
100
AcDbLine
10
0.64623961879700897
20
-8.0192339169960452
30
0
11
0.30256057216614463
21
-8.0192339169960452
31
0
0
LINE
5
180
100
AcDbEntity
8
0
100
AcDbLine
10
0.30256057216614463
20
-8.0192339169960452
30
0
11
0.24999991847962413
21
-7.9666732633095183
31
0
0
LINE
5
181
100
AcDbEntity
8
0
100
AcDbLine
10
0.24999991847962413
20
-7.9666732633095183
30
0
11
0.24999991847962397
21
-7.2139420163612797
31
0
0
LINE
5
182
100
AcDbEntity
8
0
100
AcDbLine
10
0.24999991847962397
20
-7.2139420163612797
30
0
11
0.30256057216614191
21
-7.1613813626747538
31
0
0
LINE
5
183
100
AcDbEntity
8
0
100
AcDbLine
10
0.30256057216614191
20
-7.1613813626747538
30
0
11
0.64623961879700631
21
-7.1613813626747538
31
0
0
LINE
5
184
100
AcDbEntity
8
0
100
AcDbLine
10
0.64623961879700631
20
-7.1613813626747538
30
0
11
0.6462396187970062
21
-7.1581109845619588
31
0
0
LINE
5
185
100
AcDbEntity
8
0
100
AcDbLine
10
0.6462396187970062
20
-7.1581109845619588
30
0
11
0.64950843288391547
21
-7.158110984561965
31
0
0
LINE
5
186
100
AcDbEntity
8
0
100
AcDbLine
10
0.64950843288391547
20
-7.158110984561965
30
0
11
0.64950843288391547
21
-7.07820959448628
31
0
0
LINE
5
187
100
AcDbEntity
8
0
100
AcDbLine
10
0.64950843288391547
20
-7.07820959448628
30
0
11
0.6462396187970062
21
-7.0782095944862746
31
0
0
LINE
5
188
100
AcDbEntity
8
0
100
AcDbLine
10
0.6462396187970062
20
-7.0782095944862746
30
0
11
0.6462396187970062
21
-7.0749407803993654
31
0
0
LINE
5
189
100
AcDbEntity
8
0
100
AcDbLine
10
0.6462396187970062
20
-7.0749407803993654
30
0
11
0.30256057216614185
21
-7.0749407803993654
31
0
0
LINE
5
190
100
AcDbEntity
8
0
100
AcDbLine
10
0.30256057216614185
20
-7.0749407803993654
30
0
11
0.24999991847962136
21
-7.0223801267128447
31
0
0
LINE
5
191
100
AcDbEntity
8
0
100
AcDbLine
10
0.24999991847962136
20
-7.0223801267128447
30
0
11
0.2499999184796185
21
-6.8276088559608796
31
0
0
SPLINE
5
192
100
AcDbEntity
8
0
100
AcDbSpline
70
4
71
3
72
8
73
4
74
0
42
0.000000001
43
0.0000000001
44
0.0000000001
40
0
40
0
40
0
40
0
40
1
40
1
40
1
40
1
41
1
41
1
41
1
41
1
10
0.28092853023499043
20
-6.7529406964760259
30
0
10
0.2611107583233705
20
-6.7727866208534619
30
0
10
0.24998115016907471
20
-6.7995596158485823
30
0
10
0.24999991847962136
20
-6.8276088559608912
30
0
0
SPLINE
5
193
100
AcDbEntity
8
0
100
AcDbSpline
70
4
71
3
72
8
73
4
74
0
42
0.000000001
43
0.0000000001
44
0.0000000001
40
0
40
0
40
0
40
0
40
1
40
1
40
1
40
1
41
1
41
1
41
1
41
1
10
0.35569053127258865
20
-6.7219213712196746
30
0
10
0.32764129116028523
20
-6.7219213712196746
30
0
10
0.30074786617249272
20
-6.733096336124464
30
0
10
0.28092853023499043
20
-6.7529406964760259
30
0
0
LINE
5
194
100
AcDbEntity
8
0
100
AcDbLine
10
0.35569053127258865
20
-6.7219213712196746
30
0
11
1.4452535195538383
21
-6.7219213712196799
31
0
0
LINE
5
195
100
AcDbEntity
8
0
100
AcDbLine
10
1.4452535195538383
20
-6.7219213712196799
30
0
11
1.445253519553841
21
-6.7186509931068858
31
0
0
LINE
5
196
100
AcDbEntity
8
0
100
AcDbLine
10
1.445253519553841
20
-6.7186509931068858
30
0
11
1.4485223336407529
21
-6.7186509931068858
31
0
0
LINE
5
197
100
AcDbEntity
8
0
100
AcDbLine
10
1.4485223336407529
20
-6.7186509931068858
30
0
11
1.4485223336407529
21
-6.6387496030312008
31
0
0
LINE
5
198
100
AcDbEntity
8
0
100
AcDbLine
10
1.4485223336407529
20
-6.6387496030312008
30
0
11
1.4452535195538381
21
-6.6387496030312008
31
0
0
LINE
5
199
100
AcDbEntity
8
0
100
AcDbLine
10
1.4452535195538381
20
-6.6387496030312008
30
0
11
1.445253519553841
21
-6.6354807889442862
31
0
0
LINE
5
200
100
AcDbEntity
8
0
100
AcDbLine
10
1.445253519553841
20
-6.6354807889442862
30
0
11
1.0652562279888993
21
-6.6354807889442862
31
0
0
LINE
5
201
100
AcDbEntity
8
0
100
AcDbLine
10
1.0652562279888993
20
-6.6354807889442862
30
0
11
1.0126955743023758
21
-6.5829201352577655
31
0
0
LINE
5
202
100
AcDbEntity
8
0
100
AcDbLine
10
1.0126955743023758
20
-6.5829201352577655
30
0
11
1.0126955743023758
21
-6.4281003415565889
31
0
0
SPLINE
5
203
100
AcDbEntity
8
0
100
AcDbSpline
70
4
71
3
72
8
73
4
74
0
42
0.000000001
43
0.0000000001
44
0.0000000001
40
0
40
0
40
0
40
0
40
1
40
1
40
1
40
1
41
1
41
1
41
1
41
1
10
1.0436241860577422
20
-6.3534321820717237
30
0
10
1.0238048501202455
20
-6.3732781064491704
30
0
10
1.0126768059918263
20
-6.4000511014442854
30
0
10
1.0126955743023758
20
-6.4281003415565943
30
0
0
SPLINE
5
204
100
AcDbEntity
8
0
100
AcDbSpline
70
4
71
3
72
8
73
4
74
0
42
0.000000001
43
0.0000000001
44
0.0000000001
40
0
40
0
40
0
40
0
40
1
40
1
40
1
40
1
41
1
41
1
41
1
41
1
10
1.118386187095346
20
-6.3224112927895035
30
0
10
1.0903369469830397
20
-6.3224112927895035
30
0
10
1.0634435219952445
20
-6.3335878217201671
30
0
10
1.0436241860577422
20
-6.3534321820717237
30
0
0
LINE
5
205
100
AcDbEntity
8
0
100
AcDbLine
10
1.118386187095346
20
-6.3224112927895035
30
0
11
1.7721224160382154
21
-6.3224112927895035
31
0
0
SPLINE
5
206
100
AcDbEntity
8
0
100
AcDbSpline
70
4
71
3
72
8
73
4
74
0
42
0.000000001
43
0.0000000001
44
0.0000000001
40
0
40
0
40
0
40
0
40
1
40
1
40
1
40
1
41
1
41
1
41
1
41
1
10
1.8467905755230749
20
-6.3533399045448729
30
0
10
1.8269446511456364
20
-6.3335221326332531
30
0
10
1.800171656150519
20
-6.3223925244789543
30
0
10
1.7721224160382154
20
-6.3224112927895035
30
0
0
SPLINE
5
207
100
AcDbEntity
8
0
100
AcDbSpline
70
4
71
3
72
8
73
4
74
0
42
0.000000001
43
0.0000000001
44
0.0000000001
40
0
40
0
40
0
40
0
40
1
40
1
40
1
40
1
41
1
41
1
41
1
41
1
10
1.8778114648053059
20
-6.4281034696083479
30
0
10
1.8778114648053059
20
-6.400054229496039
30
0
10
1.8666349358746395
20
-6.373159240482372
30
0
10
1.8467905755230749
20
-6.3533399045448729
30
0
0
LINE
5
208
100
AcDbEntity
8
0
100
AcDbLine
10
1.8778114648053059
20
-6.4281034696083479
30
0
11
1.8778114648053059
21
-6.6096931302528805
31
0
0
SPLINE
5
209
100
AcDbEntity
8
0
100
AcDbSpline
70
4
71
3
72
8
73
4
74
0
42
0.000000001
43
0.0000000001
44
0.0000000001
40
0
40
0
40
0
40
0
40
1
40
1
40
1
40
1
41
1
41
1
41
1
41
1
10
1.9107123131939749
20
-6.6891221845131366
30
0
10
1.8896652169415371
20
-6.6681001126747557
30
0
10
1.877828669089973
20
-6.6394424664955558
30
0
10
1.8778114648053059
20
-6.6096931302528805
30
0
0
SPLINE
5
210
100
AcDbEntity
8
0
100
AcDbSpline
70
4
71
3
72
8
73
4
74
0
42
0.000000001
43
0.0000000001
44
0.0000000001
40
0
40
0
40
0
40
0
40
1
40
1
40
1
40
1
41
1
41
1
41
1
41
1
10
1.9900397057721002
20
-6.7219182431679156
30
0
10
1.9602934975811868
20
-6.7219182431679156
30
0
10
1.9317578454205417
20
-6.7101395642738737
30
0
10
1.9107123131939749
20
-6.6891221845131366
30
0
0
LINE
5
211
100
AcDbEntity
8
0
100
AcDbLine
10
1.9900397057721002
20
-6.7219182431679156
30
0
11
5.0771421380230786
21
-6.7219182431679156
31
0
0
LINE
5
212
100
AcDbEntity
8
0
100
AcDbLine
10
5.0771421380230786
20
-6.7219182431679156
30
0
11
5.0771429200360174
21
-6.71865255713276
31
0
0
LINE
5
213
100
AcDbEntity
8
0
100
AcDbLine
10
5.0771429200360174
20
-6.71865255713276
30
0
11
5.0804117341229302
21
-6.71865255713276
31
0
0
LINE
5
214
100
AcDbEntity
8
0
100
AcDbLine
10
5.0804117341229302
20
-6.71865255713276
30
0
11
5.0804117341229302
21
-6.6387511670570811
31
0
0
LINE
5
215
100
AcDbEntity
8
0
100
AcDbLine
10
5.0804117341229302
20
-6.6387511670570811
30
0
11
5.0771429200360174
21
-6.6387511670570811
31
0
0
LINE
5
216
100
AcDbEntity
8
0
100
AcDbLine
10
5.0771429200360174
20
-6.6387511670570811
30
0
11
5.0771429200360174
21
-6.6354823529701656
31
0
0
LINE
5
217
100
AcDbEntity
8
0
100
AcDbLine
10
5.0771429200360174
20
-6.6354823529701656
30
0
11
4.697145628471076
21
-6.6354823529701656
31
0
0
LINE
5
218
100
AcDbEntity
8
0
100
AcDbLine
10
4.697145628471076
20
-6.6354823529701656
30
0
11
4.6445849747845527
21
-6.5829216992836397
31
0
0
LINE
5
219
100
AcDbEntity
8
0
100
AcDbLine
10
4.6445849747845527
20
-6.5829216992836397
30
0
11
4.6445849747845527
21
-6.4281019055824684
31
0
0
SPLINE
5
220
100
AcDbEntity
8
0
100
AcDbSpline
70
4
71
3
72
8
73
4
74
0
42
0.000000001
43
0.0000000001
44
0.0000000001
40
0
40
0
40
0
40
0
40
1
40
1
40
1
40
1
41
1
41
1
41
1
41
1
10
4.6755143685528644
20
-6.3534337460976085
30
0
10
4.6556950326153652
20
-6.3732796704750498
30
0
10
4.6445669884869432
20
-6.4000526654701648
30
0
10
4.6445849747845527
20
-6.4281019055824684
30
0
0
SPLINE
5
221
100
AcDbEntity
8
0
100
AcDbSpline
70
4
71
3
72
8
73
4
74
0
42
0.000000001
43
0.0000000001
44
0.0000000001
40
0
40
0
40
0
40
0
40
1
40
1
40
1
40
1
41
1
41
1
41
1
41
1
10
4.75027636959046
20
-6.3224128568153777
30
0
10
4.7222271294781564
20
-6.3224128568153777
30
0
10
4.6953321404644841
20
-6.3335893857460412
30
0
10
4.6755143685528644
20
-6.3534337460976085
30
0
0
LINE
5
222
100
AcDbEntity
8
0
100
AcDbLine
10
4.75027636959046
20
-6.3224128568153777
30
0
11
5.404012598533332
21
-6.322412856815383
31
0
0
SPLINE
5
223
100
AcDbEntity
8
0
100
AcDbSpline
70
4
71
3
72
8
73
4
74
0
42
0.000000001
43
0.0000000001
44
0.0000000001
40
0
40
0
40
0
40
0
40
1
40
1
40
1
40
1
41
1
41
1
41
1
41
1
10
5.4786815400311344
20
-6.3533414685707523
30
0
10
5.4588363976666328
20
-6.3335236966591326
30
0
10
5.4320618386456356
20
-6.3223940885048338
30
0
10
5.404012598533332
20
-6.3224128568153777
30
0
0
SPLINE
5
224
100
AcDbEntity
8
0
100
AcDbSpline
70
4
71
3
72
8
73
4
74
0
42
0.000000001
43
0.0000000001
44
0.0000000001
40
0
40
0
40
0
40
0
40
1
40
1
40
1
40
1
41
1
41
1
41
1
41
1
10
5.5097008652874839
20
-6.428105033634222
30
0
10
5.5096883530804535
20
-6.4000557935219184
30
0
10
5.4985259003826989
20
-6.3731608045082462
30
0
10
5.4786815400311344
20
-6.3533414685707523
30
0
0
LINE
5
225
100
AcDbEntity
8
0
100
AcDbLine
10
5.5097008652874839
20
-6.428105033634222
30
0
11
5.5097008652874839
21
-6.6096946942787485
31
0
0
SPLINE
5
226
100
AcDbEntity
8
0
100
AcDbSpline
70
4
71
3
72
8
73
4
74
0
42
0.000000001
43
0.0000000001
44
0.0000000001
40
0
40
0
40
0
40
0
40
1
40
1
40
1
40
1
41
1
41
1
41
1
41
1
10
5.542601713676155
20
-6.6891237485390054
30
0
10
5.5215561814495935
20
-6.6681016767006236
30
0
10
5.5097180695721528
20
-6.6394440305214246
30
0
10
5.5097008652874839
20
-6.6096946942787547
30
0
0
SPLINE
5
227
100
AcDbEntity
8
0
100
AcDbSpline
70
4
71
3
72
8
73
4
74
0
42
0.000000001
43
0.0000000001
44
0.0000000001
40
0
40
0
40
0
40
0
40
1
40
1
40
1
40
1
41
1
41
1
41
1
41
1
10
5.6219306702801592
20
-6.7219198071937951
30
0
10
5.59218524410218
20
-6.7219198071937951
30
0
10
5.5636488099285968
20
-6.7101411282997478
30
0
10
5.542601713676155
20
-6.6891237485390054
30
0
0
LINE
5
228
100
AcDbEntity
8
0
100
AcDbLine
10
5.6219306702801592
20
-6.7219198071937951
30
0
11
9.9845520425030596
21
-5.4919198071937929
31
0
0
SPLINE
5
229
100
AcDbEntity
8
0
100
AcDbSpline
70
4
71
3
72
8
73
4
74
0
42
0.000000001
43
0.0000000001
44
0.0000000001
40
0
40
0
40
0
40
0
40
1
40
1
40
1
40
1
41
1
41
1
41
1
41
1
10
10.059220984000865
20
-5.5228484189491631
30
0
10
10.039375841636364
20
-5.5030306470375434
30
0
10
10.012601282615366
20
-5.4919010388832445
30
0
10
9.9845520425030614
20
-5.4919198071937947
30
0
0
SPLINE
5
230
100
AcDbEntity
8
0
100
AcDbSpline
70
4
71
3
72
8
73
4
74
0
42
0.000000001
43
0.0000000001
44
0.0000000001
40
0
40
0
40
0
40
0
40
1
40
1
40
1
40
1
41
1
41
1
41
1
41
1
10
10.090240309257213
20
-5.5976119840126444
30
0
10
10.090227797050181
20
-5.5695627439003346
30
0
10
10.079065344352427
20
-5.5426677548866632
30
0
10
10.059220984000865
20
-5.5228484189491631
30
0
0
LINE
5
231
100
AcDbEntity
8
0
100
AcDbLine
10
10.090240309257213
20
-5.5976119840126444
30
0
11
10.090240309257213
21
-6.2876664578895936
31
0
0
SPLINE
5
232
100
AcDbEntity
8
0
100
AcDbSpline
70
4
71
3
72
8
73
4
74
0
42
0.000000001
43
0.0000000001
44
0.0000000001
40
0
40
0
40
0
40
0
40
1
40
1
40
1
40
1
41
1
41
1
41
1
41
1
10
10.059312479514782
20
-6.3623346173744588
30
0
10
10.079131033439342
20
-6.3424886929970175
30
0
10
10.090259859580698
20
-6.3157156980018971
30
0
10
10.090240309257213
20
-6.2876664578895936
30
0
0
CIRCLE
5
233
100
AcDbEntity
8
0
100
AcDbCircle
10
1.8113468734861438
20
-3.3433201418899281
30
0
40
0.12499999999999963
210
-0
220
0
230
1
0
CIRCLE
5
234
100
AcDbEntity
8
0
100
AcDbCircle
10
1.8113468734861438
20
-4.0878582392715215
30
0
40
0.12499999999999963
210
-0
220
0
230
1
0
CIRCLE
5
235
100
AcDbEntity
8
0
100
AcDbCircle
10
1.8113468734861451
20
-2.5987836085342133
30
0
40
0.12499999999999963
210
-0
220
0
230
1
0
CIRCLE
5
236
100
AcDbEntity
8
0
100
AcDbCircle
10
1.8113468734861438
20
-4.83239633665311
30
0
40
0.12499999999999963
210
-0
220
0
230
1
0
CIRCLE
5
237
100
AcDbEntity
8
0
100
AcDbCircle
10
1.8113468734861451
20
-1.8542470751784963
30
0
40
0.12499999999999963
210
-0
220
0
230
1
0
SPLINE
5
238
100
AcDbEntity
8
0
100
AcDbSpline
70
4
71
3
72
8
73
4
74
0
42
0.000000001
43
0.0000000001
44
0.0000000001
40
0
40
0
40
0
40
0
40
1
40
1
40
1
40
1
41
1
41
1
41
1
41
1
10
7.0367457611204163
20
-1.9200988207839669
30
0
10
7.0577928573728572
20
-1.9411193285964659
30
0
10
7.0696290142179503
20
-1.9697785388015452
30
0
10
7.0696470005155572
20
-1.9995278750442234
30
0
0
SPLINE
5
239
100
AcDbEntity
8
0
100
AcDbSpline
70
4
71
3
72
8
73
4
74
0
42
0.000000001
43
0.0000000001
44
0.0000000001
40
0
40
0
40
0
40
0
40
1
40
1
40
1
40
1
41
1
41
1
41
1
41
1
10
6.9574183685422897
20
-1.8873027621291827
30
0
10
6.9871626217008611
20
-1.8873027621291827
30
0
10
7.0156986648679744
20
-1.8990798769973476
30
0
10
7.0367457611204163
20
-1.9200988207839669
30
0
0
LINE
5
240
100
AcDbEntity
8
0
100
AcDbLine
10
6.9574183685422897
20
-1.8873027621291827
30
0
11
4.0180115921140667
21
-1.8873027621291834
31
0
0
SPLINE
5
241
100
AcDbEntity
8
0
100
AcDbSpline
70
4
71
3
72
8
73
4
74
0
42
0.000000001
43
0.0000000001
44
0.0000000001
40
0
40
0
40
0
40
0
40
1
40
1
40
1
40
1
41
1
41
1
41
1
41
1
10
3.9385833198667526
20
-1.9202036105178546
30
0
10
3.9596038276792527
20
-1.899156514265411
30
0
10
3.9882638198972695
20
-1.8873199664138469
30
0
10
4.0180115921140667
20
-1.8873027621291827
30
0
0
SPLINE
5
242
100
AcDbEntity
8
0
100
AcDbSpline
70
4
71
3
72
8
73
4
74
0
42
0.000000001
43
0.0000000001
44
0.0000000001
40
0
40
0
40
0
40
0
40
1
40
1
40
1
40
1
41
1
41
1
41
1
41
1
10
3.9057872612119668
20
-1.9995310030959799
30
0
10
3.9057747490049364
20
-1.9697847949050606
30
0
10
3.917564376080132
20
-1.9412507067702924
30
0
10
3.9385833198667526
20
-1.9202036105178546
30
0
0
LINE
5
243
100
AcDbEntity
8
0
100
AcDbLine
10
3.9057872612119668
20
-1.9995310030959799
30
0
11
3.9057872612119682
21
-4.6871264849685383
31
0
0
SPLINE
5
244
100
AcDbEntity
8
0
100
AcDbSpline
70
4
71
3
72
8
73
4
74
0
42
0.000000001
43
0.0000000001
44
0.0000000001
40
0
40
0
40
0
40
0
40
1
40
1
40
1
40
1
41
1
41
1
41
1
41
1
10
3.9386881096006392
20
-4.7665555392287935
30
0
10
3.9176410133481978
20
-4.7455334673904126
30
0
10
3.9058044654966362
20
-4.7168758212112154
30
0
10
3.9057872612119677
20
-4.6871264849685401
30
0
0
SPLINE
5
245
100
AcDbEntity
8
0
100
AcDbSpline
70
4
71
3
72
8
73
4
74
0
42
0.000000001
43
0.0000000001
44
0.0000000001
40
0
40
0
40
0
40
0
40
1
40
1
40
1
40
1
41
1
41
1
41
1
41
1
10
4.0180155021787645
20
-4.7993515978835779
30
0
10
3.9882700760007861
20
-4.7993515978835779
30
0
10
3.9597352058530815
20
-4.7875729189895369
30
0
10
3.9386881096006392
20
-4.7665555392287935
30
0
0
LINE
5
246
100
AcDbEntity
8
0
100
AcDbLine
10
4.0180155021787645
20
-4.7993515978835779
30
0
11
6.9574207145811098
21
-4.7993515978835832
31
0
0
SPLINE
5
247
100
AcDbEntity
8
0
100
AcDbSpline
70
4
71
3
72
8
73
4
74
0
42
0.000000001
43
0.0000000001
44
0.0000000001
40
0
40
0
40
0
40
0
40
1
40
1
40
1
40
1
41
1
41
1
41
1
41
1
10
7.0368505508543029
20
-4.766450749494906
30
0
10
7.0158292610288644
20
-4.7874962817214675
30
0
10
6.9871700508237851
20
-4.7993328295730313
30
0
10
6.9574207145811098
20
-4.7993515978835779
30
0
0
SPLINE
5
248
100
AcDbEntity
8
0
100
AcDbSpline
70
4
71
3
72
8
73
4
74
0
42
0.000000001
43
0.0000000001
44
0.0000000001
40
0
40
0
40
0
40
0
40
1
40
1
40
1
40
1
41
1
41
1
41
1
41
1
10
7.0696466095090882
20
-4.6871217928909044
30
0
10
7.0696595127225894
20
-4.7168680010818207
30
0
10
7.0578679306150454
20
-4.7454036532424659
30
0
10
7.0368505508543029
20
-4.766450749494906
30
0
0
LINE
5
249
100
AcDbEntity
8
0
100
AcDbLine
10
7.0696466095090882
20
-4.6871217928909044
30
0
11
7.0696470005155581
21
-1.9995278750442234
31
0
0
LINE
5
250
100
AcDbEntity
8
0
100
AcDbLine
10
2.7822010795713448
20
-5.7007904253982327
30
0
11
2.7822018615842832
21
-5.7040451632522338
31
0
0
LINE
5
251
100
AcDbEntity
8
0
100
AcDbLine
10
2.7822018615842832
20
-5.7040451632522338
30
0
11
2.7789330474973695
21
-5.7040451632522338
31
0
0
LINE
5
252
100
AcDbEntity
8
0
100
AcDbLine
10
2.7789330474973695
20
-5.7040451632522338
30
0
11
2.7789330474973695
21
-5.7839465533279188
31
0
0
LINE
5
253
100
AcDbEntity
8
0
100
AcDbLine
10
2.7789330474973695
20
-5.7839465533279188
30
0
11
2.7822018615842832
21
-5.7839465533279188
31
0
0
LINE
5
254
100
AcDbEntity
8
0
100
AcDbLine
10
2.7822018615842832
20
-5.7839465533279188
30
0
11
2.7822018615842832
21
-5.7872153674148308
31
0
0
LINE
5
255
100
AcDbEntity
8
0
100
AcDbLine
10
2.7822018615842832
20
-5.7872153674148308
30
0
11
3.1621987621427547
21
-5.7872153674148308
31
0
0
LINE
5
256
100
AcDbEntity
8
0
100
AcDbLine
10
3.1621987621427547
20
-5.7872153674148308
30
0
11
3.2147594158292776
21
-5.8397760211013514
31
0
0
LINE
5
257
100
AcDbEntity
8
0
100
AcDbLine
10
3.2147594158292776
20
-5.8397760211013514
30
0
11
3.2147594158292776
21
-5.9945973788284057
31
0
0
SPLINE
5
258
100
AcDbEntity
8
0
100
AcDbSpline
70
4
71
3
72
8
73
4
74
0
42
0.000000001
43
0.0000000001
44
0.0000000001
40
0
40
0
40
0
40
0
40
1
40
1
40
1
40
1
41
1
41
1
41
1
41
1
10
3.1838300220609672
20
-6.0692655383132674
30
0
10
3.2036497490049367
20
-6.0494196139358261
30
0
10
3.2147774021268858
20
-6.0226466189407084
30
0
10
3.2147594158292776
20
-5.9945973788284057
30
0
0
SPLINE
5
259
100
AcDbEntity
8
0
100
AcDbSpline
70
4
71
3
72
8
73
4
74
0
42
0.000000001
43
0.0000000001
44
0.0000000001
40
0
40
0
40
0
40
0
40
1
40
1
40
1
40
1
41
1
41
1
41
1
41
1
10
3.1090676300169013
20
-6.1002864275954956
30
0
10
3.137116870129204
20
-6.1002864275954929
30
0
10
3.164011468136406
20
-6.0891098986648267
30
0
10
3.1838300220609672
20
-6.0692655383132674
30
0
0
LINE
5
260
100
AcDbEntity
8
0
100
AcDbLine
10
3.1090676300169013
20
-6.1002864275954956
30
0
11
2.4553314010740288
21
-6.1002864275954929
31
0
0
SPLINE
5
261
100
AcDbEntity
8
0
100
AcDbSpline
70
4
71
3
72
8
73
4
74
0
42
0.000000001
43
0.0000000001
44
0.0000000001
40
0
40
0
40
0
40
0
40
1
40
1
40
1
40
1
41
1
41
1
41
1
41
1
10
2.3806624595762269
20
-6.0693578158401236
30
0
10
2.4005076019407299
20
-6.0891771517776263
30
0
10
2.4272821609617257
20
-6.1003051959060457
30
0
10
2.4553314010740301
20
-6.1002864275954956
30
0
0
SPLINE
5
262
100
AcDbEntity
8
0
100
AcDbSpline
70
4
71
3
72
8
73
4
74
0
42
0.000000001
43
0.0000000001
44
0.0000000001
40
0
40
0
40
0
40
0
40
1
40
1
40
1
40
1
41
1
41
1
41
1
41
1
10
2.3496431343198796
20
-5.9945958148025253
30
0
10
2.3496556465269109
20
-6.0226450549148316
30
0
10
2.3608180992246637
20
-6.0495384799026271
30
0
10
2.3806624595762269
20
-6.0693578158401236
30
0
0
LINE
5
263
100
AcDbEntity
8
0
100
AcDbLine
10
2.3496431343198796
20
-5.9945958148025253
30
0
11
2.3496431343198796
21
-5.8130045901321132
31
0
0
SPLINE
5
264
100
AcDbEntity
8
0
100
AcDbSpline
70
4
71
3
72
8
73
4
74
0
42
0.000000001
43
0.0000000001
44
0.0000000001
40
0
40
0
40
0
40
0
40
1
40
1
40
1
40
1
41
1
41
1
41
1
41
1
10
2.3167407219053282
20
-5.7335755358718625
30
0
10
2.3377878181577705
20
-5.7545960436843613
30
0
10
2.3496243660093317
20
-5.7832552538894406
30
0
10
2.3496431343198796
20
-5.8130045901321195
30
0
0
SPLINE
5
265
100
AcDbEntity
8
0
100
AcDbSpline
70
4
71
3
72
8
73
4
74
0
42
0.000000001
43
0.0000000001
44
0.0000000001
40
0
40
0
40
0
40
0
40
1
40
1
40
1
40
1
41
1
41
1
41
1
41
1
10
2.2374133293272029
20
-5.7007794772170781
30
0
10
2.2671587555051822
20
-5.7007794772170781
30
0
10
2.2956951896787658
20
-5.7125565920852432
30
0
10
2.3167407219053282
20
-5.7335755358718625
30
0
0
LINE
5
266
100
AcDbEntity
8
0
100
AcDbLine
10
2.2374133293272029
20
-5.7007794772170781
30
0
11
1.6926333992124565
21
-5.7007794772170728
31
0
0
SPLINE
5
267
100
AcDbEntity
8
0
100
AcDbSpline
70
4
71
3
72
8
73
4
74
0
42
0.000000001
43
0.0000000001
44
0.0000000001
40
0
40
0
40
0
40
0
40
1
40
1
40
1
40
1
41
1
41
1
41
1
41
1
10
1.6179660217405341
20
-5.669850865461707
30
0
10
1.6378103820920973
20
-5.6896686373733267
30
0
10
1.6645841591001531
20
-5.7007982455276247
30
0
10
1.6926333992124578
20
-5.7007794772170781
30
0
0
SPLINE
5
268
100
AcDbEntity
8
0
100
AcDbSpline
70
4
71
3
72
8
73
4
74
0
42
0.000000001
43
0.0000000001
44
0.0000000001
40
0
40
0
40
0
40
0
40
1
40
1
40
1
40
1
41
1
41
1
41
1
41
1
10
1.5869459144712454
20
-5.5950888644241115
30
0
10
1.5869584266782781
20
-5.623138104536415
30
0
10
1.5981208793760326
20
-5.650031529524207
30
0
10
1.6179660217405341
20
-5.669850865461707
30
0
0
LINE
5
269
100
AcDbEntity
8
0
100
AcDbLine
10
1.5869459144712454
20
-5.5950888644241115
30
0
11
1.5869459144712446
21
-1.0915498553298699
31
0
0
SPLINE
5
270
100
AcDbEntity
8
0
100
AcDbSpline
70
4
71
3
72
8
73
4
74
0
42
0.000000001
43
0.0000000001
44
0.0000000001
40
0
40
0
40
0
40
0
40
1
40
1
40
1
40
1
41
1
41
1
41
1
41
1
10
1.6178753082395558
20
-1.0168816958450055
30
0
10
1.5980559723020562
20
-1.0367276202224469
30
0
10
1.5869279281736373
20
-1.0635006152175643
30
0
10
1.5869459144712454
20
-1.0915498553298677
30
0
0
SPLINE
5
271
100
AcDbEntity
8
0
100
AcDbSpline
70
4
71
3
72
8
73
4
74
0
42
0.000000001
43
0.0000000001
44
0.0000000001
40
0
40
0
40
0
40
0
40
1
40
1
40
1
40
1
41
1
41
1
41
1
41
1
10
1.6926373092771541
20
-0.98586237058865689
30
0
10
1.6645880691648491
20
-0.98586237058865689
30
0
10
1.6376930801511771
20
-0.99703733549344387
30
0
10
1.6178753082395558
20
-1.0168816958450055
30
0
0
LINE
5
272
100
AcDbEntity
8
0
100
AcDbLine
10
1.6926373092771541
20
-0.98586237058865689
30
0
11
2.2374172393918994
21
-0.98586237058866233
31
0
0
SPLINE
5
273
100
AcDbEntity
8
0
100
AcDbSpline
70
4
71
3
72
8
73
4
74
0
42
0.000000001
43
0.0000000001
44
0.0000000001
40
0
40
0
40
0
40
0
40
1
40
1
40
1
40
1
41
1
41
1
41
1
41
1
10
2.3168470756650925
20
-0.95296152219998509
30
0
10
2.2958257858396527
20
-0.97400705442654623
30
0
10
2.2671665756345747
20
-0.98584360227811019
30
0
10
2.2374172393918994
20
-0.98586237058865689
30
0
0
SPLINE
5
274
100
AcDbEntity
8
0
100
AcDbSpline
70
4
71
3
72
8
73
4
74
0
42
0.000000001
43
0.0000000001
44
0.0000000001
40
0
40
0
40
0
40
0
40
1
40
1
40
1
40
1
41
1
41
1
41
1
41
1
10
2.3496431343198783
20
-0.87363256559598301
30
0
10
2.3496556465269092
20
-0.90337877378689657
30
0
10
2.337864455425835
20
-0.93191442594754159
30
0
10
2.3168470756650925
20
-0.95296152219998509
30
0
0
LINE
5
275
100
AcDbEntity
8
0
100
AcDbLine
10
2.3496431343198783
20
-0.87363256559598301
30
0
11
2.3496431343198783
21
-0.69204290495145049
31
0
0
SPLINE
5
276
100
AcDbEntity
8
0
100
AcDbSpline
70
4
71
3
72
8
73
4
74
0
42
0.000000001
43
0.0000000001
44
0.0000000001
40
0
40
0
40
0
40
0
40
1
40
1
40
1
40
1
41
1
41
1
41
1
41
1
10
2.3805709640623087
20
-0.61737474546658544
30
0
10
2.3607524101377493
20
-0.63722066984402681
30
0
10
2.3496235839963919
20
-0.66399366483914424
30
0
10
2.3496431343198783
20
-0.69204290495145049
30
0
0
SPLINE
5
277
100
AcDbEntity
8
0
100
AcDbSpline
70
4
71
3
72
8
73
4
74
0
42
0.000000001
43
0.0000000001
44
0.0000000001
40
0
40
0
40
0
40
0
40
1
40
1
40
1
40
1
41
1
41
1
41
1
41
1
10
2.4553345291257869
20
-0.58635542021023956
30
0
10
2.427285289013482
20
-0.58635542021023956
30
0
10
2.4003902999998097
20
-0.59753038511502377
30
0
10
2.3805709640623087
20
-0.61737474546658544
30
0
0
LINE
5
278
100
AcDbEntity
8
0
100
AcDbLine
10
2.4553345291257869
20
-0.58635542021023956
30
0
11
3.1090707580686576
21
-0.58635542021024212
31
0
0
SPLINE
5
279
100
AcDbEntity
8
0
100
AcDbSpline
70
4
71
3
72
8
73
4
74
0
42
0.000000001
43
0.0000000001
44
0.0000000001
40
0
40
0
40
0
40
0
40
1
40
1
40
1
40
1
41
1
41
1
41
1
41
1
10
3.1837381355405809
20
-0.61728403196560855
30
0
10
3.1638941661954867
20
-0.59746626005398584
30
0
10
3.1371199981809612
20
-0.58633665189968731
30
0
10
3.1090707580686576
20
-0.58635542021023956
30
0
0
SPLINE
5
280
100
AcDbEntity
8
0
100
AcDbSpline
70
4
71
3
72
8
73
4
74
0
42
0.000000001
43
0.0000000001
44
0.0000000001
40
0
40
0
40
0
40
0
40
1
40
1
40
1
40
1
41
1
41
1
41
1
41
1
10
3.214758633816337
20
-0.69204759702908358
30
0
10
3.2147457306028362
20
-0.66399835691678022
30
0
10
3.203583668911552
20
-0.63710336790310529
30
0
10
3.1837381355405809
20
-0.61728403196560855
30
0
0
LINE
5
281
100
AcDbEntity
8
0
100
AcDbLine
10
3.214758633816337
20
-0.69204759702908358
30
0
11
3.214758633816337
21
-0.8468642626784959
31
0
0
LINE
5
282
100
AcDbEntity
8
0
100
AcDbLine
10
3.214758633816337
20
-0.8468642626784959
30
0
11
3.1621979801298146
21
-0.89942491636501931
31
0
0
LINE
5
283
100
AcDbEntity
8
0
100
AcDbLine
10
3.1621979801298146
20
-0.89942491636501931
30
0
11
2.7822010795713434
21
-0.89942491636501931
31
0
0
LINE
5
284
100
AcDbEntity
8
0
100
AcDbLine
10
2.7822010795713434
20
-0.89942491636501931
30
0
11
2.7822010795713421
21
-0.90269373045193702
31
0
0
LINE
5
285
100
AcDbEntity
8
0
100
AcDbLine
10
2.7822010795713421
20
-0.90269373045193702
30
0
11
2.7789322654844284
21
-0.90269373045193702
31
0
0
LINE
5
286
100
AcDbEntity
8
0
100
AcDbLine
10
2.7789322654844284
20
-0.90269373045193702
30
0
11
2.7789322654844284
21
-0.98259512052762155
31
0
0
LINE
5
287
100
AcDbEntity
8
0
100
AcDbLine
10
2.7789322654844284
20
-0.98259512052762155
30
0
11
2.7822010795713434
21
-0.98259512052762155
31
0
0
LINE
5
288
100
AcDbEntity
8
0
100
AcDbLine
10
2.7822010795713434
20
-0.98259512052762155
30
0
11
2.7822010795713421
21
-0.98586549864041606
31
0
0
LINE
5
289
100
AcDbEntity
8
0
100
AcDbLine
10
2.7822010795713421
20
-0.98586549864041606
30
0
11
5.8693074218870169
21
-0.98586549864041817
31
0
0
SPLINE
5
290
100
AcDbEntity
8
0
100
AcDbSpline
70
4
71
3
72
8
73
4
74
0
42
0.000000001
43
0.0000000001
44
0.0000000001
40
0
40
0
40
0
40
0
40
1
40
1
40
1
40
1
41
1
41
1
41
1
41
1
10
5.9487360851408013
20
-0.95296465025174149
30
0
10
5.9277147953153619
20
-0.97401018247830262
30
0
10
5.8990555851102835
20
-0.98584673032986658
30
0
10
5.8693074218870169
20
-0.98586549864041328
30
0
0
SPLINE
5
291
100
AcDbEntity
8
0
100
AcDbSpline
70
4
71
3
72
8
73
4
74
0
42
0.000000001
43
0.0000000001
44
0.0000000001
40
0
40
0
40
0
40
0
40
1
40
1
40
1
40
1
41
1
41
1
41
1
41
1
10
5.9815321437955857
20
-0.87363569364773663
30
0
10
5.9815450470090878
20
-0.90338190183865297
30
0
10
5.9697534649015438
20
-0.93191755399929799
30
0
10
5.9487360851408013
20
-0.95296465025174149
30
0
0
LINE
5
292
100
AcDbEntity
8
0
100
AcDbLine
10
5.9815321437955857
20
-0.87363569364773663
30
0
11
5.9815321437955857
21
-0.69204603300320677
31
0
0
SPLINE
5
293
100
AcDbEntity
8
0
100
AcDbSpline
70
4
71
3
72
8
73
4
74
0
42
0.000000001
43
0.0000000001
44
0.0000000001
40
0
40
0
40
0
40
0
40
1
40
1
40
1
40
1
41
1
41
1
41
1
41
1
10
6.0124615375638966
20
-0.61737787351833906
30
0
10
5.9926418106199266
20
-0.6372237978957831
30
0
10
5.981514157497978
20
-0.66399679289090063
30
0
10
5.9815321437955857
20
-0.69204603300320677
30
0
0
SPLINE
5
294
100
AcDbEntity
8
0
100
AcDbSpline
70
4
71
3
72
8
73
4
74
0
42
0.000000001
43
0.0000000001
44
0.0000000001
40
0
40
0
40
0
40
0
40
1
40
1
40
1
40
1
41
1
41
1
41
1
41
1
10
6.0872239296079638
20
-0.58635854826199307
30
0
10
6.0591746894956593
20
-0.58635854826199307
30
0
10
6.0322812645078656
20
-0.59753351316678016
30
0
10
6.0124615375638966
20
-0.61737787351833906
30
0
0
LINE
5
295
100
AcDbEntity
8
0
100
AcDbLine
10
6.0872239296079638
20
-0.58635854826199307
30
0
11
6.7409613315702446
21
-0.58635854826199574
31
0
0
SPLINE
5
296
100
AcDbEntity
8
0
100
AcDbSpline
70
4
71
3
72
8
73
4
74
0
42
0.000000001
43
0.0000000001
44
0.0000000001
40
0
40
0
40
0
40
0
40
1
40
1
40
1
40
1
41
1
41
1
41
1
41
1
10
6.8156287090421683
20
-0.61728716001736494
30
0
10
6.7957847396970745
20
-0.59746938810574501
30
0
10
6.7690103761793141
20
-0.58633977995144648
30
0
10
6.7409613315702446
20
-0.58635854826199307
30
0
0
SPLINE
5
297
100
AcDbEntity
8
0
100
AcDbSpline
70
4
71
3
72
8
73
4
74
0
42
0.000000001
43
0.0000000001
44
0.0000000001
40
0
40
0
40
0
40
0
40
1
40
1
40
1
40
1
41
1
41
1
41
1
41
1
10
6.8466490118146899
20
-0.69205072508083998
30
0
10
6.8466361086011895
20
-0.66400148496853939
30
0
10
6.83547385140667
20
-0.63710649595486446
30
0
10
6.8156287090421683
20
-0.61728716001736494
30
0
0
LINE
5
298
100
AcDbEntity
8
0
100
AcDbLine
10
6.8466490118146899
20
-0.69205072508083998
30
0
11
6.8466490118146917
21
-0.84686739073025519
31
0
0
LINE
5
299
100
AcDbEntity
8
0
100
AcDbLine
10
6.8466490118146917
20
-0.84686739073025519
30
0
11
6.7940883581281666
21
-0.89942804441677848
31
0
0
LINE
5
300
100
AcDbEntity
8
0
100
AcDbLine
10
6.7940883581281666
20
-0.89942804441677848
30
0
11
6.4140900890470505
21
-0.89942804441677848
31
0
0
LINE
5
301
100
AcDbEntity
8
0
100
AcDbLine
10
6.4140900890470505
20
-0.89942804441677848
30
0
11
6.4140900890470514
21
-0.90269685850369341
31
0
0
LINE
5
302
100
AcDbEntity
8
0
100
AcDbLine
10
6.4140900890470514
20
-0.90269685850369341
30
0
11
6.4108216659666066
21
-0.90269685850369341
31
0
0
LINE
5
303
100
AcDbEntity
8
0
100
AcDbLine
10
6.4108216659666066
20
-0.90269685850369341
30
0
11
6.4108216659666066
21
-0.98259824857937517
31
0
0
LINE
5
304
100
AcDbEntity
8
0
100
AcDbLine
10
6.4108216659666066
20
-0.98259824857937517
30
0
11
6.4140900890470514
21
-0.98259824857937517
31
0
0
LINE
5
305
100
AcDbEntity
8
0
100
AcDbLine
10
6.4140900890470514
20
-0.98259824857937517
30
0
11
6.4140900890470514
21
-0.98586862669216957
31
0
0
LINE
5
306
100
AcDbEntity
8
0
100
AcDbLine
10
6.4140900890470514
20
-0.98586862669216957
30
0
11
8.0240883581281679
21
-0.98586862669216924
31
0
0
LINE
5
307
100
AcDbEntity
8
0
100
AcDbLine
10
8.0240883581281679
20
-0.98586862669216924
30
0
11
8.0766490118146894
21
-1.038429280378693
31
0
0
LINE
5
308
100
AcDbEntity
8
0
100
AcDbLine
10
8.0766490118146894
20
-1.038429280378693
30
0
11
8.0766490118146912
21
-5.6482266436599451
31
0
0
LINE
5
309
100
AcDbEntity
8
0
100
AcDbLine
10
8.0766490118146912
20
-5.6482266436599451
30
0
11
8.0240883581281697
21
-5.700787297346471
31
0
0
LINE
5
310
100
AcDbEntity
8
0
100
AcDbLine
10
8.0240883581281697
20
-5.700787297346471
30
0
11
6.4140900890470531
21
-5.7007872973464719
31
0
0
LINE
5
311
100
AcDbEntity
8
0
100
AcDbLine
10
6.4140900890470531
20
-5.7007872973464719
30
0
11
6.4140900890470514
21
-5.7040561114333856
31
0
0
LINE
5
312
100
AcDbEntity
8
0
100
AcDbLine
10
6.4140900890470514
20
-5.7040561114333856
30
0
11
6.4108216659666066
21
-5.7040561114333856
31
0
0
LINE
5
313
100
AcDbEntity
8
0
100
AcDbLine
10
6.4108216659666066
20
-5.7040561114333856
30
0
11
6.4108216659666084
21
-5.7839575015090672
31
0
0
LINE
5
314
100
AcDbEntity
8
0
100
AcDbLine
10
6.4108216659666084
20
-5.7839575015090672
30
0
11
6.4140900890470531
21
-5.7839575015090672
31
0
0
LINE
5
315
100
AcDbEntity
8
0
100
AcDbLine
10
6.4140900890470531
20
-5.7839575015090672
30
0
11
6.4140900890470514
21
-5.7872263155959827
31
0
0
LINE
5
316
100
AcDbEntity
8
0
100
AcDbLine
10
6.4140900890470514
20
-5.7872263155959827
30
0
11
6.7940883581281666
21
-5.7872263155959827
31
0
0
LINE
5
317
100
AcDbEntity
8
0
100
AcDbLine
10
6.7940883581281666
20
-5.7872263155959827
30
0
11
6.8466490118146899
21
-5.8397869692825033
31
0
0
LINE
5
318
100
AcDbEntity
8
0
100
AcDbLine
10
6.8466490118146899
20
-5.8397869692825033
30
0
11
6.8466490118146917
21
-5.994608327009554
31
0
0
SPLINE
5
319
100
AcDbEntity
8
0
100
AcDbSpline
70
4
71
3
72
8
73
4
74
0
42
0.000000001
43
0.0000000001
44
0.0000000001
40
0
40
0
40
0
40
0
40
1
40
1
40
1
40
1
41
1
41
1
41
1
41
1
10
6.8157196180463808
20
-6.0692764864944166
30
0
10
6.835539344990349
20
-6.0494305621169753
30
0
10
6.8466669981122985
20
-6.0226575671218603
30
0
10
6.8466490118146917
20
-5.994608327009554
30
0
0
SPLINE
5
320
100
AcDbEntity
8
0
100
AcDbSpline
70
4
71
3
72
8
73
4
74
0
42
0.000000001
43
0.0000000001
44
0.0000000001
40
0
40
0
40
0
40
0
40
1
40
1
40
1
40
1
41
1
41
1
41
1
41
1
10
6.7409574215055477
20
-6.1002973757766448
30
0
10
6.7690064661146181
20
-6.1002973757766448
30
0
10
6.7958998911024109
20
-6.0891208468459812
30
0
10
6.8157196180463808
20
-6.0692764864944166
30
0
0
LINE
5
321
100
AcDbEntity
8
0
100
AcDbLine
10
6.7409574215055477
20
-6.1002973757766448
30
0
11
6.0872200195432669
21
-6.1002973757766421
31
0
0
SPLINE
5
322
100
AcDbEntity
8
0
100
AcDbSpline
70
4
71
3
72
8
73
4
74
0
42
0.000000001
43
0.0000000001
44
0.0000000001
40
0
40
0
40
0
40
0
40
1
40
1
40
1
40
1
41
1
41
1
41
1
41
1
10
6.012552642071344
20
-6.0693687640212755
30
0
10
6.0323966114164369
20
-6.0891880999587746
30
0
10
6.0591707794309633
20
-6.1003161440871914
30
0
10
6.0872200195432677
20
-6.1002973757766448
30
0
0
SPLINE
5
323
100
AcDbEntity
8
0
100
AcDbSpline
70
4
71
3
72
8
73
4
74
0
42
0.000000001
43
0.0000000001
44
0.0000000001
40
0
40
0
40
0
40
0
40
1
40
1
40
1
40
1
41
1
41
1
41
1
41
1
10
5.9815321437955875
20
-5.9946067629836772
30
0
10
5.9815450470090887
20
-6.0226560030959808
30
0
10
5.9927071087003725
20
-6.0495494280837736
30
0
10
6.012552642071344
20
-6.0693687640212755
30
0
0
LINE
5
324
100
AcDbEntity
8
0
100
AcDbLine
10
5.9815321437955875
20
-5.9946067629836772
30
0
11
5.9815321437955875
21
-5.8130155383132625
31
0
0
SPLINE
5
325
100
AcDbEntity
8
0
100
AcDbSpline
70
4
71
3
72
8
73
4
74
0
42
0.000000001
43
0.0000000001
44
0.0000000001
40
0
40
0
40
0
40
0
40
1
40
1
40
1
40
1
41
1
41
1
41
1
41
1
10
5.9486309044004448
20
-5.7335864840530117
30
0
10
5.9696780006528867
20
-5.7546069918655132
30
0
10
5.9815141574979798
20
-5.7832662020705925
30
0
10
5.9815321437955875
20
-5.8130155383132651
30
0
0
SPLINE
5
326
100
AcDbEntity
8
0
100
AcDbSpline
70
4
71
3
72
8
73
4
74
0
42
0.000000001
43
0.0000000001
44
0.0000000001
40
0
40
0
40
0
40
0
40
1
40
1
40
1
40
1
41
1
41
1
41
1
41
1
10
5.86930351182232
20
-5.70079042539823
30
0
10
5.8990489380002993
20
-5.70079042539823
30
0
10
5.9275838081480039
20
-5.7125675402663889
30
0
10
5.9486309044004448
20
-5.7335864840530117
30
0
0
LINE
5
327
100
AcDbEntity
8
0
100
AcDbLine
10
5.86930351182232
20
-5.70079042539823
30
0
11
2.7822010795713448
21
-5.7007904253982327
31
0
0
CIRCLE
5
328
100
AcDbEntity
8
0
100
AcDbCircle
10
13.215723782186421
20
-12.444059202749889
30
0
40
0.1249999999999982
210
-0
220
0
230
1
0
CIRCLE
5
329
100
AcDbEntity
8
0
100
AcDbCircle
10
13.858651388085184
20
-12.444059202749889
30
0
40
0.1249999999999982
210
-0
220
0
230
1
0
CIRCLE
5
330
100
AcDbEntity
8
0
100
AcDbCircle
10
12.572796176287659
20
-12.444059202749889
30
0
40
0.1249999999999982
210
-0
220
0
230
1
0
CIRCLE
5
331
100
AcDbEntity
8
0
100
AcDbCircle
10
14.704799976949609
20
-12.444059202749889
30
0
40
0.1249999999999982
210
-0
220
0
230
1
0
CIRCLE
5
332
100
AcDbEntity
8
0
100
AcDbCircle
10
11.726650715474992
20
-12.444059202749889
30
0
40
0.1249999999999982
210
-0
220
0
230
1
0
LWPOLYLINE
5
333
100
AcDbEntity
8
0
100
AcDbPolyline
90
12
70
1
43
0.0
10
11.759710312490391
20
-5.4563755441500357
10
11.762979126577301
20
-5.4563755441500357
10
11.762979126577301
20
-5.4596443582369494
10
14.668491898183746
20
-5.4596443582369503
10
14.668491898183746
20
-5.4563755441500366
10
14.671760712270666
20
-5.4563755441500366
10
14.671760712270666
20
-5.3764725900484738
10
14.668491898183746
20
-5.3764725900484738
10
14.668491898183746
20
-5.3732037759615601
10
11.762979126577301
20
-5.3732037759615592
10
11.762979126577301
20
-5.3764725900484729
10
11.759710312490391
20
-5.3764725900484729
0
LWPOLYLINE
5
334
100
AcDbEntity
8
0
100
AcDbPolyline
90
12
70
1
43
0.0
10
11.759710312490391
20
-6.631654345114395
10
11.762979126577301
20
-6.631654345114395
10
11.762979126577301
20
-6.6349231592013087
10
14.668491898183746
20
-6.6349231592013087
10
14.668491898183746
20
-6.6316543451143968
10
14.671760712270666
20
-6.631654345114395
10
14.671760712270666
20
-6.5517529550387126
10
14.668491898183746
20
-6.5517529550387135
10
14.668491898183746
20
-6.5484841409517989
10
11.762979126577301
20
-6.5484841409517989
10
11.762979126577301
20
-6.5517529550387126
10
11.759710312490391
20
-6.5517529550387126
0
ELLIPSE
5
335
100
AcDbEntity
8
0
100
AcDbEllipse
10
16.007341692404129
20
-2.9336081526781195
30
0
11
0.087352840297931555
21
0.059495123248174922
31
0.0
40
0.99700177957744918
41
1.9847066493050722
42
2.5451388737944471
0
ARC
5
336
100
AcDbEntity
8
0
100
AcDbCircle
10
16.007523132942708
20
-2.934005166874913
30
0
40
0.1057880936671861
210
0
220
0
230
1
100
AcDbArc
50
134.9585564600126
51
147.90670031955435
0
ELLIPSE
5
337
100
AcDbEntity
8
0
100
AcDbEllipse
10
16.010493510545828
20
-2.9403568734780214
30
0
11
-0.046946593311710402
21
0.10259410958678658
31
0.0
40
0.96706279233600423
41
0.060370561627158398
42
0.34481002931129057
0
ELLIPSE
5
338
100
AcDbEntity
8
0
100
AcDbEllipse
10
16.008734869255807
20
-2.9388222090000951
30
0
11
-0.027968251883453303
21
0.1071934601588598
31
0.0
40
0.97437043558380121
41
6.0335046780262074
42
6.5136623706860632
0
LINE
5
339
100
AcDbEntity
8
0
100
AcDbLine
10
16.007441940908365
20
-2.8282189889742551
30
0
11
16.69749641478532
21
-2.8282189889742551
31
0
0
ELLIPSE
5
340
100
AcDbEntity
8
0
100
AcDbEllipse
10
16.697804588012808
20
-2.9331689614277039
30
0
11
0.095639112380315611
21
-0.044111505261541846
31
0.0
40
0.99571794902241462
41
1.2154163292619395
42
2.0042471596545393
0
ELLIPSE
5
341
100
AcDbEntity
8
0
100
AcDbEllipse
10
16.694455187300413
20
-2.9346821071938614
30
0
11
0.10554983104416549
21
0.026564993438316063
31
0.0
40
0.98320510789641091
41
6.0398185976702097
42
6.8139808891103204
0
LINE
5
342
100
AcDbEntity
8
0
100
AcDbLine
10
16.803188591604172
20
-2.9339072557284074
30
0
11
15.573188591604159
21
-7.29652862795131
31
0
0
ELLIPSE
5
343
100
AcDbEntity
8
0
100
AcDbEllipse
10
15.684709108166896
20
-7.2966098905910304
30
0
11
0.0089730472628738282
21
-0.11159861575046012
31
0.0
40
0.99606021264085742
41
4.6317458397972313
42
5.4189174107306419
0
ELLIPSE
5
344
100
AcDbEntity
8
0
100
AcDbEllipse
10
15.684023828841713
20
-7.3008728958190297
30
0
11
0.10514235204463879
21
-0.032924428573968434
31
0.0
40
0.97714064991339888
41
4.2201936927794153
42
5.0219667329028885
0
LINE
5
345
100
AcDbEntity
8
0
100
AcDbLine
10
15.685413704519199
20
-7.4087584329439853
30
0
11
15.867003365163727
21
-7.4087584329439835
31
0
0
ELLIPSE
5
346
100
AcDbEntity
8
0
100
AcDbEllipse
10
15.867310895733889
20
-7.5136846431818167
30
0
11
0.096078990497509217
21
-0.043110581244584743
31
0.0
40
0.99564742851876942
41
1.2049386911769833
42
1.9938636710654225
0
ELLIPSE
5
347
100
AcDbEntity
8
0
100
AcDbEllipse
10
15.863932018429367
20
-7.5152487326369215
30
0
11
0.1054274169122023
21
0.027186010419834292
31
0.0
40
0.98304597288024276
41
6.034138378020991
42
6.8081925929802427
0
LINE
5
348
100
AcDbEntity
8
0
100
AcDbLine
10
15.972693977956697
20
-7.5144466996981363
30
0
11
15.972693977956697
21
-8.1681829286410039
31
0
0
ELLIPSE
5
349
100
AcDbEntity
8
0
100
AcDbEllipse
10
15.867854809191847
20
-8.1686887580279759
30
0
11
0.056979629628793861
21
0.088458138042056503
31
0.0
40
0.99485767082829846
41
4.4973571720340129
42
5.2871052698535514
0
ELLIPSE
5
350
100
AcDbEntity
8
0
100
AcDbEllipse
10
15.866197885726503
20
-8.1651247782971801
30
0
11
-0.027375479015425953
21
0.10536671353864603
31
0.0
40
0.98311724007015378
41
2.8907586261268836
42
3.6648419378560226
0
LINE
5
351
100
AcDbEntity
8
0
100
AcDbLine
10
15.867004929189612
20
-8.273874323446913
30
0
11
15.71218513548844
21
-8.2738743234469148
31
0
0
LINE
5
352
100
AcDbEntity
8
0
100
AcDbLine
10
15.71218513548844
20
-8.2738743234469148
30
0
11
15.659624481801908
21
-8.2213136697603897
31
0
0
LINE
5
353
100
AcDbEntity
8
0
100
AcDbLine
10
15.659624481801908
20
-8.2213136697603897
30
0
11
15.659624481801908
21
-7.8413163781954491
31
0
0
LINE
5
354
100
AcDbEntity
8
0
100
AcDbLine
10
15.659624481801908
20
-7.8413163781954491
30
0
11
15.65635410368912
21
-7.8413163781954491
31
0
0
LINE
5
355
100
AcDbEntity
8
0
100
AcDbLine
10
15.65635410368912
20
-7.8413163781954491
30
0
11
15.65635410368912
21
-7.8380475641085336
31
0
0
LINE
5
356
100
AcDbEntity
8
0
100
AcDbLine
10
15.65635410368912
20
-7.8380475641085336
30
0
11
15.576452713613435
21
-7.8380475641085336
31
0
0
LINE
5
357
100
AcDbEntity
8
0
100
AcDbLine
10
15.576452713613435
20
-7.8380475641085336
30
0
11
15.576452713613435
21
-7.8413163781954491
31
0
0
LINE
5
358
100
AcDbEntity
8
0
100
AcDbLine
10
15.576452713613435
20
-7.8413163781954491
30
0
11
15.573193283681798
21
-7.8413163781954491
31
0
0
LINE
5
359
100
AcDbEntity
8
0
100
AcDbLine
10
15.573193283681798
20
-7.8413163781954491
30
0
11
15.573193283681798
21
-10.928418810446423
31
0
0
ELLIPSE
5
360
100
AcDbEntity
8
0
100
AcDbEllipse
10
15.684789552838634
20
-10.928472689843254
30
0
11
0.0060058676637348221
21
-0.11183654052542601
31
0.0
40
0.99640547361324816
41
4.6584497209043976
42
5.4453397263607215
0
ELLIPSE
5
361
100
AcDbEntity
8
0
100
AcDbEllipse
10
15.684028451511926
20
-10.932747944427778
30
0
11
0.10512150655800617
21
-0.032989442884521963
31
0.0
40
0.9772715518122862
41
4.2208395593182555
42
5.0226128814981106
0
LINE
5
362
100
AcDbEntity
8
0
100
AcDbLine
10
15.685418396596832
20
-11.04064705141322
30
0
11
15.867008057241371
21
-11.04064705141322
31
0
0
ELLIPSE
5
363
100
AcDbEntity
8
0
100
AcDbEllipse
10
15.86751388662689
20
-11.145486220180706
30
0
11
0.088458138031998368
21
-0.056979629647065849
31
0.0
40
0.99485767084316112
41
1.3557645186459495
42
2.1455126164539631
0
ELLIPSE
5
364
100
AcDbEntity
8
0
100
AcDbEllipse
10
15.863949634499511
20
-11.147138295400806
30
0
11
0.10539083226489568
21
0.027277732774570886
31
0.0
40
0.98309656184485783
41
6.0332397064893684
42
6.8073423005066491
0
LINE
5
365
100
AcDbEntity
8
0
100
AcDbLine
10
15.972698670034335
20
-11.146336100180312
30
0
11
15.972698670034335
21
-11.800073893149063
31
0
0
ELLIPSE
5
366
100
AcDbEntity
8
0
100
AcDbEllipse
10
15.86779351262021
20
-11.800566894498669
30
0
11
0.059128314391823457
21
0.087081247196682462
31
0.0
40
0.99509494911078278
41
4.5218043560055072
42
5.3112905780768447
0
ELLIPSE
5
367
100
AcDbEntity
8
0
100
AcDbEllipse
10
15.866207426043571
20
-11.797015470398854
30
0
11
-0.027277732806325006
21
0.10539083226585826
31
0.0
40
0.98309656180352989
41
2.8916470526341773
42
3.6657496466195973
0
LINE
5
368
100
AcDbEntity
8
0
100
AcDbLine
10
15.867009621267242
20
-11.905764505942033
30
0
11
15.712189827566073
21
-11.905764505942031
31
0
0
LINE
5
369
100
AcDbEntity
8
0
100
AcDbLine
10
15.712189827566073
20
-11.905764505942031
30
0
11
15.659629173879546
21
-11.853203852255508
31
0
0
LINE
5
370
100
AcDbEntity
8
0
100
AcDbLine
10
15.659629173879546
20
-11.853203852255508
30
0
11
15.659629173879546
21
-11.473206560690565
31
0
0
LINE
5
371
100
AcDbEntity
8
0
100
AcDbLine
10
15.659629173879546
20
-11.473206560690565
30
0
11
15.656358795766753
21
-11.473206560690565
31
0
0
LINE
5
372
100
AcDbEntity
8
0
100
AcDbLine
10
15.656358795766753
20
-11.473206560690565
30
0
11
15.656358795766753
21
-11.469936182577774
31
0
0
LINE
5
373
100
AcDbEntity
8
0
100
AcDbLine
10
15.656358795766753
20
-11.469936182577774
30
0
11
15.576457405691073
21
-11.469936182577774
31
0
0
LINE
5
374
100
AcDbEntity
8
0
100
AcDbLine
10
15.576457405691073
20
-11.469936182577774
30
0
11
15.576457405691073
21
-11.473206560690565
31
0
0
LINE
5
375
100
AcDbEntity
8
0
100
AcDbLine
10
15.576457405691073
20
-11.473206560690565
30
0
11
15.573188591604159
21
-11.473206560690565
31
0
0
LINE
5
376
100
AcDbEntity
8
0
100
AcDbLine
10
15.573188591604159
20
-11.473206560690565
30
0
11
15.573188591604159
21
-12.562767984945935
31
0
0
ELLIPSE
5
377
100
AcDbEntity
8
0
100
AcDbEllipse
10
15.46832566232742
20
-12.563274482431924
30
0
11
0.057905650272511412
21
0.087873518456090746
31
0.0
40
0.99489841048189809
41
4.5078603350807294
42
5.2975141093558262
0
ELLIPSE
5
378
100
AcDbEntity
8
0
100
AcDbEllipse
10
15.466724526914856
20
-12.559739678816971
30
0
11
-0.026655949078816712
21
0.10551401016429983
31
0.0
40
0.98325605149289075
41
2.8973362128517182
42
3.6715468937606777
0
LINE
5
379
100
AcDbEntity
8
0
100
AcDbLine
10
15.467499542837068
20
-12.668460161764784
30
0
11
15.272728272085114
21
-12.668460161764784
31
0
0
LINE
5
380
100
AcDbEntity
8
0
100
AcDbLine
10
15.272728272085114
20
-12.668460161764784
30
0
11
15.220167618398595
21
-12.615899508078259
31
0
0
LINE
5
381
100
AcDbEntity
8
0
100
AcDbLine
10
15.220167618398595
20
-12.615899508078259
30
0
11
15.220167618398595
21
-12.27222202547328
31
0
0
LINE
5
382
100
AcDbEntity
8
0
100
AcDbLine
10
15.220167618398595
20
-12.27222202547328
30
0
11
15.2168972402858
21
-12.27222202547328
31
0
0
LINE
5
383
100
AcDbEntity
8
0
100
AcDbLine
10
15.2168972402858
20
-12.27222202547328
30
0
11
15.2168972402858
21
-12.268951647360485
31
0
0
LINE
5
384
100
AcDbEntity
8
0
100
AcDbLine
10
15.2168972402858
20
-12.268951647360485
30
0
11
15.136995850210115
21
-12.268951647360485
31
0
0
LINE
5
385
100
AcDbEntity
8
0
100
AcDbLine
10
15.136995850210115
20
-12.268951647360485
30
0
11
15.136995850210115
21
-12.27222202547328
31
0
0
LINE
5
386
100
AcDbEntity
8
0
100
AcDbLine
10
15.136995850210115
20
-12.27222202547328
30
0
11
15.133727036123201
21
-12.27222202547328
31
0
0
LINE
5
387
100
AcDbEntity
8
0
100
AcDbLine
10
15.133727036123201
20
-12.27222202547328
30
0
11
15.133727036123201
21
-12.615899508078259
31
0
0
LINE
5
388
100
AcDbEntity
8
0
100
AcDbLine
10
15.133727036123201
20
-12.615899508078259
30
0
11
15.081166382436679
21
-12.668460161764784
31
0
0
LINE
5
389
100
AcDbEntity
8
0
100
AcDbLine
10
15.081166382436679
20
-12.668460161764784
30
0
11
14.328435135488435
21
-12.668460161764784
31
0
0
LINE
5
390
100
AcDbEntity
8
0
100
AcDbLine
10
14.328435135488435
20
-12.668460161764784
30
0
11
14.275874481801914
21
-12.615899508078259
31
0
0
LINE
5
391
100
AcDbEntity
8
0
100
AcDbLine
10
14.275874481801914
20
-12.615899508078259
30
0
11
14.275874481801914
21
-12.27222202547328
31
0
0
LINE
5
392
100
AcDbEntity
8
0
100
AcDbLine
10
14.275874481801914
20
-12.27222202547328
30
0
11
14.272604103689121
21
-12.27222202547328
31
0
0
LINE
5
393
100
AcDbEntity
8
0
100
AcDbLine
10
14.272604103689121
20
-12.27222202547328
30
0
11
14.272604103689121
21
-12.268951647360485
31
0
0
LINE
5
394
100
AcDbEntity
8
0
100
AcDbLine
10
14.272604103689121
20
-12.268951647360485
30
0
11
14.192702713613436
21
-12.268951647360485
31
0
0
LINE
5
395
100
AcDbEntity
8
0
100
AcDbLine
10
14.192702713613436
20
-12.268951647360485
30
0
11
14.192702713613436
21
-12.27222202547328
31
0
0
LINE
5
396
100
AcDbEntity
8
0
100
AcDbLine
10
14.192702713613436
20
-12.27222202547328
30
0
11
14.189433899526515
21
-12.27222202547328
31
0
0
LINE
5
397
100
AcDbEntity
8
0
100
AcDbLine
10
14.189433899526515
20
-12.27222202547328
30
0
11
14.189433899526515
21
-12.615899508078259
31
0
0
LINE
5
398
100
AcDbEntity
8
0
100
AcDbLine
10
14.189433899526515
20
-12.615899508078259
30
0
11
14.13687324584
21
-12.668460161764784
31
0
0
LINE
5
399
100
AcDbEntity
8
0
100
AcDbLine
10
14.13687324584
20
-12.668460161764784
30
0
11
12.294575882558744
21
-12.668460161764784
31
0
0
LINE
5
400
100
AcDbEntity
8
0
100
AcDbLine
10
12.294575882558744
20
-12.668460161764784
30
0
11
12.242015228872223
21
-12.615899508078259
31
0
0
LINE
5
401
100
AcDbEntity
8
0
100
AcDbLine
10
12.242015228872223
20
-12.615899508078259
30
0
11
12.242015228872223
21
-12.27222202547328
31
0
0
LINE
5
402
100
AcDbEntity
8
0
100
AcDbLine
10
12.242015228872223
20
-12.27222202547328
30
0
11
12.238746414785314
21
-12.27222202547328
31
0
0
LINE
5
403
100
AcDbEntity
8
0
100
AcDbLine
10
12.238746414785314
20
-12.27222202547328
30
0
11
12.238746414785314
21
-12.268951647360485
31
0
0
LINE
5
404
100
AcDbEntity
8
0
100
AcDbLine
10
12.238746414785314
20
-12.268951647360485
30
0
11
12.158845024709624
21
-12.268951647360485
31
0
0
LINE
5
405
100
AcDbEntity
8
0
100
AcDbLine
10
12.158845024709624
20
-12.268951647360485
30
0
11
12.158845024709624
21
-12.27222202547328
31
0
0
LINE
5
406
100
AcDbEntity
8
0
100
AcDbLine
10
12.158845024709624
20
-12.27222202547328
30
0
11
12.155576210622716
21
-12.27222202547328
31
0
0
LINE
5
407
100
AcDbEntity
8
0
100
AcDbLine
10
12.155576210622716
20
-12.27222202547328
30
0
11
12.155576210622716
21
-12.615899508078259
31
0
0
LINE
5
408
100
AcDbEntity
8
0
100
AcDbLine
10
12.155576210622716
20
-12.615899508078259
30
0
11
12.103015556936194
21
-12.668460161764784
31
0
0
LINE
5
409
100
AcDbEntity
8
0
100
AcDbLine
10
12.103015556936194
20
-12.668460161764784
30
0
11
11.350284309987945
21
-12.668460161764784
31
0
0
LINE
5
410
100
AcDbEntity
8
0
100
AcDbLine
10
11.350284309987945
20
-12.668460161764784
30
0
11
11.297723656301418
21
-12.615899508078259
31
0
0
LINE
5
411
100
AcDbEntity
8
0
100
AcDbLine
10
11.297723656301418
20
-12.615899508078259
30
0
11
11.297723656301423
21
-12.27222202547328
31
0
0
LINE
5
412
100
AcDbEntity
8
0
100
AcDbLine
10
11.297723656301423
20
-12.27222202547328
30
0
11
11.29445484221451
21
-12.27222202547328
31
0
0
LINE
5
413
100
AcDbEntity
8
0
100
AcDbLine
10
11.29445484221451
20
-12.27222202547328
30
0
11
11.29445484221451
21
-12.268951647360485
31
0
0
LINE
5
414
100
AcDbEntity
8
0
100
AcDbLine
10
11.29445484221451
20
-12.268951647360485
30
0
11
11.214553452138825
21
-12.268951647360485
31
0
0
LINE
5
415
100
AcDbEntity
8
0
100
AcDbLine
10
11.214553452138825
20
-12.268951647360485
30
0
11
11.21455345213883
21
-12.27222202547328
31
0
0
LINE
5
416
100
AcDbEntity
8
0
100
AcDbLine
10
11.21455345213883
20
-12.27222202547328
30
0
11
11.211284638051914
21
-12.27222202547328
31
0
0
LINE
5
417
100
AcDbEntity
8
0
100
AcDbLine
10
11.211284638051914
20
-12.27222202547328
30
0
11
11.211284638051909
21
-12.615899508078259
31
0
0
LINE
5
418
100
AcDbEntity
8
0
100
AcDbLine
10
11.211284638051909
20
-12.615899508078259
30
0
11
11.158723984365389
21
-12.668460161764784
31
0
0
LINE
5
419
100
AcDbEntity
8
0
100
AcDbLine
10
11.158723984365389
20
-12.668460161764784
30
0
11
10.963955841665195
21
-12.668460161764784
31
0
0
ELLIPSE
5
420
100
AcDbEntity
8
0
100
AcDbEllipse
10
10.963453512774505
20
-12.56356992145353
30
0
11
0.087250653136120293
21
-0.058867659753035873
31
0.0
40
0.99498820290700896
41
4.5188576281708706
42
5.3083825126988184
0
ELLIPSE
5
421
100
AcDbEntity
8
0
100
AcDbEllipse
10
10.96708615058567
20
-12.561956112928213
30
0
11
0.1054975885902564
21
0.027156679289090851
31
0.0
40
0.98274837038639173
41
2.8930329910237065
42
3.6668666047939458
0
LINE
5
422
100
AcDbEntity
8
0
100
AcDbLine
10
10.858265228872222
20
-12.562772677023574
30
0
11
10.858265228872224
21
-11.473206560690565
31
0
0
LINE
5
423
100
AcDbEntity
8
0
100
AcDbLine
10
10.858265228872224
20
-11.473206560690565
30
0
11
10.85499641478531
21
-11.473206560690565
31
0
0
LINE
5
424
100
AcDbEntity
8
0
100
AcDbLine
10
10.85499641478531
20
-11.473206560690565
30
0
11
10.85499641478531
21
-11.469936182577774
31
0
0
LINE
5
425
100
AcDbEntity
8
0
100
AcDbLine
10
10.85499641478531
20
-11.469936182577774
30
0
11
10.77509502470963
21
-11.469936182577774
31
0
0
LINE
5
426
100
AcDbEntity
8
0
100
AcDbLine
10
10.77509502470963
20
-11.469936182577774
30
0
11
10.77509502470963
21
-11.473206560690565
31
0
0
LINE
5
427
100
AcDbEntity
8
0
100
AcDbLine
10
10.77509502470963
20
-11.473206560690565
30
0
11
10.771826210622709
21
-11.473206560690565
31
0
0
LINE
5
428
100
AcDbEntity
8
0
100
AcDbLine
10
10.771826210622709
20
-11.473206560690565
30
0
11
10.771826210622709
21
-11.853203852255508
31
0
0
LINE
5
429
100
AcDbEntity
8
0
100
AcDbLine
10
10.771826210622709
20
-11.853203852255508
30
0
11
10.719265556936184
21
-11.905764505942031
31
0
0
LINE
5
430
100
AcDbEntity
8
0
100
AcDbLine
10
10.719265556936184
20
-11.905764505942031
30
0
11
10.564448891286776
21
-11.905764505942031
31
0
0
ELLIPSE
5
431
100
AcDbEntity
8
0
100
AcDbEllipse
10
10.563955889937876
20
-11.800859348526993
30
0
11
0.087081247201415204
21
-0.059128314385733675
31
0.0
40
0.99509494911708318
41
4.5218043559330061
42
5.3112905780000705
0
ELLIPSE
5
432
100
AcDbEntity
8
0
100
AcDbEllipse
10
10.567507314026342
20
-11.799273261955211
30
0
11
0.10539083226383746
21
0.027277732769050007
31
0.0
40
0.98309656185614613
41
2.8916470529427039
42
3.6657496469686959
0
LINE
5
433
100
AcDbEntity
8
0
100
AcDbLine
10
10.458758278493805
20
-11.800075457174939
30
0
11
10.458758278493807
21
-11.146337664206193
31
0
0
ELLIPSE
5
434
100
AcDbEntity
8
0
100
AcDbEllipse
10
10.563663435904967
20
-11.145844662855476
30
0
11
0.059128314326853629
21
0.087081247238841586
31
0.0
40
0.99509494909685581
41
1.3802117016734876
42
2.1696979237569209
0
ELLIPSE
5
435
100
AcDbEntity
8
0
100
AcDbEllipse
10
10.565249522485342
20
-11.149396086958065
30
0
11
-0.027277732816230815
21
0.10539083226515455
31
0.0
40
0.98309656179571403
41
6.033239706138124
42
6.807342300116713
0
LINE
5
436
100
AcDbEntity
8
0
100
AcDbLine
10
10.564447327260897
20
-11.04064705141322
30
0
11
10.746038551931305
21
-11.04064705141322
31
0
0
ELLIPSE
5
437
100
AcDbEntity
8
0
100
AcDbEllipse
10
10.746093338994001
20
-10.929089751403495
30
0
11
0.11182963357273795
21
0.005825571009707352
31
0.0
40
0.99620365525408261
41
4.6600507320810873
42
5.4470843246948482
0
ELLIPSE
5
438
100
AcDbEntity
8
0
100
AcDbEllipse
10
10.75036768591384
20
-10.929811883584035
30
0
11
-0.032989442896404327
21
-0.10512150655349152
31
0.0
40
0.97727155180617531
41
1.0792469058429905
42
1.8810202280282491
0
LINE
5
439
100
AcDbEntity
8
0
100
AcDbLine
10
10.858266792898105
20
-10.928421938498186
30
0
11
10.858266792898103
21
-7.8413155961825094
31
0
0
LINE
5
440
100
AcDbEntity
8
0
100
AcDbLine
10
10.858266792898103
20
-7.8413155961825094
30
0
11
10.854997978811195
21
-7.8413155961825094
31
0
0
LINE
5
441
100
AcDbEntity
8
0
100
AcDbLine
10
10.854997978811195
20
-7.8413155961825094
30
0
11
10.854997978811195
21
-7.8380467820955966
31
0
0
LINE
5
442
100
AcDbEntity
8
0
100
AcDbLine
10
10.854997978811195
20
-7.8380467820955966
30
0
11
10.775096588735504
21
-7.8380467820955966
31
0
0
LINE
5
443
100
AcDbEntity
8
0
100
AcDbLine
10
10.775096588735504
20
-7.8380467820955966
30
0
11
10.775096588735504
21
-7.8413155961825094
31
0
0
LINE
5
444
100
AcDbEntity
8
0
100
AcDbLine
10
10.775096588735504
20
-7.8413155961825094
30
0
11
10.771827774648596
21
-7.8413155961825094
31
0
0
LINE
5
445
100
AcDbEntity
8
0
100
AcDbLine
10
10.771827774648596
20
-7.8413155961825094
30
0
11
10.771827774648596
21
-8.2213128877474499
31
0
0
LINE
5
446
100
AcDbEntity
8
0
100
AcDbLine
10
10.771827774648596
20
-8.2213128877474499
30
0
11
10.719267120962074
21
-8.2738735414339732
31
0
0
LINE
5
447
100
AcDbEntity
8
0
100
AcDbLine
10
10.719267120962074
20
-8.2738735414339732
30
0
11
10.564450455312656
21
-8.2738735414339732
31
0
0
ELLIPSE
5
448
100
AcDbEntity
8
0
100
AcDbEllipse
10
10.564160561144222
20
-8.1688737561447393
30
0
11
0.095285106449841395
21
-0.044923709124552777
31
0.0
40
0.99600297168150942
41
4.3655172995893388
42
5.1541611228781843
0
ELLIPSE
5
449
100
AcDbEntity
8
0
100
AcDbEllipse
10
10.56753187691992
20
-8.1673765186380756
30
0
11
0.10540793687308024
21
0.027307646906353931
31
0.0
40
0.98297308721274335
41
2.8914538461866508
42
3.665470353637188
0
LINE
5
450
100
AcDbEntity
8
0
100
AcDbLine
10
10.458759842519685
20
-8.1681860566927647
30
0
11
10.458759842519687
21
-7.5144498277498908
31
0
0
ELLIPSE
5
451
100
AcDbEntity
8
0
100
AcDbEllipse
10
10.56362277179962
20
-7.5139433302652652
30
0
11
0.057905650325124729
21
0.087873518423478375
31
0.0
40
0.99489841049809902
41
1.3662676820853996
42
2.1559214563472482
0
ELLIPSE
5
452
100
AcDbEntity
8
0
100
AcDbEllipse
10
10.565232649503615
20
-7.5174926817705847
30
0
11
-0.026870734216672274
21
0.10547619576555821
31
0.0
40
0.98315567136165294
41
6.0369570740922613
42
6.8111329903426379
0
LINE
5
453
100
AcDbEntity
8
0
100
AcDbLine
10
10.564448891286776
20
-7.4087584329439853
30
0
11
10.746040115957189
21
-7.4087584329439835
31
0
0
ELLIPSE
5
454
100
AcDbEntity
8
0
100
AcDbEllipse
10
10.746331946027276
20
-7.2973342278434448
30
0
11
0.10712648265392344
21
0.032032931409040274
31
0.0
40
0.99620951038608108
41
4.4202616995589823
42
5.2082231329024911
0
ELLIPSE
5
455
100
AcDbEntity
8
0
100
AcDbEllipse
10
10.750419552110984
20
-7.2979346935857841
30
0
11
-0.032888173716671555
21
-0.1051280047233943
31
0.0
40
0.97701755146836211
41
1.0782127732630082
42
1.8801835119351373
0
LINE
5
456
100
AcDbEntity
8
0
100
AcDbLine
10
10.858268356923977
20
-7.2965325380160078
30
0
11
9.6282683569239769
21
-2.9339111657931043
31
0
0
ELLIPSE
5
457
100
AcDbEntity
8
0
100
AcDbEllipse
10
9.7331312861990824
20
-2.9334046683066295
30
0
11
0.057905650229650565
21
0.08787351848331558
31
0.0
40
0.99489841047439709
41
1.3662676810045489
42
2.1559214552857959
0
ELLIPSE
5
458
100
AcDbEntity
8
0
100
AcDbEllipse
10
9.7347508216845142
20
-2.9369534034589941
30
0
11
-0.027065729893214825
21
0.10542867827523179
31
0.0
40
0.9831977738460731
41
6.0352003313561724
42
6.8093233741287866
0
LINE
5
459
100
AcDbEntity
8
0
100
AcDbLine
10
9.7339558416615741
20
-2.8282182059699497
30
0
11
10.42401031554215
21
-2.8282182069613162
31
0
0
LINE
5
460
100
AcDbEntity
8
0
100
AcDbLine
10
10.42401031554215
20
-2.8282182069613162
30
0
11
10.424013443593903
21
-2.8282182084029008
31
0
0
ELLIPSE
5
461
100
AcDbEntity
8
0
100
AcDbEllipse
10
10.424292626446213
20
-2.9333003864250302
30
0
11
0.093685558660217758
21
-0.048270627284963091
31
0.0
40
0.99630330324852379
41
1.2594290064010363
42
2.0477069612779415
0
ELLIPSE
5
462
100
AcDbEntity
8
0
100
AcDbEllipse
10
10.420927224061861
20
-2.9347453374255794
30
0
11
0.10522529959829137
21
0.028043689144443933
31
0.0
40
0.98306751168099271
41
6.0262742121816402
42
6.8001819577618088
0
ARC
5
463
100
AcDbEntity
8
0
100
AcDbCircle
10
13.215728914858888
20
-2.3285739823830616
30
0
40
2.7533900859471938
210
0
220
0
230
1
100
AcDbArc
50
192.70021612275428
51
347.29970047137516
0
LWPOLYLINE
5
464
100
AcDbEntity
8
0
100
AcDbPolyline
90
148
70
1
43
0.0
10
11.040296452289491
20
-1.495187981222557
10
11.426198723560244
20
-1.4951879812225584
10
11.460604164844423
20
-1.5295934225067394
10
11.460604164844423
20
-1.7643122602447747
10
11.463872978931336
20
-1.7643122602447747
10
11.463872978931338
20
-1.7675810743316895
10
11.547406819110781
20
-1.7675810743316895
10
11.547406819110781
20
-1.7643122602447747
10
11.550675633197693
20
-1.7643122602447747
10
11.550675633197693
20
-1.5295934225067365
10
11.585081074481876
20
-1.495187981222557
10
11.970983345752627
20
-1.4951879812225584
10
12.005388787036805
20
-1.5295934225067394
10
12.005388787036805
20
-1.7643122602447747
10
12.008657601123719
20
-1.7643122602447747
10
12.008657601123719
20
-1.7675810743316895
10
12.092191441303163
20
-1.7675810743316895
10
12.092191441303163
20
-1.7643122602447747
10
12.095460255390078
20
-1.7643122602447747
10
12.095460255390078
20
-1.5295934225067365
10
12.129865696674258
20
-1.495187981222557
10
12.957042229419617
20
-1.4951879812225584
10
12.991447670703799
20
-1.5295934225067394
10
12.991447670703799
20
-1.6371952749237291
10
12.994716484790711
20
-1.6371952749237291
10
12.994716484790711
20
-1.6404640890106441
10
13.067354538684754
20
-1.6404640890106441
10
13.067354538684754
20
-1.6371952749237291
10
13.070623352771669
20
-1.6371952749237291
10
13.070623352771669
20
-1.5295934225067365
10
13.105036614185243
20
-1.4951879812225584
10
13.828705132251651
20
-1.4951879812225584
10
13.863110573535828
20
-1.5295934225067394
10
13.863110573535828
20
-1.6371952749237291
10
13.866379387622743
20
-1.6371952749237291
10
13.866379387622743
20
-1.6404640890106441
10
13.939017441516786
20
-1.6404640890106441
10
13.939017441516786
20
-1.6371952749237291
10
13.942286255603701
20
-1.6371952749237291
10
13.942286255603701
20
-1.5295934225067365
10
13.97669169688788
20
-1.495187981222557
10
14.700360214954287
20
-1.4951879812225584
10
14.734765656238467
20
-1.5295934225067394
10
14.734765656238464
20
-1.6371952749237291
10
14.738034470325379
20
-1.6371952749237291
10
14.738034470325379
20
-1.6404640890106441
10
14.810672524219425
20
-1.6404640890106441
10
14.810672524219422
20
-1.6371952749237291
10
14.813941338306337
20
-1.6371952749237291
10
14.813941338306337
20
-1.5295934225067365
10
14.848346779590516
20
-1.495187981222557
10
15.675524094348818
20
-1.4951879812225584
10
15.709927971607121
20
-1.5295934225067394
10
15.709927971607117
20
-1.7643122602447747
10
15.713196785694032
20
-1.7643122602447747
10
15.713196785694032
20
-1.7675810743316895
10
15.796729843860533
20
-1.7675810743316895
10
15.796729843860538
20
-1.7643122602447747
10
15.79999865794745
20
-1.7643122602447747
10
15.79999865794745
20
-1.5295934225067365
10
15.83440409923163
20
-1.495187981222557
10
16.220307152515321
20
-1.4951879812225584
10
16.254711029773624
20
-1.5295934225067394
10
16.25471102977362
20
-1.7643122602447747
10
16.257979843860536
20
-1.7643122602447747
10
16.257979843860536
20
-1.7675810743316895
10
16.341512902027041
20
-1.7675810743316895
10
16.341512902027041
20
-1.7643122602447747
10
16.344781716113953
20
-1.7643122602447747
10
16.344781716113953
20
-1.5295934225067365
10
16.379187157398132
20
-1.495187981222557
10
16.765088646655943
20
-1.4951879812225584
10
16.799494087940126
20
-1.5295934225067394
10
16.799492523914246
20
-2.5438165021881352
10
16.765090210681826
20
-2.5782180334076168
10
16.379180901294617
20
-2.5782180334076168
10
16.344778588062198
20
-2.5438165021881352
10
16.344778588062198
20
-2.3090937543854007
10
16.341509773975282
20
-2.3090937543854007
10
16.341509773975282
20
-2.3058249402984861
10
16.25797671580878
20
-2.3058249402984847
10
16.25797671580878
20
-2.3090937543853993
10
16.254707901721865
20
-2.3090937543854007
10
16.254707901721865
20
-2.5438165021881352
10
16.220305588489445
20
-2.5782180334076168
10
15.834396279102233
20
-2.5782180334076168
10
15.799993965869817
20
-2.5438165021881352
10
15.799993965869811
20
-2.3090937543854007
10
15.796725151782899
20
-2.3090937543854007
10
15.796725151782899
20
-2.3058249402984861
10
15.713192093616396
20
-2.3058249402984847
10
15.713192093616396
20
-2.3090937543853993
10
15.70992327952948
20
-2.3090937543854007
10
15.70992327952948
20
-2.5438165021881352
10
15.675522530322937
20
-2.5782180334076168
10
14.848337395435244
20
-2.5782180334076168
10
14.813935082202821
20
-2.5438165021881352
10
14.813935082202821
20
-2.4362107397064463
10
14.810666268115908
20
-2.4362107397064436
10
14.810666268115908
20
-2.4329419256195299
10
14.738028214221863
20
-2.4329419256195299
10
14.738028214221863
20
-2.4362107397064436
10
14.734759400134951
20
-2.4362107397064436
10
14.73475940013495
20
-2.5438165021881338
10
14.700357086902526
20
-2.5782180334076168
10
13.976680748706729
20
-2.5782180334076168
10
13.942278435474305
20
-2.5438165021881352
10
13.942278435474305
20
-2.4362107397064463
10
13.93900962138739
20
-2.4362107397064436
10
13.93900962138739
20
-2.4329419256195299
10
13.866371567493347
20
-2.4329419256195299
10
13.866371567493347
20
-2.4362107397064436
10
13.863102753406434
20
-2.4362107397064436
10
13.863102753406434
20
-2.5438165021881338
10
13.828700440174012
20
-2.5782180334076168
10
13.105024883991153
20
-2.5782180334076168
10
13.070623352771669
20
-2.5438165021881352
10
13.070623352771669
20
-2.4362107397064463
10
13.067354538684754
20
-2.4362107397064436
10
13.067354538684754
20
-2.4329419256195299
10
12.994716484790711
20
-2.4329419256195299
10
12.994716484790711
20
-2.4362107397064436
10
12.991447670703799
20
-2.4362107397064436
10
12.991447670703799
20
-2.5438165021881338
10
12.957046139484316
20
-2.5782180334076168
10
12.12986178660956
20
-2.5782180334076168
10
12.095460255390078
20
-2.5438165021881352
10
12.095460255390078
20
-2.3090937543854007
10
12.092191441303163
20
-2.3090937543854007
10
12.092191441303163
20
-2.3058249402984861
10
12.008657601123721
20
-2.3058249402984847
10
12.008657601123719
20
-2.3090937543853993
10
12.005388787036805
20
-2.3090937543854007
10
12.005388787036805
20
-2.5438165021881352
10
11.970987255817324
20
-2.5782180334076168
10
11.585077164417177
20
-2.5782180334076168
10
11.550675633197693
20
-2.5438165021881352
10
11.550675633197693
20
-2.3090937543854007
10
11.547406819110781
20
-2.3090937543854007
10
11.547406819110781
20
-2.3058249402984861
10
11.463872978931338
20
-2.3058249402984847
10
11.463872978931338
20
-2.3090937543853993
10
11.460604164844423
20
-2.3090937543854007
10
11.460604164844423
20
-2.5438165021881352
10
11.426202633624941
20
-2.5782180334076168
10
11.040292542224794
20
-2.5782180334076168
10
11.005891011005311
20
-2.5438165021881352
10
11.005891011005311
20
-1.5295934225067365
0
SPLINE
5
465
100
AcDbEntity
8
0
100
AcDbSpline
70
4
71
3
72
8
73
4
74
0
42
0.000000001
43
0.0000000001
44
0.0000000001
40
0
40
0
40
0
40
0
40
1
40
1
40
1
40
1
41
1
41
1
41
1
41
1
10
12.733047917133241
20
-1.7979755712494134
30
0
10
12.64775611186591
20
-1.748734562490869
30
0
10
12.542678597217471
20
-1.748734562490869
30
0
10
12.457386791950134
20
-1.7979755712494134
30
0
0
SPLINE
5
466
100
AcDbEntity
8
0
100
AcDbSpline
70
4
71
3
72
8
73
4
74
0
42
0.000000001
43
0.0000000001
44
0.0000000001
40
0
40
0
40
0
40
0
40
1
40
1
40
1
40
1
41
1
41
1
41
1
41
1
10
12.457386791950134
20
-1.7979755712494134
30
0
10
12.372096550708681
20
-1.8472165800079576
30
0
10
12.319557793384462
20
-1.9382209897979963
30
0
10
12.319557793384462
20
-2.0367030073150878
30
0
0
SPLINE
5
467
100
AcDbEntity
8
0
100
AcDbSpline
70
4
71
3
72
8
73
4
74
0
42
0.000000001
43
0.0000000001
44
0.0000000001
40
0
40
0
40
0
40
0
40
1
40
1
40
1
40
1
41
1
41
1
41
1
41
1
10
12.319557793384462
20
-2.0367030073150878
30
0
10
12.319557793384462
20
-2.1351889348968753
30
0
10
12.372096550708681
20
-2.2261894346222149
30
0
10
12.457386791950134
20
-2.2754304433807606
30
0
0
SPLINE
5
468
100
AcDbEntity
8
0
100
AcDbSpline
70
4
71
3
72
8
73
4
74
0
42
0.000000001
43
0.0000000001
44
0.0000000001
40
0
40
0
40
0
40
0
40
1
40
1
40
1
40
1
41
1
41
1
41
1
41
1
10
12.457386791950134
20
-2.2754304433807606
30
0
10
12.542678597217471
20
-2.3246753622040024
30
0
10
12.64775611186591
20
-2.3246753622040024
30
0
10
12.733047917133241
20
-2.2754304433807606
30
0
0
SPLINE
5
469
100
AcDbEntity
8
0
100
AcDbSpline
70
4
71
3
72
8
73
4
74
0
42
0.000000001
43
0.0000000001
44
0.0000000001
40
0
40
0
40
0
40
0
40
1
40
1
40
1
40
1
41
1
41
1
41
1
41
1
10
12.733047917133241
20
-2.2754304433807606
30
0
10
12.818339722400577
20
-2.2261894346222149
30
0
10
12.870878479724794
20
-2.1351889348968753
30
0
10
12.870878479724794
20
-2.0367030073150878
30
0
0
SPLINE
5
470
100
AcDbEntity
8
0
100
AcDbSpline
70
4
71
3
72
8
73
4
74
0
42
0.000000001
43
0.0000000001
44
0.0000000001
40
0
40
0
40
0
40
0
40
1
40
1
40
1
40
1
41
1
41
1
41
1
41
1
10
12.870878479724794
20
-2.0367030073150878
30
0
10
12.870878479724794
20
-1.9382209897979963
30
0
10
12.818339722400577
20
-1.8472165800079576
30
0
10
12.733047917133241
20
-1.7979755712494134
30
0
0
SPLINE
5
471
100
AcDbEntity
8
0
100
AcDbSpline
70
4
71
3
72
8
73
4
74
0
42
0.000000001
43
0.0000000001
44
0.0000000001
40
0
40
0
40
0
40
0
40
1
40
1
40
1
40
1
41
1
41
1
41
1
41
1
10
13.604700653797059
20
-1.7979755712494134
30
0
10
13.519409630542663
20
-1.748734562490869
30
0
10
13.414330551868348
20
-1.748734562490869
30
0
10
13.329040310626892
20
-1.7979755712494134
30
0
0
SPLINE
5
472
100
AcDbEntity
8
0
100
AcDbSpline
70
4
71
3
72
8
73
4
74
0
42
0.000000001
43
0.0000000001
44
0.0000000001
40
0
40
0
40
0
40
0
40
1
40
1
40
1
40
1
41
1
41
1
41
1
41
1
10
13.329040310626892
20
-1.7979755712494134
30
0
10
13.24374850535956
20
-1.8472165800079576
30
0
10
13.191211312061219
20
-1.9382209897979963
30
0
10
13.191211312061219
20
-2.0367030073150878
30
0
0
SPLINE
5
473
100
AcDbEntity
8
0
100
AcDbSpline
70
4
71
3
72
8
73
4
74
0
42
0.000000001
43
0.0000000001
44
0.0000000001
40
0
40
0
40
0
40
0
40
1
40
1
40
1
40
1
41
1
41
1
41
1
41
1
10
13.191211312061219
20
-2.0367030073150878
30
0
10
13.191211312061219
20
-2.1351889348968753
30
0
10
13.2437492873725
20
-2.2261894346222149
30
0
10
13.329040310626892
20
-2.2754304433807606
30
0
0
SPLINE
5
474
100
AcDbEntity
8
0
100
AcDbSpline
70
4
71
3
72
8
73
4
74
0
42
0.000000001
43
0.0000000001
44
0.0000000001
40
0
40
0
40
0
40
0
40
1
40
1
40
1
40
1
41
1
41
1
41
1
41
1
10
13.329040310626892
20
-2.2754304433807606
30
0
10
13.414332115894229
20
-2.3246753622040024
30
0
10
13.519409630542663
20
-2.3246753622040024
30
0
10
13.604700653797059
20
-2.2754304433807606
30
0
0
SPLINE
5
475
100
AcDbEntity
8
0
100
AcDbSpline
70
4
71
3
72
8
73
4
74
0
42
0.000000001
43
0.0000000001
44
0.0000000001
40
0
40
0
40
0
40
0
40
1
40
1
40
1
40
1
41
1
41
1
41
1
41
1
10
13.604700653797059
20
-2.2754304433807606
30
0
10
13.689991677051454
20
-2.2261894346222149
30
0
10
13.742530434375672
20
-2.1351889348968753
30
0
10
13.742530434375672
20
-2.0367030073150878
30
0
0
SPLINE
5
476
100
AcDbEntity
8
0
100
AcDbSpline
70
4
71
3
72
8
73
4
74
0
42
0.000000001
43
0.0000000001
44
0.0000000001
40
0
40
0
40
0
40
0
40
1
40
1
40
1
40
1
41
1
41
1
41
1
41
1
10
13.742530434375672
20
-2.0367030073150878
30
0
10
13.742530434375672
20
-1.9382209897979963
30
0
10
13.689991677051454
20
-1.8472165800079576
30
0
10
13.604700653797059
20
-1.7979755712494134
30
0
0
SPLINE
5
477
100
AcDbEntity
8
0
100
AcDbSpline
70
4
71
3
72
8
73
4
74
0
42
0.000000001
43
0.0000000001
44
0.0000000001
40
0
40
0
40
0
40
0
40
1
40
1
40
1
40
1
41
1
41
1
41
1
41
1
10
14.200693047290709
20
-1.7979755712494134
30
0
10
14.115402024036317
20
-1.8472165800079576
30
0
10
14.062863266712096
20
-1.9382209897979963
30
0
10
14.062863266712096
20
-2.0367030073150878
30
0
0
SPLINE
5
478
100
AcDbEntity
8
0
100
AcDbSpline
70
4
71
3
72
8
73
4
74
0
42
0.000000001
43
0.0000000001
44
0.0000000001
40
0
40
0
40
0
40
0
40
1
40
1
40
1
40
1
41
1
41
1
41
1
41
1
10
14.062863266712096
20
-2.0367030073150878
30
0
10
14.062863266712096
20
-2.1351889348968753
30
0
10
14.115402024036317
20
-2.2261894346222149
30
0
10
14.200693047290709
20
-2.2754304433807606
30
0
0
SPLINE
5
479
100
AcDbEntity
8
0
100
AcDbSpline
70
4
71
3
72
8
73
4
74
0
42
0.000000001
43
0.0000000001
44
0.0000000001
40
0
40
0
40
0
40
0
40
1
40
1
40
1
40
1
41
1
41
1
41
1
41
1
10
14.200693047290709
20
-2.2754304433807606
30
0
10
14.285984070545107
20
-2.3246753622040024
30
0
10
14.391063149219423
20
-2.3246753622040024
30
0
10
14.476354172473815
20
-2.2754304433807606
30
0
0
SPLINE
5
480
100
AcDbEntity
8
0
100
AcDbSpline
70
4
71
3
72
8
73
4
74
0
42
0.000000001
43
0.0000000001
44
0.0000000001
40
0
40
0
40
0
40
0
40
1
40
1
40
1
40
1
41
1
41
1
41
1
41
1
10
14.476354172473815
20
-2.2754304433807606
30
0
10
14.561645195728213
20
-2.2261894346222149
30
0
10
14.614183953052429
20
-2.1351889348968753
30
0
10
14.614183953052429
20
-2.0367030073150878
30
0
0
SPLINE
5
481
100
AcDbEntity
8
0
100
AcDbSpline
70
4
71
3
72
8
73
4
74
0
42
0.000000001
43
0.0000000001
44
0.0000000001
40
0
40
0
40
0
40
0
40
1
40
1
40
1
40
1
41
1
41
1
41
1
41
1
10
14.614183953052429
20
-2.0367030073150878
30
0
10
14.614183953052429
20
-1.9382209897979963
30
0
10
14.561645195728213
20
-1.8472165800079576
30
0
10
14.476354172473815
20
-1.7979755712494134
30
0
0
SPLINE
5
482
100
AcDbEntity
8
0
100
AcDbSpline
70
4
71
3
72
8
73
4
74
0
42
0.000000001
43
0.0000000001
44
0.0000000001
40
0
40
0
40
0
40
0
40
1
40
1
40
1
40
1
41
1
41
1
41
1
41
1
10
14.476354172473815
20
-1.7979755712494134
30
0
10
14.391063149219423
20
-1.748734562490869
30
0
10
14.285984070545107
20
-1.748734562490869
30
0
10
14.200693047290709
20
-1.7979755712494134
30
0
0
SPLINE
5
483
100
AcDbEntity
8
0
100
AcDbSpline
70
4
71
3
72
8
73
4
74
0
42
0.000000001
43
0.0000000001
44
0.0000000001
40
0
40
0
40
0
40
0
40
1
40
1
40
1
40
1
41
1
41
1
41
1
41
1
10
15.07234656596747
20
-1.7979755712494134
30
0
10
14.987055542713078
20
-1.8472165800079576
30
0
10
14.934516785388857
20
-1.9382209897979963
30
0
10
14.934516785388857
20
-2.0367030073150878
30
0
0
SPLINE
5
484
100
AcDbEntity
8
0
100
AcDbSpline
70
4
71
3
72
8
73
4
74
0
42
0.000000001
43
0.0000000001
44
0.0000000001
40
0
40
0
40
0
40
0
40
1
40
1
40
1
40
1
41
1
41
1
41
1
41
1
10
14.934516785388857
20
-2.0367030073150878
30
0
10
14.934516785388857
20
-2.1351889348968753
30
0
10
14.987055542713078
20
-2.2261894346222149
30
0
10
15.07234656596747
20
-2.2754304433807606
30
0
0
SPLINE
5
485
100
AcDbEntity
8
0
100
AcDbSpline
70
4
71
3
72
8
73
4
74
0
42
0.000000001
43
0.0000000001
44
0.0000000001
40
0
40
0
40
0
40
0
40
1
40
1
40
1
40
1
41
1
41
1
41
1
41
1
10
15.07234656596747
20
-2.2754304433807606
30
0
10
15.157637589221864
20
-2.3246753622040024
30
0
10
15.26271666789618
20
-2.3246753622040024
30
0
10
15.348007691150576
20
-2.2754304433807606
30
0
0
SPLINE
5
486
100
AcDbEntity
8
0
100
AcDbSpline
70
4
71
3
72
8
73
4
74
0
42
0.000000001
43
0.0000000001
44
0.0000000001
40
0
40
0
40
0
40
0
40
1
40
1
40
1
40
1
41
1
41
1
41
1
41
1
10
15.348007691150576
20
-2.2754304433807606
30
0
10
15.43329871440497
20
-2.2261894346222149
30
0
10
15.485837471729189
20
-2.1351889348968753
30
0
10
15.485837471729189
20
-2.0367030073150878
30
0
0
SPLINE
5
487
100
AcDbEntity
8
0
100
AcDbSpline
70
4
71
3
72
8
73
4
74
0
42
0.000000001
43
0.0000000001
44
0.0000000001
40
0
40
0
40
0
40
0
40
1
40
1
40
1
40
1
41
1
41
1
41
1
41
1
10
15.485837471729189
20
-2.0367030073150878
30
0
10
15.485837471729189
20
-1.9382209897979963
30
0
10
15.43329871440497
20
-1.8472165800079576
30
0
10
15.348007691150576
20
-1.7979755712494134
30
0
0
SPLINE
5
488
100
AcDbEntity
8
0
100
AcDbSpline
70
4
71
3
72
8
73
4
74
0
42
0.000000001
43
0.0000000001
44
0.0000000001
40
0
40
0
40
0
40
0
40
1
40
1
40
1
40
1
41
1
41
1
41
1
41
1
10
15.348007691150576
20
-1.7979755712494134
30
0
10
15.26271666789618
20
-1.748734562490869
30
0
10
15.157637589221864
20
-1.748734562490869
30
0
10
15.07234656596747
20
-1.7979755712494134
30
0
0
CIRCLE
5
489
100
AcDbEntity
8
0
100
AcDbCircle
10
18.94636455355667
20
-5.8395568404610749
30
0
40
0.1249999999999996
210
0
220
0
230
1
0
CIRCLE
5
490
100
AcDbEntity
8
0
100
AcDbCircle
10
18.201828020200953
20
-5.8395568404610758
30
0
40
0.1249999999999996
210
0
220
0
230
1
0
CIRCLE
5
491
100
AcDbEntity
8
0
100
AcDbCircle
10
19.690902650938263
20
-5.8395568404610749
30
0
40
0.1249999999999996
210
0
220
0
230
1
0
CIRCLE
5
492
100
AcDbEntity
8
0
100
AcDbCircle
10
17.457291486845239
20
-5.8395568404610758
30
0
40
0.1249999999999996
210
0
220
0
230
1
0
CIRCLE
5
493
100
AcDbEntity
8
0
100
AcDbCircle
10
20.435440748319852
20
-5.8395568404610749
30
0
40
0.1249999999999996
210
0
220
0
230
1
0
LWPOLYLINE
5
494
100
AcDbEntity
8
0
100
AcDbPolyline
90
12
70
1
43
0.0
10
20.402392881498567
20
-11.003790977042494
10
20.399124067411652
20
-11.003790977042495
10
20.399124067411652
20
-11.000522553962051
10
17.493612859831085
20
-11.000522553962051
10
17.493612859831085
20
-11.003790977042497
10
17.49034404574417
20
-11.003790977042495
10
17.49034404574417
20
-11.09458815340358
10
17.493612859831085
20
-11.09458815340358
10
17.493612859831085
20
-11.097856576484023
10
20.399124067411652
20
-11.097856576484023
10
20.399124067411652
20
-11.09458815340358
10
20.402392881498567
20
-11.09458815340358
0
LINE
5
495
100
AcDbEntity
8
0
100
AcDbLine
10
21.307100523100129
20
-6.8104118285592179
30
0
11
21.303828580961454
21
-6.8104110465462799
31
0
0
LINE
5
496
100
AcDbEntity
8
0
100
AcDbLine
10
21.303828580961454
20
-6.8104110465462799
30
0
11
21.303828580961454
21
-9.8975134787972543
31
0
0
SPLINE
5
497
100
AcDbEntity
8
0
100
AcDbSpline
70
4
71
3
72
8
73
4
74
0
42
0.000000001
43
0.0000000001
44
0.0000000001
40
0
40
0
40
0
40
0
40
1
40
1
40
1
40
1
41
1
41
1
41
1
41
1
10
21.303828580961454
20
-9.8975134787972543
30
0
10
21.303828580961454
20
-9.9272589049752344
30
0
10
21.315605695829625
20
-9.9557949481423496
30
0
10
21.336626203642119
20
-9.97684087137538
30
0
0
SPLINE
5
498
100
AcDbEntity
8
0
100
AcDbSpline
70
4
71
3
72
8
73
4
74
0
42
0.000000001
43
0.0000000001
44
0.0000000001
40
0
40
0
40
0
40
0
40
1
40
1
40
1
40
1
41
1
41
1
41
1
41
1
10
21.336626203642119
20
-9.97684087137538
30
0
10
21.35764671145462
20
-9.9978879676278218
30
0
10
21.386305921659694
20
-10.009724124472916
30
0
10
21.416053693876496
20
-10.009742110770523
30
0
0
LINE
5
499
100
AcDbEntity
8
0
100
AcDbLine
10
21.416053693876496
20
-10.009742110770523
30
0
11
21.597646482572781
21
-10.009742110770523
31
0
0
SPLINE
5
500
100
AcDbEntity
8
0
100
AcDbSpline
70
4
71
3
72
8
73
4
74
0
42
0.000000001
43
0.0000000001
44
0.0000000001
40
0
40
0
40
0
40
0
40
1
40
1
40
1
40
1
41
1
41
1
41
1
41
1
10
21.597646482572781
20
-10.009742110770523
30
0
10
21.625695722685091
20
-10.009755013984023
30
0
10
21.652587583647005
20
-10.020918639701186
30
0
10
21.672410047636262
20
-10.040762609046281
30
0
0
SPLINE
5
501
100
AcDbEntity
8
0
100
AcDbSpline
70
4
71
3
72
8
73
4
74
0
42
0.000000001
43
0.0000000001
44
0.0000000001
40
0
40
0
40
0
40
0
40
1
40
1
40
1
40
1
41
1
41
1
41
1
41
1
10
21.672410047636262
20
-10.040762609046281
30
0
10
21.692229383573764
20
-10.060607751410782
30
0
10
21.7033558636763
20
-10.087382310431778
30
0
10
21.703340223417513
20
-10.115431159537613
30
0
0
LINE
5
502
100
AcDbEntity
8
0
100
AcDbLine
10
21.703340223417509
20
-10.115431159537614
30
0
11
21.703340223417513
21
-10.769167192977246
31
0
0
SPLINE
5
503
100
AcDbEntity
8
0
100
AcDbSpline
70
4
71
3
72
8
73
4
74
0
42
0.000000001
43
0.0000000001
44
0.0000000001
40
0
40
0
40
0
40
0
40
1
40
1
40
1
40
1
41
1
41
1
41
1
41
1
10
21.703340223417513
20
-10.769167192977248
30
0
10
21.703340223417513
20
-10.797216237586317
30
0
10
21.692163694486844
20
-10.824111031096756
30
0
10
21.672319334135285
20
-10.843929389518081
30
0
0
SPLINE
5
504
100
AcDbEntity
8
0
100
AcDbSpline
70
4
71
3
72
8
73
4
74
0
42
0.000000001
43
0.0000000001
44
0.0000000001
40
0
40
0
40
0
40
0
40
1
40
1
40
1
40
1
41
1
41
1
41
1
41
1
10
21.672319334135285
20
-10.843929389518081
30
0
10
21.652474973783725
20
-10.863749116462051
30
0
10
21.625698850736846
20
-10.874876769583999
30
0
10
21.59764961062454
20
-10.874858783286392
30
0
0
LINE
5
505
100
AcDbEntity
8
0
100
AcDbLine
10
21.59764961062454
20
-10.874858783286392
30
0
11
21.442829816923371
21
-10.874858783286392
31
0
0
LINE
5
506
100
AcDbEntity
8
0
100
AcDbLine
10
21.442829816923371
20
-10.874858783286392
30
0
11
21.390269163236844
21
-10.822298129599869
31
0
0
LINE
5
507
100
AcDbEntity
8
0
100
AcDbLine
10
21.390269163236844
20
-10.822298129599869
30
0
11
21.390269163236844
21
-10.442301229041396
31
0
0
LINE
5
508
100
AcDbEntity
8
0
100
AcDbLine
10
21.390269163236844
20
-10.442301229041396
30
0
11
21.387000349149929
21
-10.442301229041396
31
0
0
LINE
5
509
100
AcDbEntity
8
0
100
AcDbLine
10
21.387000349149929
20
-10.442301229041396
30
0
11
21.387000349149929
21
-10.439032805960952
31
0
0
LINE
5
510
100
AcDbEntity
8
0
100
AcDbLine
10
21.387000349149929
20
-10.439032805960952
30
0
11
21.307100523100129
21
-10.439032805960952
31
0
0
LINE
5
511
100
AcDbEntity
8
0
100
AcDbLine
10
21.307100523100129
20
-10.439032805960952
30
0
11
21.307100523100129
21
-10.442301229041396
31
0
0
LINE
5
512
100
AcDbEntity
8
0
100
AcDbLine
10
21.307100523100129
20
-10.442301229041396
30
0
11
21.303831709013213
21
-10.442301229041396
31
0
0
LINE
5
513
100
AcDbEntity
8
0
100
AcDbLine
10
21.303831709013213
20
-10.442301229041396
30
0
11
21.303831709013213
21
-12.052298129599867
31
0
0
LINE
5
514
100
AcDbEntity
8
0
100
AcDbLine
10
21.303831709013213
20
-12.052298129599867
30
0
11
21.25127105532669
21
-12.104858783286391
31
0
0
LINE
5
515
100
AcDbEntity
8
0
100
AcDbLine
10
21.25127105532669
20
-12.104858783286391
30
0
11
16.641473692045441
21
-12.104858783286391
31
0
0
LINE
5
516
100
AcDbEntity
8
0
100
AcDbLine
10
16.641473692045441
20
-12.104858783286391
30
0
11
16.588913038358918
21
-12.052298129599867
31
0
0
LINE
5
517
100
AcDbEntity
8
0
100
AcDbLine
10
16.588913038358918
20
-12.052298129599867
30
0
11
16.588913038358914
21
-10.442301229041396
31
0
0
LINE
5
518
100
AcDbEntity
8
0
100
AcDbLine
10
16.588913038358914
20
-10.442301229041396
30
0
11
16.585642660246119
21
-10.442301229041396
31
0
0
LINE
5
519
100
AcDbEntity
8
0
100
AcDbLine
10
16.585642660246119
20
-10.442301229041396
30
0
11
16.585642660246119
21
-10.439032805960952
31
0
0
LINE
5
520
100
AcDbEntity
8
0
100
AcDbLine
10
16.585642660246119
20
-10.439032805960952
30
0
11
16.505741270170436
21
-10.439032805960952
31
0
0
LINE
5
521
100
AcDbEntity
8
0
100
AcDbLine
10
16.505741270170436
20
-10.439032805960952
30
0
11
16.505741270170436
21
-10.442301229041396
31
0
0
LINE
5
522
100
AcDbEntity
8
0
100
AcDbLine
10
16.505741270170436
20
-10.442301229041396
30
0
11
16.502472456083524
21
-10.442301229041396
31
0
0
LINE
5
523
100
AcDbEntity
8
0
100
AcDbLine
10
16.502472456083524
20
-10.442301229041396
30
0
11
16.502472456083524
21
-10.822298129599869
31
0
0
LINE
5
524
100
AcDbEntity
8
0
100
AcDbLine
10
16.502472456083524
20
-10.822298129599869
30
0
11
16.449911802397001
21
-10.874858783286392
31
0
0
LINE
5
525
100
AcDbEntity
8
0
100
AcDbLine
10
16.449911802397001
20
-10.874858783286392
30
0
11
16.295095136747584
21
-10.874858783286392
31
0
0
SPLINE
5
526
100
AcDbEntity
8
0
100
AcDbSpline
70
4
71
3
72
8
73
4
74
0
42
0.000000001
43
0.0000000001
44
0.0000000001
40
0
40
0
40
0
40
0
40
1
40
1
40
1
40
1
41
1
41
1
41
1
41
1
10
16.295095136747587
20
-10.874858783286392
30
0
10
16.267045896635285
20
-10.874845880072892
30
0
10
16.240150907621612
20
-10.863683818381608
30
0
10
16.220331571684113
20
-10.84383848051387
30
0
0
SPLINE
5
527
100
AcDbEntity
8
0
100
AcDbSpline
70
4
71
3
72
8
73
4
74
0
42
0.000000001
43
0.0000000001
44
0.0000000001
40
0
40
0
40
0
40
0
40
1
40
1
40
1
40
1
41
1
41
1
41
1
41
1
10
16.220331571684113
20
-10.84383848051387
30
0
10
16.200513799772491
20
-10.823994511168776
30
0
10
16.189384191618192
20
-10.797220147651016
30
0
10
16.189402959928739
20
-10.769171103041947
30
0
0
LINE
5
528
100
AcDbEntity
8
0
100
AcDbLine
10
16.189402959928739
20
-10.769171103041947
30
0
11
16.189402959928739
21
-10.115435069602309
31
0
0
SPLINE
5
529
100
AcDbEntity
8
0
100
AcDbSpline
70
4
71
3
72
8
73
4
74
0
42
0.000000001
43
0.0000000001
44
0.0000000001
40
0
40
0
40
0
40
0
40
1
40
1
40
1
40
1
41
1
41
1
41
1
41
1
10
16.189402959928739
20
-10.115435069602309
30
0
10
16.189402959928739
20
-10.087385829490005
30
0
10
16.200577924833521
20
-10.060491231482803
30
0
10
16.220422285185087
20
-10.040671504538834
30
0
0
SPLINE
5
530
100
AcDbEntity
8
0
100
AcDbSpline
70
4
71
3
72
8
73
4
74
0
42
0.000000001
43
0.0000000001
44
0.0000000001
40
0
40
0
40
0
40
0
40
1
40
1
40
1
40
1
41
1
41
1
41
1
41
1
10
16.220422285185087
20
-10.040671504538834
30
0
10
16.240268209562526
20
-10.020852950614273
30
0
10
16.267041204557643
20
-10.009724124472916
30
0
10
16.295090444669952
20
-10.009742110770523
30
0
0
LINE
5
531
100
AcDbEntity
8
0
100
AcDbLine
10
16.295090444669952
20
-10.009742110770523
30
0
11
16.476680105314482
21
-10.009742110770523
31
0
0
SPLINE
5
532
100
AcDbEntity
8
0
100
AcDbSpline
70
4
71
3
72
8
73
4
74
0
42
0.000000001
43
0.0000000001
44
0.0000000001
40
0
40
0
40
0
40
0
40
1
40
1
40
1
40
1
41
1
41
1
41
1
41
1
10
16.476680105314479
20
-10.009742110770523
30
0
10
16.506426313505397
20
-10.009755013984023
30
0
10
16.534961965666046
20
-9.9979649959023575
30
0
10
16.556009061918484
20
-9.976947225135147
30
0
0
SPLINE
5
533
100
AcDbEntity
8
0
100
AcDbSpline
70
4
71
3
72
8
73
4
74
0
42
0.000000001
43
0.0000000001
44
0.0000000001
40
0
40
0
40
0
40
0
40
1
40
1
40
1
40
1
41
1
41
1
41
1
41
1
10
16.556009061918484
20
-9.976947225135147
30
0
10
16.577054594145046
20
-9.9559259353097058
30
0
10
16.588891141996612
20
-9.92726672510463
30
0
10
16.588909910307159
20
-9.8975173888619548
30
0
0
LINE
5
534
100
AcDbEntity
8
0
100
AcDbLine
10
16.588909910307159
20
-9.8975173888619548
30
0
11
16.588909910307159
21
-6.8104110465462799
31
0
0
LINE
5
535
100
AcDbEntity
8
0
100
AcDbLine
10
16.588909910307159
20
-6.8104110465462799
30
0
11
16.585639532194364
21
-6.8104110465462799
31
0
0
LINE
5
536
100
AcDbEntity
8
0
100
AcDbLine
10
16.585639532194364
20
-6.8104110465462799
30
0
11
16.585639532194364
21
-6.8071422324593653
31
0
0
LINE
5
537
100
AcDbEntity
8
0
100
AcDbLine
10
16.585639532194364
20
-6.8071422324593653
30
0
11
16.50573814211868
21
-6.8071422324593653
31
0
0
LINE
5
538
100
AcDbEntity
8
0
100
AcDbLine
10
16.50573814211868
20
-6.8071422324593653
30
0
11
16.50573814211868
21
-6.8104110465462799
31
0
0
LINE
5
539
100
AcDbEntity
8
0
100
AcDbLine
10
16.50573814211868
20
-6.8104110465462799
30
0
11
16.502469328031765
21
-6.8104110465462799
31
0
0
LINE
5
540
100
AcDbEntity
8
0
100
AcDbLine
10
16.502469328031765
20
-6.8104110465462799
30
0
11
16.502469328031765
21
-7.1904079471047515
31
0
0
LINE
5
541
100
AcDbEntity
8
0
100
AcDbLine
10
16.502469328031765
20
-7.1904079471047515
30
0
11
16.449908674345242
21
-7.2429686007912748
31
0
0
LINE
5
542
100
AcDbEntity
8
0
100
AcDbLine
10
16.449908674345242
20
-7.2429686007912748
30
0
11
16.295092008695828
21
-7.2429686007912748
31
0
0
SPLINE
5
543
100
AcDbEntity
8
0
100
AcDbSpline
70
4
71
3
72
8
73
4
74
0
42
0.000000001
43
0.0000000001
44
0.0000000001
40
0
40
0
40
0
40
0
40
1
40
1
40
1
40
1
41
1
41
1
41
1
41
1
10
16.295092008695828
20
-7.2429686007912748
30
0
10
16.267042768583526
20
-7.2429556975777745
30
0
10
16.240147779569853
20
-7.2317936358864898
30
0
10
16.220328443632351
20
-7.211949666541396
30
0
0
SPLINE
5
544
100
AcDbEntity
8
0
100
AcDbSpline
70
4
71
3
72
8
73
4
74
0
42
0.000000001
43
0.0000000001
44
0.0000000001
40
0
40
0
40
0
40
0
40
1
40
1
40
1
40
1
41
1
41
1
41
1
41
1
10
16.220328443632351
20
-7.211949666541396
30
0
10
16.200510671720732
20
-7.1921045241768944
30
0
10
16.189381063566433
20
-7.1653299651558982
30
0
10
16.189399831876976
20
-7.1372811160500644
30
0
0
LINE
5
545
100
AcDbEntity
8
0
100
AcDbLine
10
16.189399831876976
20
-7.1372811160500627
30
0
11
16.189399831876976
21
-6.4835452781136613
31
0
0
SPLINE
5
546
100
AcDbEntity
8
0
100
AcDbSpline
70
4
71
3
72
8
73
4
74
0
42
0.000000001
43
0.0000000001
44
0.0000000001
40
0
40
0
40
0
40
0
40
1
40
1
40
1
40
1
41
1
41
1
41
1
41
1
10
16.189399831876976
20
-6.4835452781136613
30
0
10
16.189399831876976
20
-6.4554960380013569
30
0
10
16.200574796781769
20
-6.4286010489876864
30
0
10
16.220419157133328
20
-6.4087832770760649
30
0
0
SPLINE
5
547
100
AcDbEntity
8
0
100
AcDbSpline
70
4
71
3
72
8
73
4
74
0
42
0.000000001
43
0.0000000001
44
0.0000000001
40
0
40
0
40
0
40
0
40
1
40
1
40
1
40
1
41
1
41
1
41
1
41
1
10
16.220419157133328
20
-6.4087832770760649
30
0
10
16.240265081510771
20
-6.3889639411385657
30
0
10
16.267038076505884
20
-6.3778358970101463
30
0
10
16.295087316618194
20
-6.3778538833077532
30
0
0
LINE
5
548
100
AcDbEntity
8
0
100
AcDbLine
10
16.295087316618194
20
-6.3778538833077532
30
0
11
16.476676977262727
21
-6.3778538833077532
31
0
0
SPLINE
5
549
100
AcDbEntity
8
0
100
AcDbSpline
70
4
71
3
72
8
73
4
74
0
42
0.000000001
43
0.0000000001
44
0.0000000001
40
0
40
0
40
0
40
0
40
1
40
1
40
1
40
1
41
1
41
1
41
1
41
1
10
16.476676977262727
20
-6.3778538833077532
30
0
10
16.506423185453638
20
-6.3778663955147854
30
0
10
16.534958837614287
20
-6.3660752044137112
30
0
10
16.556005933866729
20
-6.3450578246529687
30
0
0
SPLINE
5
550
100
AcDbEntity
8
0
100
AcDbSpline
70
4
71
3
72
8
73
4
74
0
42
0.000000001
43
0.0000000001
44
0.0000000001
40
0
40
0
40
0
40
0
40
1
40
1
40
1
40
1
41
1
41
1
41
1
41
1
10
16.556005933866729
20
-6.3450578246529687
30
0
10
16.577051466093288
20
-6.3240365348275294
30
0
10
16.58888801394485
20
-6.2953773246224509
30
0
10
16.5889067822554
20
-6.2656279883797756
30
0
0
LINE
5
551
100
AcDbEntity
8
0
100
AcDbLine
10
16.5889067822554
20
-6.2656279883797756
30
0
11
16.588906782255396
21
-5.7208480582650294
31
0
0
SPLINE
5
552
100
AcDbEntity
8
0
100
AcDbSpline
70
4
71
3
72
8
73
4
74
0
42
0.000000001
43
0.0000000001
44
0.0000000001
40
0
40
0
40
0
40
0
40
1
40
1
40
1
40
1
41
1
41
1
41
1
41
1
10
16.5889067822554
20
-5.7208480582650294
30
0
10
16.5889067822554
20
-5.692798818152724
30
0
10
16.600081747160186
20
-5.6659053931649321
30
0
10
16.619926107511748
20
-5.6460860572274321
30
0
0
SPLINE
5
553
100
AcDbEntity
8
0
100
AcDbSpline
70
4
71
3
72
8
73
4
74
0
42
0.000000001
43
0.0000000001
44
0.0000000001
40
0
40
0
40
0
40
0
40
1
40
1
40
1
40
1
41
1
41
1
41
1
41
1
10
16.619926107511748
20
-5.6460860572274321
30
0
10
16.639772031889187
20
-5.6262667212899311
30
0
10
16.666545026884307
20
-5.6151386771615135
30
0
10
16.69459426699661
20
-5.6151566634591203
30
0
0
LINE
5
554
100
AcDbEntity
8
0
100
AcDbLine
10
16.69459426699661
20
-5.6151566634591203
30
0
11
21.198134840116726
21
-5.6151566634591203
31
0
0
SPLINE
5
555
100
AcDbEntity
8
0
100
AcDbSpline
70
4
71
3
72
8
73
4
74
0
42
0.000000001
43
0.0000000001
44
0.0000000001
40
0
40
0
40
0
40
0
40
1
40
1
40
1
40
1
41
1
41
1
41
1
41
1
10
21.198134840116726
20
-5.6151566634591203
30
0
10
21.226184080229036
20
-5.6151691756661535
30
0
10
21.253075941190946
20
-5.6263316283639062
30
0
10
21.272898405180207
20
-5.6461767707284078
30
0
0
SPLINE
5
556
100
AcDbEntity
8
0
100
AcDbSpline
70
4
71
3
72
8
73
4
74
0
42
0.000000001
43
0.0000000001
44
0.0000000001
40
0
40
0
40
0
40
0
40
1
40
1
40
1
40
1
41
1
41
1
41
1
41
1
10
21.272898405180207
20
-5.6461767707284078
30
0
10
21.292717741117706
20
-5.6660211310799706
30
0
10
21.303844221220245
20
-5.6927949080880262
30
0
10
21.303828580961454
20
-5.7208441482003316
30
0
0
LINE
5
557
100
AcDbEntity
8
0
100
AcDbLine
10
21.303828580961454
20
-5.7208441482003307
30
0
11
21.303828580961454
21
-6.2656240783150778
31
0
0
SPLINE
5
558
100
AcDbEntity
8
0
100
AcDbSpline
70
4
71
3
72
8
73
4
74
0
42
0.000000001
43
0.0000000001
44
0.0000000001
40
0
40
0
40
0
40
0
40
1
40
1
40
1
40
1
41
1
41
1
41
1
41
1
10
21.303828580961454
20
-6.2656240783150778
30
0
10
21.303828580961454
20
-6.2953695044930571
30
0
10
21.315605695829625
20
-6.3239059386666412
30
0
10
21.336626203642119
20
-6.3449530349190812
30
0
0
SPLINE
5
559
100
AcDbEntity
8
0
100
AcDbSpline
70
4
71
3
72
8
73
4
74
0
42
0.000000001
43
0.0000000001
44
0.0000000001
40
0
40
0
40
0
40
0
40
1
40
1
40
1
40
1
41
1
41
1
41
1
41
1
10
21.336626203642119
20
-6.3449530349190812
30
0
10
21.35764671145462
20
-6.366000131171524
30
0
10
21.386305921659694
20
-6.377836679023086
30
0
10
21.416053693876496
20
-6.3778538833077532
30
0
0
LINE
5
560
100
AcDbEntity
8
0
100
AcDbLine
10
21.416053693876496
20
-6.3778538833077549
30
0
11
21.597646482572781
21
-6.3778538833077532
31
0
0
SPLINE
5
561
100
AcDbEntity
8
0
100
AcDbSpline
70
4
71
3
72
8
73
4
74
0
42
0.000000001
43
0.0000000001
44
0.0000000001
40
0
40
0
40
0
40
0
40
1
40
1
40
1
40
1
41
1
41
1
41
1
41
1
10
21.597646482572781
20
-6.3778538833077532
30
0
10
21.625695722685091
20
-6.3778663955147854
30
0
10
21.652587583647005
20
-6.389028848212539
30
0
10
21.672410047636262
20
-6.4088739905770407
30
0
0
SPLINE
5
562
100
AcDbEntity
8
0
100
AcDbSpline
70
4
71
3
72
8
73
4
74
0
42
0.000000001
43
0.0000000001
44
0.0000000001
40
0
40
0
40
0
40
0
40
1
40
1
40
1
40
1
41
1
41
1
41
1
41
1
10
21.672410047636262
20
-6.4088739905770407
30
0
10
21.692229383573764
20
-6.4287183509286034
30
0
10
21.7033558636763
20
-6.4554921279366591
30
0
10
21.703340223417513
20
-6.4835413680489644
30
0
0
LINE
5
563
100
AcDbEntity
8
0
100
AcDbLine
10
21.703340223417509
20
-6.4835413680489626
30
0
11
21.703340223417513
21
-7.1372775969918347
31
0
0
SPLINE
5
564
100
AcDbEntity
8
0
100
AcDbSpline
70
4
71
3
72
8
73
4
74
0
42
0.000000001
43
0.0000000001
44
0.0000000001
40
0
40
0
40
0
40
0
40
1
40
1
40
1
40
1
41
1
41
1
41
1
41
1
10
21.703340223417513
20
-7.1372775969918347
30
0
10
21.703340223417513
20
-7.165326837104141
30
0
10
21.692163694486844
20
-7.1922214351113434
30
0
10
21.672319334135285
20
-7.2120411620553133
30
0
0
SPLINE
5
565
100
AcDbEntity
8
0
100
AcDbSpline
70
4
71
3
72
8
73
4
74
0
42
0.000000001
43
0.0000000001
44
0.0000000001
40
0
40
0
40
0
40
0
40
1
40
1
40
1
40
1
41
1
41
1
41
1
41
1
10
21.672319334135285
20
-7.2120411620553133
30
0
10
21.652474973783725
20
-7.2318597159798728
30
0
10
21.625698850736846
20
-7.2429885421212319
30
0
10
21.59764961062454
20
-7.2429693828042145
30
0
0
LINE
5
566
100
AcDbEntity
8
0
100
AcDbLine
10
21.59764961062454
20
-7.2429693828042145
30
0
11
21.442829816923371
21
-7.2429693828042145
31
0
0
LINE
5
567
100
AcDbEntity
8
0
100
AcDbLine
10
21.442829816923371
20
-7.2429693828042145
30
0
11
21.390269163236844
21
-7.1904087291176912
31
0
0
LINE
5
568
100
AcDbEntity
8
0
100
AcDbLine
10
21.390269163236844
20
-7.1904087291176912
30
0
11
21.390269163236844
21
-6.8104118285592197
31
0
0
LINE
5
569
100
AcDbEntity
8
0
100
AcDbLine
10
21.390269163236844
20
-6.8104118285592197
30
0
11
21.387000349149929
21
-6.8104118285592179
31
0
0
LINE
5
570
100
AcDbEntity
8
0
100
AcDbLine
10
21.387000349149929
20
-6.8104118285592179
30
0
11
21.387000349149929
21
-6.8071430144723051
31
0
0
LINE
5
571
100
AcDbEntity
8
0
100
AcDbLine
10
21.387000349149929
20
-6.8071430144723051
30
0
11
21.307100523100129
21
-6.8071430144723051
31
0
0
LINE
5
572
100
AcDbEntity
8
0
100
AcDbLine
10
21.307100523100129
20
-6.8071430144723051
30
0
11
21.307100523100129
21
-6.8104118285592179
31
0
0
SPLINE
5
573
100
AcDbEntity
8
0
100
AcDbSpline
70
4
71
3
72
8
73
4
74
0
42
0.000000001
43
0.0000000001
44
0.0000000001
40
0
40
0
40
0
40
0
40
1
40
1
40
1
40
1
41
1
41
1
41
1
41
1
10
18.381845690359281
20
-4.84343512512568
30
0
10
18.411627089132477
20
-4.8950120065343699
30
0
10
18.466660467733547
20
-4.9267867562902286
30
0
10
18.52621700917642
20
-4.9267867562902286
30
0
0
SPLINE
5
574
100
AcDbEntity
8
0
100
AcDbSpline
70
4
71
3
72
8
73
4
74
0
42
0.000000001
43
0.0000000001
44
0.0000000001
40
0
40
0
40
0
40
0
40
1
40
1
40
1
40
1
41
1
41
1
41
1
41
1
10
18.52621700917642
20
-4.9267867562902286
30
0
10
18.585771986593411
20
-4.9267867562902286
30
0
10
18.640806929220364
20
-4.8950120065343699
30
0
10
18.67058832799356
20
-4.84343512512568
30
0
0
SPLINE
5
575
100
AcDbEntity
8
0
100
AcDbSpline
70
4
71
3
72
8
73
4
74
0
42
0.000000001
43
0.0000000001
44
0.0000000001
40
0
40
0
40
0
40
0
40
1
40
1
40
1
40
1
41
1
41
1
41
1
41
1
10
18.67058832799356
20
-4.84343512512568
30
0
10
18.700365816702057
20
-4.7918543336522905
30
0
10
18.700365816702057
20
-4.7283087442052691
30
0
10
18.67058832799356
20
-4.6767318627965775
30
0
0
SPLINE
5
576
100
AcDbEntity
8
0
100
AcDbSpline
70
4
71
3
72
8
73
4
74
0
42
0.000000001
43
0.0000000001
44
0.0000000001
40
0
40
0
40
0
40
0
40
1
40
1
40
1
40
1
41
1
41
1
41
1
41
1
10
18.67058832799356
20
-4.6767318627965775
30
0
10
18.640806929220364
20
-4.6251510713231889
30
0
10
18.585771986593411
20
-4.5933802316320271
30
0
10
18.52621700917642
20
-4.5933802316320271
30
0
0
SPLINE
5
577
100
AcDbEntity
8
0
100
AcDbSpline
70
4
71
3
72
8
73
4
74
0
42
0.000000001
43
0.0000000001
44
0.0000000001
40
0
40
0
40
0
40
0
40
1
40
1
40
1
40
1
41
1
41
1
41
1
41
1
10
18.52621700917642
20
-4.5933802316320271
30
0
10
18.466660467733547
20
-4.5933802316320271
30
0
10
18.411627089132477
20
-4.6251510713231889
30
0
10
18.381845690359281
20
-4.6767318627965775
30
0
0
SPLINE
5
578
100
AcDbEntity
8
0
100
AcDbSpline
70
4
71
3
72
8
73
4
74
0
42
0.000000001
43
0.0000000001
44
0.0000000001
40
0
40
0
40
0
40
0
40
1
40
1
40
1
40
1
41
1
41
1
41
1
41
1
10
18.381845690359281
20
-4.6767318627965775
30
0
10
18.352068201650784
20
-4.7283087442052691
30
0
10
18.352068201650784
20
-4.7918551156652303
30
0
10
18.381845690359281
20
-4.84343512512568
30
0
0
SPLINE
5
579
100
AcDbEntity
8
0
100
AcDbSpline
70
4
71
3
72
8
73
4
74
0
42
0.000000001
43
0.0000000001
44
0.0000000001
40
0
40
0
40
0
40
0
40
1
40
1
40
1
40
1
41
1
41
1
41
1
41
1
10
19.54405142461221
20
-4.6767318627965775
30
0
10
19.514272371877833
20
-4.7283087442052691
30
0
10
19.514272371877833
20
-4.7918551156652303
30
0
10
19.54405142461221
20
-4.84343512512568
30
0
0
SPLINE
5
580
100
AcDbEntity
8
0
100
AcDbSpline
70
4
71
3
72
8
73
4
74
0
42
0.000000001
43
0.0000000001
44
0.0000000001
40
0
40
0
40
0
40
0
40
1
40
1
40
1
40
1
41
1
41
1
41
1
41
1
10
19.54405142461221
20
-4.84343512512568
30
0
10
19.573832823385402
20
-4.8950120065343699
30
0
10
19.628866201986479
20
-4.9267867562902286
30
0
10
19.688422743429349
20
-4.9267867562902286
30
0
0
SPLINE
5
581
100
AcDbEntity
8
0
100
AcDbSpline
70
4
71
3
72
8
73
4
74
0
42
0.000000001
43
0.0000000001
44
0.0000000001
40
0
40
0
40
0
40
0
40
1
40
1
40
1
40
1
41
1
41
1
41
1
41
1
10
19.688422743429349
20
-4.9267867562902286
30
0
10
19.74797772084634
20
-4.9267867562902286
30
0
10
19.803011099447414
20
-4.8950120065343699
30
0
10
19.832794062246489
20
-4.84343512512568
30
0
0
SPLINE
5
582
100
AcDbEntity
8
0
100
AcDbSpline
70
4
71
3
72
8
73
4
74
0
42
0.000000001
43
0.0000000001
44
0.0000000001
40
0
40
0
40
0
40
0
40
1
40
1
40
1
40
1
41
1
41
1
41
1
41
1
10
19.832794062246489
20
-4.84343512512568
30
0
10
19.862571550954986
20
-4.7918543336522905
30
0
10
19.862571550954986
20
-4.7283087442052691
30
0
10
19.832794062246489
20
-4.6767318627965775
30
0
0
SPLINE
5
583
100
AcDbEntity
8
0
100
AcDbSpline
70
4
71
3
72
8
73
4
74
0
42
0.000000001
43
0.0000000001
44
0.0000000001
40
0
40
0
40
0
40
0
40
1
40
1
40
1
40
1
41
1
41
1
41
1
41
1
10
19.832794062246489
20
-4.6767318627965775
30
0
10
19.803011099447414
20
-4.6251510713231889
30
0
10
19.74797772084634
20
-4.5933802316320271
30
0
10
19.688422743429349
20
-4.5933802316320271
30
0
0
SPLINE
5
584
100
AcDbEntity
8
0
100
AcDbSpline
70
4
71
3
72
8
73
4
74
0
42
0.000000001
43
0.0000000001
44
0.0000000001
40
0
40
0
40
0
40
0
40
1
40
1
40
1
40
1
41
1
41
1
41
1
41
1
10
19.688422743429349
20
-4.5933802316320271
30
0
10
19.628866201986479
20
-4.5933802316320271
30
0
10
19.573832823385402
20
-4.6251510713231889
30
0
10
19.54405142461221
20
-4.6767318627965775
30
0
0
SPLINE
5
585
100
AcDbEntity
8
0
100
AcDbSpline
70
4
71
3
72
8
73
4
74
0
42
0.000000001
43
0.0000000001
44
0.0000000001
40
0
40
0
40
0
40
0
40
1
40
1
40
1
40
1
41
1
41
1
41
1
41
1
10
18.962947775472806
20
-4.84343512512568
30
0
10
18.992729174245998
20
-4.8950120065343699
30
0
10
19.047764116872951
20
-4.9267867562902286
30
0
10
19.107319094289945
20
-4.9267867562902286
30
0
0
SPLINE
5
586
100
AcDbEntity
8
0
100
AcDbSpline
70
4
71
3
72
8
73
4
74
0
42
0.000000001
43
0.0000000001
44
0.0000000001
40
0
40
0
40
0
40
0
40
1
40
1
40
1
40
1
41
1
41
1
41
1
41
1
10
19.107319094289945
20
-4.9267867562902286
30
0
10
19.166875635732815
20
-4.9267867562902286
30
0
10
19.221909014333889
20
-4.8950120065343699
30
0
10
19.251690413107081
20
-4.84343512512568
30
0
0
SPLINE
5
587
100
AcDbEntity
8
0
100
AcDbSpline
70
4
71
3
72
8
73
4
74
0
42
0.000000001
43
0.0000000001
44
0.0000000001
40
0
40
0
40
0
40
0
40
1
40
1
40
1
40
1
41
1
41
1
41
1
41
1
10
19.251690413107081
20
-4.84343512512568
30
0
10
19.281469465841457
20
-4.7918543336522905
30
0
10
19.281469465841457
20
-4.7283087442052691
30
0
10
19.251690413107081
20
-4.6767318627965775
30
0
0
SPLINE
5
588
100
AcDbEntity
8
0
100
AcDbSpline
70
4
71
3
72
8
73
4
74
0
42
0.000000001
43
0.0000000001
44
0.0000000001
40
0
40
0
40
0
40
0
40
1
40
1
40
1
40
1
41
1
41
1
41
1
41
1
10
19.251690413107081
20
-4.6767318627965775
30
0
10
19.221909014333889
20
-4.6251510713231889
30
0
10
19.166875635732815
20
-4.5933802316320271
30
0
10
19.107319094289945
20
-4.5933802316320271
30
0
0
SPLINE
5
589
100
AcDbEntity
8
0
100
AcDbSpline
70
4
71
3
72
8
73
4
74
0
42
0.000000001
43
0.0000000001
44
0.0000000001
40
0
40
0
40
0
40
0
40
1
40
1
40
1
40
1
41
1
41
1
41
1
41
1
10
19.107319094289945
20
-4.5933802316320271
30
0
10
19.047764116872951
20
-4.5933802316320271
30
0
10
18.992729174245998
20
-4.6251510713231889
30
0
10
18.962947775472806
20
-4.6767318627965775
30
0
0
SPLINE
5
590
100
AcDbEntity
8
0
100
AcDbSpline
70
4
71
3
72
8
73
4
74
0
42
0.000000001
43
0.0000000001
44
0.0000000001
40
0
40
0
40
0
40
0
40
1
40
1
40
1
40
1
41
1
41
1
41
1
41
1
10
18.962947775472806
20
-4.6767318627965775
30
0
10
18.933170286764309
20
-4.7283087442052691
30
0
10
18.933170286764309
20
-4.7918551156652303
30
0
10
18.962947775472806
20
-4.84343512512568
30
0
0
SPLINE
5
591
100
AcDbEntity
8
0
100
AcDbSpline
70
4
71
3
72
8
73
4
74
0
42
0.000000001
43
0.0000000001
44
0.0000000001
40
0
40
0
40
0
40
0
40
1
40
1
40
1
40
1
41
1
41
1
41
1
41
1
10
19.544049078573391
20
-3.5145269105565862
30
0
10
19.514270025839018
20
-3.5661037919652792
30
0
10
19.514270025839018
20
-3.6296509454381791
30
0
10
19.544049078573391
20
-3.6812301728856882
30
0
0
SPLINE
5
592
100
AcDbEntity
8
0
100
AcDbSpline
70
4
71
3
72
8
73
4
74
0
42
0.000000001
43
0.0000000001
44
0.0000000001
40
0
40
0
40
0
40
0
40
1
40
1
40
1
40
1
41
1
41
1
41
1
41
1
10
19.544049078573391
20
-3.6812301728856882
30
0
10
19.573830477346583
20
-3.7328070542943812
30
0
10
19.62886385594766
20
-3.7645818040502403
30
0
10
19.688420397390534
20
-3.7645818040502403
30
0
0
SPLINE
5
593
100
AcDbEntity
8
0
100
AcDbSpline
70
4
71
3
72
8
73
4
74
0
42
0.000000001
43
0.0000000001
44
0.0000000001
40
0
40
0
40
0
40
0
40
1
40
1
40
1
40
1
41
1
41
1
41
1
41
1
10
19.688420397390534
20
-3.7645818040502403
30
0
10
19.74797537480752
20
-3.7645818040502403
30
0
10
19.803008753408601
20
-3.7328070542943812
30
0
10
19.832791716207669
20
-3.6812301728856882
30
0
0
SPLINE
5
594
100
AcDbEntity
8
0
100
AcDbSpline
70
4
71
3
72
8
73
4
74
0
42
0.000000001
43
0.0000000001
44
0.0000000001
40
0
40
0
40
0
40
0
40
1
40
1
40
1
40
1
41
1
41
1
41
1
41
1
10
19.832791716207669
20
-3.6812301728856882
30
0
10
19.862569204916166
20
-3.6296509454381791
30
0
10
19.862569204916166
20
-3.5661037919652792
30
0
10
19.832791716207669
20
-3.5145269105565862
30
0
0
SPLINE
5
595
100
AcDbEntity
8
0
100
AcDbSpline
70
4
71
3
72
8
73
4
74
0
42
0.000000001
43
0.0000000001
44
0.0000000001
40
0
40
0
40
0
40
0
40
1
40
1
40
1
40
1
41
1
41
1
41
1
41
1
10
19.832791716207669
20
-3.5145269105565862
30
0
10
19.803008753408601
20
-3.4629461190831998
30
0
10
19.74797537480752
20
-3.4311752793920371
30
0
10
19.688420397390534
20
-3.4311752793920371
30
0
0
SPLINE
5
596
100
AcDbEntity
8
0
100
AcDbSpline
70
4
71
3
72
8
73
4
74
0
42
0.000000001
43
0.0000000001
44
0.0000000001
40
0
40
0
40
0
40
0
40
1
40
1
40
1
40
1
41
1
41
1
41
1
41
1
10
19.688420397390534
20
-3.4311752793920371
30
0
10
19.62886385594766
20
-3.4311752793920371
30
0
10
19.573830477346583
20
-3.4629461190831998
30
0
10
19.544049078573391
20
-3.5145269105565862
30
0
0
SPLINE
5
597
100
AcDbEntity
8
0
100
AcDbSpline
70
4
71
3
72
8
73
4
74
0
42
0.000000001
43
0.0000000001
44
0.0000000001
40
0
40
0
40
0
40
0
40
1
40
1
40
1
40
1
41
1
41
1
41
1
41
1
10
17.945112578024073
20
-3.7645818040502403
30
0
10
18.004667555441067
20
-3.7645818040502403
30
0
10
18.05970249806802
20
-3.7328070542943812
30
0
10
18.089483896841212
20
-3.6812301728856882
30
0
0
SPLINE
5
598
100
AcDbEntity
8
0
100
AcDbSpline
70
4
71
3
72
8
73
4
74
0
42
0.000000001
43
0.0000000001
44
0.0000000001
40
0
40
0
40
0
40
0
40
1
40
1
40
1
40
1
41
1
41
1
41
1
41
1
10
18.089483896841212
20
-3.6812301728856882
30
0
10
18.119261385549706
20
-3.6296509454381791
30
0
10
18.119261385549706
20
-3.5661037919652792
30
0
10
18.089483896841212
20
-3.5145269105565862
30
0
0
SPLINE
5
599
100
AcDbEntity
8
0
100
AcDbSpline
70
4
71
3
72
8
73
4
74
0
42
0.000000001
43
0.0000000001
44
0.0000000001
40
0
40
0
40
0
40
0
40
1
40
1
40
1
40
1
41
1
41
1
41
1
41
1
10
18.089483896841212
20
-3.5145269105565862
30
0
10
18.05970249806802
20
-3.4629461190831998
30
0
10
18.004667555441067
20
-3.4311752793920371
30
0
10
17.945112578024073
20
-3.4311752793920371
30
0
0
SPLINE
5
600
100
AcDbEntity
8
0
100
AcDbSpline
70
4
71
3
72
8
73
4
74
0
42
0.000000001
43
0.0000000001
44
0.0000000001
40
0
40
0
40
0
40
0
40
1
40
1
40
1
40
1
41
1
41
1
41
1
41
1
10
17.945112578024073
20
-3.4311752793920371
30
0
10
17.885556036581203
20
-3.4311752793920371
30
0
10
17.830522657980129
20
-3.4629461190831998
30
0
10
17.800741259206937
20
-3.5145269105565862
30
0
0
SPLINE
5
601
100
AcDbEntity
8
0
100
AcDbSpline
70
4
71
3
72
8
73
4
74
0
42
0.000000001
43
0.0000000001
44
0.0000000001
40
0
40
0
40
0
40
0
40
1
40
1
40
1
40
1
41
1
41
1
41
1
41
1
10
17.800741259206937
20
-3.5145269105565862
30
0
10
17.770962206472561
20
-3.5661037919652792
30
0
10
17.770962206472561
20
-3.6296509454381791
30
0
10
17.800741259206937
20
-3.6812301728856882
30
0
0
SPLINE
5
602
100
AcDbEntity
8
0
100
AcDbSpline
70
4
71
3
72
8
73
4
74
0
42
0.000000001
43
0.0000000001
44
0.0000000001
40
0
40
0
40
0
40
0
40
1
40
1
40
1
40
1
41
1
41
1
41
1
41
1
10
17.800741259206937
20
-3.6812301728856882
30
0
10
17.830522657980129
20
-3.7328070542943812
30
0
10
17.885556036581203
20
-3.7645818040502403
30
0
10
17.945112578024073
20
-3.7645818040502403
30
0
0
SPLINE
5
603
100
AcDbEntity
8
0
100
AcDbSpline
70
4
71
3
72
8
73
4
74
0
42
0.000000001
43
0.0000000001
44
0.0000000001
40
0
40
0
40
0
40
0
40
1
40
1
40
1
40
1
41
1
41
1
41
1
41
1
10
18.381843344320462
20
-3.5145269105565862
30
0
10
18.352065855611965
20
-3.5661037919652792
30
0
10
18.352065855611965
20
-3.6296509454381791
30
0
10
18.381843344320462
20
-3.6812301728856882
30
0
0
SPLINE
5
604
100
AcDbEntity
8
0
100
AcDbSpline
70
4
71
3
72
8
73
4
74
0
42
0.000000001
43
0.0000000001
44
0.0000000001
40
0
40
0
40
0
40
0
40
1
40
1
40
1
40
1
41
1
41
1
41
1
41
1
10
18.381843344320462
20
-3.6812301728856882
30
0
10
18.411624743093657
20
-3.7328070542943812
30
0
10
18.466658121694728
20
-3.7645818040502403
30
0
10
18.526214663137601
20
-3.7645818040502403
30
0
0
SPLINE
5
605
100
AcDbEntity
8
0
100
AcDbSpline
70
4
71
3
72
8
73
4
74
0
42
0.000000001
43
0.0000000001
44
0.0000000001
40
0
40
0
40
0
40
0
40
1
40
1
40
1
40
1
41
1
41
1
41
1
41
1
10
18.526214663137601
20
-3.7645818040502403
30
0
10
18.585769640554595
20
-3.7645818040502403
30
0
10
18.640804583181545
20
-3.7328070542943812
30
0
10
18.670585981954741
20
-3.6812301728856882
30
0
0
SPLINE
5
606
100
AcDbEntity
8
0
100
AcDbSpline
70
4
71
3
72
8
73
4
74
0
42
0.000000001
43
0.0000000001
44
0.0000000001
40
0
40
0
40
0
40
0
40
1
40
1
40
1
40
1
41
1
41
1
41
1
41
1
10
18.670585981954741
20
-3.6812301728856882
30
0
10
18.700363470663238
20
-3.6296509454381791
30
0
10
18.700363470663238
20
-3.5661037919652792
30
0
10
18.670585981954741
20
-3.5145269105565862
30
0
0
SPLINE
5
607
100
AcDbEntity
8
0
100
AcDbSpline
70
4
71
3
72
8
73
4
74
0
42
0.000000001
43
0.0000000001
44
0.0000000001
40
0
40
0
40
0
40
0
40
1
40
1
40
1
40
1
41
1
41
1
41
1
41
1
10
18.670585981954741
20
-3.5145269105565862
30
0
10
18.640804583181545
20
-3.4629461190831998
30
0
10
18.585769640554595
20
-3.4311752793920371
30
0
10
18.526214663137601
20
-3.4311752793920371
30
0
0
SPLINE
5
608
100
AcDbEntity
8
0
100
AcDbSpline
70
4
71
3
72
8
73
4
74
0
42
0.000000001
43
0.0000000001
44
0.0000000001
40
0
40
0
40
0
40
0
40
1
40
1
40
1
40
1
41
1
41
1
41
1
41
1
10
18.526214663137601
20
-3.4311752793920371
30
0
10
18.466658121694728
20
-3.4311752793920371
30
0
10
18.411624743093657
20
-3.4629461190831998
30
0
10
18.381843344320462
20
-3.5145269105565862
30
0
0
SPLINE
5
609
100
AcDbEntity
8
0
100
AcDbSpline
70
4
71
3
72
8
73
4
74
0
42
0.000000001
43
0.0000000001
44
0.0000000001
40
0
40
0
40
0
40
0
40
1
40
1
40
1
40
1
41
1
41
1
41
1
41
1
10
20.125151945699855
20
-4.0956282136571733
30
0
10
20.095374456991362
20
-4.147205095065865
30
0
10
20.095374456991362
20
-4.2107522485387667
30
0
10
20.125151945699855
20
-4.2623330400121526
30
0
0
SPLINE
5
610
100
AcDbEntity
8
0
100
AcDbSpline
70
4
71
3
72
8
73
4
74
0
42
0.000000001
43
0.0000000001
44
0.0000000001
40
0
40
0
40
0
40
0
40
1
40
1
40
1
40
1
41
1
41
1
41
1
41
1
10
20.125151945699855
20
-4.2623330400121526
30
0
10
20.154932562460111
20
-4.3139083573949675
30
0
10
20.209967505087064
20
-4.3456846711767039
30
0
10
20.269522482504058
20
-4.3456846711767039
30
0
0
SPLINE
5
611
100
AcDbEntity
8
0
100
AcDbSpline
70
4
71
3
72
8
73
4
74
0
42
0.000000001
43
0.0000000001
44
0.0000000001
40
0
40
0
40
0
40
0
40
1
40
1
40
1
40
1
41
1
41
1
41
1
41
1
10
20.269522482504058
20
-4.3456846711767039
30
0
10
20.329077459921045
20
-4.3456846711767039
30
0
10
20.384112402548002
20
-4.3139083573949675
30
0
10
20.413893019308254
20
-4.2623330400121526
30
0
0
SPLINE
5
612
100
AcDbEntity
8
0
100
AcDbSpline
70
4
71
3
72
8
73
4
74
0
42
0.000000001
43
0.0000000001
44
0.0000000001
40
0
40
0
40
0
40
0
40
1
40
1
40
1
40
1
41
1
41
1
41
1
41
1
10
20.413893019308254
20
-4.2623330400121526
30
0
10
20.443670508016751
20
-4.2107522485387667
30
0
10
20.443670508016751
20
-4.147205095065865
30
0
10
20.413893019308254
20
-4.0956282136571733
30
0
0
SPLINE
5
613
100
AcDbEntity
8
0
100
AcDbSpline
70
4
71
3
72
8
73
4
74
0
42
0.000000001
43
0.0000000001
44
0.0000000001
40
0
40
0
40
0
40
0
40
1
40
1
40
1
40
1
41
1
41
1
41
1
41
1
10
20.413893019308254
20
-4.0956282136571733
30
0
10
20.384112402548002
20
-4.0440489862096642
30
0
10
20.329077459921045
20
-4.0122765824926221
30
0
10
20.269522482504058
20
-4.0122765824926221
30
0
0
SPLINE
5
614
100
AcDbEntity
8
0
100
AcDbSpline
70
4
71
3
72
8
73
4
74
0
42
0.000000001
43
0.0000000001
44
0.0000000001
40
0
40
0
40
0
40
0
40
1
40
1
40
1
40
1
41
1
41
1
41
1
41
1
10
20.269522482504058
20
-4.0122765824926221
30
0
10
20.209965941061185
20
-4.0122765824926221
30
0
10
20.154932562460111
20
-4.0440489862096642
30
0
10
20.125151945699855
20
-4.0956282136571733
30
0
0
SPLINE
5
615
100
AcDbEntity
8
0
100
AcDbSpline
70
4
71
3
72
8
73
4
74
0
42
0.000000001
43
0.0000000001
44
0.0000000001
40
0
40
0
40
0
40
0
40
1
40
1
40
1
40
1
41
1
41
1
41
1
41
1
10
20.706253248800444
20
-4.0956282136571733
30
0
10
20.676475760091947
20
-4.147205095065865
30
0
10
20.676475760091947
20
-4.2107522485387667
30
0
10
20.706253248800444
20
-4.2623330400121526
30
0
0
SPLINE
5
616
100
AcDbEntity
8
0
100
AcDbSpline
70
4
71
3
72
8
73
4
74
0
42
0.000000001
43
0.0000000001
44
0.0000000001
40
0
40
0
40
0
40
0
40
1
40
1
40
1
40
1
41
1
41
1
41
1
41
1
10
20.706253248800444
20
-4.2623330400121526
30
0
10
20.736033865560692
20
-4.3139083573949675
30
0
10
20.791068808187653
20
-4.3456846711767039
30
0
10
20.85062378560464
20
-4.3456846711767039
30
0
0
SPLINE
5
617
100
AcDbEntity
8
0
100
AcDbSpline
70
4
71
3
72
8
73
4
74
0
42
0.000000001
43
0.0000000001
44
0.0000000001
40
0
40
0
40
0
40
0
40
1
40
1
40
1
40
1
41
1
41
1
41
1
41
1
10
20.85062378560464
20
-4.3456846711767039
30
0
10
20.910180327047513
20
-4.3456846711767039
30
0
10
20.965213705648587
20
-4.3139083573949675
30
0
10
20.994994322408843
20
-4.2623330400121526
30
0
0
SPLINE
5
618
100
AcDbEntity
8
0
100
AcDbSpline
70
4
71
3
72
8
73
4
74
0
42
0.000000001
43
0.0000000001
44
0.0000000001
40
0
40
0
40
0
40
0
40
1
40
1
40
1
40
1
41
1
41
1
41
1
41
1
10
20.994994322408843
20
-4.2623330400121526
30
0
10
21.02477181111734
20
-4.2107522485387667
30
0
10
21.02477181111734
20
-4.147205095065865
30
0
10
20.994994322408843
20
-4.0956282136571733
30
0
0
SPLINE
5
619
100
AcDbEntity
8
0
100
AcDbSpline
70
4
71
3
72
8
73
4
74
0
42
0.000000001
43
0.0000000001
44
0.0000000001
40
0
40
0
40
0
40
0
40
1
40
1
40
1
40
1
41
1
41
1
41
1
41
1
10
20.994994322408843
20
-4.0956282136571733
30
0
10
20.965213705648587
20
-4.0440489862096642
30
0
10
20.910178763021634
20
-4.0122765824926221
30
0
10
20.85062378560464
20
-4.0122765824926221
30
0
0
SPLINE
5
620
100
AcDbEntity
8
0
100
AcDbSpline
70
4
71
3
72
8
73
4
74
0
42
0.000000001
43
0.0000000001
44
0.0000000001
40
0
40
0
40
0
40
0
40
1
40
1
40
1
40
1
41
1
41
1
41
1
41
1
10
20.85062378560464
20
-4.0122765824926221
30
0
10
20.791068808187653
20
-4.0122765824926221
30
0
10
20.736033865560692
20
-4.0440489862096642
30
0
10
20.706253248800444
20
-4.0956282136571733
30
0
0
SPLINE
5
621
100
AcDbEntity
8
0
100
AcDbSpline
70
4
71
3
72
8
73
4
74
0
42
0.000000001
43
0.0000000001
44
0.0000000001
40
0
40
0
40
0
40
0
40
1
40
1
40
1
40
1
41
1
41
1
41
1
41
1
10
19.107317530264066
20
-4.3456846711767039
30
0
10
19.166874071706939
20
-4.3456846711767039
30
0
10
19.221907450308013
20
-4.3139083573949675
30
0
10
19.251688849081205
20
-4.2623330400121526
30
0
0
SPLINE
5
622
100
AcDbEntity
8
0
100
AcDbSpline
70
4
71
3
72
8
73
4
74
0
42
0.000000001
43
0.0000000001
44
0.0000000001
40
0
40
0
40
0
40
0
40
1
40
1
40
1
40
1
41
1
41
1
41
1
41
1
10
19.251688849081205
20
-4.2623330400121526
30
0
10
19.281467901815578
20
-4.2107522485387667
30
0
10
19.281467901815578
20
-4.147205095065865
30
0
10
19.251688849081205
20
-4.0956282136571733
30
0
0
SPLINE
5
623
100
AcDbEntity
8
0
100
AcDbSpline
70
4
71
3
72
8
73
4
74
0
42
0.000000001
43
0.0000000001
44
0.0000000001
40
0
40
0
40
0
40
0
40
1
40
1
40
1
40
1
41
1
41
1
41
1
41
1
10
19.251688849081205
20
-4.0956282136571733
30
0
10
19.221907450308013
20
-4.0440489862096642
30
0
10
19.166874071706939
20
-4.0122765824926221
30
0
10
19.107317530264066
20
-4.0122765824926221
30
0
0
SPLINE
5
624
100
AcDbEntity
8
0
100
AcDbSpline
70
4
71
3
72
8
73
4
74
0
42
0.000000001
43
0.0000000001
44
0.0000000001
40
0
40
0
40
0
40
0
40
1
40
1
40
1
40
1
41
1
41
1
41
1
41
1
10
19.107317530264066
20
-4.0122765824926221
30
0
10
19.047762552847072
20
-4.0122765824926221
30
0
10
18.992727610220118
20
-4.0440489862096642
30
0
10
18.96294621144693
20
-4.0956282136571733
30
0
0
SPLINE
5
625
100
AcDbEntity
8
0
100
AcDbSpline
70
4
71
3
72
8
73
4
74
0
42
0.000000001
43
0.0000000001
44
0.0000000001
40
0
40
0
40
0
40
0
40
1
40
1
40
1
40
1
41
1
41
1
41
1
41
1
10
18.96294621144693
20
-4.0956282136571733
30
0
10
18.933168722738429
20
-4.147205095065865
30
0
10
18.933168722738429
20
-4.2107522485387667
30
0
10
18.96294621144693
20
-4.2623330400121526
30
0
0
SPLINE
5
626
100
AcDbEntity
8
0
100
AcDbSpline
70
4
71
3
72
8
73
4
74
0
42
0.000000001
43
0.0000000001
44
0.0000000001
40
0
40
0
40
0
40
0
40
1
40
1
40
1
40
1
41
1
41
1
41
1
41
1
10
18.96294621144693
20
-4.2623330400121526
30
0
10
18.992727610220118
20
-4.3139083573949675
30
0
10
19.047762552847072
20
-4.3456846711767039
30
0
10
19.107317530264066
20
-4.3456846711767039
30
0
0
SPLINE
5
627
100
AcDbEntity
8
0
100
AcDbSpline
70
4
71
3
72
8
73
4
74
0
42
0.000000001
43
0.0000000001
44
0.0000000001
40
0
40
0
40
0
40
0
40
1
40
1
40
1
40
1
41
1
41
1
41
1
41
1
10
19.54404986058633
20
-4.0956282136571733
30
0
10
19.514270807851954
20
-4.147205095065865
30
0
10
19.514270807851954
20
-4.2107522485387667
30
0
10
19.54404986058633
20
-4.2623330400121526
30
0
0
SPLINE
5
628
100
AcDbEntity
8
0
100
AcDbSpline
70
4
71
3
72
8
73
4
74
0
42
0.000000001
43
0.0000000001
44
0.0000000001
40
0
40
0
40
0
40
0
40
1
40
1
40
1
40
1
41
1
41
1
41
1
41
1
10
19.54404986058633
20
-4.2623330400121526
30
0
10
19.573831259359526
20
-4.3139083573949675
30
0
10
19.6288646379606
20
-4.3456846711767039
30
0
10
19.688421179403466
20
-4.3456846711767039
30
0
0
SPLINE
5
629
100
AcDbEntity
8
0
100
AcDbSpline
70
4
71
3
72
8
73
4
74
0
42
0.000000001
43
0.0000000001
44
0.0000000001
40
0
40
0
40
0
40
0
40
1
40
1
40
1
40
1
41
1
41
1
41
1
41
1
10
19.688421179403466
20
-4.3456846711767039
30
0
10
19.74797615682046
20
-4.3456846711767039
30
0
10
19.803009535421534
20
-4.3139083573949675
30
0
10
19.832792498220609
20
-4.2623330400121526
30
0
0
SPLINE
5
630
100
AcDbEntity
8
0
100
AcDbSpline
70
4
71
3
72
8
73
4
74
0
42
0.000000001
43
0.0000000001
44
0.0000000001
40
0
40
0
40
0
40
0
40
1
40
1
40
1
40
1
41
1
41
1
41
1
41
1
10
19.832792498220609
20
-4.2623330400121526
30
0
10
19.862569986929106
20
-4.2107522485387667
30
0
10
19.862569986929106
20
-4.147205095065865
30
0
10
19.832792498220609
20
-4.0956282136571733
30
0
0
SPLINE
5
631
100
AcDbEntity
8
0
100
AcDbSpline
70
4
71
3
72
8
73
4
74
0
42
0.000000001
43
0.0000000001
44
0.0000000001
40
0
40
0
40
0
40
0
40
1
40
1
40
1
40
1
41
1
41
1
41
1
41
1
10
19.832792498220609
20
-4.0956282136571733
30
0
10
19.803009535421534
20
-4.0440489862096642
30
0
10
19.74797615682046
20
-4.0122765824926221
30
0
10
19.688421179403466
20
-4.0122765824926221
30
0
0
SPLINE
5
632
100
AcDbEntity
8
0
100
AcDbSpline
70
4
71
3
72
8
73
4
74
0
42
0.000000001
43
0.0000000001
44
0.0000000001
40
0
40
0
40
0
40
0
40
1
40
1
40
1
40
1
41
1
41
1
41
1
41
1
10
19.688421179403466
20
-4.0122765824926221
30
0
10
19.6288646379606
20
-4.0122765824926221
30
0
10
19.573831259359526
20
-4.0440489862096642
30
0
10
19.54404986058633
20
-4.0956282136571733
30
0
0
SPLINE
5
633
100
AcDbEntity
8
0
100
AcDbSpline
70
4
71
3
72
8
73
4
74
0
42
0.000000001
43
0.0000000001
44
0.0000000001
40
0
40
0
40
0
40
0
40
1
40
1
40
1
40
1
41
1
41
1
41
1
41
1
10
17.945114142049952
20
-4.3456846711767039
30
0
10
18.004669119466946
20
-4.3456846711767039
30
0
10
18.0597040620939
20
-4.3139083573949675
30
0
10
18.089485460867092
20
-4.2623330400121526
30
0
0
SPLINE
5
634
100
AcDbEntity
8
0
100
AcDbSpline
70
4
71
3
72
8
73
4
74
0
42
0.000000001
43
0.0000000001
44
0.0000000001
40
0
40
0
40
0
40
0
40
1
40
1
40
1
40
1
41
1
41
1
41
1
41
1
10
18.089485460867092
20
-4.2623330400121526
30
0
10
18.119262949575589
20
-4.2107522485387667
30
0
10
18.119262949575589
20
-4.147205095065865
30
0
10
18.089485460867092
20
-4.0956282136571733
30
0
0
SPLINE
5
635
100
AcDbEntity
8
0
100
AcDbSpline
70
4
71
3
72
8
73
4
74
0
42
0.000000001
43
0.0000000001
44
0.0000000001
40
0
40
0
40
0
40
0
40
1
40
1
40
1
40
1
41
1
41
1
41
1
41
1
10
18.089485460867092
20
-4.0956282136571733
30
0
10
18.0597040620939
20
-4.0440489862096642
30
0
10
18.004669119466946
20
-4.0122765824926221
30
0
10
17.945114142049952
20
-4.0122765824926221
30
0
0
SPLINE
5
636
100
AcDbEntity
8
0
100
AcDbSpline
70
4
71
3
72
8
73
4
74
0
42
0.000000001
43
0.0000000001
44
0.0000000001
40
0
40
0
40
0
40
0
40
1
40
1
40
1
40
1
41
1
41
1
41
1
41
1
10
17.945114142049952
20
-4.0122765824926221
30
0
10
17.885557600607083
20
-4.0122765824926221
30
0
10
17.830524222006009
20
-4.0440489862096642
30
0
10
17.800742823232817
20
-4.0956282136571733
30
0
0
SPLINE
5
637
100
AcDbEntity
8
0
100
AcDbSpline
70
4
71
3
72
8
73
4
74
0
42
0.000000001
43
0.0000000001
44
0.0000000001
40
0
40
0
40
0
40
0
40
1
40
1
40
1
40
1
41
1
41
1
41
1
41
1
10
17.800742823232817
20
-4.0956282136571733
30
0
10
17.77096377049844
20
-4.147205095065865
30
0
10
17.77096377049844
20
-4.2107522485387667
30
0
10
17.800742823232817
20
-4.2623330400121526
30
0
0
SPLINE
5
638
100
AcDbEntity
8
0
100
AcDbSpline
70
4
71
3
72
8
73
4
74
0
42
0.000000001
43
0.0000000001
44
0.0000000001
40
0
40
0
40
0
40
0
40
1
40
1
40
1
40
1
41
1
41
1
41
1
41
1
10
17.800742823232817
20
-4.2623330400121526
30
0
10
17.830524222006009
20
-4.3139083573949675
30
0
10
17.885557600607083
20
-4.3456846711767039
30
0
10
17.945114142049952
20
-4.3456846711767039
30
0
0
SPLINE
5
639
100
AcDbEntity
8
0
100
AcDbSpline
70
4
71
3
72
8
73
4
74
0
42
0.000000001
43
0.0000000001
44
0.0000000001
40
0
40
0
40
0
40
0
40
1
40
1
40
1
40
1
41
1
41
1
41
1
41
1
10
18.381844908346341
20
-4.0956282136571733
30
0
10
18.352067419637844
20
-4.147205095065865
30
0
10
18.352067419637844
20
-4.2107522485387667
30
0
10
18.381844908346341
20
-4.2623330400121526
30
0
0
SPLINE
5
640
100
AcDbEntity
8
0
100
AcDbSpline
70
4
71
3
72
8
73
4
74
0
42
0.000000001
43
0.0000000001
44
0.0000000001
40
0
40
0
40
0
40
0
40
1
40
1
40
1
40
1
41
1
41
1
41
1
41
1
10
18.381844908346341
20
-4.2623330400121526
30
0
10
18.411626307119537
20
-4.3139083573949675
30
0
10
18.466659685720607
20
-4.3456846711767039
30
0
10
18.526216227163481
20
-4.3456846711767039
30
0
0
SPLINE
5
641
100
AcDbEntity
8
0
100
AcDbSpline
70
4
71
3
72
8
73
4
74
0
42
0.000000001
43
0.0000000001
44
0.0000000001
40
0
40
0
40
0
40
0
40
1
40
1
40
1
40
1
41
1
41
1
41
1
41
1
10
18.526216227163481
20
-4.3456846711767039
30
0
10
18.585771204580475
20
-4.3456846711767039
30
0
10
18.640806147207424
20
-4.3139083573949675
30
0
10
18.67058754598062
20
-4.2623330400121526
30
0
0
SPLINE
5
642
100
AcDbEntity
8
0
100
AcDbSpline
70
4
71
3
72
8
73
4
74
0
42
0.000000001
43
0.0000000001
44
0.0000000001
40
0
40
0
40
0
40
0
40
1
40
1
40
1
40
1
41
1
41
1
41
1
41
1
10
18.67058754598062
20
-4.2623330400121526
30
0
10
18.700365034689117
20
-4.2107522485387667
30
0
10
18.700365034689117
20
-4.147205095065865
30
0
10
18.67058754598062
20
-4.0956282136571733
30
0
0
SPLINE
5
643
100
AcDbEntity
8
0
100
AcDbSpline
70
4
71
3
72
8
73
4
74
0
42
0.000000001
43
0.0000000001
44
0.0000000001
40
0
40
0
40
0
40
0
40
1
40
1
40
1
40
1
41
1
41
1
41
1
41
1
10
18.67058754598062
20
-4.0956282136571733
30
0
10
18.640806147207424
20
-4.0440489862096642
30
0
10
18.585771204580475
20
-4.0122765824926221
30
0
10
18.526216227163481
20
-4.0122765824926221
30
0
0
SPLINE
5
644
100
AcDbEntity
8
0
100
AcDbSpline
70
4
71
3
72
8
73
4
74
0
42
0.000000001
43
0.0000000001
44
0.0000000001
40
0
40
0
40
0
40
0
40
1
40
1
40
1
40
1
41
1
41
1
41
1
41
1
10
18.526216227163481
20
-4.0122765824926221
30
0
10
18.466659685720607
20
-4.0122765824926221
30
0
10
18.411626307119537
20
-4.0440489862096642
30
0
10
18.381844908346341
20
-4.0956282136571733
30
0
0
SPLINE
5
645
100
AcDbEntity
8
0
100
AcDbSpline
70
4
71
3
72
8
73
4
74
0
42
0.000000001
43
0.0000000001
44
0.0000000001
40
0
40
0
40
0
40
0
40
1
40
1
40
1
40
1
41
1
41
1
41
1
41
1
10
20.125153509725735
20
-4.84343512512568
30
0
10
20.15493412648599
20
-4.8950120065343699
30
0
10
20.209969069112944
20
-4.9267867562902286
30
0
10
20.269524046529938
20
-4.9267867562902286
30
0
0
SPLINE
5
646
100
AcDbEntity
8
0
100
AcDbSpline
70
4
71
3
72
8
73
4
74
0
42
0.000000001
43
0.0000000001
44
0.0000000001
40
0
40
0
40
0
40
0
40
1
40
1
40
1
40
1
41
1
41
1
41
1
41
1
10
20.269524046529938
20
-4.9267867562902286
30
0
10
20.329079023946925
20
-4.9267867562902286
30
0
10
20.384113966573882
20
-4.8950120065343699
30
0
10
20.413894583334134
20
-4.84343512512568
30
0
0
SPLINE
5
647
100
AcDbEntity
8
0
100
AcDbSpline
70
4
71
3
72
8
73
4
74
0
42
0.000000001
43
0.0000000001
44
0.0000000001
40
0
40
0
40
0
40
0
40
1
40
1
40
1
40
1
41
1
41
1
41
1
41
1
10
20.413894583334134
20
-4.84343512512568
30
0
10
20.443672072042631
20
-4.7918543336522905
30
0
10
20.443672072042631
20
-4.7283087442052691
30
0
10
20.413894583334134
20
-4.6767318627965775
30
0
0
SPLINE
5
648
100
AcDbEntity
8
0
100
AcDbSpline
70
4
71
3
72
8
73
4
74
0
42
0.000000001
43
0.0000000001
44
0.0000000001
40
0
40
0
40
0
40
0
40
1
40
1
40
1
40
1
41
1
41
1
41
1
41
1
10
20.413894583334134
20
-4.6767318627965775
30
0
10
20.384113966573882
20
-4.6251510713231889
30
0
10
20.329079023946925
20
-4.5933802316320271
30
0
10
20.269524046529938
20
-4.5933802316320271
30
0
0
SPLINE
5
649
100
AcDbEntity
8
0
100
AcDbSpline
70
4
71
3
72
8
73
4
74
0
42
0.000000001
43
0.0000000001
44
0.0000000001
40
0
40
0
40
0
40
0
40
1
40
1
40
1
40
1
41
1
41
1
41
1
41
1
10
20.269524046529938
20
-4.5933802316320271
30
0
10
20.209967505087064
20
-4.5933802316320271
30
0
10
20.15493412648599
20
-4.6251510713231889
30
0
10
20.125153509725735
20
-4.6767318627965775
30
0
0
SPLINE
5
650
100
AcDbEntity
8
0
100
AcDbSpline
70
4
71
3
72
8
73
4
74
0
42
0.000000001
43
0.0000000001
44
0.0000000001
40
0
40
0
40
0
40
0
40
1
40
1
40
1
40
1
41
1
41
1
41
1
41
1
10
20.125153509725735
20
-4.6767318627965775
30
0
10
20.095376021017238
20
-4.7283087442052691
30
0
10
20.095376021017238
20
-4.7918551156652303
30
0
10
20.125153509725735
20
-4.84343512512568
30
0
0
SPLINE
5
651
100
AcDbEntity
8
0
100
AcDbSpline
70
4
71
3
72
8
73
4
74
0
42
0.000000001
43
0.0000000001
44
0.0000000001
40
0
40
0
40
0
40
0
40
1
40
1
40
1
40
1
41
1
41
1
41
1
41
1
10
20.850625349630519
20
-4.5933802316320271
30
0
10
20.791070372213532
20
-4.5933802316320271
30
0
10
20.736035429586572
20
-4.6251510713231889
30
0
10
20.706254812826323
20
-4.6767318627965775
30
0
0
SPLINE
5
652
100
AcDbEntity
8
0
100
AcDbSpline
70
4
71
3
72
8
73
4
74
0
42
0.000000001
43
0.0000000001
44
0.0000000001
40
0
40
0
40
0
40
0
40
1
40
1
40
1
40
1
41
1
41
1
41
1
41
1
10
20.706254812826323
20
-4.6767318627965775
30
0
10
20.676477324117826
20
-4.7283087442052691
30
0
10
20.676477324117826
20
-4.7918551156652303
30
0
10
20.706254812826323
20
-4.84343512512568
30
0
0
SPLINE
5
653
100
AcDbEntity
8
0
100
AcDbSpline
70
4
71
3
72
8
73
4
74
0
42
0.000000001
43
0.0000000001
44
0.0000000001
40
0
40
0
40
0
40
0
40
1
40
1
40
1
40
1
41
1
41
1
41
1
41
1
10
20.706254812826323
20
-4.84343512512568
30
0
10
20.736035429586572
20
-4.8950120065343699
30
0
10
20.791070372213532
20
-4.9267867562902286
30
0
10
20.850625349630519
20
-4.9267867562902286
30
0
0
SPLINE
5
654
100
AcDbEntity
8
0
100
AcDbSpline
70
4
71
3
72
8
73
4
74
0
42
0.000000001
43
0.0000000001
44
0.0000000001
40
0
40
0
40
0
40
0
40
1
40
1
40
1
40
1
41
1
41
1
41
1
41
1
10
20.850625349630519
20
-4.9267867562902286
30
0
10
20.910181891073393
20
-4.9267867562902286
30
0
10
20.965215269674466
20
-4.8950120065343699
30
0
10
20.994995886434722
20
-4.84343512512568
30
0
0
SPLINE
5
655
100
AcDbEntity
8
0
100
AcDbSpline
70
4
71
3
72
8
73
4
74
0
42
0.000000001
43
0.0000000001
44
0.0000000001
40
0
40
0
40
0
40
0
40
1
40
1
40
1
40
1
41
1
41
1
41
1
41
1
10
20.994995886434722
20
-4.84343512512568
30
0
10
21.024773375143219
20
-4.7918543336522905
30
0
10
21.024773375143219
20
-4.7283087442052691
30
0
10
20.994995886434722
20
-4.6767318627965775
30
0
0
SPLINE
5
656
100
AcDbEntity
8
0
100
AcDbSpline
70
4
71
3
72
8
73
4
74
0
42
0.000000001
43
0.0000000001
44
0.0000000001
40
0
40
0
40
0
40
0
40
1
40
1
40
1
40
1
41
1
41
1
41
1
41
1
10
20.994995886434722
20
-4.6767318627965775
30
0
10
20.965215269674466
20
-4.6251510713231889
30
0
10
20.910180327047513
20
-4.5933802316320271
30
0
10
20.850625349630519
20
-4.5933802316320271
30
0
0
SPLINE
5
657
100
AcDbEntity
8
0
100
AcDbSpline
70
4
71
3
72
8
73
4
74
0
42
0.000000001
43
0.0000000001
44
0.0000000001
40
0
40
0
40
0
40
0
40
1
40
1
40
1
40
1
41
1
41
1
41
1
41
1
10
17.945114924062892
20
-4.9267867562902286
30
0
10
18.004669901479886
20
-4.9267867562902286
30
0
10
18.05970484410684
20
-4.8950120065343699
30
0
10
18.089486242880032
20
-4.84343512512568
30
0
0
SPLINE
5
658
100
AcDbEntity
8
0
100
AcDbSpline
70
4
71
3
72
8
73
4
74
0
42
0.000000001
43
0.0000000001
44
0.0000000001
40
0
40
0
40
0
40
0
40
1
40
1
40
1
40
1
41
1
41
1
41
1
41
1
10
18.089486242880032
20
-4.84343512512568
30
0
10
18.119263731588529
20
-4.7918543336522905
30
0
10
18.119263731588529
20
-4.7283087442052691
30
0
10
18.089486242880032
20
-4.6767318627965775
30
0
0
SPLINE
5
659
100
AcDbEntity
8
0
100
AcDbSpline
70
4
71
3
72
8
73
4
74
0
42
0.000000001
43
0.0000000001
44
0.0000000001
40
0
40
0
40
0
40
0
40
1
40
1
40
1
40
1
41
1
41
1
41
1
41
1
10
18.089486242880032
20
-4.6767318627965775
30
0
10
18.05970484410684
20
-4.6251510713231889
30
0
10
18.004669901479886
20
-4.5933802316320271
30
0
10
17.945114924062892
20
-4.5933802316320271
30
0
0
SPLINE
5
660
100
AcDbEntity
8
0
100
AcDbSpline
70
4
71
3
72
8
73
4
74
0
42
0.000000001
43
0.0000000001
44
0.0000000001
40
0
40
0
40
0
40
0
40
1
40
1
40
1
40
1
41
1
41
1
41
1
41
1
10
17.945114924062892
20
-4.5933802316320271
30
0
10
17.885558382620022
20
-4.5933802316320271
30
0
10
17.830525004018948
20
-4.6251510713231889
30
0
10
17.800743605245753
20
-4.6767318627965775
30
0
0
SPLINE
5
661
100
AcDbEntity
8
0
100
AcDbSpline
70
4
71
3
72
8
73
4
74
0
42
0.000000001
43
0.0000000001
44
0.0000000001
40
0
40
0
40
0
40
0
40
1
40
1
40
1
40
1
41
1
41
1
41
1
41
1
10
17.800743605245753
20
-4.6767318627965775
30
0
10
17.77096455251138
20
-4.7283087442052691
30
0
10
17.77096455251138
20
-4.7918551156652303
30
0
10
17.800743605245753
20
-4.84343512512568
30
0
0
SPLINE
5
662
100
AcDbEntity
8
0
100
AcDbSpline
70
4
71
3
72
8
73
4
74
0
42
0.000000001
43
0.0000000001
44
0.0000000001
40
0
40
0
40
0
40
0
40
1
40
1
40
1
40
1
41
1
41
1
41
1
41
1
10
17.800743605245753
20
-4.84343512512568
30
0
10
17.830525004018948
20
-4.8950120065343699
30
0
10
17.885558382620022
20
-4.9267867562902286
30
0
10
17.945114924062892
20
-4.9267867562902286
30
0
0
SPLINE
5
663
100
AcDbEntity
8
0
100
AcDbSpline
70
4
71
3
72
8
73
4
74
0
42
0.000000001
43
0.0000000001
44
0.0000000001
40
0
40
0
40
0
40
0
40
1
40
1
40
1
40
1
41
1
41
1
41
1
41
1
10
18.96294621144693
20
-2.3523227403295364
30
0
10
18.933168722738433
20
-2.4038980577123481
30
0
10
18.933168722738433
20
-2.4674459931981891
30
0
10
18.96294621144693
20
-2.5190260026586384
30
0
0
SPLINE
5
664
100
AcDbEntity
8
0
100
AcDbSpline
70
4
71
3
72
8
73
4
74
0
42
0.000000001
43
0.0000000001
44
0.0000000001
40
0
40
0
40
0
40
0
40
1
40
1
40
1
40
1
41
1
41
1
41
1
41
1
10
18.96294621144693
20
-2.5190260026586384
30
0
10
18.992727610220118
20
-2.5706028840673296
30
0
10
19.047762552847075
20
-2.6023776338231888
30
0
10
19.107317530264066
20
-2.6023776338231888
30
0
0
SPLINE
5
665
100
AcDbEntity
8
0
100
AcDbSpline
70
4
71
3
72
8
73
4
74
0
42
0.000000001
43
0.0000000001
44
0.0000000001
40
0
40
0
40
0
40
0
40
1
40
1
40
1
40
1
41
1
41
1
41
1
41
1
10
19.107317530264066
20
-2.6023776338231888
30
0
10
19.166874071706939
20
-2.6023776338231888
30
0
10
19.221907450308013
20
-2.5706028840673296
30
0
10
19.251688849081209
20
-2.5190260026586384
30
0
0
SPLINE
5
666
100
AcDbEntity
8
0
100
AcDbSpline
70
4
71
3
72
8
73
4
74
0
42
0.000000001
43
0.0000000001
44
0.0000000001
40
0
40
0
40
0
40
0
40
1
40
1
40
1
40
1
41
1
41
1
41
1
41
1
10
19.251688849081209
20
-2.5190260026586384
30
0
10
19.281467901815578
20
-2.4674452111852494
30
0
10
19.281467901815578
20
-2.4038980577123481
30
0
10
19.251688849081209
20
-2.3523227403295364
30
0
0
SPLINE
5
667
100
AcDbEntity
8
0
100
AcDbSpline
70
4
71
3
72
8
73
4
74
0
42
0.000000001
43
0.0000000001
44
0.0000000001
40
0
40
0
40
0
40
0
40
1
40
1
40
1
40
1
41
1
41
1
41
1
41
1
10
19.251688849081209
20
-2.3523227403295364
30
0
10
19.221907450308013
20
-2.3007419488561474
30
0
10
19.166874071706939
20
-2.2689695451391074
30
0
10
19.107317530264066
20
-2.2689695451391074
30
0
0
SPLINE
5
668
100
AcDbEntity
8
0
100
AcDbSpline
70
4
71
3
72
8
73
4
74
0
42
0.000000001
43
0.0000000001
44
0.0000000001
40
0
40
0
40
0
40
0
40
1
40
1
40
1
40
1
41
1
41
1
41
1
41
1
10
19.107317530264066
20
-2.2689695451391074
30
0
10
19.047762552847075
20
-2.2689695451391074
30
0
10
18.992727610220118
20
-2.3007419488561474
30
0
10
18.96294621144693
20
-2.3523227403295364
30
0
0
SPLINE
5
669
100
AcDbEntity
8
0
100
AcDbSpline
70
4
71
3
72
8
73
4
74
0
42
0.000000001
43
0.0000000001
44
0.0000000001
40
0
40
0
40
0
40
0
40
1
40
1
40
1
40
1
41
1
41
1
41
1
41
1
10
20.85062378560464
20
-2.8500731942785102
30
0
10
20.791068808187653
20
-2.8500731942785102
30
0
10
20.736033865560692
20
-2.8818440339696729
30
0
10
20.706253248800444
20
-2.9334248254430619
30
0
0
SPLINE
5
670
100
AcDbEntity
8
0
100
AcDbSpline
70
4
71
3
72
8
73
4
74
0
42
0.000000001
43
0.0000000001
44
0.0000000001
40
0
40
0
40
0
40
0
40
1
40
1
40
1
40
1
41
1
41
1
41
1
41
1
10
20.706253248800444
20
-2.9334248254430619
30
0
10
20.676475760091947
20
-2.9850017068517531
30
0
10
20.676475760091947
20
-3.0485480783117134
30
0
10
20.706253248800444
20
-3.100128087772164
30
0
0
SPLINE
5
671
100
AcDbEntity
8
0
100
AcDbSpline
70
4
71
3
72
8
73
4
74
0
42
0.000000001
43
0.0000000001
44
0.0000000001
40
0
40
0
40
0
40
0
40
1
40
1
40
1
40
1
41
1
41
1
41
1
41
1
10
20.706253248800444
20
-3.100128087772164
30
0
10
20.736033865560692
20
-3.1517049691808556
30
0
10
20.791068808187653
20
-3.1834797189367143
30
0
10
20.85062378560464
20
-3.1834797189367143
30
0
0
SPLINE
5
672
100
AcDbEntity
8
0
100
AcDbSpline
70
4
71
3
72
8
73
4
74
0
42
0.000000001
43
0.0000000001
44
0.0000000001
40
0
40
0
40
0
40
0
40
1
40
1
40
1
40
1
41
1
41
1
41
1
41
1
10
20.85062378560464
20
-3.1834797189367143
30
0
10
20.910180327047513
20
-3.1834797189367143
30
0
10
20.965213705648587
20
-3.1517049691808556
30
0
10
20.994994322408843
20
-3.100128087772164
30
0
0
SPLINE
5
673
100
AcDbEntity
8
0
100
AcDbSpline
70
4
71
3
72
8
73
4
74
0
42
0.000000001
43
0.0000000001
44
0.0000000001
40
0
40
0
40
0
40
0
40
1
40
1
40
1
40
1
41
1
41
1
41
1
41
1
10
20.994994322408843
20
-3.100128087772164
30
0
10
21.02477181111734
20
-3.048547296298775
30
0
10
21.02477181111734
20
-2.9850017068517531
30
0
10
20.994994322408843
20
-2.9334248254430619
30
0
0
SPLINE
5
674
100
AcDbEntity
8
0
100
AcDbSpline
70
4
71
3
72
8
73
4
74
0
42
0.000000001
43
0.0000000001
44
0.0000000001
40
0
40
0
40
0
40
0
40
1
40
1
40
1
40
1
41
1
41
1
41
1
41
1
10
20.994994322408843
20
-2.9334248254430619
30
0
10
20.965213705648587
20
-2.8818440339696729
30
0
10
20.910178763021634
20
-2.8500731942785102
30
0
10
20.85062378560464
20
-2.8500731942785102
30
0
0
SPLINE
5
675
100
AcDbEntity
8
0
100
AcDbSpline
70
4
71
3
72
8
73
4
74
0
42
0.000000001
43
0.0000000001
44
0.0000000001
40
0
40
0
40
0
40
0
40
1
40
1
40
1
40
1
41
1
41
1
41
1
41
1
10
17.800742041219877
20
-2.5190260026586384
30
0
10
17.830523439993069
20
-2.5706028840673296
30
0
10
17.885556818594146
20
-2.6023776338231888
30
0
10
17.945113360037013
20
-2.6023776338231888
30
0
0
SPLINE
5
676
100
AcDbEntity
8
0
100
AcDbSpline
70
4
71
3
72
8
73
4
74
0
42
0.000000001
43
0.0000000001
44
0.0000000001
40
0
40
0
40
0
40
0
40
1
40
1
40
1
40
1
41
1
41
1
41
1
41
1
10
17.945113360037013
20
-2.6023776338231888
30
0
10
18.004668337454007
20
-2.6023776338231888
30
0
10
18.05970328008096
20
-2.5706028840673296
30
0
10
18.089484678854156
20
-2.5190260026586384
30
0
0
SPLINE
5
677
100
AcDbEntity
8
0
100
AcDbSpline
70
4
71
3
72
8
73
4
74
0
42
0.000000001
43
0.0000000001
44
0.0000000001
40
0
40
0
40
0
40
0
40
1
40
1
40
1
40
1
41
1
41
1
41
1
41
1
10
18.089484678854156
20
-2.5190260026586384
30
0
10
18.119262167562653
20
-2.4674452111852494
30
0
10
18.119262167562653
20
-2.4038980577123481
30
0
10
18.089484678854156
20
-2.3523227403295364
30
0
0
SPLINE
5
678
100
AcDbEntity
8
0
100
AcDbSpline
70
4
71
3
72
8
73
4
74
0
42
0.000000001
43
0.0000000001
44
0.0000000001
40
0
40
0
40
0
40
0
40
1
40
1
40
1
40
1
41
1
41
1
41
1
41
1
10
18.089484678854156
20
-2.3523227403295364
30
0
10
18.05970328008096
20
-2.3007419488561474
30
0
10
18.004668337454007
20
-2.2689695451391074
30
0
10
17.945113360037013
20
-2.2689695451391074
30
0
0
SPLINE
5
679
100
AcDbEntity
8
0
100
AcDbSpline
70
4
71
3
72
8
73
4
74
0
42
0.000000001
43
0.0000000001
44
0.0000000001
40
0
40
0
40
0
40
0
40
1
40
1
40
1
40
1
41
1
41
1
41
1
41
1
10
17.945113360037013
20
-2.2689695451391074
30
0
10
17.885556818594146
20
-2.2689695451391074
30
0
10
17.830523439993069
20
-2.3007419488561474
30
0
10
17.800742041219877
20
-2.3523227403295364
30
0
0
SPLINE
5
680
100
AcDbEntity
8
0
100
AcDbSpline
70
4
71
3
72
8
73
4
74
0
42
0.000000001
43
0.0000000001
44
0.0000000001
40
0
40
0
40
0
40
0
40
1
40
1
40
1
40
1
41
1
41
1
41
1
41
1
10
17.800742041219877
20
-2.3523227403295364
30
0
10
17.7709629884855
20
-2.4038980577123481
30
0
10
17.7709629884855
20
-2.4674459931981891
30
0
10
17.800742041219877
20
-2.5190260026586384
30
0
0
SPLINE
5
681
100
AcDbEntity
8
0
100
AcDbSpline
70
4
71
3
72
8
73
4
74
0
42
0.000000001
43
0.0000000001
44
0.0000000001
40
0
40
0
40
0
40
0
40
1
40
1
40
1
40
1
41
1
41
1
41
1
41
1
10
19.54404986058633
20
-2.9334248254430619
30
0
10
19.514270807851954
20
-2.9850017068517531
30
0
10
19.514270807851954
20
-3.0485480783117134
30
0
10
19.54404986058633
20
-3.100128087772164
30
0
0
SPLINE
5
682
100
AcDbEntity
8
0
100
AcDbSpline
70
4
71
3
72
8
73
4
74
0
42
0.000000001
43
0.0000000001
44
0.0000000001
40
0
40
0
40
0
40
0
40
1
40
1
40
1
40
1
41
1
41
1
41
1
41
1
10
19.54404986058633
20
-3.100128087772164
30
0
10
19.573831259359526
20
-3.1517049691808556
30
0
10
19.6288646379606
20
-3.1834797189367143
30
0
10
19.688421179403466
20
-3.1834797189367143
30
0
0
SPLINE
5
683
100
AcDbEntity
8
0
100
AcDbSpline
70
4
71
3
72
8
73
4
74
0
42
0.000000001
43
0.0000000001
44
0.0000000001
40
0
40
0
40
0
40
0
40
1
40
1
40
1
40
1
41
1
41
1
41
1
41
1
10
19.688421179403466
20
-3.1834797189367143
30
0
10
19.74797615682046
20
-3.1834797189367143
30
0
10
19.803009535421534
20
-3.1517049691808556
30
0
10
19.832792498220609
20
-3.100128087772164
30
0
0
SPLINE
5
684
100
AcDbEntity
8
0
100
AcDbSpline
70
4
71
3
72
8
73
4
74
0
42
0.000000001
43
0.0000000001
44
0.0000000001
40
0
40
0
40
0
40
0
40
1
40
1
40
1
40
1
41
1
41
1
41
1
41
1
10
19.832792498220609
20
-3.100128087772164
30
0
10
19.862569986929106
20
-3.048547296298775
30
0
10
19.862569986929106
20
-2.9850017068517531
30
0
10
19.832792498220609
20
-2.9334248254430619
30
0
0
SPLINE
5
685
100
AcDbEntity
8
0
100
AcDbSpline
70
4
71
3
72
8
73
4
74
0
42
0.000000001
43
0.0000000001
44
0.0000000001
40
0
40
0
40
0
40
0
40
1
40
1
40
1
40
1
41
1
41
1
41
1
41
1
10
19.832792498220609
20
-2.9334248254430619
30
0
10
19.803009535421534
20
-2.8818440339696729
30
0
10
19.74797615682046
20
-2.8500731942785102
30
0
10
19.688421179403466
20
-2.8500731942785102
30
0
0
SPLINE
5
686
100
AcDbEntity
8
0
100
AcDbSpline
70
4
71
3
72
8
73
4
74
0
42
0.000000001
43
0.0000000001
44
0.0000000001
40
0
40
0
40
0
40
0
40
1
40
1
40
1
40
1
41
1
41
1
41
1
41
1
10
19.688421179403466
20
-2.8500731942785102
30
0
10
19.6288646379606
20
-2.8500731942785102
30
0
10
19.573831259359526
20
-2.8818440339696729
30
0
10
19.54404986058633
20
-2.9334248254430619
30
0
0
SPLINE
5
687
100
AcDbEntity
8
0
100
AcDbSpline
70
4
71
3
72
8
73
4
74
0
42
0.000000001
43
0.0000000001
44
0.0000000001
40
0
40
0
40
0
40
0
40
1
40
1
40
1
40
1
41
1
41
1
41
1
41
1
10
20.125151945699855
20
-2.9334248254430619
30
0
10
20.095374456991362
20
-2.9850017068517531
30
0
10
20.095374456991362
20
-3.0485480783117134
30
0
10
20.125151945699855
20
-3.100128087772164
30
0
0
SPLINE
5
688
100
AcDbEntity
8
0
100
AcDbSpline
70
4
71
3
72
8
73
4
74
0
42
0.000000001
43
0.0000000001
44
0.0000000001
40
0
40
0
40
0
40
0
40
1
40
1
40
1
40
1
41
1
41
1
41
1
41
1
10
20.125151945699855
20
-3.100128087772164
30
0
10
20.154932562460111
20
-3.1517049691808556
30
0
10
20.209967505087064
20
-3.1834797189367143
30
0
10
20.269522482504058
20
-3.1834797189367143
30
0
0
SPLINE
5
689
100
AcDbEntity
8
0
100
AcDbSpline
70
4
71
3
72
8
73
4
74
0
42
0.000000001
43
0.0000000001
44
0.0000000001
40
0
40
0
40
0
40
0
40
1
40
1
40
1
40
1
41
1
41
1
41
1
41
1
10
20.269522482504058
20
-3.1834797189367143
30
0
10
20.329077459921045
20
-3.1834797189367143
30
0
10
20.384112402548002
20
-3.1517049691808556
30
0
10
20.413893019308254
20
-3.100128087772164
30
0
0
SPLINE
5
690
100
AcDbEntity
8
0
100
AcDbSpline
70
4
71
3
72
8
73
4
74
0
42
0.000000001
43
0.0000000001
44
0.0000000001
40
0
40
0
40
0
40
0
40
1
40
1
40
1
40
1
41
1
41
1
41
1
41
1
10
20.413893019308254
20
-3.100128087772164
30
0
10
20.443670508016751
20
-3.048547296298775
30
0
10
20.443670508016751
20
-2.9850017068517531
30
0
10
20.413893019308254
20
-2.9334248254430619
30
0
0
SPLINE
5
691
100
AcDbEntity
8
0
100
AcDbSpline
70
4
71
3
72
8
73
4
74
0
42
0.000000001
43
0.0000000001
44
0.0000000001
40
0
40
0
40
0
40
0
40
1
40
1
40
1
40
1
41
1
41
1
41
1
41
1
10
20.413893019308254
20
-2.9334248254430619
30
0
10
20.384112402548002
20
-2.8818440339696729
30
0
10
20.329077459921045
20
-2.8500731942785102
30
0
10
20.269522482504058
20
-2.8500731942785102
30
0
0
SPLINE
5
692
100
AcDbEntity
8
0
100
AcDbSpline
70
4
71
3
72
8
73
4
74
0
42
0.000000001
43
0.0000000001
44
0.0000000001
40
0
40
0
40
0
40
0
40
1
40
1
40
1
40
1
41
1
41
1
41
1
41
1
10
20.269522482504058
20
-2.8500731942785102
30
0
10
20.209965941061185
20
-2.8500731942785102
30
0
10
20.154932562460111
20
-2.8818440339696729
30
0
10
20.125151945699855
20
-2.9334248254430619
30
0
0
SPLINE
5
693
100
AcDbEntity
8
0
100
AcDbSpline
70
4
71
3
72
8
73
4
74
0
42
0.000000001
43
0.0000000001
44
0.0000000001
40
0
40
0
40
0
40
0
40
1
40
1
40
1
40
1
41
1
41
1
41
1
41
1
10
18.96294621144693
20
-3.100128087772164
30
0
10
18.992727610220118
20
-3.1517049691808556
30
0
10
19.047762552847072
20
-3.1834797189367143
30
0
10
19.107317530264066
20
-3.1834797189367143
30
0
0
SPLINE
5
694
100
AcDbEntity
8
0
100
AcDbSpline
70
4
71
3
72
8
73
4
74
0
42
0.000000001
43
0.0000000001
44
0.0000000001
40
0
40
0
40
0
40
0
40
1
40
1
40
1
40
1
41
1
41
1
41
1
41
1
10
19.107317530264066
20
-3.1834797189367143
30
0
10
19.166874071706939
20
-3.1834797189367143
30
0
10
19.221907450308013
20
-3.1517049691808556
30
0
10
19.251688849081205
20
-3.100128087772164
30
0
0
SPLINE
5
695
100
AcDbEntity
8
0
100
AcDbSpline
70
4
71
3
72
8
73
4
74
0
42
0.000000001
43
0.0000000001
44
0.0000000001
40
0
40
0
40
0
40
0
40
1
40
1
40
1
40
1
41
1
41
1
41
1
41
1
10
19.251688849081205
20
-3.100128087772164
30
0
10
19.281467901815578
20
-3.048547296298775
30
0
10
19.281467901815578
20
-2.9850017068517531
30
0
10
19.251688849081205
20
-2.9334248254430619
30
0
0
SPLINE
5
696
100
AcDbEntity
8
0
100
AcDbSpline
70
4
71
3
72
8
73
4
74
0
42
0.000000001
43
0.0000000001
44
0.0000000001
40
0
40
0
40
0
40
0
40
1
40
1
40
1
40
1
41
1
41
1
41
1
41
1
10
19.251688849081205
20
-2.9334248254430619
30
0
10
19.221907450308013
20
-2.8818440339696729
30
0
10
19.166874071706939
20
-2.8500731942785102
30
0
10
19.107317530264066
20
-2.8500731942785102
30
0
0
SPLINE
5
697
100
AcDbEntity
8
0
100
AcDbSpline
70
4
71
3
72
8
73
4
74
0
42
0.000000001
43
0.0000000001
44
0.0000000001
40
0
40
0
40
0
40
0
40
1
40
1
40
1
40
1
41
1
41
1
41
1
41
1
10
19.107317530264066
20
-2.8500731942785102
30
0
10
19.047762552847072
20
-2.8500731942785102
30
0
10
18.992727610220118
20
-2.8818440339696729
30
0
10
18.96294621144693
20
-2.9334248254430619
30
0
0
SPLINE
5
698
100
AcDbEntity
8
0
100
AcDbSpline
70
4
71
3
72
8
73
4
74
0
42
0.000000001
43
0.0000000001
44
0.0000000001
40
0
40
0
40
0
40
0
40
1
40
1
40
1
40
1
41
1
41
1
41
1
41
1
10
18.96294621144693
20
-2.9334248254430619
30
0
10
18.933168722738429
20
-2.9850017068517531
30
0
10
18.933168722738429
20
-3.0485480783117134
30
0
10
18.96294621144693
20
-3.100128087772164
30
0
0
SPLINE
5
699
100
AcDbEntity
8
0
100
AcDbSpline
70
4
71
3
72
8
73
4
74
0
42
0.000000001
43
0.0000000001
44
0.0000000001
40
0
40
0
40
0
40
0
40
1
40
1
40
1
40
1
41
1
41
1
41
1
41
1
10
18.381844126333402
20
-3.100128087772164
30
0
10
18.411625525106597
20
-3.1517049691808556
30
0
10
18.466658903707668
20
-3.1834797189367143
30
0
10
18.526215445150541
20
-3.1834797189367143
30
0
0
SPLINE
5
700
100
AcDbEntity
8
0
100
AcDbSpline
70
4
71
3
72
8
73
4
74
0
42
0.000000001
43
0.0000000001
44
0.0000000001
40
0
40
0
40
0
40
0
40
1
40
1
40
1
40
1
41
1
41
1
41
1
41
1
10
18.526215445150541
20
-3.1834797189367143
30
0
10
18.585770422567531
20
-3.1834797189367143
30
0
10
18.640805365194485
20
-3.1517049691808556
30
0
10
18.67058676396768
20
-3.100128087772164
30
0
0
SPLINE
5
701
100
AcDbEntity
8
0
100
AcDbSpline
70
4
71
3
72
8
73
4
74
0
42
0.000000001
43
0.0000000001
44
0.0000000001
40
0
40
0
40
0
40
0
40
1
40
1
40
1
40
1
41
1
41
1
41
1
41
1
10
18.67058676396768
20
-3.100128087772164
30
0
10
18.700364252676177
20
-3.048547296298775
30
0
10
18.700364252676177
20
-2.9850017068517531
30
0
10
18.67058676396768
20
-2.9334248254430619
30
0
0
SPLINE
5
702
100
AcDbEntity
8
0
100
AcDbSpline
70
4
71
3
72
8
73
4
74
0
42
0.000000001
43
0.0000000001
44
0.0000000001
40
0
40
0
40
0
40
0
40
1
40
1
40
1
40
1
41
1
41
1
41
1
41
1
10
18.67058676396768
20
-2.9334248254430619
30
0
10
18.640805365194485
20
-2.8818440339696729
30
0
10
18.585770422567531
20
-2.8500731942785102
30
0
10
18.526215445150541
20
-2.8500731942785102
30
0
0
SPLINE
5
703
100
AcDbEntity
8
0
100
AcDbSpline
70
4
71
3
72
8
73
4
74
0
42
0.000000001
43
0.0000000001
44
0.0000000001
40
0
40
0
40
0
40
0
40
1
40
1
40
1
40
1
41
1
41
1
41
1
41
1
10
18.526215445150541
20
-2.8500731942785102
30
0
10
18.466658903707668
20
-2.8500731942785102
30
0
10
18.411625525106597
20
-2.8818440339696729
30
0
10
18.381844126333402
20
-2.9334248254430619
30
0
0
SPLINE
5
704
100
AcDbEntity
8
0
100
AcDbSpline
70
4
71
3
72
8
73
4
74
0
42
0.000000001
43
0.0000000001
44
0.0000000001
40
0
40
0
40
0
40
0
40
1
40
1
40
1
40
1
41
1
41
1
41
1
41
1
10
18.381844126333402
20
-2.9334248254430619
30
0
10
18.352066637624908
20
-2.9850017068517531
30
0
10
18.352066637624908
20
-3.0485480783117134
30
0
10
18.381844126333402
20
-3.100128087772164
30
0
0
SPLINE
5
705
100
AcDbEntity
8
0
100
AcDbSpline
70
4
71
3
72
8
73
4
74
0
42
0.000000001
43
0.0000000001
44
0.0000000001
40
0
40
0
40
0
40
0
40
1
40
1
40
1
40
1
41
1
41
1
41
1
41
1
10
17.800742041219877
20
-3.100128087772164
30
0
10
17.830523439993069
20
-3.1517049691808556
30
0
10
17.885556818594143
20
-3.1834797189367143
30
0
10
17.945113360037013
20
-3.1834797189367143
30
0
0
SPLINE
5
706
100
AcDbEntity
8
0
100
AcDbSpline
70
4
71
3
72
8
73
4
74
0
42
0.000000001
43
0.0000000001
44
0.0000000001
40
0
40
0
40
0
40
0
40
1
40
1
40
1
40
1
41
1
41
1
41
1
41
1
10
17.945113360037013
20
-3.1834797189367143
30
0
10
18.004668337454007
20
-3.1834797189367143
30
0
10
18.05970328008096
20
-3.1517049691808556
30
0
10
18.089484678854152
20
-3.100128087772164
30
0
0
SPLINE
5
707
100
AcDbEntity
8
0
100
AcDbSpline
70
4
71
3
72
8
73
4
74
0
42
0.000000001
43
0.0000000001
44
0.0000000001
40
0
40
0
40
0
40
0
40
1
40
1
40
1
40
1
41
1
41
1
41
1
41
1
10
18.089484678854152
20
-3.100128087772164
30
0
10
18.119262167562649
20
-3.048547296298775
30
0
10
18.119262167562649
20
-2.9850017068517531
30
0
10
18.089484678854152
20
-2.9334248254430619
30
0
0
SPLINE
5
708
100
AcDbEntity
8
0
100
AcDbSpline
70
4
71
3
72
8
73
4
74
0
42
0.000000001
43
0.0000000001
44
0.0000000001
40
0
40
0
40
0
40
0
40
1
40
1
40
1
40
1
41
1
41
1
41
1
41
1
10
18.089484678854152
20
-2.9334248254430619
30
0
10
18.05970328008096
20
-2.8818440339696729
30
0
10
18.004668337454007
20
-2.8500731942785102
30
0
10
17.945113360037013
20
-2.8500731942785102
30
0
0
SPLINE
5
709
100
AcDbEntity
8
0
100
AcDbSpline
70
4
71
3
72
8
73
4
74
0
42
0.000000001
43
0.0000000001
44
0.0000000001
40
0
40
0
40
0
40
0
40
1
40
1
40
1
40
1
41
1
41
1
41
1
41
1
10
17.945113360037013
20
-2.8500731942785102
30
0
10
17.885556818594143
20
-2.8500731942785102
30
0
10
17.830523439993069
20
-2.8818440339696729
30
0
10
17.800742041219877
20
-2.9334248254430619
30
0
0
SPLINE
5
710
100
AcDbEntity
8
0
100
AcDbSpline
70
4
71
3
72
8
73
4
74
0
42
0.000000001
43
0.0000000001
44
0.0000000001
40
0
40
0
40
0
40
0
40
1
40
1
40
1
40
1
41
1
41
1
41
1
41
1
10
17.800742041219877
20
-2.9334248254430619
30
0
10
17.7709629884855
20
-2.9850017068517531
30
0
10
17.7709629884855
20
-3.0485480783117134
30
0
10
17.800742041219877
20
-3.100128087772164
30
0
0
SPLINE
5
711
100
AcDbEntity
8
0
100
AcDbSpline
70
4
71
3
72
8
73
4
74
0
42
0.000000001
43
0.0000000001
44
0.0000000001
40
0
40
0
40
0
40
0
40
1
40
1
40
1
40
1
41
1
41
1
41
1
41
1
10
20.85062378560464
20
-3.4311752793920371
30
0
10
20.791068808187653
20
-3.4311752793920371
30
0
10
20.736033865560692
20
-3.4629461190831998
30
0
10
20.706253248800444
20
-3.5145269105565862
30
0
0
SPLINE
5
712
100
AcDbEntity
8
0
100
AcDbSpline
70
4
71
3
72
8
73
4
74
0
42
0.000000001
43
0.0000000001
44
0.0000000001
40
0
40
0
40
0
40
0
40
1
40
1
40
1
40
1
41
1
41
1
41
1
41
1
10
20.706253248800444
20
-3.5145269105565862
30
0
10
20.676475760091947
20
-3.5661037919652792
30
0
10
20.676475760091947
20
-3.6296509454381791
30
0
10
20.706253248800444
20
-3.6812301728856882
30
0
0
SPLINE
5
713
100
AcDbEntity
8
0
100
AcDbSpline
70
4
71
3
72
8
73
4
74
0
42
0.000000001
43
0.0000000001
44
0.0000000001
40
0
40
0
40
0
40
0
40
1
40
1
40
1
40
1
41
1
41
1
41
1
41
1
10
20.706253248800444
20
-3.6812301728856882
30
0
10
20.736033865560692
20
-3.7328070542943812
30
0
10
20.791068808187653
20
-3.7645818040502403
30
0
10
20.85062378560464
20
-3.7645818040502403
30
0
0
SPLINE
5
714
100
AcDbEntity
8
0
100
AcDbSpline
70
4
71
3
72
8
73
4
74
0
42
0.000000001
43
0.0000000001
44
0.0000000001
40
0
40
0
40
0
40
0
40
1
40
1
40
1
40
1
41
1
41
1
41
1
41
1
10
20.85062378560464
20
-3.7645818040502403
30
0
10
20.910180327047513
20
-3.7645818040502403
30
0
10
20.965213705648587
20
-3.7328070542943812
30
0
10
20.994994322408843
20
-3.6812301728856882
30
0
0
SPLINE
5
715
100
AcDbEntity
8
0
100
AcDbSpline
70
4
71
3
72
8
73
4
74
0
42
0.000000001
43
0.0000000001
44
0.0000000001
40
0
40
0
40
0
40
0
40
1
40
1
40
1
40
1
41
1
41
1
41
1
41
1
10
20.994994322408843
20
-3.6812301728856882
30
0
10
21.02477181111734
20
-3.6296509454381791
30
0
10
21.02477181111734
20
-3.5661037919652792
30
0
10
20.994994322408843
20
-3.5145269105565862
30
0
0
SPLINE
5
716
100
AcDbEntity
8
0
100
AcDbSpline
70
4
71
3
72
8
73
4
74
0
42
0.000000001
43
0.0000000001
44
0.0000000001
40
0
40
0
40
0
40
0
40
1
40
1
40
1
40
1
41
1
41
1
41
1
41
1
10
20.994994322408843
20
-3.5145269105565862
30
0
10
20.965213705648587
20
-3.4629461190831998
30
0
10
20.910178763021634
20
-3.4311752793920371
30
0
10
20.85062378560464
20
-3.4311752793920371
30
0
0
SPLINE
5
717
100
AcDbEntity
8
0
100
AcDbSpline
70
4
71
3
72
8
73
4
74
0
42
0.000000001
43
0.0000000001
44
0.0000000001
40
0
40
0
40
0
40
0
40
1
40
1
40
1
40
1
41
1
41
1
41
1
41
1
10
20.125151945699855
20
-3.5145269105565862
30
0
10
20.095374456991362
20
-3.5661037919652792
30
0
10
20.095374456991362
20
-3.6296509454381791
30
0
10
20.125151945699855
20
-3.6812301728856882
30
0
0
SPLINE
5
718
100
AcDbEntity
8
0
100
AcDbSpline
70
4
71
3
72
8
73
4
74
0
42
0.000000001
43
0.0000000001
44
0.0000000001
40
0
40
0
40
0
40
0
40
1
40
1
40
1
40
1
41
1
41
1
41
1
41
1
10
20.125151945699855
20
-3.6812301728856882
30
0
10
20.154932562460111
20
-3.7328070542943812
30
0
10
20.209967505087064
20
-3.7645818040502403
30
0
10
20.269522482504058
20
-3.7645818040502403
30
0
0
SPLINE
5
719
100
AcDbEntity
8
0
100
AcDbSpline
70
4
71
3
72
8
73
4
74
0
42
0.000000001
43
0.0000000001
44
0.0000000001
40
0
40
0
40
0
40
0
40
1
40
1
40
1
40
1
41
1
41
1
41
1
41
1
10
20.269522482504058
20
-3.7645818040502403
30
0
10
20.329077459921045
20
-3.7645818040502403
30
0
10
20.384112402548002
20
-3.7328070542943812
30
0
10
20.413893019308254
20
-3.6812301728856882
30
0
0
SPLINE
5
720
100
AcDbEntity
8
0
100
AcDbSpline
70
4
71
3
72
8
73
4
74
0
42
0.000000001
43
0.0000000001
44
0.0000000001
40
0
40
0
40
0
40
0
40
1
40
1
40
1
40
1
41
1
41
1
41
1
41
1
10
20.413893019308254
20
-3.6812301728856882
30
0
10
20.443670508016751
20
-3.6296509454381791
30
0
10
20.443670508016751
20
-3.5661037919652792
30
0
10
20.413893019308254
20
-3.5145269105565862
30
0
0
SPLINE
5
721
100
AcDbEntity
8
0
100
AcDbSpline
70
4
71
3
72
8
73
4
74
0
42
0.000000001
43
0.0000000001
44
0.0000000001
40
0
40
0
40
0
40
0
40
1
40
1
40
1
40
1
41
1
41
1
41
1
41
1
10
20.413893019308254
20
-3.5145269105565862
30
0
10
20.384112402548002
20
-3.4629461190831998
30
0
10
20.329077459921045
20
-3.4311752793920371
30
0
10
20.269522482504058
20
-3.4311752793920371
30
0
0
SPLINE
5
722
100
AcDbEntity
8
0
100
AcDbSpline
70
4
71
3
72
8
73
4
74
0
42
0.000000001
43
0.0000000001
44
0.0000000001
40
0
40
0
40
0
40
0
40
1
40
1
40
1
40
1
41
1
41
1
41
1
41
1
10
20.269522482504058
20
-3.4311752793920371
30
0
10
20.209965941061185
20
-3.4311752793920371
30
0
10
20.154932562460111
20
-3.4629461190831998
30
0
10
20.125151945699855
20
-3.5145269105565862
30
0
0
SPLINE
5
723
100
AcDbEntity
8
0
100
AcDbSpline
70
4
71
3
72
8
73
4
74
0
42
0.000000001
43
0.0000000001
44
0.0000000001
40
0
40
0
40
0
40
0
40
1
40
1
40
1
40
1
41
1
41
1
41
1
41
1
10
18.96294542943399
20
-3.6812301728856882
30
0
10
18.992726828207179
20
-3.7328070542943812
30
0
10
19.047761770834136
20
-3.7645818040502403
30
0
10
19.107316748251126
20
-3.7645818040502403
30
0
0
SPLINE
5
724
100
AcDbEntity
8
0
100
AcDbSpline
70
4
71
3
72
8
73
4
74
0
42
0.000000001
43
0.0000000001
44
0.0000000001
40
0
40
0
40
0
40
0
40
1
40
1
40
1
40
1
41
1
41
1
41
1
41
1
10
19.107316748251126
20
-3.7645818040502403
30
0
10
19.166873289693999
20
-3.7645818040502403
30
0
10
19.221906668295073
20
-3.7328070542943812
30
0
10
19.251688067068269
20
-3.6812301728856882
30
0
0
SPLINE
5
725
100
AcDbEntity
8
0
100
AcDbSpline
70
4
71
3
72
8
73
4
74
0
42
0.000000001
43
0.0000000001
44
0.0000000001
40
0
40
0
40
0
40
0
40
1
40
1
40
1
40
1
41
1
41
1
41
1
41
1
10
19.251688067068269
20
-3.6812301728856882
30
0
10
19.281467119802638
20
-3.6296509454381791
30
0
10
19.281467119802638
20
-3.5661037919652792
30
0
10
19.251688067068269
20
-3.5145269105565862
30
0
0
SPLINE
5
726
100
AcDbEntity
8
0
100
AcDbSpline
70
4
71
3
72
8
73
4
74
0
42
0.000000001
43
0.0000000001
44
0.0000000001
40
0
40
0
40
0
40
0
40
1
40
1
40
1
40
1
41
1
41
1
41
1
41
1
10
19.251688067068269
20
-3.5145269105565862
30
0
10
19.221906668295073
20
-3.4629461190831998
30
0
10
19.166873289693999
20
-3.4311752793920371
30
0
10
19.107316748251126
20
-3.4311752793920371
30
0
0
SPLINE
5
727
100
AcDbEntity
8
0
100
AcDbSpline
70
4
71
3
72
8
73
4
74
0
42
0.000000001
43
0.0000000001
44
0.0000000001
40
0
40
0
40
0
40
0
40
1
40
1
40
1
40
1
41
1
41
1
41
1
41
1
10
19.107316748251126
20
-3.4311752793920371
30
0
10
19.047761770834136
20
-3.4311752793920371
30
0
10
18.992726828207179
20
-3.4629461190831998
30
0
10
18.96294542943399
20
-3.5145269105565862
30
0
0
SPLINE
5
728
100
AcDbEntity
8
0
100
AcDbSpline
70
4
71
3
72
8
73
4
74
0
42
0.000000001
43
0.0000000001
44
0.0000000001
40
0
40
0
40
0
40
0
40
1
40
1
40
1
40
1
41
1
41
1
41
1
41
1
10
18.96294542943399
20
-3.5145269105565862
30
0
10
18.933167940725493
20
-3.5661037919652792
30
0
10
18.933167940725493
20
-3.6296509454381791
30
0
10
18.96294542943399
20
-3.6812301728856882
30
0
0
SPLINE
5
729
100
AcDbEntity
8
0
100
AcDbSpline
70
4
71
3
72
8
73
4
74
0
42
0.000000001
43
0.0000000001
44
0.0000000001
40
0
40
0
40
0
40
0
40
1
40
1
40
1
40
1
41
1
41
1
41
1
41
1
10
18.96294542943399
20
-1.1901185701024861
30
0
10
18.933167940725493
20
-1.2416954515111776
30
0
10
18.933167940725493
20
-1.3052418229711378
30
0
10
18.96294542943399
20
-1.3568218324315884
30
0
0
SPLINE
5
730
100
AcDbEntity
8
0
100
AcDbSpline
70
4
71
3
72
8
73
4
74
0
42
0.000000001
43
0.0000000001
44
0.0000000001
40
0
40
0
40
0
40
0
40
1
40
1
40
1
40
1
41
1
41
1
41
1
41
1
10
18.96294542943399
20
-1.3568218324315884
30
0
10
18.992726828207182
20
-1.4083987138402783
30
0
10
19.047761770834139
20
-1.4401734635961372
30
0
10
19.107316748251129
20
-1.4401734635961372
30
0
0
SPLINE
5
731
100
AcDbEntity
8
0
100
AcDbSpline
70
4
71
3
72
8
73
4
74
0
42
0.000000001
43
0.0000000001
44
0.0000000001
40
0
40
0
40
0
40
0
40
1
40
1
40
1
40
1
41
1
41
1
41
1
41
1
10
19.107316748251129
20
-1.4401734635961372
30
0
10
19.166873289693999
20
-1.4401734635961372
30
0
10
19.221906668295073
20
-1.4083987138402783
30
0
10
19.251688067068269
20
-1.3568218324315884
30
0
0
SPLINE
5
732
100
AcDbEntity
8
0
100
AcDbSpline
70
4
71
3
72
8
73
4
74
0
42
0.000000001
43
0.0000000001
44
0.0000000001
40
0
40
0
40
0
40
0
40
1
40
1
40
1
40
1
41
1
41
1
41
1
41
1
10
19.251688067068269
20
-1.3568218324315884
30
0
10
19.281467119802642
20
-1.3052410409581994
30
0
10
19.281467119802642
20
-1.2416954515111776
30
0
10
19.251688067068269
20
-1.1901185701024861
30
0
0
SPLINE
5
733
100
AcDbEntity
8
0
100
AcDbSpline
70
4
71
3
72
8
73
4
74
0
42
0.000000001
43
0.0000000001
44
0.0000000001
40
0
40
0
40
0
40
0
40
1
40
1
40
1
40
1
41
1
41
1
41
1
41
1
10
19.251688067068269
20
-1.1901185701024861
30
0
10
19.221906668295073
20
-1.1385377786290971
30
0
10
19.166873289693999
20
-1.1067669389379344
30
0
10
19.107316748251129
20
-1.1067669389379344
30
0
0
SPLINE
5
734
100
AcDbEntity
8
0
100
AcDbSpline
70
4
71
3
72
8
73
4
74
0
42
0.000000001
43
0.0000000001
44
0.0000000001
40
0
40
0
40
0
40
0
40
1
40
1
40
1
40
1
41
1
41
1
41
1
41
1
10
19.107316748251129
20
-1.1067669389379344
30
0
10
19.047761770834139
20
-1.1067669389379344
30
0
10
18.992726828207182
20
-1.1385377786290971
30
0
10
18.96294542943399
20
-1.1901185701024861
30
0
0
SPLINE
5
735
100
AcDbEntity
8
0
100
AcDbSpline
70
4
71
3
72
8
73
4
74
0
42
0.000000001
43
0.0000000001
44
0.0000000001
40
0
40
0
40
0
40
0
40
1
40
1
40
1
40
1
41
1
41
1
41
1
41
1
10
17.800741259206937
20
-1.1901185701024861
30
0
10
17.770962206472564
20
-1.2416954515111776
30
0
10
17.770962206472564
20
-1.3052418229711378
30
0
10
17.800741259206937
20
-1.3568218324315884
30
0
0
SPLINE
5
736
100
AcDbEntity
8
0
100
AcDbSpline
70
4
71
3
72
8
73
4
74
0
42
0.000000001
43
0.0000000001
44
0.0000000001
40
0
40
0
40
0
40
0
40
1
40
1
40
1
40
1
41
1
41
1
41
1
41
1
10
17.800741259206937
20
-1.3568218324315884
30
0
10
17.830522657980129
20
-1.4083987138402783
30
0
10
17.885556036581207
20
-1.4401734635961372
30
0
10
17.945112578024077
20
-1.4401734635961372
30
0
0
SPLINE
5
737
100
AcDbEntity
8
0
100
AcDbSpline
70
4
71
3
72
8
73
4
74
0
42
0.000000001
43
0.0000000001
44
0.0000000001
40
0
40
0
40
0
40
0
40
1
40
1
40
1
40
1
41
1
41
1
41
1
41
1
10
17.945112578024077
20
-1.4401734635961372
30
0
10
18.004667555441067
20
-1.4401734635961372
30
0
10
18.059702498068024
20
-1.4083987138402783
30
0
10
18.089483896841216
20
-1.3568218324315884
30
0
0
SPLINE
5
738
100
AcDbEntity
8
0
100
AcDbSpline
70
4
71
3
72
8
73
4
74
0
42
0.000000001
43
0.0000000001
44
0.0000000001
40
0
40
0
40
0
40
0
40
1
40
1
40
1
40
1
41
1
41
1
41
1
41
1
10
18.089483896841216
20
-1.3568218324315884
30
0
10
18.119261385549709
20
-1.3052410409581994
30
0
10
18.119261385549709
20
-1.2416954515111776
30
0
10
18.089483896841216
20
-1.1901185701024861
30
0
0
SPLINE
5
739
100
AcDbEntity
8
0
100
AcDbSpline
70
4
71
3
72
8
73
4
74
0
42
0.000000001
43
0.0000000001
44
0.0000000001
40
0
40
0
40
0
40
0
40
1
40
1
40
1
40
1
41
1
41
1
41
1
41
1
10
18.089483896841216
20
-1.1901185701024861
30
0
10
18.059702498068024
20
-1.1385377786290971
30
0
10
18.004667555441067
20
-1.1067669389379344
30
0
10
17.945112578024077
20
-1.1067669389379344
30
0
0
SPLINE
5
740
100
AcDbEntity
8
0
100
AcDbSpline
70
4
71
3
72
8
73
4
74
0
42
0.000000001
43
0.0000000001
44
0.0000000001
40
0
40
0
40
0
40
0
40
1
40
1
40
1
40
1
41
1
41
1
41
1
41
1
10
17.945112578024077
20
-1.1067669389379344
30
0
10
17.885556036581207
20
-1.1067669389379344
30
0
10
17.830522657980129
20
-1.1385377786290971
30
0
10
17.800741259206937
20
-1.1901185701024861
30
0
0
SPLINE
5
741
100
AcDbEntity
8
0
100
AcDbSpline
70
4
71
3
72
8
73
4
74
0
42
0.000000001
43
0.0000000001
44
0.0000000001
40
0
40
0
40
0
40
0
40
1
40
1
40
1
40
1
41
1
41
1
41
1
41
1
10
20.706253248800444
20
-1.7712198732030722
30
0
10
20.676475760091947
20
-1.822796754611762
30
0
10
20.676475760091947
20
-1.8863439080846633
30
0
10
20.706253248800444
20
-1.9379231355321742
30
0
0
SPLINE
5
742
100
AcDbEntity
8
0
100
AcDbSpline
70
4
71
3
72
8
73
4
74
0
42
0.000000001
43
0.0000000001
44
0.0000000001
40
0
40
0
40
0
40
0
40
1
40
1
40
1
40
1
41
1
41
1
41
1
41
1
10
20.706253248800444
20
-1.9379231355321742
30
0
10
20.736033865560692
20
-1.9895000169408643
30
0
10
20.791068808187653
20
-2.0212763307226029
30
0
10
20.85062378560464
20
-2.0212763307226029
30
0
0
SPLINE
5
743
100
AcDbEntity
8
0
100
AcDbSpline
70
4
71
3
72
8
73
4
74
0
42
0.000000001
43
0.0000000001
44
0.0000000001
40
0
40
0
40
0
40
0
40
1
40
1
40
1
40
1
41
1
41
1
41
1
41
1
10
20.85062378560464
20
-2.0212763307226029
30
0
10
20.910180327047513
20
-2.0212763307226029
30
0
10
20.965213705648587
20
-1.9895000169408643
30
0
10
20.994994322408843
20
-1.9379231355321742
30
0
0
SPLINE
5
744
100
AcDbEntity
8
0
100
AcDbSpline
70
4
71
3
72
8
73
4
74
0
42
0.000000001
43
0.0000000001
44
0.0000000001
40
0
40
0
40
0
40
0
40
1
40
1
40
1
40
1
41
1
41
1
41
1
41
1
10
20.994994322408843
20
-1.9379231355321742
30
0
10
21.02477181111734
20
-1.8863439080846633
30
0
10
21.02477181111734
20
-1.822796754611762
30
0
10
20.994994322408843
20
-1.7712198732030722
30
0
0
SPLINE
5
745
100
AcDbEntity
8
0
100
AcDbSpline
70
4
71
3
72
8
73
4
74
0
42
0.000000001
43
0.0000000001
44
0.0000000001
40
0
40
0
40
0
40
0
40
1
40
1
40
1
40
1
41
1
41
1
41
1
41
1
10
20.994994322408843
20
-1.7712198732030722
30
0
10
20.965213705648587
20
-1.7196406457555613
30
0
10
20.910178763021634
20
-1.6878682420385203
30
0
10
20.85062378560464
20
-1.6878682420385203
30
0
0
SPLINE
5
746
100
AcDbEntity
8
0
100
AcDbSpline
70
4
71
3
72
8
73
4
74
0
42
0.000000001
43
0.0000000001
44
0.0000000001
40
0
40
0
40
0
40
0
40
1
40
1
40
1
40
1
41
1
41
1
41
1
41
1
10
20.85062378560464
20
-1.6878682420385203
30
0
10
20.791068808187653
20
-1.6878682420385203
30
0
10
20.736033865560692
20
-1.7196406457555613
30
0
10
20.706253248800444
20
-1.7712198732030722
30
0
0
SPLINE
5
747
100
AcDbEntity
8
0
100
AcDbSpline
70
4
71
3
72
8
73
4
74
0
42
0.000000001
43
0.0000000001
44
0.0000000001
40
0
40
0
40
0
40
0
40
1
40
1
40
1
40
1
41
1
41
1
41
1
41
1
10
20.125151945699855
20
-1.7712198732030722
30
0
10
20.095374456991362
20
-1.822796754611762
30
0
10
20.095374456991362
20
-1.8863439080846633
30
0
10
20.125151945699855
20
-1.9379231355321742
30
0
0
SPLINE
5
748
100
AcDbEntity
8
0
100
AcDbSpline
70
4
71
3
72
8
73
4
74
0
42
0.000000001
43
0.0000000001
44
0.0000000001
40
0
40
0
40
0
40
0
40
1
40
1
40
1
40
1
41
1
41
1
41
1
41
1
10
20.125151945699855
20
-1.9379231355321742
30
0
10
20.154932562460111
20
-1.9895000169408643
30
0
10
20.209967505087064
20
-2.0212763307226029
30
0
10
20.269522482504058
20
-2.0212763307226029
30
0
0
SPLINE
5
749
100
AcDbEntity
8
0
100
AcDbSpline
70
4
71
3
72
8
73
4
74
0
42
0.000000001
43
0.0000000001
44
0.0000000001
40
0
40
0
40
0
40
0
40
1
40
1
40
1
40
1
41
1
41
1
41
1
41
1
10
20.269522482504058
20
-2.0212763307226029
30
0
10
20.329077459921045
20
-2.0212763307226029
30
0
10
20.384112402548002
20
-1.9895000169408643
30
0
10
20.413893019308254
20
-1.9379231355321742
30
0
0
SPLINE
5
750
100
AcDbEntity
8
0
100
AcDbSpline
70
4
71
3
72
8
73
4
74
0
42
0.000000001
43
0.0000000001
44
0.0000000001
40
0
40
0
40
0
40
0
40
1
40
1
40
1
40
1
41
1
41
1
41
1
41
1
10
20.413893019308254
20
-1.9379231355321742
30
0
10
20.443670508016751
20
-1.8863439080846633
30
0
10
20.443670508016751
20
-1.822796754611762
30
0
10
20.413893019308254
20
-1.7712198732030722
30
0
0
SPLINE
5
751
100
AcDbEntity
8
0
100
AcDbSpline
70
4
71
3
72
8
73
4
74
0
42
0.000000001
43
0.0000000001
44
0.0000000001
40
0
40
0
40
0
40
0
40
1
40
1
40
1
40
1
41
1
41
1
41
1
41
1
10
20.413893019308254
20
-1.7712198732030722
30
0
10
20.384112402548002
20
-1.7196406457555613
30
0
10
20.329077459921045
20
-1.6878682420385203
30
0
10
20.269522482504058
20
-1.6878682420385203
30
0
0
SPLINE
5
752
100
AcDbEntity
8
0
100
AcDbSpline
70
4
71
3
72
8
73
4
74
0
42
0.000000001
43
0.0000000001
44
0.0000000001
40
0
40
0
40
0
40
0
40
1
40
1
40
1
40
1
41
1
41
1
41
1
41
1
10
20.269522482504058
20
-1.6878682420385203
30
0
10
20.209965941061185
20
-1.6878682420385203
30
0
10
20.154932562460111
20
-1.7196406457555613
30
0
10
20.125151945699855
20
-1.7712198732030722
30
0
0
SPLINE
5
753
100
AcDbEntity
8
0
100
AcDbSpline
70
4
71
3
72
8
73
4
74
0
42
0.000000001
43
0.0000000001
44
0.0000000001
40
0
40
0
40
0
40
0
40
1
40
1
40
1
40
1
41
1
41
1
41
1
41
1
10
19.54404986058633
20
-1.7712198732030722
30
0
10
19.514270807851958
20
-1.822796754611762
30
0
10
19.514270807851958
20
-1.8863439080846633
30
0
10
19.54404986058633
20
-1.9379231355321742
30
0
0
SPLINE
5
754
100
AcDbEntity
8
0
100
AcDbSpline
70
4
71
3
72
8
73
4
74
0
42
0.000000001
43
0.0000000001
44
0.0000000001
40
0
40
0
40
0
40
0
40
1
40
1
40
1
40
1
41
1
41
1
41
1
41
1
10
19.54404986058633
20
-1.9379231355321742
30
0
10
19.573831259359526
20
-1.9895000169408643
30
0
10
19.6288646379606
20
-2.0212763307226029
30
0
10
19.688421179403466
20
-2.0212763307226029
30
0
0
SPLINE
5
755
100
AcDbEntity
8
0
100
AcDbSpline
70
4
71
3
72
8
73
4
74
0
42
0.000000001
43
0.0000000001
44
0.0000000001
40
0
40
0
40
0
40
0
40
1
40
1
40
1
40
1
41
1
41
1
41
1
41
1
10
19.688421179403466
20
-2.0212763307226029
30
0
10
19.74797615682046
20
-2.0212763307226029
30
0
10
19.803009535421534
20
-1.9895000169408643
30
0
10
19.832792498220609
20
-1.9379231355321742
30
0
0
SPLINE
5
756
100
AcDbEntity
8
0
100
AcDbSpline
70
4
71
3
72
8
73
4
74
0
42
0.000000001
43
0.0000000001
44
0.0000000001
40
0
40
0
40
0
40
0
40
1
40
1
40
1
40
1
41
1
41
1
41
1
41
1
10
19.832792498220609
20
-1.9379231355321742
30
0
10
19.862569986929106
20
-1.8863439080846633
30
0
10
19.862569986929106
20
-1.822796754611762
30
0
10
19.832792498220609
20
-1.7712198732030722
30
0
0
SPLINE
5
757
100
AcDbEntity
8
0
100
AcDbSpline
70
4
71
3
72
8
73
4
74
0
42
0.000000001
43
0.0000000001
44
0.0000000001
40
0
40
0
40
0
40
0
40
1
40
1
40
1
40
1
41
1
41
1
41
1
41
1
10
19.832792498220609
20
-1.7712198732030722
30
0
10
19.803009535421534
20
-1.7196406457555613
30
0
10
19.74797615682046
20
-1.6878682420385203
30
0
10
19.688421179403466
20
-1.6878682420385203
30
0
0
SPLINE
5
758
100
AcDbEntity
8
0
100
AcDbSpline
70
4
71
3
72
8
73
4
74
0
42
0.000000001
43
0.0000000001
44
0.0000000001
40
0
40
0
40
0
40
0
40
1
40
1
40
1
40
1
41
1
41
1
41
1
41
1
10
19.688421179403466
20
-1.6878682420385203
30
0
10
19.6288646379606
20
-1.6878682420385203
30
0
10
19.573831259359526
20
-1.7196406457555613
30
0
10
19.54404986058633
20
-1.7712198732030722
30
0
0
SPLINE
5
759
100
AcDbEntity
8
0
100
AcDbSpline
70
4
71
3
72
8
73
4
74
0
42
0.000000001
43
0.0000000001
44
0.0000000001
40
0
40
0
40
0
40
0
40
1
40
1
40
1
40
1
41
1
41
1
41
1
41
1
10
18.96294621144693
20
-1.7712198732030722
30
0
10
18.933168722738433
20
-1.822796754611762
30
0
10
18.933168722738433
20
-1.8863439080846633
30
0
10
18.96294621144693
20
-1.9379231355321742
30
0
0
SPLINE
5
760
100
AcDbEntity
8
0
100
AcDbSpline
70
4
71
3
72
8
73
4
74
0
42
0.000000001
43
0.0000000001
44
0.0000000001
40
0
40
0
40
0
40
0
40
1
40
1
40
1
40
1
41
1
41
1
41
1
41
1
10
18.96294621144693
20
-1.9379231355321742
30
0
10
18.992727610220118
20
-1.9895000169408643
30
0
10
19.047762552847075
20
-2.0212763307226029
30
0
10
19.107317530264066
20
-2.0212763307226029
30
0
0
SPLINE
5
761
100
AcDbEntity
8
0
100
AcDbSpline
70
4
71
3
72
8
73
4
74
0
42
0.000000001
43
0.0000000001
44
0.0000000001
40
0
40
0
40
0
40
0
40
1
40
1
40
1
40
1
41
1
41
1
41
1
41
1
10
19.107317530264066
20
-2.0212763307226029
30
0
10
19.166874071706939
20
-2.0212763307226029
30
0
10
19.221907450308013
20
-1.9895000169408643
30
0
10
19.251688849081209
20
-1.9379231355321742
30
0
0
SPLINE
5
762
100
AcDbEntity
8
0
100
AcDbSpline
70
4
71
3
72
8
73
4
74
0
42
0.000000001
43
0.0000000001
44
0.0000000001
40
0
40
0
40
0
40
0
40
1
40
1
40
1
40
1
41
1
41
1
41
1
41
1
10
19.251688849081209
20
-1.9379231355321742
30
0
10
19.281467901815578
20
-1.8863439080846633
30
0
10
19.281467901815578
20
-1.822796754611762
30
0
10
19.251688849081209
20
-1.7712198732030722
30
0
0
SPLINE
5
763
100
AcDbEntity
8
0
100
AcDbSpline
70
4
71
3
72
8
73
4
74
0
42
0.000000001
43
0.0000000001
44
0.0000000001
40
0
40
0
40
0
40
0
40
1
40
1
40
1
40
1
41
1
41
1
41
1
41
1
10
19.251688849081209
20
-1.7712198732030722
30
0
10
19.221907450308013
20
-1.7196406457555613
30
0
10
19.166874071706939
20
-1.6878682420385203
30
0
10
19.107317530264066
20
-1.6878682420385203
30
0
0
SPLINE
5
764
100
AcDbEntity
8
0
100
AcDbSpline
70
4
71
3
72
8
73
4
74
0
42
0.000000001
43
0.0000000001
44
0.0000000001
40
0
40
0
40
0
40
0
40
1
40
1
40
1
40
1
41
1
41
1
41
1
41
1
10
19.107317530264066
20
-1.6878682420385203
30
0
10
19.047762552847075
20
-1.6878682420385203
30
0
10
18.992727610220118
20
-1.7196406457555613
30
0
10
18.96294621144693
20
-1.7712198732030722
30
0
0
SPLINE
5
765
100
AcDbEntity
8
0
100
AcDbSpline
70
4
71
3
72
8
73
4
74
0
42
0.000000001
43
0.0000000001
44
0.0000000001
40
0
40
0
40
0
40
0
40
1
40
1
40
1
40
1
41
1
41
1
41
1
41
1
10
18.381844126333405
20
-1.7712198732030722
30
0
10
18.352066637624908
20
-1.822796754611762
30
0
10
18.352066637624908
20
-1.8863439080846633
30
0
10
18.381844126333405
20
-1.9379231355321742
30
0
0
SPLINE
5
766
100
AcDbEntity
8
0
100
AcDbSpline
70
4
71
3
72
8
73
4
74
0
42
0.000000001
43
0.0000000001
44
0.0000000001
40
0
40
0
40
0
40
0
40
1
40
1
40
1
40
1
41
1
41
1
41
1
41
1
10
18.381844126333405
20
-1.9379231355321742
30
0
10
18.411625525106597
20
-1.9895000169408643
30
0
10
18.466658903707668
20
-2.0212763307226029
30
0
10
18.526215445150541
20
-2.0212763307226029
30
0
0
SPLINE
5
767
100
AcDbEntity
8
0
100
AcDbSpline
70
4
71
3
72
8
73
4
74
0
42
0.000000001
43
0.0000000001
44
0.0000000001
40
0
40
0
40
0
40
0
40
1
40
1
40
1
40
1
41
1
41
1
41
1
41
1
10
18.526215445150541
20
-2.0212763307226029
30
0
10
18.585770422567535
20
-2.0212763307226029
30
0
10
18.640805365194488
20
-1.9895000169408643
30
0
10
18.67058676396768
20
-1.9379231355321742
30
0
0
SPLINE
5
768
100
AcDbEntity
8
0
100
AcDbSpline
70
4
71
3
72
8
73
4
74
0
42
0.000000001
43
0.0000000001
44
0.0000000001
40
0
40
0
40
0
40
0
40
1
40
1
40
1
40
1
41
1
41
1
41
1
41
1
10
18.67058676396768
20
-1.9379231355321742
30
0
10
18.700364252676177
20
-1.8863439080846633
30
0
10
18.700364252676177
20
-1.822796754611762
30
0
10
18.67058676396768
20
-1.7712198732030722
30
0
0
SPLINE
5
769
100
AcDbEntity
8
0
100
AcDbSpline
70
4
71
3
72
8
73
4
74
0
42
0.000000001
43
0.0000000001
44
0.0000000001
40
0
40
0
40
0
40
0
40
1
40
1
40
1
40
1
41
1
41
1
41
1
41
1
10
18.67058676396768
20
-1.7712198732030722
30
0
10
18.640805365194488
20
-1.7196406457555613
30
0
10
18.585770422567535
20
-1.6878682420385203
30
0
10
18.526215445150541
20
-1.6878682420385203
30
0
0
SPLINE
5
770
100
AcDbEntity
8
0
100
AcDbSpline
70
4
71
3
72
8
73
4
74
0
42
0.000000001
43
0.0000000001
44
0.0000000001
40
0
40
0
40
0
40
0
40
1
40
1
40
1
40
1
41
1
41
1
41
1
41
1
10
18.526215445150541
20
-1.6878682420385203
30
0
10
18.466658903707668
20
-1.6878682420385203
30
0
10
18.411625525106597
20
-1.7196406457555613
30
0
10
18.381844126333405
20
-1.7712198732030722
30
0
0
SPLINE
5
771
100
AcDbEntity
8
0
100
AcDbSpline
70
4
71
3
72
8
73
4
74
0
42
0.000000001
43
0.0000000001
44
0.0000000001
40
0
40
0
40
0
40
0
40
1
40
1
40
1
40
1
41
1
41
1
41
1
41
1
10
17.800742041219877
20
-1.9379231355321742
30
0
10
17.830523439993069
20
-1.9895000169408643
30
0
10
17.885556818594146
20
-2.0212763307226029
30
0
10
17.945113360037013
20
-2.0212763307226029
30
0
0
SPLINE
5
772
100
AcDbEntity
8
0
100
AcDbSpline
70
4
71
3
72
8
73
4
74
0
42
0.000000001
43
0.0000000001
44
0.0000000001
40
0
40
0
40
0
40
0
40
1
40
1
40
1
40
1
41
1
41
1
41
1
41
1
10
17.945113360037013
20
-2.0212763307226029
30
0
10
18.004668337454007
20
-2.0212763307226029
30
0
10
18.05970328008096
20
-1.9895000169408643
30
0
10
18.089484678854156
20
-1.9379231355321742
30
0
0
SPLINE
5
773
100
AcDbEntity
8
0
100
AcDbSpline
70
4
71
3
72
8
73
4
74
0
42
0.000000001
43
0.0000000001
44
0.0000000001
40
0
40
0
40
0
40
0
40
1
40
1
40
1
40
1
41
1
41
1
41
1
41
1
10
18.089484678854156
20
-1.9379231355321742
30
0
10
18.119262167562653
20
-1.8863439080846633
30
0
10
18.119262167562653
20
-1.822796754611762
30
0
10
18.089484678854156
20
-1.7712198732030722
30
0
0
SPLINE
5
774
100
AcDbEntity
8
0
100
AcDbSpline
70
4
71
3
72
8
73
4
74
0
42
0.000000001
43
0.0000000001
44
0.0000000001
40
0
40
0
40
0
40
0
40
1
40
1
40
1
40
1
41
1
41
1
41
1
41
1
10
18.089484678854156
20
-1.7712198732030722
30
0
10
18.05970328008096
20
-1.7196406457555613
30
0
10
18.004668337454007
20
-1.6878682420385203
30
0
10
17.945113360037013
20
-1.6878682420385203
30
0
0
SPLINE
5
775
100
AcDbEntity
8
0
100
AcDbSpline
70
4
71
3
72
8
73
4
74
0
42
0.000000001
43
0.0000000001
44
0.0000000001
40
0
40
0
40
0
40
0
40
1
40
1
40
1
40
1
41
1
41
1
41
1
41
1
10
17.945113360037013
20
-1.6878682420385203
30
0
10
17.885556818594146
20
-1.6878682420385203
30
0
10
17.830523439993069
20
-1.7196406457555613
30
0
10
17.800742041219877
20
-1.7712198732030722
30
0
0
SPLINE
5
776
100
AcDbEntity
8
0
100
AcDbSpline
70
4
71
3
72
8
73
4
74
0
42
0.000000001
43
0.0000000001
44
0.0000000001
40
0
40
0
40
0
40
0
40
1
40
1
40
1
40
1
41
1
41
1
41
1
41
1
10
17.800742041219877
20
-1.7712198732030722
30
0
10
17.7709629884855
20
-1.822796754611762
30
0
10
17.7709629884855
20
-1.8863439080846633
30
0
10
17.800742041219877
20
-1.9379231355321742
30
0
0
SPLINE
5
777
100
AcDbEntity
8
0
100
AcDbSpline
70
4
71
3
72
8
73
4
74
0
42
0.000000001
43
0.0000000001
44
0.0000000001
40
0
40
0
40
0
40
0
40
1
40
1
40
1
40
1
41
1
41
1
41
1
41
1
10
20.85062378560464
20
-2.2689695451391074
30
0
10
20.791068808187653
20
-2.2689695451391074
30
0
10
20.736033865560692
20
-2.3007419488561474
30
0
10
20.706253248800444
20
-2.3523227403295364
30
0
0
SPLINE
5
778
100
AcDbEntity
8
0
100
AcDbSpline
70
4
71
3
72
8
73
4
74
0
42
0.000000001
43
0.0000000001
44
0.0000000001
40
0
40
0
40
0
40
0
40
1
40
1
40
1
40
1
41
1
41
1
41
1
41
1
10
20.706253248800444
20
-2.3523227403295364
30
0
10
20.676475760091947
20
-2.4038980577123481
30
0
10
20.676475760091947
20
-2.4674459931981891
30
0
10
20.706253248800444
20
-2.5190260026586384
30
0
0
SPLINE
5
779
100
AcDbEntity
8
0
100
AcDbSpline
70
4
71
3
72
8
73
4
74
0
42
0.000000001
43
0.0000000001
44
0.0000000001
40
0
40
0
40
0
40
0
40
1
40
1
40
1
40
1
41
1
41
1
41
1
41
1
10
20.706253248800444
20
-2.5190260026586384
30
0
10
20.736033865560692
20
-2.5706028840673296
30
0
10
20.791068808187653
20
-2.6023776338231888
30
0
10
20.85062378560464
20
-2.6023776338231888
30
0
0
SPLINE
5
780
100
AcDbEntity
8
0
100
AcDbSpline
70
4
71
3
72
8
73
4
74
0
42
0.000000001
43
0.0000000001
44
0.0000000001
40
0
40
0
40
0
40
0
40
1
40
1
40
1
40
1
41
1
41
1
41
1
41
1
10
20.85062378560464
20
-2.6023776338231888
30
0
10
20.910180327047513
20
-2.6023776338231888
30
0
10
20.965213705648587
20
-2.5706028840673296
30
0
10
20.994994322408843
20
-2.5190260026586384
30
0
0
SPLINE
5
781
100
AcDbEntity
8
0
100
AcDbSpline
70
4
71
3
72
8
73
4
74
0
42
0.000000001
43
0.0000000001
44
0.0000000001
40
0
40
0
40
0
40
0
40
1
40
1
40
1
40
1
41
1
41
1
41
1
41
1
10
20.994994322408843
20
-2.5190260026586384
30
0
10
21.02477181111734
20
-2.4674452111852494
30
0
10
21.02477181111734
20
-2.4038980577123481
30
0
10
20.994994322408843
20
-2.3523227403295364
30
0
0
SPLINE
5
782
100
AcDbEntity
8
0
100
AcDbSpline
70
4
71
3
72
8
73
4
74
0
42
0.000000001
43
0.0000000001
44
0.0000000001
40
0
40
0
40
0
40
0
40
1
40
1
40
1
40
1
41
1
41
1
41
1
41
1
10
20.994994322408843
20
-2.3523227403295364
30
0
10
20.965213705648587
20
-2.3007419488561474
30
0
10
20.910178763021634
20
-2.2689695451391074
30
0
10
20.85062378560464
20
-2.2689695451391074
30
0
0
SPLINE
5
783
100
AcDbEntity
8
0
100
AcDbSpline
70
4
71
3
72
8
73
4
74
0
42
0.000000001
43
0.0000000001
44
0.0000000001
40
0
40
0
40
0
40
0
40
1
40
1
40
1
40
1
41
1
41
1
41
1
41
1
10
20.125151945699855
20
-2.3523227403295364
30
0
10
20.095374456991362
20
-2.4038980577123481
30
0
10
20.095374456991362
20
-2.4674459931981891
30
0
10
20.125151945699855
20
-2.5190260026586384
30
0
0
SPLINE
5
784
100
AcDbEntity
8
0
100
AcDbSpline
70
4
71
3
72
8
73
4
74
0
42
0.000000001
43
0.0000000001
44
0.0000000001
40
0
40
0
40
0
40
0
40
1
40
1
40
1
40
1
41
1
41
1
41
1
41
1
10
20.125151945699855
20
-2.5190260026586384
30
0
10
20.154932562460111
20
-2.5706028840673296
30
0
10
20.209967505087064
20
-2.6023776338231888
30
0
10
20.269522482504058
20
-2.6023776338231888
30
0
0
SPLINE
5
785
100
AcDbEntity
8
0
100
AcDbSpline
70
4
71
3
72
8
73
4
74
0
42
0.000000001
43
0.0000000001
44
0.0000000001
40
0
40
0
40
0
40
0
40
1
40
1
40
1
40
1
41
1
41
1
41
1
41
1
10
20.269522482504058
20
-2.6023776338231888
30
0
10
20.329077459921045
20
-2.6023776338231888
30
0
10
20.384112402548002
20
-2.5706028840673296
30
0
10
20.413893019308254
20
-2.5190260026586384
30
0
0
SPLINE
5
786
100
AcDbEntity
8
0
100
AcDbSpline
70
4
71
3
72
8
73
4
74
0
42
0.000000001
43
0.0000000001
44
0.0000000001
40
0
40
0
40
0
40
0
40
1
40
1
40
1
40
1
41
1
41
1
41
1
41
1
10
20.413893019308254
20
-2.5190260026586384
30
0
10
20.443670508016751
20
-2.4674452111852494
30
0
10
20.443670508016751
20
-2.4038980577123481
30
0
10
20.413893019308254
20
-2.3523227403295364
30
0
0
SPLINE
5
787
100
AcDbEntity
8
0
100
AcDbSpline
70
4
71
3
72
8
73
4
74
0
42
0.000000001
43
0.0000000001
44
0.0000000001
40
0
40
0
40
0
40
0
40
1
40
1
40
1
40
1
41
1
41
1
41
1
41
1
10
20.413893019308254
20
-2.3523227403295364
30
0
10
20.384112402548002
20
-2.3007419488561474
30
0
10
20.329077459921045
20
-2.2689695451391074
30
0
10
20.269522482504058
20
-2.2689695451391074
30
0
0
SPLINE
5
788
100
AcDbEntity
8
0
100
AcDbSpline
70
4
71
3
72
8
73
4
74
0
42
0.000000001
43
0.0000000001
44
0.0000000001
40
0
40
0
40
0
40
0
40
1
40
1
40
1
40
1
41
1
41
1
41
1
41
1
10
20.269522482504058
20
-2.2689695451391074
30
0
10
20.209965941061185
20
-2.2689695451391074
30
0
10
20.154932562460111
20
-2.3007419488561474
30
0
10
20.125151945699855
20
-2.3523227403295364
30
0
0
SPLINE
5
789
100
AcDbEntity
8
0
100
AcDbSpline
70
4
71
3
72
8
73
4
74
0
42
0.000000001
43
0.0000000001
44
0.0000000001
40
0
40
0
40
0
40
0
40
1
40
1
40
1
40
1
41
1
41
1
41
1
41
1
10
19.54404986058633
20
-2.3523227403295364
30
0
10
19.514270807851958
20
-2.4038980577123481
30
0
10
19.514270807851958
20
-2.4674459931981891
30
0
10
19.54404986058633
20
-2.5190260026586384
30
0
0
SPLINE
5
790
100
AcDbEntity
8
0
100
AcDbSpline
70
4
71
3
72
8
73
4
74
0
42
0.000000001
43
0.0000000001
44
0.0000000001
40
0
40
0
40
0
40
0
40
1
40
1
40
1
40
1
41
1
41
1
41
1
41
1
10
19.54404986058633
20
-2.5190260026586384
30
0
10
19.573831259359526
20
-2.5706028840673296
30
0
10
19.6288646379606
20
-2.6023776338231888
30
0
10
19.688421179403466
20
-2.6023776338231888
30
0
0
SPLINE
5
791
100
AcDbEntity
8
0
100
AcDbSpline
70
4
71
3
72
8
73
4
74
0
42
0.000000001
43
0.0000000001
44
0.0000000001
40
0
40
0
40
0
40
0
40
1
40
1
40
1
40
1
41
1
41
1
41
1
41
1
10
19.688421179403466
20
-2.6023776338231888
30
0
10
19.74797615682046
20
-2.6023776338231888
30
0
10
19.803009535421534
20
-2.5706028840673296
30
0
10
19.832792498220609
20
-2.5190260026586384
30
0
0
SPLINE
5
792
100
AcDbEntity
8
0
100
AcDbSpline
70
4
71
3
72
8
73
4
74
0
42
0.000000001
43
0.0000000001
44
0.0000000001
40
0
40
0
40
0
40
0
40
1
40
1
40
1
40
1
41
1
41
1
41
1
41
1
10
19.832792498220609
20
-2.5190260026586384
30
0
10
19.862569986929106
20
-2.4674452111852494
30
0
10
19.862569986929106
20
-2.4038980577123481
30
0
10
19.832792498220609
20
-2.3523227403295364
30
0
0
SPLINE
5
793
100
AcDbEntity
8
0
100
AcDbSpline
70
4
71
3
72
8
73
4
74
0
42
0.000000001
43
0.0000000001
44
0.0000000001
40
0
40
0
40
0
40
0
40
1
40
1
40
1
40
1
41
1
41
1
41
1
41
1
10
19.832792498220609
20
-2.3523227403295364
30
0
10
19.803009535421534
20
-2.3007419488561474
30
0
10
19.74797615682046
20
-2.2689695451391074
30
0
10
19.688421179403466
20
-2.2689695451391074
30
0
0
SPLINE
5
794
100
AcDbEntity
8
0
100
AcDbSpline
70
4
71
3
72
8
73
4
74
0
42
0.000000001
43
0.0000000001
44
0.0000000001
40
0
40
0
40
0
40
0
40
1
40
1
40
1
40
1
41
1
41
1
41
1
41
1
10
19.688421179403466
20
-2.2689695451391074
30
0
10
19.6288646379606
20
-2.2689695451391074
30
0
10
19.573831259359526
20
-2.3007419488561474
30
0
10
19.54404986058633
20
-2.3523227403295364
30
0
0
SPLINE
5
795
100
AcDbEntity
8
0
100
AcDbSpline
70
4
71
3
72
8
73
4
74
0
42
0.000000001
43
0.0000000001
44
0.0000000001
40
0
40
0
40
0
40
0
40
1
40
1
40
1
40
1
41
1
41
1
41
1
41
1
10
18.381844126333405
20
-2.5190260026586384
30
0
10
18.411625525106597
20
-2.5706028840673296
30
0
10
18.466658903707668
20
-2.6023776338231888
30
0
10
18.526215445150541
20
-2.6023776338231888
30
0
0
SPLINE
5
796
100
AcDbEntity
8
0
100
AcDbSpline
70
4
71
3
72
8
73
4
74
0
42
0.000000001
43
0.0000000001
44
0.0000000001
40
0
40
0
40
0
40
0
40
1
40
1
40
1
40
1
41
1
41
1
41
1
41
1
10
18.526215445150541
20
-2.6023776338231888
30
0
10
18.585770422567535
20
-2.6023776338231888
30
0
10
18.640805365194488
20
-2.5706028840673296
30
0
10
18.67058676396768
20
-2.5190260026586384
30
0
0
SPLINE
5
797
100
AcDbEntity
8
0
100
AcDbSpline
70
4
71
3
72
8
73
4
74
0
42
0.000000001
43
0.0000000001
44
0.0000000001
40
0
40
0
40
0
40
0
40
1
40
1
40
1
40
1
41
1
41
1
41
1
41
1
10
18.67058676396768
20
-2.5190260026586384
30
0
10
18.700364252676177
20
-2.4674452111852494
30
0
10
18.700364252676177
20
-2.4038980577123481
30
0
10
18.67058676396768
20
-2.3523227403295364
30
0
0
SPLINE
5
798
100
AcDbEntity
8
0
100
AcDbSpline
70
4
71
3
72
8
73
4
74
0
42
0.000000001
43
0.0000000001
44
0.0000000001
40
0
40
0
40
0
40
0
40
1
40
1
40
1
40
1
41
1
41
1
41
1
41
1
10
18.67058676396768
20
-2.3523227403295364
30
0
10
18.640805365194488
20
-2.3007419488561474
30
0
10
18.585770422567535
20
-2.2689695451391074
30
0
10
18.526215445150541
20
-2.2689695451391074
30
0
0
SPLINE
5
799
100
AcDbEntity
8
0
100
AcDbSpline
70
4
71
3
72
8
73
4
74
0
42
0.000000001
43
0.0000000001
44
0.0000000001
40
0
40
0
40
0
40
0
40
1
40
1
40
1
40
1
41
1
41
1
41
1
41
1
10
18.526215445150541
20
-2.2689695451391074
30
0
10
18.466658903707668
20
-2.2689695451391074
30
0
10
18.411625525106597
20
-2.3007419488561474
30
0
10
18.381844126333405
20
-2.3523227403295364
30
0
0
SPLINE
5
800
100
AcDbEntity
8
0
100
AcDbSpline
70
4
71
3
72
8
73
4
74
0
42
0.000000001
43
0.0000000001
44
0.0000000001
40
0
40
0
40
0
40
0
40
1
40
1
40
1
40
1
41
1
41
1
41
1
41
1
10
18.381844126333405
20
-2.3523227403295364
30
0
10
18.352066637624908
20
-2.4038980577123481
30
0
10
18.352066637624908
20
-2.4674459931981891
30
0
10
18.381844126333405
20
-2.5190260026586384
30
0
0
SPLINE
5
801
100
AcDbEntity
8
0
100
AcDbSpline
70
4
71
3
72
8
73
4
74
0
42
0.000000001
43
0.0000000001
44
0.0000000001
40
0
40
0
40
0
40
0
40
1
40
1
40
1
40
1
41
1
41
1
41
1
41
1
10
21.576094061483552
20
-4.6767318627965775
30
0
10
21.546313444723296
20
-4.6251510713231889
30
0
10
21.491278502096343
20
-4.5933802316320271
30
0
10
21.431723524679349
20
-4.5933802316320271
30
0
0
SPLINE
5
802
100
AcDbEntity
8
0
100
AcDbSpline
70
4
71
3
72
8
73
4
74
0
42
0.000000001
43
0.0000000001
44
0.0000000001
40
0
40
0
40
0
40
0
40
1
40
1
40
1
40
1
41
1
41
1
41
1
41
1
10
21.431723524679349
20
-4.5933802316320271
30
0
10
21.372168547262355
20
-4.5933802316320271
30
0
10
21.317135168661281
20
-4.6251510713231889
30
0
10
21.287352987875146
20
-4.6767318627965775
30
0
0
SPLINE
5
803
100
AcDbEntity
8
0
100
AcDbSpline
70
4
71
3
72
8
73
4
74
0
42
0.000000001
43
0.0000000001
44
0.0000000001
40
0
40
0
40
0
40
0
40
1
40
1
40
1
40
1
41
1
41
1
41
1
41
1
10
21.287352987875146
20
-4.6767318627965775
30
0
10
21.257575499166656
20
-4.7283087442052691
30
0
10
21.257575499166656
20
-4.7918551156652303
30
0
10
21.287352987875146
20
-4.84343512512568
30
0
0
SPLINE
5
804
100
AcDbEntity
8
0
100
AcDbSpline
70
4
71
3
72
8
73
4
74
0
42
0.000000001
43
0.0000000001
44
0.0000000001
40
0
40
0
40
0
40
0
40
1
40
1
40
1
40
1
41
1
41
1
41
1
41
1
10
21.287352987875146
20
-4.84343512512568
30
0
10
21.317135168661281
20
-4.8950120065343699
30
0
10
21.372168547262355
20
-4.9267867562902286
30
0
10
21.431723524679349
20
-4.9267867562902286
30
0
0
SPLINE
5
805
100
AcDbEntity
8
0
100
AcDbSpline
70
4
71
3
72
8
73
4
74
0
42
0.000000001
43
0.0000000001
44
0.0000000001
40
0
40
0
40
0
40
0
40
1
40
1
40
1
40
1
41
1
41
1
41
1
41
1
10
21.431723524679349
20
-4.9267867562902286
30
0
10
21.491280066122222
20
-4.9267867562902286
30
0
10
21.546313444723296
20
-4.8950120065343699
30
0
10
21.576094061483552
20
-4.84343512512568
30
0
0
SPLINE
5
806
100
AcDbEntity
8
0
100
AcDbSpline
70
4
71
3
72
8
73
4
74
0
42
0.000000001
43
0.0000000001
44
0.0000000001
40
0
40
0
40
0
40
0
40
1
40
1
40
1
40
1
41
1
41
1
41
1
41
1
10
21.576094061483552
20
-4.84343512512568
30
0
10
21.605873114217921
20
-4.7918543336522905
30
0
10
21.605873114217921
20
-4.7283087442052691
30
0
10
21.576094061483552
20
-4.6767318627965775
30
0
0
SPLINE
5
807
100
AcDbEntity
8
0
100
AcDbSpline
70
4
71
3
72
8
73
4
74
0
42
0.000000001
43
0.0000000001
44
0.0000000001
40
0
40
0
40
0
40
0
40
1
40
1
40
1
40
1
41
1
41
1
41
1
41
1
10
21.576094061483552
20
-4.0956289956701131
30
0
10
21.546313444723296
20
-4.0440497682226022
30
0
10
21.491278502096343
20
-4.0122773645055627
30
0
10
21.431723524679349
20
-4.0122773645055627
30
0
0
SPLINE
5
808
100
AcDbEntity
8
0
100
AcDbSpline
70
4
71
3
72
8
73
4
74
0
42
0.000000001
43
0.0000000001
44
0.0000000001
40
0
40
0
40
0
40
0
40
1
40
1
40
1
40
1
41
1
41
1
41
1
41
1
10
21.431723524679349
20
-4.0122773645055627
30
0
10
21.372168547262355
20
-4.0122773645055627
30
0
10
21.317135168661281
20
-4.0440497682226022
30
0
10
21.287352987875146
20
-4.0956289956701131
30
0
0
SPLINE
5
809
100
AcDbEntity
8
0
100
AcDbSpline
70
4
71
3
72
8
73
4
74
0
42
0.000000001
43
0.0000000001
44
0.0000000001
40
0
40
0
40
0
40
0
40
1
40
1
40
1
40
1
41
1
41
1
41
1
41
1
10
21.287352987875146
20
-4.0956289956701131
30
0
10
21.257575499166656
20
-4.1472058770788029
30
0
10
21.257575499166656
20
-4.2107530305517047
30
0
10
21.287352987875146
20
-4.2623338220250933
30
0
0
SPLINE
5
810
100
AcDbEntity
8
0
100
AcDbSpline
70
4
71
3
72
8
73
4
74
0
42
0.000000001
43
0.0000000001
44
0.0000000001
40
0
40
0
40
0
40
0
40
1
40
1
40
1
40
1
41
1
41
1
41
1
41
1
10
21.287352987875146
20
-4.2623338220250933
30
0
10
21.317135168661281
20
-4.3139091394079054
30
0
10
21.372168547262355
20
-4.3456854531896445
30
0
10
21.431723524679349
20
-4.3456854531896445
30
0
0
SPLINE
5
811
100
AcDbEntity
8
0
100
AcDbSpline
70
4
71
3
72
8
73
4
74
0
42
0.000000001
43
0.0000000001
44
0.0000000001
40
0
40
0
40
0
40
0
40
1
40
1
40
1
40
1
41
1
41
1
41
1
41
1
10
21.431723524679349
20
-4.3456854531896445
30
0
10
21.491280066122222
20
-4.3456854531896445
30
0
10
21.546313444723296
20
-4.3139091394079054
30
0
10
21.576094061483552
20
-4.2623338220250933
30
0
0
SPLINE
5
812
100
AcDbEntity
8
0
100
AcDbSpline
70
4
71
3
72
8
73
4
74
0
42
0.000000001
43
0.0000000001
44
0.0000000001
40
0
40
0
40
0
40
0
40
1
40
1
40
1
40
1
41
1
41
1
41
1
41
1
10
21.576094061483552
20
-4.2623338220250933
30
0
10
21.605873114217921
20
-4.2107530305517047
30
0
10
21.605873114217921
20
-4.1472058770788029
30
0
10
21.576094061483552
20
-4.0956289956701131
30
0
0
SPLINE
5
813
100
AcDbEntity
8
0
100
AcDbSpline
70
4
71
3
72
8
73
4
74
0
42
0.000000001
43
0.0000000001
44
0.0000000001
40
0
40
0
40
0
40
0
40
1
40
1
40
1
40
1
41
1
41
1
41
1
41
1
10
18.381843344320462
20
-1.1901185701024861
30
0
10
18.352065855611968
20
-1.2416954515111776
30
0
10
18.352065855611968
20
-1.3052418229711378
30
0
10
18.381843344320462
20
-1.3568218324315884
30
0
0
SPLINE
5
814
100
AcDbEntity
8
0
100
AcDbSpline
70
4
71
3
72
8
73
4
74
0
42
0.000000001
43
0.0000000001
44
0.0000000001
40
0
40
0
40
0
40
0
40
1
40
1
40
1
40
1
41
1
41
1
41
1
41
1
10
18.381843344320462
20
-1.3568218324315884
30
0
10
18.411624743093657
20
-1.4083987138402783
30
0
10
18.466658121694728
20
-1.4401734635961372
30
0
10
18.526214663137601
20
-1.4401734635961372
30
0
0
SPLINE
5
815
100
AcDbEntity
8
0
100
AcDbSpline
70
4
71
3
72
8
73
4
74
0
42
0.000000001
43
0.0000000001
44
0.0000000001
40
0
40
0
40
0
40
0
40
1
40
1
40
1
40
1
41
1
41
1
41
1
41
1
10
18.526214663137601
20
-1.4401734635961372
30
0
10
18.585769640554595
20
-1.4401734635961372
30
0
10
18.640804583181549
20
-1.4083987138402783
30
0
10
18.670585981954741
20
-1.3568218324315884
30
0
0
SPLINE
5
816
100
AcDbEntity
8
0
100
AcDbSpline
70
4
71
3
72
8
73
4
74
0
42
0.000000001
43
0.0000000001
44
0.0000000001
40
0
40
0
40
0
40
0
40
1
40
1
40
1
40
1
41
1
41
1
41
1
41
1
10
18.670585981954741
20
-1.3568218324315884
30
0
10
18.700363470663238
20
-1.3052410409581994
30
0
10
18.700363470663238
20
-1.2416954515111776
30
0
10
18.670585981954741
20
-1.1901185701024861
30
0
0
SPLINE
5
817
100
AcDbEntity
8
0
100
AcDbSpline
70
4
71
3
72
8
73
4
74
0
42
0.000000001
43
0.0000000001
44
0.0000000001
40
0
40
0
40
0
40
0
40
1
40
1
40
1
40
1
41
1
41
1
41
1
41
1
10
18.670585981954741
20
-1.1901185701024861
30
0
10
18.640804583181549
20
-1.1385377786290971
30
0
10
18.585769640554595
20
-1.1067669389379344
30
0
10
18.526214663137601
20
-1.1067669389379344
30
0
0
SPLINE
5
818
100
AcDbEntity
8
0
100
AcDbSpline
70
4
71
3
72
8
73
4
74
0
42
0.000000001
43
0.0000000001
44
0.0000000001
40
0
40
0
40
0
40
0
40
1
40
1
40
1
40
1
41
1
41
1
41
1
41
1
10
18.526214663137601
20
-1.1067669389379344
30
0
10
18.466658121694728
20
-1.1067669389379344
30
0
10
18.411624743093657
20
-1.1385377786290971
30
0
10
18.381843344320462
20
-1.1901185701024861
30
0
0
SPLINE
5
819
100
AcDbEntity
8
0
100
AcDbSpline
70
4
71
3
72
8
73
4
74
0
42
0.000000001
43
0.0000000001
44
0.0000000001
40
0
40
0
40
0
40
0
40
1
40
1
40
1
40
1
41
1
41
1
41
1
41
1
10
20.85062222157876
20
-1.1067669389379344
30
0
10
20.791067244161773
20
-1.1067669389379344
30
0
10
20.73603230153482
20
-1.1385377786290971
30
0
10
20.706251684774564
20
-1.1901185701024861
30
0
0
SPLINE
5
820
100
AcDbEntity
8
0
100
AcDbSpline
70
4
71
3
72
8
73
4
74
0
42
0.000000001
43
0.0000000001
44
0.0000000001
40
0
40
0
40
0
40
0
40
1
40
1
40
1
40
1
41
1
41
1
41
1
41
1
10
20.706251684774564
20
-1.1901185701024861
30
0
10
20.676474196066067
20
-1.2416954515111776
30
0
10
20.676474196066067
20
-1.3052418229711378
30
0
10
20.706251684774564
20
-1.3568218324315884
30
0
0
SPLINE
5
821
100
AcDbEntity
8
0
100
AcDbSpline
70
4
71
3
72
8
73
4
74
0
42
0.000000001
43
0.0000000001
44
0.0000000001
40
0
40
0
40
0
40
0
40
1
40
1
40
1
40
1
41
1
41
1
41
1
41
1
10
20.706251684774564
20
-1.3568218324315884
30
0
10
20.73603230153482
20
-1.4083987138402783
30
0
10
20.791067244161773
20
-1.4401734635961372
30
0
10
20.85062222157876
20
-1.4401734635961372
30
0
0
SPLINE
5
822
100
AcDbEntity
8
0
100
AcDbSpline
70
4
71
3
72
8
73
4
74
0
42
0.000000001
43
0.0000000001
44
0.0000000001
40
0
40
0
40
0
40
0
40
1
40
1
40
1
40
1
41
1
41
1
41
1
41
1
10
20.85062222157876
20
-1.4401734635961372
30
0
10
20.910178763021634
20
-1.4401734635961372
30
0
10
20.965212141622708
20
-1.4083987138402783
30
0
10
20.994992758382963
20
-1.3568218324315884
30
0
0
SPLINE
5
823
100
AcDbEntity
8
0
100
AcDbSpline
70
4
71
3
72
8
73
4
74
0
42
0.000000001
43
0.0000000001
44
0.0000000001
40
0
40
0
40
0
40
0
40
1
40
1
40
1
40
1
41
1
41
1
41
1
41
1
10
20.994992758382963
20
-1.3568218324315884
30
0
10
21.02477024709146
20
-1.3052410409581994
30
0
10
21.02477024709146
20
-1.2416954515111776
30
0
10
20.994992758382963
20
-1.1901185701024861
30
0
0
SPLINE
5
824
100
AcDbEntity
8
0
100
AcDbSpline
70
4
71
3
72
8
73
4
74
0
42
0.000000001
43
0.0000000001
44
0.0000000001
40
0
40
0
40
0
40
0
40
1
40
1
40
1
40
1
41
1
41
1
41
1
41
1
10
20.994992758382963
20
-1.1901185701024861
30
0
10
20.965212141622708
20
-1.1385377786290971
30
0
10
20.910177198995754
20
-1.1067669389379344
30
0
10
20.85062222157876
20
-1.1067669389379344
30
0
0
SPLINE
5
825
100
AcDbEntity
8
0
100
AcDbSpline
70
4
71
3
72
8
73
4
74
0
42
0.000000001
43
0.0000000001
44
0.0000000001
40
0
40
0
40
0
40
0
40
1
40
1
40
1
40
1
41
1
41
1
41
1
41
1
10
20.125150381673979
20
-1.1901185701024861
30
0
10
20.095372892965482
20
-1.2416954515111776
30
0
10
20.095372892965482
20
-1.3052418229711378
30
0
10
20.125150381673979
20
-1.3568218324315884
30
0
0
SPLINE
5
826
100
AcDbEntity
8
0
100
AcDbSpline
70
4
71
3
72
8
73
4
74
0
42
0.000000001
43
0.0000000001
44
0.0000000001
40
0
40
0
40
0
40
0
40
1
40
1
40
1
40
1
41
1
41
1
41
1
41
1
10
20.125150381673979
20
-1.3568218324315884
30
0
10
20.154930998434232
20
-1.4083987138402783
30
0
10
20.209965941061185
20
-1.4401734635961372
30
0
10
20.269520918478179
20
-1.4401734635961372
30
0
0
SPLINE
5
827
100
AcDbEntity
8
0
100
AcDbSpline
70
4
71
3
72
8
73
4
74
0
42
0.000000001
43
0.0000000001
44
0.0000000001
40
0
40
0
40
0
40
0
40
1
40
1
40
1
40
1
41
1
41
1
41
1
41
1
10
20.269520918478179
20
-1.4401734635961372
30
0
10
20.329075895895169
20
-1.4401734635961372
30
0
10
20.384110838522123
20
-1.4083987138402783
30
0
10
20.413891455282375
20
-1.3568218324315884
30
0
0
SPLINE
5
828
100
AcDbEntity
8
0
100
AcDbSpline
70
4
71
3
72
8
73
4
74
0
42
0.000000001
43
0.0000000001
44
0.0000000001
40
0
40
0
40
0
40
0
40
1
40
1
40
1
40
1
41
1
41
1
41
1
41
1
10
20.413891455282375
20
-1.3568218324315884
30
0
10
20.443668943990872
20
-1.3052410409581994
30
0
10
20.443668943990872
20
-1.2416954515111776
30
0
10
20.413891455282375
20
-1.1901185701024861
30
0
0
SPLINE
5
829
100
AcDbEntity
8
0
100
AcDbSpline
70
4
71
3
72
8
73
4
74
0
42
0.000000001
43
0.0000000001
44
0.0000000001
40
0
40
0
40
0
40
0
40
1
40
1
40
1
40
1
41
1
41
1
41
1
41
1
10
20.413891455282375
20
-1.1901185701024861
30
0
10
20.384110838522123
20
-1.1385377786290971
30
0
10
20.329075895895169
20
-1.1067669389379344
30
0
10
20.269520918478179
20
-1.1067669389379344
30
0
0
SPLINE
5
830
100
AcDbEntity
8
0
100
AcDbSpline
70
4
71
3
72
8
73
4
74
0
42
0.000000001
43
0.0000000001
44
0.0000000001
40
0
40
0
40
0
40
0
40
1
40
1
40
1
40
1
41
1
41
1
41
1
41
1
10
20.269520918478179
20
-1.1067669389379344
30
0
10
20.209964377035305
20
-1.1067669389379344
30
0
10
20.154930998434232
20
-1.1385377786290971
30
0
10
20.125150381673979
20
-1.1901185701024861
30
0
0
SPLINE
5
831
100
AcDbEntity
8
0
100
AcDbSpline
70
4
71
3
72
8
73
4
74
0
42
0.000000001
43
0.0000000001
44
0.0000000001
40
0
40
0
40
0
40
0
40
1
40
1
40
1
40
1
41
1
41
1
41
1
41
1
10
21.576094061483552
20
-2.9334256074560017
30
0
10
21.546313444723296
20
-2.8818448159826113
30
0
10
21.491278502096343
20
-2.8500739762914513
30
0
10
21.431723524679349
20
-2.8500739762914513
30
0
0
SPLINE
5
832
100
AcDbEntity
8
0
100
AcDbSpline
70
4
71
3
72
8
73
4
74
0
42
0.000000001
43
0.0000000001
44
0.0000000001
40
0
40
0
40
0
40
0
40
1
40
1
40
1
40
1
41
1
41
1
41
1
41
1
10
21.431723524679349
20
-2.8500739762914513
30
0
10
21.372168547262355
20
-2.8500739762914513
30
0
10
21.317135168661281
20
-2.8818448159826113
30
0
10
21.287352987875146
20
-2.9334256074560017
30
0
0
SPLINE
5
833
100
AcDbEntity
8
0
100
AcDbSpline
70
4
71
3
72
8
73
4
74
0
42
0.000000001
43
0.0000000001
44
0.0000000001
40
0
40
0
40
0
40
0
40
1
40
1
40
1
40
1
41
1
41
1
41
1
41
1
10
21.287352987875146
20
-2.9334256074560017
30
0
10
21.257575499166656
20
-2.9850024888646933
30
0
10
21.257575499166656
20
-3.0485488603246544
30
0
10
21.287352987875146
20
-3.1001288697851024
30
0
0
SPLINE
5
834
100
AcDbEntity
8
0
100
AcDbSpline
70
4
71
3
72
8
73
4
74
0
42
0.000000001
43
0.0000000001
44
0.0000000001
40
0
40
0
40
0
40
0
40
1
40
1
40
1
40
1
41
1
41
1
41
1
41
1
10
21.287352987875146
20
-3.1001288697851024
30
0
10
21.317135168661281
20
-3.151705751193794
30
0
10
21.372168547262355
20
-3.1834805009496541
30
0
10
21.431723524679349
20
-3.1834805009496541
30
0
0
SPLINE
5
835
100
AcDbEntity
8
0
100
AcDbSpline
70
4
71
3
72
8
73
4
74
0
42
0.000000001
43
0.0000000001
44
0.0000000001
40
0
40
0
40
0
40
0
40
1
40
1
40
1
40
1
41
1
41
1
41
1
41
1
10
21.431723524679349
20
-3.1834805009496541
30
0
10
21.491280066122222
20
-3.1834805009496541
30
0
10
21.546313444723296
20
-3.151705751193794
30
0
10
21.576094061483552
20
-3.1001288697851024
30
0
0
SPLINE
5
836
100
AcDbEntity
8
0
100
AcDbSpline
70
4
71
3
72
8
73
4
74
0
42
0.000000001
43
0.0000000001
44
0.0000000001
40
0
40
0
40
0
40
0
40
1
40
1
40
1
40
1
41
1
41
1
41
1
41
1
10
21.576094061483552
20
-3.1001288697851024
30
0
10
21.605873114217921
20
-3.0485480783117134
30
0
10
21.605873114217921
20
-2.9850024888646933
30
0
10
21.576094061483552
20
-2.9334256074560017
30
0
0
SPLINE
5
837
100
AcDbEntity
8
0
100
AcDbSpline
70
4
71
3
72
8
73
4
74
0
42
0.000000001
43
0.0000000001
44
0.0000000001
40
0
40
0
40
0
40
0
40
1
40
1
40
1
40
1
41
1
41
1
41
1
41
1
10
21.431723524679349
20
-1.1067669389379344
30
0
10
21.372168547262355
20
-1.1067669389379344
30
0
10
21.317135168661281
20
-1.1385377786290971
30
0
10
21.287352987875146
20
-1.1901185701024861
30
0
0
SPLINE
5
838
100
AcDbEntity
8
0
100
AcDbSpline
70
4
71
3
72
8
73
4
74
0
42
0.000000001
43
0.0000000001
44
0.0000000001
40
0
40
0
40
0
40
0
40
1
40
1
40
1
40
1
41
1
41
1
41
1
41
1
10
21.287352987875146
20
-1.1901185701024861
30
0
10
21.257575499166656
20
-1.2416954515111776
30
0
10
21.257575499166656
20
-1.3052418229711378
30
0
10
21.287352987875146
20
-1.3568218324315884
30
0
0
SPLINE
5
839
100
AcDbEntity
8
0
100
AcDbSpline
70
4
71
3
72
8
73
4
74
0
42
0.000000001
43
0.0000000001
44
0.0000000001
40
0
40
0
40
0
40
0
40
1
40
1
40
1
40
1
41
1
41
1
41
1
41
1
10
21.287352987875146
20
-1.3568218324315884
30
0
10
21.317135168661281
20
-1.4083987138402783
30
0
10
21.372168547262355
20
-1.4401734635961372
30
0
10
21.431723524679349
20
-1.4401734635961372
30
0
0
SPLINE
5
840
100
AcDbEntity
8
0
100
AcDbSpline
70
4
71
3
72
8
73
4
74
0
42
0.000000001
43
0.0000000001
44
0.0000000001
40
0
40
0
40
0
40
0
40
1
40
1
40
1
40
1
41
1
41
1
41
1
41
1
10
21.431723524679349
20
-1.4401734635961372
30
0
10
21.491280066122222
20
-1.4401734635961372
30
0
10
21.546313444723296
20
-1.4083987138402783
30
0
10
21.576094061483552
20
-1.3568218324315884
30
0
0
SPLINE
5
841
100
AcDbEntity
8
0
100
AcDbSpline
70
4
71
3
72
8
73
4
74
0
42
0.000000001
43
0.0000000001
44
0.0000000001
40
0
40
0
40
0
40
0
40
1
40
1
40
1
40
1
41
1
41
1
41
1
41
1
10
21.576094061483552
20
-1.3568218324315884
30
0
10
21.605873114217921
20
-1.3052410409581994
30
0
10
21.605873114217921
20
-1.2416954515111776
30
0
10
21.576094061483552
20
-1.1901185701024861
30
0
0
SPLINE
5
842
100
AcDbEntity
8
0
100
AcDbSpline
70
4
71
3
72
8
73
4
74
0
42
0.000000001
43
0.0000000001
44
0.0000000001
40
0
40
0
40
0
40
0
40
1
40
1
40
1
40
1
41
1
41
1
41
1
41
1
10
21.576094061483552
20
-1.1901185701024861
30
0
10
21.546313444723296
20
-1.1385377786290971
30
0
10
21.491278502096343
20
-1.1067669389379344
30
0
10
21.431723524679349
20
-1.1067669389379344
30
0
0
SPLINE
5
843
100
AcDbEntity
8
0
100
AcDbSpline
70
4
71
3
72
8
73
4
74
0
42
0.000000001
43
0.0000000001
44
0.0000000001
40
0
40
0
40
0
40
0
40
1
40
1
40
1
40
1
41
1
41
1
41
1
41
1
10
21.431723524679349
20
-2.2689703271520458
30
0
10
21.372168547262355
20
-2.2689703271520458
30
0
10
21.317135168661281
20
-2.3007427308690871
30
0
10
21.287352987875146
20
-2.3523235223424774
30
0
0
SPLINE
5
844
100
AcDbEntity
8
0
100
AcDbSpline
70
4
71
3
72
8
73
4
74
0
42
0.000000001
43
0.0000000001
44
0.0000000001
40
0
40
0
40
0
40
0
40
1
40
1
40
1
40
1
41
1
41
1
41
1
41
1
10
21.287352987875146
20
-2.3523235223424774
30
0
10
21.257575499166656
20
-2.4038988397252892
30
0
10
21.257575499166656
20
-2.4674467752111275
30
0
10
21.287352987875146
20
-2.5190267846715768
30
0
0
SPLINE
5
845
100
AcDbEntity
8
0
100
AcDbSpline
70
4
71
3
72
8
73
4
74
0
42
0.000000001
43
0.0000000001
44
0.0000000001
40
0
40
0
40
0
40
0
40
1
40
1
40
1
40
1
41
1
41
1
41
1
41
1
10
21.287352987875146
20
-2.5190267846715768
30
0
10
21.317135168661281
20
-2.5706036660802694
30
0
10
21.372168547262355
20
-2.6023784158361285
30
0
10
21.431723524679349
20
-2.6023784158361285
30
0
0
SPLINE
5
846
100
AcDbEntity
8
0
100
AcDbSpline
70
4
71
3
72
8
73
4
74
0
42
0.000000001
43
0.0000000001
44
0.0000000001
40
0
40
0
40
0
40
0
40
1
40
1
40
1
40
1
41
1
41
1
41
1
41
1
10
21.431723524679349
20
-2.6023784158361285
30
0
10
21.491280066122222
20
-2.6023784158361285
30
0
10
21.546313444723296
20
-2.5706036660802694
30
0
10
21.576094061483552
20
-2.5190267846715768
30
0
0
SPLINE
5
847
100
AcDbEntity
8
0
100
AcDbSpline
70
4
71
3
72
8
73
4
74
0
42
0.000000001
43
0.0000000001
44
0.0000000001
40
0
40
0
40
0
40
0
40
1
40
1
40
1
40
1
41
1
41
1
41
1
41
1
10
21.576094061483552
20
-2.5190267846715768
30
0
10
21.605873114217921
20
-2.4674459931981891
30
0
10
21.605873114217921
20
-2.4038988397252892
30
0
10
21.576094061483552
20
-2.3523235223424774
30
0
0
SPLINE
5
848
100
AcDbEntity
8
0
100
AcDbSpline
70
4
71
3
72
8
73
4
74
0
42
0.000000001
43
0.0000000001
44
0.0000000001
40
0
40
0
40
0
40
0
40
1
40
1
40
1
40
1
41
1
41
1
41
1
41
1
10
21.576094061483552
20
-2.3523235223424774
30
0
10
21.546313444723296
20
-2.3007427308690871
30
0
10
21.491278502096343
20
-2.2689703271520458
30
0
10
21.431723524679349
20
-2.2689703271520458
30
0
0
SPLINE
5
849
100
AcDbEntity
8
0
100
AcDbSpline
70
4
71
3
72
8
73
4
74
0
42
0.000000001
43
0.0000000001
44
0.0000000001
40
0
40
0
40
0
40
0
40
1
40
1
40
1
40
1
41
1
41
1
41
1
41
1
10
21.431723524679349
20
-1.68786902405146
30
0
10
21.372168547262355
20
-1.68786902405146
30
0
10
21.317135168661281
20
-1.7196414277685024
30
0
10
21.287352987875146
20
-1.7712206552160106
30
0
0
SPLINE
5
850
100
AcDbEntity
8
0
100
AcDbSpline
70
4
71
3
72
8
73
4
74
0
42
0.000000001
43
0.0000000001
44
0.0000000001
40
0
40
0
40
0
40
0
40
1
40
1
40
1
40
1
41
1
41
1
41
1
41
1
10
21.287352987875146
20
-1.7712206552160106
30
0
10
21.257575499166656
20
-1.8227975366247033
30
0
10
21.257575499166656
20
-1.8863446900976018
30
0
10
21.287352987875146
20
-1.9379239175451126
30
0
0
SPLINE
5
851
100
AcDbEntity
8
0
100
AcDbSpline
70
4
71
3
72
8
73
4
74
0
42
0.000000001
43
0.0000000001
44
0.0000000001
40
0
40
0
40
0
40
0
40
1
40
1
40
1
40
1
41
1
41
1
41
1
41
1
10
21.287352987875146
20
-1.9379239175451126
30
0
10
21.317135168661281
20
-1.9895007989538054
30
0
10
21.372168547262355
20
-2.0212771127355427
30
0
10
21.431723524679349
20
-2.0212771127355427
30
0
0
SPLINE
5
852
100
AcDbEntity
8
0
100
AcDbSpline
70
4
71
3
72
8
73
4
74
0
42
0.000000001
43
0.0000000001
44
0.0000000001
40
0
40
0
40
0
40
0
40
1
40
1
40
1
40
1
41
1
41
1
41
1
41
1
10
21.431723524679349
20
-2.0212771127355427
30
0
10
21.491280066122222
20
-2.0212771127355427
30
0
10
21.546313444723296
20
-1.9895007989538054
30
0
10
21.576094061483552
20
-1.9379239175451126
30
0
0
SPLINE
5
853
100
AcDbEntity
8
0
100
AcDbSpline
70
4
71
3
72
8
73
4
74
0
42
0.000000001
43
0.0000000001
44
0.0000000001
40
0
40
0
40
0
40
0
40
1
40
1
40
1
40
1
41
1
41
1
41
1
41
1
10
21.576094061483552
20
-1.9379239175451126
30
0
10
21.605873114217921
20
-1.8863446900976018
30
0
10
21.605873114217921
20
-1.8227975366247033
30
0
10
21.576094061483552
20
-1.7712206552160106
30
0
0
SPLINE
5
854
100
AcDbEntity
8
0
100
AcDbSpline
70
4
71
3
72
8
73
4
74
0
42
0.000000001
43
0.0000000001
44
0.0000000001
40
0
40
0
40
0
40
0
40
1
40
1
40
1
40
1
41
1
41
1
41
1
41
1
10
21.576094061483552
20
-1.7712206552160106
30
0
10
21.546313444723296
20
-1.7196414277685024
30
0
10
21.491278502096343
20
-1.68786902405146
30
0
10
21.431723524679349
20
-1.68786902405146
30
0
0
SPLINE
5
855
100
AcDbEntity
8
0
100
AcDbSpline
70
4
71
3
72
8
73
4
74
0
42
0.000000001
43
0.0000000001
44
0.0000000001
40
0
40
0
40
0
40
0
40
1
40
1
40
1
40
1
41
1
41
1
41
1
41
1
10
21.431723524679349
20
-3.4311752793920371
30
0
10
21.372168547262355
20
-3.4311752793920371
30
0
10
21.317135168661281
20
-3.4629461190831998
30
0
10
21.287352987875146
20
-3.5145269105565862
30
0
0
SPLINE
5
856
100
AcDbEntity
8
0
100
AcDbSpline
70
4
71
3
72
8
73
4
74
0
42
0.000000001
43
0.0000000001
44
0.0000000001
40
0
40
0
40
0
40
0
40
1
40
1
40
1
40
1
41
1
41
1
41
1
41
1
10
21.287352987875146
20
-3.5145269105565862
30
0
10
21.257575499166656
20
-3.5661037919652792
30
0
10
21.257575499166656
20
-3.6296509454381791
30
0
10
21.287352987875146
20
-3.6812301728856882
30
0
0
SPLINE
5
857
100
AcDbEntity
8
0
100
AcDbSpline
70
4
71
3
72
8
73
4
74
0
42
0.000000001
43
0.0000000001
44
0.0000000001
40
0
40
0
40
0
40
0
40
1
40
1
40
1
40
1
41
1
41
1
41
1
41
1
10
21.287352987875146
20
-3.6812301728856882
30
0
10
21.317135168661281
20
-3.7328070542943812
30
0
10
21.372168547262355
20
-3.7645818040502403
30
0
10
21.431723524679349
20
-3.7645818040502403
30
0
0
SPLINE
5
858
100
AcDbEntity
8
0
100
AcDbSpline
70
4
71
3
72
8
73
4
74
0
42
0.000000001
43
0.0000000001
44
0.0000000001
40
0
40
0
40
0
40
0
40
1
40
1
40
1
40
1
41
1
41
1
41
1
41
1
10
21.431723524679349
20
-3.7645818040502403
30
0
10
21.491280066122222
20
-3.7645818040502403
30
0
10
21.546313444723296
20
-3.7328070542943812
30
0
10
21.576094061483552
20
-3.6812301728856882
30
0
0
SPLINE
5
859
100
AcDbEntity
8
0
100
AcDbSpline
70
4
71
3
72
8
73
4
74
0
42
0.000000001
43
0.0000000001
44
0.0000000001
40
0
40
0
40
0
40
0
40
1
40
1
40
1
40
1
41
1
41
1
41
1
41
1
10
21.576094061483552
20
-3.6812301728856882
30
0
10
21.605873114217921
20
-3.6296509454381791
30
0
10
21.605873114217921
20
-3.5661037919652792
30
0
10
21.576094061483552
20
-3.5145269105565862
30
0
0
SPLINE
5
860
100
AcDbEntity
8
0
100
AcDbSpline
70
4
71
3
72
8
73
4
74
0
42
0.000000001
43
0.0000000001
44
0.0000000001
40
0
40
0
40
0
40
0
40
1
40
1
40
1
40
1
41
1
41
1
41
1
41
1
10
21.576094061483552
20
-3.5145269105565862
30
0
10
21.546313444723296
20
-3.4629461190831998
30
0
10
21.491278502096343
20
-3.4311752793920371
30
0
10
21.431723524679349
20
-3.4311752793920371
30
0
0
SPLINE
5
861
100
AcDbEntity
8
0
100
AcDbSpline
70
4
71
3
72
8
73
4
74
0
42
0.000000001
43
0.0000000001
44
0.0000000001
40
0
40
0
40
0
40
0
40
1
40
1
40
1
40
1
41
1
41
1
41
1
41
1
10
19.544048296560451
20
-1.1901185701024861
30
0
10
19.514269243826078
20
-1.2416954515111776
30
0
10
19.514269243826078
20
-1.3052418229711378
30
0
10
19.544048296560451
20
-1.3568218324315884
30
0
0
SPLINE
5
862
100
AcDbEntity
8
0
100
AcDbSpline
70
4
71
3
72
8
73
4
74
0
42
0.000000001
43
0.0000000001
44
0.0000000001
40
0
40
0
40
0
40
0
40
1
40
1
40
1
40
1
41
1
41
1
41
1
41
1
10
19.544048296560451
20
-1.3568218324315884
30
0
10
19.573829695333647
20
-1.4083987138402783
30
0
10
19.628863073934721
20
-1.4401734635961372
30
0
10
19.688419615377587
20
-1.4401734635961372
30
0
0
SPLINE
5
863
100
AcDbEntity
8
0
100
AcDbSpline
70
4
71
3
72
8
73
4
74
0
42
0.000000001
43
0.0000000001
44
0.0000000001
40
0
40
0
40
0
40
0
40
1
40
1
40
1
40
1
41
1
41
1
41
1
41
1
10
19.688419615377587
20
-1.4401734635961372
30
0
10
19.747974592794581
20
-1.4401734635961372
30
0
10
19.803007971395655
20
-1.4083987138402783
30
0
10
19.83279093419473
20
-1.3568218324315884
30
0
0
SPLINE
5
864
100
AcDbEntity
8
0
100
AcDbSpline
70
4
71
3
72
8
73
4
74
0
42
0.000000001
43
0.0000000001
44
0.0000000001
40
0
40
0
40
0
40
0
40
1
40
1
40
1
40
1
41
1
41
1
41
1
41
1
10
19.83279093419473
20
-1.3568218324315884
30
0
10
19.862568422903227
20
-1.3052410409581994
30
0
10
19.862568422903227
20
-1.2416954515111776
30
0
10
19.83279093419473
20
-1.1901185701024861
30
0
0
SPLINE
5
865
100
AcDbEntity
8
0
100
AcDbSpline
70
4
71
3
72
8
73
4
74
0
42
0.000000001
43
0.0000000001
44
0.0000000001
40
0
40
0
40
0
40
0
40
1
40
1
40
1
40
1
41
1
41
1
41
1
41
1
10
19.83279093419473
20
-1.1901185701024861
30
0
10
19.803007971395655
20
-1.1385377786290971
30
0
10
19.747974592794581
20
-1.1067669389379344
30
0
10
19.688419615377587
20
-1.1067669389379344
30
0
0
SPLINE
5
866
100
AcDbEntity
8
0
100
AcDbSpline
70
4
71
3
72
8
73
4
74
0
42
0.000000001
43
0.0000000001
44
0.0000000001
40
0
40
0
40
0
40
0
40
1
40
1
40
1
40
1
41
1
41
1
41
1
41
1
10
19.688419615377587
20
-1.1067669389379344
30
0
10
19.628863073934721
20
-1.1067669389379344
30
0
10
19.573829695333647
20
-1.1385377786290971
30
0
10
19.544048296560451
20
-1.1901185701024861
30
0
0
LWPOLYLINE
5
867
100
AcDbEntity
8
0
100
AcDbPolyline
90
28
70
1
43
0.0
10
22.036802908529445
20
-5.185474290622504
10
21.857121359457182
20
-5.3651558396947712
10
17.519722563375634
20
-5.3651558396947712
10
17.340042578329253
20
-5.1854742906225066
10
17.34004257832925
20
-4.4150539109838354
10
17.336772982229395
20
-4.4150539109838318
10
17.336772982229398
20
-4.4117843148839793
10
17.265490938772366
20
-4.4117843148839802
10
17.049491144766019
20
-4.1957845208776323
10
17.049491144766019
20
-1.8377629182470179
10
17.265487028707671
20
-1.6217670343053674
10
17.336772982229402
20
-1.6217670343053661
10
17.336772982229402
20
-1.6184974382055113
10
17.340042578329257
20
-1.6184974382055128
10
17.340042578329253
20
-0.8480731485021451
10
17.519718653310946
20
-0.66839550949457482
10
21.85712605153482
20
-0.66839550949457716
10
22.036802908529449
20
-0.8480731485021451
10
22.036802908529445
20
-1.6184974382055128
10
22.040073286642237
20
-1.6184974382055128
10
22.04007328664224
20
-1.6217670343053674
10
23.841360022176907
20
-1.6217670343053665
10
24.057355124105626
20
-1.8377629182470179
10
24.057355124105623
20
-4.1957845208776341
10
23.841355330099272
20
-4.4117843148839819
10
22.040073286642244
20
-4.411784314883981
10
22.040073286642237
20
-4.4150539109838354
10
22.036802908529449
20
-4.4150539109838318
0
CIRCLE
5
868
100
AcDbEntity
8
0
100
AcDbCircle
10
24.494754135251984
20
-11.413787021160031
30
0
40
0.18750000000000008
210
-0
220
0
230
1
0
LWPOLYLINE
5
869
100
AcDbEntity
8
0
100
AcDbPolyline
90
32
70
1
43
0.0
10
23.333882019011718
20
-10.976751356650524
10
22.326050827146517
20
-10.976751356650524
10
22.146373970151888
20
-10.797073717642956
10
22.146373970151888
20
-10.062967672873668
10
22.143103592039093
20
-10.062967672873668
10
22.143103592039097
20
-10.059698858786755
10
22.071970131040558
20
-10.059698858786755
10
21.855821754575715
20
-9.8075258832465941
10
21.855821754575715
20
-7.4492161088477911
10
22.071970131040558
20
-7.1970431333076288
10
22.143103592039093
20
-7.1970431333076288
10
22.143103592039097
20
-7.193774710227185
10
22.146373970151888
20
-7.193774710227185
10
22.146373970151888
20
-6.0414135570917766
10
22.326050827146517
20
-5.8617361135874431
10
26.663457443357455
20
-5.8617361135874431
10
26.843133518339148
20
-6.0414135570917766
10
26.843133518339144
20
-7.193774710227185
10
26.846402332426056
20
-7.193774710227185
10
26.846402332426056
20
-7.1970431333076297
10
26.917537357450474
20
-7.1970431333076297
10
27.133685733915314
20
-7.449216108847792
10
27.133685733915314
20
-9.8075258832465924
10
26.91753735745047
20
-10.059698858786755
10
26.846402332426056
20
-10.059698858786755
10
26.846402332426056
20
-10.062967672873668
10
26.843133518339144
20
-10.062967672873668
10
26.843133518339144
20
-10.797073717642956
10
26.663457443357451
20
-10.976751356650524
10
25.655626251492606
20
-10.976751356650313
42
0.37392935622630719
10
25.061452325221083
20
-11.49334065386425
42
-0.86942437958449181
10
23.928055945282889
20
-11.493340653864276
42
0.37392935622619405
0
SPLINE
5
870
100
AcDbEntity
8
0
100
AcDbSpline
70
4
71
3
72
8
73
4
74
0
42
0.000000001
43
0.0000000001
44
0.0000000001
40
0
40
0
40
0
40
0
40
1
40
1
40
1
40
1
41
1
41
1
41
1
41
1
10
26.457980150538152
20
-1.9473356176361396
30
0
10
26.406400141077707
20
-1.9175581289276413
30
0
10
26.342853769617751
20
-1.9175581289276413
30
0
10
26.291276888209058
20
-1.9473356176361396
30
0
0
SPLINE
5
871
100
AcDbEntity
8
0
100
AcDbSpline
70
4
71
3
72
8
73
4
74
0
42
0.000000001
43
0.0000000001
44
0.0000000001
40
0
40
0
40
0
40
0
40
1
40
1
40
1
40
1
41
1
41
1
41
1
41
1
10
26.291276888209058
20
-1.9473356176361396
30
0
10
26.239696878748607
20
-1.9771170164093315
30
0
10
26.207925257044504
20
-2.0321519590362853
30
0
10
26.207925257044504
20
-2.0917069364532761
30
0
0
SPLINE
5
872
100
AcDbEntity
8
0
100
AcDbSpline
70
4
71
3
72
8
73
4
74
0
42
0.000000001
43
0.0000000001
44
0.0000000001
40
0
40
0
40
0
40
0
40
1
40
1
40
1
40
1
41
1
41
1
41
1
41
1
10
26.207925257044504
20
-2.0917069364532761
30
0
10
26.207925257044504
20
-2.1512634778961495
30
0
10
26.239696878748607
20
-2.2062968564972221
30
0
10
26.291276888209058
20
-2.236078255270415
30
0
0
SPLINE
5
873
100
AcDbEntity
8
0
100
AcDbSpline
70
4
71
3
72
8
73
4
74
0
42
0.000000001
43
0.0000000001
44
0.0000000001
40
0
40
0
40
0
40
0
40
1
40
1
40
1
40
1
41
1
41
1
41
1
41
1
10
26.291276888209058
20
-2.236078255270415
30
0
10
26.342853769617751
20
-2.2658573080047901
30
0
10
26.406400141077707
20
-2.2658573080047901
30
0
10
26.457980150538152
20
-2.236078255270415
30
0
0
SPLINE
5
874
100
AcDbEntity
8
0
100
AcDbSpline
70
4
71
3
72
8
73
4
74
0
42
0.000000001
43
0.0000000001
44
0.0000000001
40
0
40
0
40
0
40
0
40
1
40
1
40
1
40
1
41
1
41
1
41
1
41
1
10
26.457980150538152
20
-2.236078255270415
30
0
10
26.509557031946844
20
-2.2062968564972221
30
0
10
26.541331781702706
20
-2.1512634778961495
30
0
10
26.541331781702706
20
-2.0917069364532761
30
0
0
SPLINE
5
875
100
AcDbEntity
8
0
100
AcDbSpline
70
4
71
3
72
8
73
4
74
0
42
0.000000001
43
0.0000000001
44
0.0000000001
40
0
40
0
40
0
40
0
40
1
40
1
40
1
40
1
41
1
41
1
41
1
41
1
10
26.541331781702706
20
-2.0917069364532761
30
0
10
26.541331781702706
20
-2.0321519590362853
30
0
10
26.509557031946844
20
-1.9771170164093315
30
0
10
26.457980150538152
20
-1.9473356176361396
30
0
0
SPLINE
5
876
100
AcDbEntity
8
0
100
AcDbSpline
70
4
71
3
72
8
73
4
74
0
42
0.000000001
43
0.0000000001
44
0.0000000001
40
0
40
0
40
0
40
0
40
1
40
1
40
1
40
1
41
1
41
1
41
1
41
1
10
27.453479494410228
20
-1.3662335325226125
30
0
10
27.401899484949784
20
-1.396014931295807
30
0
10
27.370127863245681
20
-1.4510498739227593
30
0
10
27.370127863245681
20
-1.5106048513397519
30
0
0
SPLINE
5
877
100
AcDbEntity
8
0
100
AcDbSpline
70
4
71
3
72
8
73
4
74
0
42
0.000000001
43
0.0000000001
44
0.0000000001
40
0
40
0
40
0
40
0
40
1
40
1
40
1
40
1
41
1
41
1
41
1
41
1
10
27.370127863245681
20
-1.5106048513397519
30
0
10
27.370127863245681
20
-1.5701613927826223
30
0
10
27.401901048975652
20
-1.6251947713836978
30
0
10
27.453479494410225
20
-1.6549761701568895
30
0
0
SPLINE
5
878
100
AcDbEntity
8
0
100
AcDbSpline
70
4
71
3
72
8
73
4
74
0
42
0.000000001
43
0.0000000001
44
0.0000000001
40
0
40
0
40
0
40
0
40
1
40
1
40
1
40
1
41
1
41
1
41
1
41
1
10
27.453479494410225
20
-1.6549761701568895
30
0
10
27.505056375818917
20
-1.6847536588653877
30
0
10
27.56860431130476
20
-1.6847536588653877
30
0
10
27.620184320765212
20
-1.6549761701568895
30
0
0
SPLINE
5
879
100
AcDbEntity
8
0
100
AcDbSpline
70
4
71
3
72
8
73
4
74
0
42
0.000000001
43
0.0000000001
44
0.0000000001
40
0
40
0
40
0
40
0
40
1
40
1
40
1
40
1
41
1
41
1
41
1
41
1
10
27.620184320765212
20
-1.6549761701568895
30
0
10
27.671759638148021
20
-1.6251947713836978
30
0
10
27.703535951929762
20
-1.5701613927826223
30
0
10
27.703535951929762
20
-1.5106048513397519
30
0
0
SPLINE
5
880
100
AcDbEntity
8
0
100
AcDbSpline
70
4
71
3
72
8
73
4
74
0
42
0.000000001
43
0.0000000001
44
0.0000000001
40
0
40
0
40
0
40
0
40
1
40
1
40
1
40
1
41
1
41
1
41
1
41
1
10
27.703535951929762
20
-1.5106048513397519
30
0
10
27.703535951929762
20
-1.4510498739227593
30
0
10
27.671759638148021
20
-1.396014931295807
30
0
10
27.620184320765212
20
-1.3662335325226125
30
0
0
SPLINE
5
881
100
AcDbEntity
8
0
100
AcDbSpline
70
4
71
3
72
8
73
4
74
0
42
0.000000001
43
0.0000000001
44
0.0000000001
40
0
40
0
40
0
40
0
40
1
40
1
40
1
40
1
41
1
41
1
41
1
41
1
10
27.620184320765212
20
-1.3662335325226125
30
0
10
27.56860431130476
20
-1.3364560438141171
30
0
10
27.505056375818921
20
-1.3364560438141171
30
0
10
27.453479494410228
20
-1.3662335325226125
30
0
0
SPLINE
5
882
100
AcDbEntity
8
0
100
AcDbSpline
70
4
71
3
72
8
73
4
74
0
42
0.000000001
43
0.0000000001
44
0.0000000001
40
0
40
0
40
0
40
0
40
1
40
1
40
1
40
1
41
1
41
1
41
1
41
1
10
27.620184320765212
20
-1.9473356176361396
30
0
10
27.56860431130476
20
-1.9175581289276413
30
0
10
27.505056375818917
20
-1.9175581289276413
30
0
10
27.453479494410225
20
-1.9473356176361396
30
0
0
SPLINE
5
883
100
AcDbEntity
8
0
100
AcDbSpline
70
4
71
3
72
8
73
4
74
0
42
0.000000001
43
0.0000000001
44
0.0000000001
40
0
40
0
40
0
40
0
40
1
40
1
40
1
40
1
41
1
41
1
41
1
41
1
10
27.453479494410225
20
-1.9473356176361396
30
0
10
27.40189948494978
20
-1.9771170164093315
30
0
10
27.370127863245678
20
-2.0321519590362853
30
0
10
27.370127863245678
20
-2.0917069364532761
30
0
0
SPLINE
5
884
100
AcDbEntity
8
0
100
AcDbSpline
70
4
71
3
72
8
73
4
74
0
42
0.000000001
43
0.0000000001
44
0.0000000001
40
0
40
0
40
0
40
0
40
1
40
1
40
1
40
1
41
1
41
1
41
1
41
1
10
27.370127863245678
20
-2.0917069364532761
30
0
10
27.370127863245678
20
-2.1512634778961495
30
0
10
27.401901048975652
20
-2.2062968564972221
30
0
10
27.453479494410225
20
-2.236078255270415
30
0
0
SPLINE
5
885
100
AcDbEntity
8
0
100
AcDbSpline
70
4
71
3
72
8
73
4
74
0
42
0.000000001
43
0.0000000001
44
0.0000000001
40
0
40
0
40
0
40
0
40
1
40
1
40
1
40
1
41
1
41
1
41
1
41
1
10
27.453479494410225
20
-2.236078255270415
30
0
10
27.505056375818917
20
-2.2658573080047901
30
0
10
27.56860431130476
20
-2.2658573080047901
30
0
10
27.620184320765212
20
-2.236078255270415
30
0
0
SPLINE
5
886
100
AcDbEntity
8
0
100
AcDbSpline
70
4
71
3
72
8
73
4
74
0
42
0.000000001
43
0.0000000001
44
0.0000000001
40
0
40
0
40
0
40
0
40
1
40
1
40
1
40
1
41
1
41
1
41
1
41
1
10
27.620184320765212
20
-2.236078255270415
30
0
10
27.671759638148021
20
-2.2062968564972221
30
0
10
27.703535951929759
20
-2.1512634778961495
30
0
10
27.703535951929759
20
-2.0917069364532761
30
0
0
SPLINE
5
887
100
AcDbEntity
8
0
100
AcDbSpline
70
4
71
3
72
8
73
4
74
0
42
0.000000001
43
0.0000000001
44
0.0000000001
40
0
40
0
40
0
40
0
40
1
40
1
40
1
40
1
41
1
41
1
41
1
41
1
10
27.703535951929759
20
-2.0917069364532761
30
0
10
27.703535951929759
20
-2.0321519590362853
30
0
10
27.671759638148021
20
-1.9771170164093315
30
0
10
27.620184320765212
20
-1.9473356176361396
30
0
0
SPLINE
5
888
100
AcDbEntity
8
0
100
AcDbSpline
70
4
71
3
72
8
73
4
74
0
42
0.000000001
43
0.0000000001
44
0.0000000001
40
0
40
0
40
0
40
0
40
1
40
1
40
1
40
1
41
1
41
1
41
1
41
1
10
27.122433084803291
20
-3.2539111066803259
30
0
10
27.122433084803291
20
-3.1943545652374556
30
0
10
27.090658335047433
20
-3.1393211866363826
30
0
10
27.03908145363874
20
-3.1095405698761267
30
0
0
SPLINE
5
889
100
AcDbEntity
8
0
100
AcDbSpline
70
4
71
3
72
8
73
4
74
0
42
0.000000001
43
0.0000000001
44
0.0000000001
40
0
40
0
40
0
40
0
40
1
40
1
40
1
40
1
41
1
41
1
41
1
41
1
10
27.03908145363874
20
-3.1095405698761267
30
0
10
26.987501444178296
20
-3.0797630811676298
30
0
10
26.923955072718332
20
-3.0797630811676298
30
0
10
26.87237819130964
20
-3.1095405698761267
30
0
0
SPLINE
5
890
100
AcDbEntity
8
0
100
AcDbSpline
70
4
71
3
72
8
73
4
74
0
42
0.000000001
43
0.0000000001
44
0.0000000001
40
0
40
0
40
0
40
0
40
1
40
1
40
1
40
1
41
1
41
1
41
1
41
1
10
26.87237819130964
20
-3.1095405698761267
30
0
10
26.820798181849192
20
-3.1393211866363826
30
0
10
26.789026560145089
20
-3.1943561292633351
30
0
10
26.789026560145089
20
-3.2539111066803259
30
0
0
SPLINE
5
891
100
AcDbEntity
8
0
100
AcDbSpline
70
4
71
3
72
8
73
4
74
0
42
0.000000001
43
0.0000000001
44
0.0000000001
40
0
40
0
40
0
40
0
40
1
40
1
40
1
40
1
41
1
41
1
41
1
41
1
10
26.789026560145089
20
-3.2539111066803259
30
0
10
26.789026560145089
20
-3.3134676481231966
30
0
10
26.820798181849192
20
-3.3685010267242723
30
0
10
26.87237819130964
20
-3.3982816434845255
30
0
0
SPLINE
5
892
100
AcDbEntity
8
0
100
AcDbSpline
70
4
71
3
72
8
73
4
74
0
42
0.000000001
43
0.0000000001
44
0.0000000001
40
0
40
0
40
0
40
0
40
1
40
1
40
1
40
1
41
1
41
1
41
1
41
1
10
26.87237819130964
20
-3.3982816434845255
30
0
10
26.923955072718332
20
-3.4280591321930225
30
0
10
26.987503008204175
20
-3.4280591321930225
30
0
10
27.03908145363874
20
-3.3982816434845255
30
0
0
SPLINE
5
893
100
AcDbEntity
8
0
100
AcDbSpline
70
4
71
3
72
8
73
4
74
0
42
0.000000001
43
0.0000000001
44
0.0000000001
40
0
40
0
40
0
40
0
40
1
40
1
40
1
40
1
41
1
41
1
41
1
41
1
10
27.03908145363874
20
-3.3982816434845255
30
0
10
27.090658335047433
20
-3.3685010267242723
30
0
10
27.122433084803291
20
-3.3134660840973198
30
0
10
27.122433084803291
20
-3.2539111066803259
30
0
0
SPLINE
5
894
100
AcDbEntity
8
0
100
AcDbSpline
70
4
71
3
72
8
73
4
74
0
42
0.000000001
43
0.0000000001
44
0.0000000001
40
0
40
0
40
0
40
0
40
1
40
1
40
1
40
1
41
1
41
1
41
1
41
1
10
27.03908145363874
20
-2.5284384847626025
30
0
10
26.987501444178296
20
-2.4986594320282287
30
0
10
26.923955072718332
20
-2.4986594320282287
30
0
10
26.87237819130964
20
-2.5284384847626025
30
0
0
SPLINE
5
895
100
AcDbEntity
8
0
100
AcDbSpline
70
4
71
3
72
8
73
4
74
0
42
0.000000001
43
0.0000000001
44
0.0000000001
40
0
40
0
40
0
40
0
40
1
40
1
40
1
40
1
41
1
41
1
41
1
41
1
10
26.87237819130964
20
-2.5284384847626025
30
0
10
26.820798181849192
20
-2.5582198835357954
30
0
10
26.789026560145089
20
-2.6132532621368711
30
0
10
26.789026560145089
20
-2.6728098035797414
30
0
0
SPLINE
5
896
100
AcDbEntity
8
0
100
AcDbSpline
70
4
71
3
72
8
73
4
74
0
42
0.000000001
43
0.0000000001
44
0.0000000001
40
0
40
0
40
0
40
0
40
1
40
1
40
1
40
1
41
1
41
1
41
1
41
1
10
26.789026560145089
20
-2.6728098035797414
30
0
10
26.789026560145089
20
-2.7323647809967353
30
0
10
26.820798181849192
20
-2.7873997236236878
30
0
10
26.87237819130964
20
-2.8171811223968795
30
0
0
SPLINE
5
897
100
AcDbEntity
8
0
100
AcDbSpline
70
4
71
3
72
8
73
4
74
0
42
0.000000001
43
0.0000000001
44
0.0000000001
40
0
40
0
40
0
40
0
40
1
40
1
40
1
40
1
41
1
41
1
41
1
41
1
10
26.87237819130964
20
-2.8171811223968795
30
0
10
26.923955072718332
20
-2.8469586111053733
30
0
10
26.987503008204175
20
-2.8469586111053733
30
0
10
27.03908145363874
20
-2.8171811223968795
30
0
0
SPLINE
5
898
100
AcDbEntity
8
0
100
AcDbSpline
70
4
71
3
72
8
73
4
74
0
42
0.000000001
43
0.0000000001
44
0.0000000001
40
0
40
0
40
0
40
0
40
1
40
1
40
1
40
1
41
1
41
1
41
1
41
1
10
27.03908145363874
20
-2.8171811223968795
30
0
10
27.090658335047433
20
-2.7873997236236878
30
0
10
27.122433084803291
20
-2.7323647809967353
30
0
10
27.122433084803291
20
-2.6728098035797414
30
0
0
SPLINE
5
899
100
AcDbEntity
8
0
100
AcDbSpline
70
4
71
3
72
8
73
4
74
0
42
0.000000001
43
0.0000000001
44
0.0000000001
40
0
40
0
40
0
40
0
40
1
40
1
40
1
40
1
41
1
41
1
41
1
41
1
10
27.122433084803291
20
-2.6728098035797414
30
0
10
27.122433084803291
20
-2.6132532621368711
30
0
10
27.090658335047433
20
-2.5582198835357954
30
0
10
27.03908145363874
20
-2.5284384847626025
30
0
0
SPLINE
5
900
100
AcDbEntity
8
0
100
AcDbSpline
70
4
71
3
72
8
73
4
74
0
42
0.000000001
43
0.0000000001
44
0.0000000001
40
0
40
0
40
0
40
0
40
1
40
1
40
1
40
1
41
1
41
1
41
1
41
1
10
27.703535951929759
20
-3.2539111066803259
30
0
10
27.703535951929759
20
-3.1943545652374556
30
0
10
27.671759638148021
20
-3.1393211866363826
30
0
10
27.620184320765212
20
-3.1095405698761267
30
0
0
SPLINE
5
901
100
AcDbEntity
8
0
100
AcDbSpline
70
4
71
3
72
8
73
4
74
0
42
0.000000001
43
0.0000000001
44
0.0000000001
40
0
40
0
40
0
40
0
40
1
40
1
40
1
40
1
41
1
41
1
41
1
41
1
10
27.620184320765212
20
-3.1095405698761267
30
0
10
27.56860431130476
20
-3.0797630811676298
30
0
10
27.505056375818917
20
-3.0797630811676298
30
0
10
27.453479494410225
20
-3.1095405698761267
30
0
0
SPLINE
5
902
100
AcDbEntity
8
0
100
AcDbSpline
70
4
71
3
72
8
73
4
74
0
42
0.000000001
43
0.0000000001
44
0.0000000001
40
0
40
0
40
0
40
0
40
1
40
1
40
1
40
1
41
1
41
1
41
1
41
1
10
27.453479494410225
20
-3.1095405698761267
30
0
10
27.40189948494978
20
-3.1393211866363826
30
0
10
27.370127863245678
20
-3.1943561292633351
30
0
10
27.370127863245678
20
-3.2539111066803259
30
0
0
SPLINE
5
903
100
AcDbEntity
8
0
100
AcDbSpline
70
4
71
3
72
8
73
4
74
0
42
0.000000001
43
0.0000000001
44
0.0000000001
40
0
40
0
40
0
40
0
40
1
40
1
40
1
40
1
41
1
41
1
41
1
41
1
10
27.370127863245678
20
-3.2539111066803259
30
0
10
27.370127863245678
20
-3.3134676481231966
30
0
10
27.401901048975652
20
-3.3685010267242723
30
0
10
27.453479494410225
20
-3.3982816434845255
30
0
0
SPLINE
5
904
100
AcDbEntity
8
0
100
AcDbSpline
70
4
71
3
72
8
73
4
74
0
42
0.000000001
43
0.0000000001
44
0.0000000001
40
0
40
0
40
0
40
0
40
1
40
1
40
1
40
1
41
1
41
1
41
1
41
1
10
27.453479494410225
20
-3.3982816434845255
30
0
10
27.505056375818917
20
-3.4280591321930225
30
0
10
27.56860431130476
20
-3.4280591321930225
30
0
10
27.620184320765212
20
-3.3982816434845255
30
0
0
SPLINE
5
905
100
AcDbEntity
8
0
100
AcDbSpline
70
4
71
3
72
8
73
4
74
0
42
0.000000001
43
0.0000000001
44
0.0000000001
40
0
40
0
40
0
40
0
40
1
40
1
40
1
40
1
41
1
41
1
41
1
41
1
10
27.620184320765212
20
-3.3982816434845255
30
0
10
27.671759638148021
20
-3.3685010267242723
30
0
10
27.703535951929759
20
-3.3134660840973198
30
0
10
27.703535951929759
20
-3.2539111066803259
30
0
0
SPLINE
5
906
100
AcDbEntity
8
0
100
AcDbSpline
70
4
71
3
72
8
73
4
74
0
42
0.000000001
43
0.0000000001
44
0.0000000001
40
0
40
0
40
0
40
0
40
1
40
1
40
1
40
1
41
1
41
1
41
1
41
1
10
28.201285623865793
20
-1.3662335325226125
30
0
10
28.149705614405349
20
-1.3364560438141171
30
0
10
28.086157678919509
20
-1.3364560438141171
30
0
10
28.0345823615367
20
-1.3662335325226125
30
0
0
SPLINE
5
907
100
AcDbEntity
8
0
100
AcDbSpline
70
4
71
3
72
8
73
4
74
0
42
0.000000001
43
0.0000000001
44
0.0000000001
40
0
40
0
40
0
40
0
40
1
40
1
40
1
40
1
41
1
41
1
41
1
41
1
10
28.0345823615367
20
-1.3662335325226125
30
0
10
27.983002352076248
20
-1.396014931295807
30
0
10
27.951230730372146
20
-1.4510498739227593
30
0
10
27.951230730372146
20
-1.5106048513397519
30
0
0
SPLINE
5
908
100
AcDbEntity
8
0
100
AcDbSpline
70
4
71
3
72
8
73
4
74
0
42
0.000000001
43
0.0000000001
44
0.0000000001
40
0
40
0
40
0
40
0
40
1
40
1
40
1
40
1
41
1
41
1
41
1
41
1
10
27.951230730372146
20
-1.5106048513397519
30
0
10
27.951230730372146
20
-1.5701613927826223
30
0
10
27.983002352076241
20
-1.6251947713836978
30
0
10
28.034582361536692
20
-1.6549761701568895
30
0
0
SPLINE
5
909
100
AcDbEntity
8
0
100
AcDbSpline
70
4
71
3
72
8
73
4
74
0
42
0.000000001
43
0.0000000001
44
0.0000000001
40
0
40
0
40
0
40
0
40
1
40
1
40
1
40
1
41
1
41
1
41
1
41
1
10
28.034582361536692
20
-1.6549761701568895
30
0
10
28.086157678919506
20
-1.6847536588653877
30
0
10
28.149705614405342
20
-1.6847536588653877
30
0
10
28.201285623865793
20
-1.6549761701568895
30
0
0
SPLINE
5
910
100
AcDbEntity
8
0
100
AcDbSpline
70
4
71
3
72
8
73
4
74
0
42
0.000000001
43
0.0000000001
44
0.0000000001
40
0
40
0
40
0
40
0
40
1
40
1
40
1
40
1
41
1
41
1
41
1
41
1
10
28.201285623865793
20
-1.6549761701568895
30
0
10
28.252862505274486
20
-1.6251947713836978
30
0
10
28.284637255030347
20
-1.5701613927826223
30
0
10
28.284637255030347
20
-1.5106048513397519
30
0
0
SPLINE
5
911
100
AcDbEntity
8
0
100
AcDbSpline
70
4
71
3
72
8
73
4
74
0
42
0.000000001
43
0.0000000001
44
0.0000000001
40
0
40
0
40
0
40
0
40
1
40
1
40
1
40
1
41
1
41
1
41
1
41
1
10
28.284637255030347
20
-1.5106048513397519
30
0
10
28.284637255030347
20
-1.4510498739227593
30
0
10
28.252862505274486
20
-1.396014931295807
30
0
10
28.201285623865793
20
-1.3662335325226125
30
0
0
SPLINE
5
912
100
AcDbEntity
8
0
100
AcDbSpline
70
4
71
3
72
8
73
4
74
0
42
0.000000001
43
0.0000000001
44
0.0000000001
40
0
40
0
40
0
40
0
40
1
40
1
40
1
40
1
41
1
41
1
41
1
41
1
10
28.201285623865793
20
-1.9473356176361396
30
0
10
28.149705614405342
20
-1.9175581289276413
30
0
10
28.086157678919506
20
-1.9175581289276413
30
0
10
28.034582361536692
20
-1.9473356176361396
30
0
0
SPLINE
5
913
100
AcDbEntity
8
0
100
AcDbSpline
70
4
71
3
72
8
73
4
74
0
42
0.000000001
43
0.0000000001
44
0.0000000001
40
0
40
0
40
0
40
0
40
1
40
1
40
1
40
1
41
1
41
1
41
1
41
1
10
28.034582361536692
20
-1.9473356176361396
30
0
10
27.983002352076241
20
-1.9771170164093315
30
0
10
27.951230730372146
20
-2.0321519590362853
30
0
10
27.951230730372146
20
-2.0917069364532761
30
0
0
SPLINE
5
914
100
AcDbEntity
8
0
100
AcDbSpline
70
4
71
3
72
8
73
4
74
0
42
0.000000001
43
0.0000000001
44
0.0000000001
40
0
40
0
40
0
40
0
40
1
40
1
40
1
40
1
41
1
41
1
41
1
41
1
10
27.951230730372146
20
-2.0917069364532761
30
0
10
27.951230730372146
20
-2.1512634778961495
30
0
10
27.983002352076241
20
-2.2062968564972221
30
0
10
28.034582361536692
20
-2.236078255270415
30
0
0
SPLINE
5
915
100
AcDbEntity
8
0
100
AcDbSpline
70
4
71
3
72
8
73
4
74
0
42
0.000000001
43
0.0000000001
44
0.0000000001
40
0
40
0
40
0
40
0
40
1
40
1
40
1
40
1
41
1
41
1
41
1
41
1
10
28.034582361536692
20
-2.236078255270415
30
0
10
28.086157678919506
20
-2.2658573080047901
30
0
10
28.149705614405342
20
-2.2658573080047901
30
0
10
28.201285623865793
20
-2.236078255270415
30
0
0
SPLINE
5
916
100
AcDbEntity
8
0
100
AcDbSpline
70
4
71
3
72
8
73
4
74
0
42
0.000000001
43
0.0000000001
44
0.0000000001
40
0
40
0
40
0
40
0
40
1
40
1
40
1
40
1
41
1
41
1
41
1
41
1
10
28.201285623865793
20
-2.236078255270415
30
0
10
28.252862505274486
20
-2.2062968564972221
30
0
10
28.284637255030347
20
-2.1512634778961495
30
0
10
28.284637255030347
20
-2.0917069364532761
30
0
0
SPLINE
5
917
100
AcDbEntity
8
0
100
AcDbSpline
70
4
71
3
72
8
73
4
74
0
42
0.000000001
43
0.0000000001
44
0.0000000001
40
0
40
0
40
0
40
0
40
1
40
1
40
1
40
1
41
1
41
1
41
1
41
1
10
28.284637255030347
20
-2.0917069364532761
30
0
10
28.284637255030347
20
-2.0321519590362853
30
0
10
28.252862505274486
20
-1.9771170164093315
30
0
10
28.201285623865793
20
-1.9473356176361396
30
0
0
SPLINE
5
918
100
AcDbEntity
8
0
100
AcDbSpline
70
4
71
3
72
8
73
4
74
0
42
0.000000001
43
0.0000000001
44
0.0000000001
40
0
40
0
40
0
40
0
40
1
40
1
40
1
40
1
41
1
41
1
41
1
41
1
10
27.620184320765212
20
-2.5284384847626025
30
0
10
27.56860431130476
20
-2.4986594320282287
30
0
10
27.505056375818917
20
-2.4986594320282287
30
0
10
27.453479494410225
20
-2.5284384847626025
30
0
0
SPLINE
5
919
100
AcDbEntity
8
0
100
AcDbSpline
70
4
71
3
72
8
73
4
74
0
42
0.000000001
43
0.0000000001
44
0.0000000001
40
0
40
0
40
0
40
0
40
1
40
1
40
1
40
1
41
1
41
1
41
1
41
1
10
27.453479494410225
20
-2.5284384847626025
30
0
10
27.40189948494978
20
-2.5582198835357954
30
0
10
27.370127863245678
20
-2.6132532621368711
30
0
10
27.370127863245678
20
-2.6728098035797414
30
0
0
SPLINE
5
920
100
AcDbEntity
8
0
100
AcDbSpline
70
4
71
3
72
8
73
4
74
0
42
0.000000001
43
0.0000000001
44
0.0000000001
40
0
40
0
40
0
40
0
40
1
40
1
40
1
40
1
41
1
41
1
41
1
41
1
10
27.370127863245678
20
-2.6728098035797414
30
0
10
27.370127863245678
20
-2.7323647809967353
30
0
10
27.401901048975652
20
-2.7873997236236878
30
0
10
27.453479494410225
20
-2.8171811223968795
30
0
0
SPLINE
5
921
100
AcDbEntity
8
0
100
AcDbSpline
70
4
71
3
72
8
73
4
74
0
42
0.000000001
43
0.0000000001
44
0.0000000001
40
0
40
0
40
0
40
0
40
1
40
1
40
1
40
1
41
1
41
1
41
1
41
1
10
27.453479494410225
20
-2.8171811223968795
30
0
10
27.505056375818917
20
-2.8469586111053733
30
0
10
27.56860431130476
20
-2.8469586111053733
30
0
10
27.620184320765212
20
-2.8171811223968795
30
0
0
SPLINE
5
922
100
AcDbEntity
8
0
100
AcDbSpline
70
4
71
3
72
8
73
4
74
0
42
0.000000001
43
0.0000000001
44
0.0000000001
40
0
40
0
40
0
40
0
40
1
40
1
40
1
40
1
41
1
41
1
41
1
41
1
10
27.620184320765212
20
-2.8171811223968795
30
0
10
27.671759638148021
20
-2.7873997236236878
30
0
10
27.703535951929759
20
-2.7323647809967353
30
0
10
27.703535951929759
20
-2.6728098035797414
30
0
0
SPLINE
5
923
100
AcDbEntity
8
0
100
AcDbSpline
70
4
71
3
72
8
73
4
74
0
42
0.000000001
43
0.0000000001
44
0.0000000001
40
0
40
0
40
0
40
0
40
1
40
1
40
1
40
1
41
1
41
1
41
1
41
1
10
27.703535951929759
20
-2.6728098035797414
30
0
10
27.703535951929759
20
-2.6132532621368711
30
0
10
27.671759638148021
20
-2.5582198835357954
30
0
10
27.620184320765212
20
-2.5284384847626025
30
0
0
SPLINE
5
924
100
AcDbEntity
8
0
100
AcDbSpline
70
4
71
3
72
8
73
4
74
0
42
0.000000001
43
0.0000000001
44
0.0000000001
40
0
40
0
40
0
40
0
40
1
40
1
40
1
40
1
41
1
41
1
41
1
41
1
10
28.284637255030347
20
-3.2539111066803259
30
0
10
28.284637255030347
20
-3.1943545652374556
30
0
10
28.252862505274486
20
-3.1393211866363826
30
0
10
28.201285623865793
20
-3.1095405698761267
30
0
0
SPLINE
5
925
100
AcDbEntity
8
0
100
AcDbSpline
70
4
71
3
72
8
73
4
74
0
42
0.000000001
43
0.0000000001
44
0.0000000001
40
0
40
0
40
0
40
0
40
1
40
1
40
1
40
1
41
1
41
1
41
1
41
1
10
28.201285623865793
20
-3.1095405698761267
30
0
10
28.149705614405342
20
-3.0797630811676298
30
0
10
28.086157678919506
20
-3.0797630811676298
30
0
10
28.034582361536692
20
-3.1095405698761267
30
0
0
SPLINE
5
926
100
AcDbEntity
8
0
100
AcDbSpline
70
4
71
3
72
8
73
4
74
0
42
0.000000001
43
0.0000000001
44
0.0000000001
40
0
40
0
40
0
40
0
40
1
40
1
40
1
40
1
41
1
41
1
41
1
41
1
10
28.034582361536692
20
-3.1095405698761267
30
0
10
27.983002352076241
20
-3.1393211866363826
30
0
10
27.951230730372146
20
-3.1943561292633351
30
0
10
27.951230730372146
20
-3.2539111066803259
30
0
0
SPLINE
5
927
100
AcDbEntity
8
0
100
AcDbSpline
70
4
71
3
72
8
73
4
74
0
42
0.000000001
43
0.0000000001
44
0.0000000001
40
0
40
0
40
0
40
0
40
1
40
1
40
1
40
1
41
1
41
1
41
1
41
1
10
27.951230730372146
20
-3.2539111066803259
30
0
10
27.951230730372146
20
-3.3134676481231966
30
0
10
27.983002352076241
20
-3.3685010267242723
30
0
10
28.034582361536692
20
-3.3982816434845255
30
0
0
SPLINE
5
928
100
AcDbEntity
8
0
100
AcDbSpline
70
4
71
3
72
8
73
4
74
0
42
0.000000001
43
0.0000000001
44
0.0000000001
40
0
40
0
40
0
40
0
40
1
40
1
40
1
40
1
41
1
41
1
41
1
41
1
10
28.034582361536692
20
-3.3982816434845255
30
0
10
28.086157678919506
20
-3.4280591321930225
30
0
10
28.149705614405342
20
-3.4280591321930225
30
0
10
28.201285623865793
20
-3.3982816434845255
30
0
0
SPLINE
5
929
100
AcDbEntity
8
0
100
AcDbSpline
70
4
71
3
72
8
73
4
74
0
42
0.000000001
43
0.0000000001
44
0.0000000001
40
0
40
0
40
0
40
0
40
1
40
1
40
1
40
1
41
1
41
1
41
1
41
1
10
28.201285623865793
20
-3.3982816434845255
30
0
10
28.252862505274486
20
-3.3685010267242723
30
0
10
28.284637255030347
20
-3.3134660840973198
30
0
10
28.284637255030347
20
-3.2539111066803259
30
0
0
SPLINE
5
930
100
AcDbEntity
8
0
100
AcDbSpline
70
4
71
3
72
8
73
4
74
0
42
0.000000001
43
0.0000000001
44
0.0000000001
40
0
40
0
40
0
40
0
40
1
40
1
40
1
40
1
41
1
41
1
41
1
41
1
10
28.284637255030347
20
-2.6728105855926816
30
0
10
28.284637255030347
20
-2.6132540441498109
30
0
10
28.252862505274486
20
-2.5582206655487352
30
0
10
28.201285623865793
20
-2.5284392667755422
30
0
0
SPLINE
5
931
100
AcDbEntity
8
0
100
AcDbSpline
70
4
71
3
72
8
73
4
74
0
42
0.000000001
43
0.0000000001
44
0.0000000001
40
0
40
0
40
0
40
0
40
1
40
1
40
1
40
1
41
1
41
1
41
1
41
1
10
28.201285623865793
20
-2.5284392667755422
30
0
10
28.149705614405342
20
-2.4986602140411684
30
0
10
28.086157678919506
20
-2.4986602140411684
30
0
10
28.034582361536692
20
-2.5284392667755422
30
0
0
SPLINE
5
932
100
AcDbEntity
8
0
100
AcDbSpline
70
4
71
3
72
8
73
4
74
0
42
0.000000001
43
0.0000000001
44
0.0000000001
40
0
40
0
40
0
40
0
40
1
40
1
40
1
40
1
41
1
41
1
41
1
41
1
10
28.034582361536692
20
-2.5284392667755422
30
0
10
27.983002352076241
20
-2.5582206655487352
30
0
10
27.951230730372146
20
-2.6132540441498109
30
0
10
27.951230730372146
20
-2.6728105855926816
30
0
0
SPLINE
5
933
100
AcDbEntity
8
0
100
AcDbSpline
70
4
71
3
72
8
73
4
74
0
42
0.000000001
43
0.0000000001
44
0.0000000001
40
0
40
0
40
0
40
0
40
1
40
1
40
1
40
1
41
1
41
1
41
1
41
1
10
27.951230730372146
20
-2.6728105855926816
30
0
10
27.951230730372146
20
-2.7323655630096724
30
0
10
27.983002352076241
20
-2.7874005056366276
30
0
10
28.034582361536692
20
-2.8171819044098192
30
0
0
SPLINE
5
934
100
AcDbEntity
8
0
100
AcDbSpline
70
4
71
3
72
8
73
4
74
0
42
0.000000001
43
0.0000000001
44
0.0000000001
40
0
40
0
40
0
40
0
40
1
40
1
40
1
40
1
41
1
41
1
41
1
41
1
10
28.034582361536692
20
-2.8171819044098192
30
0
10
28.086157678919506
20
-2.8469593931183161
30
0
10
28.149705614405342
20
-2.8469593931183161
30
0
10
28.201285623865793
20
-2.8171819044098192
30
0
0
SPLINE
5
935
100
AcDbEntity
8
0
100
AcDbSpline
70
4
71
3
72
8
73
4
74
0
42
0.000000001
43
0.0000000001
44
0.0000000001
40
0
40
0
40
0
40
0
40
1
40
1
40
1
40
1
41
1
41
1
41
1
41
1
10
28.201285623865793
20
-2.8171819044098192
30
0
10
28.252862505274486
20
-2.7874005056366276
30
0
10
28.284637255030347
20
-2.7323655630096724
30
0
10
28.284637255030347
20
-2.6728105855926816
30
0
0
SPLINE
5
936
100
AcDbEntity
8
0
100
AcDbSpline
70
4
71
3
72
8
73
4
74
0
42
0.000000001
43
0.0000000001
44
0.0000000001
40
0
40
0
40
0
40
0
40
1
40
1
40
1
40
1
41
1
41
1
41
1
41
1
10
25.87687884743757
20
-1.3662335325226125
30
0
10
25.825298837977126
20
-1.3364560438141171
30
0
10
25.761750902491286
20
-1.3364560438141171
30
0
10
25.710174021082594
20
-1.3662335325226125
30
0
0
SPLINE
5
937
100
AcDbEntity
8
0
100
AcDbSpline
70
4
71
3
72
8
73
4
74
0
42
0.000000001
43
0.0000000001
44
0.0000000001
40
0
40
0
40
0
40
0
40
1
40
1
40
1
40
1
41
1
41
1
41
1
41
1
10
25.710174021082594
20
-1.3662335325226125
30
0
10
25.658594011622146
20
-1.396014931295807
30
0
10
25.626822389918043
20
-1.4510498739227593
30
0
10
25.626822389918043
20
-1.5106048513397519
30
0
0
SPLINE
5
938
100
AcDbEntity
8
0
100
AcDbSpline
70
4
71
3
72
8
73
4
74
0
42
0.000000001
43
0.0000000001
44
0.0000000001
40
0
40
0
40
0
40
0
40
1
40
1
40
1
40
1
41
1
41
1
41
1
41
1
10
25.626822389918043
20
-1.5106048513397519
30
0
10
25.626822389918043
20
-1.5701613927826223
30
0
10
25.658595575648018
20
-1.6251947713836978
30
0
10
25.71017402108259
20
-1.6549761701568895
30
0
0
SPLINE
5
939
100
AcDbEntity
8
0
100
AcDbSpline
70
4
71
3
72
8
73
4
74
0
42
0.000000001
43
0.0000000001
44
0.0000000001
40
0
40
0
40
0
40
0
40
1
40
1
40
1
40
1
41
1
41
1
41
1
41
1
10
25.71017402108259
20
-1.6549761701568895
30
0
10
25.761750902491283
20
-1.6847536588653877
30
0
10
25.825298837977119
20
-1.6847536588653877
30
0
10
25.87687884743757
20
-1.6549761701568895
30
0
0
SPLINE
5
940
100
AcDbEntity
8
0
100
AcDbSpline
70
4
71
3
72
8
73
4
74
0
42
0.000000001
43
0.0000000001
44
0.0000000001
40
0
40
0
40
0
40
0
40
1
40
1
40
1
40
1
41
1
41
1
41
1
41
1
10
25.87687884743757
20
-1.6549761701568895
30
0
10
25.928454164820383
20
-1.6251947713836978
30
0
10
25.960230478602124
20
-1.5701613927826223
30
0
10
25.960230478602124
20
-1.5106048513397519
30
0
0
SPLINE
5
941
100
AcDbEntity
8
0
100
AcDbSpline
70
4
71
3
72
8
73
4
74
0
42
0.000000001
43
0.0000000001
44
0.0000000001
40
0
40
0
40
0
40
0
40
1
40
1
40
1
40
1
41
1
41
1
41
1
41
1
10
25.960230478602124
20
-1.5106048513397519
30
0
10
25.960230478602124
20
-1.4510498739227593
30
0
10
25.928454164820383
20
-1.396014931295807
30
0
10
25.87687884743757
20
-1.3662335325226125
30
0
0
SPLINE
5
942
100
AcDbEntity
8
0
100
AcDbSpline
70
4
71
3
72
8
73
4
74
0
42
0.000000001
43
0.0000000001
44
0.0000000001
40
0
40
0
40
0
40
0
40
1
40
1
40
1
40
1
41
1
41
1
41
1
41
1
10
25.295775980311106
20
-2.5284384847626025
30
0
10
25.244195970850658
20
-2.4986594320282287
30
0
10
25.180649599390694
20
-2.4986594320282287
30
0
10
25.129072717982005
20
-2.5284384847626025
30
0
0
SPLINE
5
943
100
AcDbEntity
8
0
100
AcDbSpline
70
4
71
3
72
8
73
4
74
0
42
0.000000001
43
0.0000000001
44
0.0000000001
40
0
40
0
40
0
40
0
40
1
40
1
40
1
40
1
41
1
41
1
41
1
41
1
10
25.129072717982005
20
-2.5284384847626025
30
0
10
25.077492708521557
20
-2.5582198835357954
30
0
10
25.045721086817455
20
-2.6132532621368711
30
0
10
25.045721086817455
20
-2.6728098035797414
30
0
0
SPLINE
5
944
100
AcDbEntity
8
0
100
AcDbSpline
70
4
71
3
72
8
73
4
74
0
42
0.000000001
43
0.0000000001
44
0.0000000001
40
0
40
0
40
0
40
0
40
1
40
1
40
1
40
1
41
1
41
1
41
1
41
1
10
25.045721086817455
20
-2.6728098035797414
30
0
10
25.045721086817455
20
-2.7323647809967353
30
0
10
25.077492708521557
20
-2.7873997236236878
30
0
10
25.129072717982005
20
-2.8171811223968795
30
0
0
SPLINE
5
945
100
AcDbEntity
8
0
100
AcDbSpline
70
4
71
3
72
8
73
4
74
0
42
0.000000001
43
0.0000000001
44
0.0000000001
40
0
40
0
40
0
40
0
40
1
40
1
40
1
40
1
41
1
41
1
41
1
41
1
10
25.129072717982005
20
-2.8171811223968795
30
0
10
25.180649599390694
20
-2.8469586111053733
30
0
10
25.244197534876538
20
-2.8469586111053733
30
0
10
25.295775980311106
20
-2.8171811223968795
30
0
0
SPLINE
5
946
100
AcDbEntity
8
0
100
AcDbSpline
70
4
71
3
72
8
73
4
74
0
42
0.000000001
43
0.0000000001
44
0.0000000001
40
0
40
0
40
0
40
0
40
1
40
1
40
1
40
1
41
1
41
1
41
1
41
1
10
25.295775980311106
20
-2.8171811223968795
30
0
10
25.347352861719799
20
-2.7873997236236878
30
0
10
25.37912761147566
20
-2.7323647809967353
30
0
10
25.37912761147566
20
-2.6728098035797414
30
0
0
SPLINE
5
947
100
AcDbEntity
8
0
100
AcDbSpline
70
4
71
3
72
8
73
4
74
0
42
0.000000001
43
0.0000000001
44
0.0000000001
40
0
40
0
40
0
40
0
40
1
40
1
40
1
40
1
41
1
41
1
41
1
41
1
10
25.37912761147566
20
-2.6728098035797414
30
0
10
25.37912761147566
20
-2.6132532621368711
30
0
10
25.347352861719799
20
-2.5582198835357954
30
0
10
25.295775980311106
20
-2.5284384847626025
30
0
0
SPLINE
5
948
100
AcDbEntity
8
0
100
AcDbSpline
70
4
71
3
72
8
73
4
74
0
42
0.000000001
43
0.0000000001
44
0.0000000001
40
0
40
0
40
0
40
0
40
1
40
1
40
1
40
1
41
1
41
1
41
1
41
1
10
25.295775980311106
20
-1.9473356176361396
30
0
10
25.244195970850658
20
-1.9175581289276413
30
0
10
25.180649599390694
20
-1.9175581289276413
30
0
10
25.129072717982005
20
-1.9473356176361396
30
0
0
SPLINE
5
949
100
AcDbEntity
8
0
100
AcDbSpline
70
4
71
3
72
8
73
4
74
0
42
0.000000001
43
0.0000000001
44
0.0000000001
40
0
40
0
40
0
40
0
40
1
40
1
40
1
40
1
41
1
41
1
41
1
41
1
10
25.129072717982005
20
-1.9473356176361396
30
0
10
25.077492708521557
20
-1.9771170164093315
30
0
10
25.045721086817455
20
-2.0321519590362853
30
0
10
25.045721086817455
20
-2.0917069364532761
30
0
0
SPLINE
5
950
100
AcDbEntity
8
0
100
AcDbSpline
70
4
71
3
72
8
73
4
74
0
42
0.000000001
43
0.0000000001
44
0.0000000001
40
0
40
0
40
0
40
0
40
1
40
1
40
1
40
1
41
1
41
1
41
1
41
1
10
25.045721086817455
20
-2.0917069364532761
30
0
10
25.045721086817455
20
-2.1512634778961495
30
0
10
25.077492708521557
20
-2.2062968564972221
30
0
10
25.129072717982005
20
-2.236078255270415
30
0
0
SPLINE
5
951
100
AcDbEntity
8
0
100
AcDbSpline
70
4
71
3
72
8
73
4
74
0
42
0.000000001
43
0.0000000001
44
0.0000000001
40
0
40
0
40
0
40
0
40
1
40
1
40
1
40
1
41
1
41
1
41
1
41
1
10
25.129072717982005
20
-2.236078255270415
30
0
10
25.180649599390694
20
-2.2658573080047901
30
0
10
25.244197534876538
20
-2.2658573080047901
30
0
10
25.295775980311106
20
-2.236078255270415
30
0
0
SPLINE
5
952
100
AcDbEntity
8
0
100
AcDbSpline
70
4
71
3
72
8
73
4
74
0
42
0.000000001
43
0.0000000001
44
0.0000000001
40
0
40
0
40
0
40
0
40
1
40
1
40
1
40
1
41
1
41
1
41
1
41
1
10
25.295775980311106
20
-2.236078255270415
30
0
10
25.347352861719799
20
-2.2062968564972221
30
0
10
25.37912761147566
20
-2.1512634778961495
30
0
10
25.37912761147566
20
-2.0917069364532761
30
0
0
SPLINE
5
953
100
AcDbEntity
8
0
100
AcDbSpline
70
4
71
3
72
8
73
4
74
0
42
0.000000001
43
0.0000000001
44
0.0000000001
40
0
40
0
40
0
40
0
40
1
40
1
40
1
40
1
41
1
41
1
41
1
41
1
10
25.37912761147566
20
-2.0917069364532761
30
0
10
25.37912761147566
20
-2.0321519590362853
30
0
10
25.347352861719799
20
-1.9771170164093315
30
0
10
25.295775980311106
20
-1.9473356176361396
30
0
0
SPLINE
5
954
100
AcDbEntity
8
0
100
AcDbSpline
70
4
71
3
72
8
73
4
74
0
42
0.000000001
43
0.0000000001
44
0.0000000001
40
0
40
0
40
0
40
0
40
1
40
1
40
1
40
1
41
1
41
1
41
1
41
1
10
25.71017402108259
20
-1.9473356176361396
30
0
10
25.658594011622146
20
-1.9771170164093315
30
0
10
25.626822389918043
20
-2.0321519590362853
30
0
10
25.626822389918043
20
-2.0917069364532761
30
0
0
SPLINE
5
955
100
AcDbEntity
8
0
100
AcDbSpline
70
4
71
3
72
8
73
4
74
0
42
0.000000001
43
0.0000000001
44
0.0000000001
40
0
40
0
40
0
40
0
40
1
40
1
40
1
40
1
41
1
41
1
41
1
41
1
10
25.626822389918043
20
-2.0917069364532761
30
0
10
25.626822389918043
20
-2.1512634778961495
30
0
10
25.658595575648018
20
-2.2062968564972221
30
0
10
25.71017402108259
20
-2.236078255270415
30
0
0
SPLINE
5
956
100
AcDbEntity
8
0
100
AcDbSpline
70
4
71
3
72
8
73
4
74
0
42
0.000000001
43
0.0000000001
44
0.0000000001
40
0
40
0
40
0
40
0
40
1
40
1
40
1
40
1
41
1
41
1
41
1
41
1
10
25.71017402108259
20
-2.236078255270415
30
0
10
25.761750902491283
20
-2.2658573080047901
30
0
10
25.825298837977119
20
-2.2658573080047901
30
0
10
25.87687884743757
20
-2.236078255270415
30
0
0
SPLINE
5
957
100
AcDbEntity
8
0
100
AcDbSpline
70
4
71
3
72
8
73
4
74
0
42
0.000000001
43
0.0000000001
44
0.0000000001
40
0
40
0
40
0
40
0
40
1
40
1
40
1
40
1
41
1
41
1
41
1
41
1
10
25.87687884743757
20
-2.236078255270415
30
0
10
25.928454164820383
20
-2.2062968564972221
30
0
10
25.960230478602124
20
-2.1512634778961495
30
0
10
25.960230478602124
20
-2.0917069364532761
30
0
0
SPLINE
5
958
100
AcDbEntity
8
0
100
AcDbSpline
70
4
71
3
72
8
73
4
74
0
42
0.000000001
43
0.0000000001
44
0.0000000001
40
0
40
0
40
0
40
0
40
1
40
1
40
1
40
1
41
1
41
1
41
1
41
1
10
25.960230478602124
20
-2.0917069364532761
30
0
10
25.960230478602124
20
-2.0321519590362853
30
0
10
25.928454164820383
20
-1.9771170164093315
30
0
10
25.87687884743757
20
-1.9473356176361396
30
0
0
SPLINE
5
959
100
AcDbEntity
8
0
100
AcDbSpline
70
4
71
3
72
8
73
4
74
0
42
0.000000001
43
0.0000000001
44
0.0000000001
40
0
40
0
40
0
40
0
40
1
40
1
40
1
40
1
41
1
41
1
41
1
41
1
10
25.87687884743757
20
-1.9473356176361396
30
0
10
25.825298837977119
20
-1.9175581289276413
30
0
10
25.761750902491283
20
-1.9175581289276413
30
0
10
25.71017402108259
20
-1.9473356176361396
30
0
0
SPLINE
5
960
100
AcDbEntity
8
0
100
AcDbSpline
70
4
71
3
72
8
73
4
74
0
42
0.000000001
43
0.0000000001
44
0.0000000001
40
0
40
0
40
0
40
0
40
1
40
1
40
1
40
1
41
1
41
1
41
1
41
1
10
25.960230478602124
20
-3.2539111066803259
30
0
10
25.960230478602124
20
-3.1943545652374556
30
0
10
25.928454164820383
20
-3.1393211866363826
30
0
10
25.87687884743757
20
-3.1095405698761267
30
0
0
SPLINE
5
961
100
AcDbEntity
8
0
100
AcDbSpline
70
4
71
3
72
8
73
4
74
0
42
0.000000001
43
0.0000000001
44
0.0000000001
40
0
40
0
40
0
40
0
40
1
40
1
40
1
40
1
41
1
41
1
41
1
41
1
10
25.87687884743757
20
-3.1095405698761267
30
0
10
25.825298837977119
20
-3.0797630811676298
30
0
10
25.761750902491283
20
-3.0797630811676298
30
0
10
25.71017402108259
20
-3.1095405698761267
30
0
0
SPLINE
5
962
100
AcDbEntity
8
0
100
AcDbSpline
70
4
71
3
72
8
73
4
74
0
42
0.000000001
43
0.0000000001
44
0.0000000001
40
0
40
0
40
0
40
0
40
1
40
1
40
1
40
1
41
1
41
1
41
1
41
1
10
25.71017402108259
20
-3.1095405698761267
30
0
10
25.658594011622146
20
-3.1393211866363826
30
0
10
25.626822389918043
20
-3.1943561292633351
30
0
10
25.626822389918043
20
-3.2539111066803259
30
0
0
SPLINE
5
963
100
AcDbEntity
8
0
100
AcDbSpline
70
4
71
3
72
8
73
4
74
0
42
0.000000001
43
0.0000000001
44
0.0000000001
40
0
40
0
40
0
40
0
40
1
40
1
40
1
40
1
41
1
41
1
41
1
41
1
10
25.626822389918043
20
-3.2539111066803259
30
0
10
25.626822389918043
20
-3.3134676481231966
30
0
10
25.658595575648018
20
-3.3685010267242723
30
0
10
25.71017402108259
20
-3.3982816434845255
30
0
0
SPLINE
5
964
100
AcDbEntity
8
0
100
AcDbSpline
70
4
71
3
72
8
73
4
74
0
42
0.000000001
43
0.0000000001
44
0.0000000001
40
0
40
0
40
0
40
0
40
1
40
1
40
1
40
1
41
1
41
1
41
1
41
1
10
25.71017402108259
20
-3.3982816434845255
30
0
10
25.761750902491283
20
-3.4280591321930225
30
0
10
25.825298837977119
20
-3.4280591321930225
30
0
10
25.87687884743757
20
-3.3982816434845255
30
0
0
SPLINE
5
965
100
AcDbEntity
8
0
100
AcDbSpline
70
4
71
3
72
8
73
4
74
0
42
0.000000001
43
0.0000000001
44
0.0000000001
40
0
40
0
40
0
40
0
40
1
40
1
40
1
40
1
41
1
41
1
41
1
41
1
10
25.87687884743757
20
-3.3982816434845255
30
0
10
25.928454164820383
20
-3.3685010267242723
30
0
10
25.960230478602124
20
-3.3134660840973198
30
0
10
25.960230478602124
20
-3.2539111066803259
30
0
0
SPLINE
5
966
100
AcDbEntity
8
0
100
AcDbSpline
70
4
71
3
72
8
73
4
74
0
42
0.000000001
43
0.0000000001
44
0.0000000001
40
0
40
0
40
0
40
0
40
1
40
1
40
1
40
1
41
1
41
1
41
1
41
1
10
25.37912761147566
20
-3.2539111066803259
30
0
10
25.37912761147566
20
-3.1943545652374556
30
0
10
25.347352861719799
20
-3.1393211866363826
30
0
10
25.295775980311106
20
-3.1095405698761267
30
0
0
SPLINE
5
967
100
AcDbEntity
8
0
100
AcDbSpline
70
4
71
3
72
8
73
4
74
0
42
0.000000001
43
0.0000000001
44
0.0000000001
40
0
40
0
40
0
40
0
40
1
40
1
40
1
40
1
41
1
41
1
41
1
41
1
10
25.295775980311106
20
-3.1095405698761267
30
0
10
25.244195970850658
20
-3.0797630811676298
30
0
10
25.180649599390694
20
-3.0797630811676298
30
0
10
25.129072717982005
20
-3.1095405698761267
30
0
0
SPLINE
5
968
100
AcDbEntity
8
0
100
AcDbSpline
70
4
71
3
72
8
73
4
74
0
42
0.000000001
43
0.0000000001
44
0.0000000001
40
0
40
0
40
0
40
0
40
1
40
1
40
1
40
1
41
1
41
1
41
1
41
1
10
25.129072717982005
20
-3.1095405698761267
30
0
10
25.077492708521557
20
-3.1393211866363826
30
0
10
25.045721086817455
20
-3.1943561292633351
30
0
10
25.045721086817455
20
-3.2539111066803259
30
0
0
SPLINE
5
969
100
AcDbEntity
8
0
100
AcDbSpline
70
4
71
3
72
8
73
4
74
0
42
0.000000001
43
0.0000000001
44
0.0000000001
40
0
40
0
40
0
40
0
40
1
40
1
40
1
40
1
41
1
41
1
41
1
41
1
10
25.045721086817455
20
-3.2539111066803259
30
0
10
25.045721086817455
20
-3.3134676481231966
30
0
10
25.077492708521557
20
-3.3685010267242723
30
0
10
25.129072717982005
20
-3.3982816434845255
30
0
0
SPLINE
5
970
100
AcDbEntity
8
0
100
AcDbSpline
70
4
71
3
72
8
73
4
74
0
42
0.000000001
43
0.0000000001
44
0.0000000001
40
0
40
0
40
0
40
0
40
1
40
1
40
1
40
1
41
1
41
1
41
1
41
1
10
25.129072717982005
20
-3.3982816434845255
30
0
10
25.180649599390694
20
-3.4280591321930225
30
0
10
25.244197534876538
20
-3.4280591321930225
30
0
10
25.295775980311106
20
-3.3982816434845255
30
0
0
SPLINE
5
971
100
AcDbEntity
8
0
100
AcDbSpline
70
4
71
3
72
8
73
4
74
0
42
0.000000001
43
0.0000000001
44
0.0000000001
40
0
40
0
40
0
40
0
40
1
40
1
40
1
40
1
41
1
41
1
41
1
41
1
10
25.295775980311106
20
-3.3982816434845255
30
0
10
25.347352861719799
20
-3.3685010267242723
30
0
10
25.37912761147566
20
-3.3134660840973198
30
0
10
25.37912761147566
20
-3.2539111066803259
30
0
0
SPLINE
5
972
100
AcDbEntity
8
0
100
AcDbSpline
70
4
71
3
72
8
73
4
74
0
42
0.000000001
43
0.0000000001
44
0.0000000001
40
0
40
0
40
0
40
0
40
1
40
1
40
1
40
1
41
1
41
1
41
1
41
1
10
25.87687884743757
20
-2.5284392667755422
30
0
10
25.825298837977119
20
-2.4986602140411684
30
0
10
25.761750902491283
20
-2.4986602140411684
30
0
10
25.71017402108259
20
-2.5284392667755422
30
0
0
SPLINE
5
973
100
AcDbEntity
8
0
100
AcDbSpline
70
4
71
3
72
8
73
4
74
0
42
0.000000001
43
0.0000000001
44
0.0000000001
40
0
40
0
40
0
40
0
40
1
40
1
40
1
40
1
41
1
41
1
41
1
41
1
10
25.71017402108259
20
-2.5284392667755422
30
0
10
25.658594011622146
20
-2.5582206655487352
30
0
10
25.626822389918043
20
-2.6132540441498109
30
0
10
25.626822389918043
20
-2.6728105855926816
30
0
0
SPLINE
5
974
100
AcDbEntity
8
0
100
AcDbSpline
70
4
71
3
72
8
73
4
74
0
42
0.000000001
43
0.0000000001
44
0.0000000001
40
0
40
0
40
0
40
0
40
1
40
1
40
1
40
1
41
1
41
1
41
1
41
1
10
25.626822389918043
20
-2.6728105855926816
30
0
10
25.626822389918043
20
-2.7323655630096724
30
0
10
25.658595575648018
20
-2.7874005056366276
30
0
10
25.71017402108259
20
-2.8171819044098192
30
0
0
SPLINE
5
975
100
AcDbEntity
8
0
100
AcDbSpline
70
4
71
3
72
8
73
4
74
0
42
0.000000001
43
0.0000000001
44
0.0000000001
40
0
40
0
40
0
40
0
40
1
40
1
40
1
40
1
41
1
41
1
41
1
41
1
10
25.71017402108259
20
-2.8171819044098192
30
0
10
25.761750902491283
20
-2.8469593931183161
30
0
10
25.825298837977119
20
-2.8469593931183161
30
0
10
25.87687884743757
20
-2.8171819044098192
30
0
0
SPLINE
5
976
100
AcDbEntity
8
0
100
AcDbSpline
70
4
71
3
72
8
73
4
74
0
42
0.000000001
43
0.0000000001
44
0.0000000001
40
0
40
0
40
0
40
0
40
1
40
1
40
1
40
1
41
1
41
1
41
1
41
1
10
25.87687884743757
20
-2.8171819044098192
30
0
10
25.928454164820383
20
-2.7874005056366276
30
0
10
25.960230478602124
20
-2.7323655630096724
30
0
10
25.960230478602124
20
-2.6728105855926816
30
0
0
SPLINE
5
977
100
AcDbEntity
8
0
100
AcDbSpline
70
4
71
3
72
8
73
4
74
0
42
0.000000001
43
0.0000000001
44
0.0000000001
40
0
40
0
40
0
40
0
40
1
40
1
40
1
40
1
41
1
41
1
41
1
41
1
10
25.960230478602124
20
-2.6728105855926816
30
0
10
25.960230478602124
20
-2.6132540441498109
30
0
10
25.928454164820383
20
-2.5582206655487352
30
0
10
25.87687884743757
20
-2.5284392667755422
30
0
0
SPLINE
5
978
100
AcDbEntity
8
0
100
AcDbSpline
70
4
71
3
72
8
73
4
74
0
42
0.000000001
43
0.0000000001
44
0.0000000001
40
0
40
0
40
0
40
0
40
1
40
1
40
1
40
1
41
1
41
1
41
1
41
1
10
27.039081453638747
20
-1.3662335325226125
30
0
10
26.987501444178296
20
-1.3364560438141171
30
0
10
26.923955072718332
20
-1.3364560438141171
30
0
10
26.87237819130964
20
-1.3662335325226125
30
0
0
SPLINE
5
979
100
AcDbEntity
8
0
100
AcDbSpline
70
4
71
3
72
8
73
4
74
0
42
0.000000001
43
0.0000000001
44
0.0000000001
40
0
40
0
40
0
40
0
40
1
40
1
40
1
40
1
41
1
41
1
41
1
41
1
10
26.87237819130964
20
-1.3662335325226125
30
0
10
26.820798181849195
20
-1.396014931295807
30
0
10
26.789026560145093
20
-1.4510498739227593
30
0
10
26.789026560145093
20
-1.5106048513397519
30
0
0
SPLINE
5
980
100
AcDbEntity
8
0
100
AcDbSpline
70
4
71
3
72
8
73
4
74
0
42
0.000000001
43
0.0000000001
44
0.0000000001
40
0
40
0
40
0
40
0
40
1
40
1
40
1
40
1
41
1
41
1
41
1
41
1
10
26.789026560145093
20
-1.5106048513397519
30
0
10
26.789026560145093
20
-1.5701613927826223
30
0
10
26.820798181849192
20
-1.6251947713836978
30
0
10
26.87237819130964
20
-1.6549761701568895
30
0
0
SPLINE
5
981
100
AcDbEntity
8
0
100
AcDbSpline
70
4
71
3
72
8
73
4
74
0
42
0.000000001
43
0.0000000001
44
0.0000000001
40
0
40
0
40
0
40
0
40
1
40
1
40
1
40
1
41
1
41
1
41
1
41
1
10
26.87237819130964
20
-1.6549761701568895
30
0
10
26.923955072718332
20
-1.6847536588653877
30
0
10
26.987503008204175
20
-1.6847536588653877
30
0
10
27.03908145363874
20
-1.6549761701568895
30
0
0
SPLINE
5
982
100
AcDbEntity
8
0
100
AcDbSpline
70
4
71
3
72
8
73
4
74
0
42
0.000000001
43
0.0000000001
44
0.0000000001
40
0
40
0
40
0
40
0
40
1
40
1
40
1
40
1
41
1
41
1
41
1
41
1
10
27.03908145363874
20
-1.6549761701568895
30
0
10
27.090658335047433
20
-1.6251947713836978
30
0
10
27.122433084803294
20
-1.5701613927826223
30
0
10
27.122433084803294
20
-1.5106048513397519
30
0
0
SPLINE
5
983
100
AcDbEntity
8
0
100
AcDbSpline
70
4
71
3
72
8
73
4
74
0
42
0.000000001
43
0.0000000001
44
0.0000000001
40
0
40
0
40
0
40
0
40
1
40
1
40
1
40
1
41
1
41
1
41
1
41
1
10
27.122433084803294
20
-1.5106048513397519
30
0
10
27.122433084803294
20
-1.4510498739227593
30
0
10
27.09065833504744
20
-1.396014931295807
30
0
10
27.039081453638747
20
-1.3662335325226125
30
0
0
SPLINE
5
984
100
AcDbEntity
8
0
100
AcDbSpline
70
4
71
3
72
8
73
4
74
0
42
0.000000001
43
0.0000000001
44
0.0000000001
40
0
40
0
40
0
40
0
40
1
40
1
40
1
40
1
41
1
41
1
41
1
41
1
10
27.03908145363874
20
-1.9473356176361396
30
0
10
26.987501444178296
20
-1.9175581289276413
30
0
10
26.923955072718332
20
-1.9175581289276413
30
0
10
26.87237819130964
20
-1.9473356176361396
30
0
0
SPLINE
5
985
100
AcDbEntity
8
0
100
AcDbSpline
70
4
71
3
72
8
73
4
74
0
42
0.000000001
43
0.0000000001
44
0.0000000001
40
0
40
0
40
0
40
0
40
1
40
1
40
1
40
1
41
1
41
1
41
1
41
1
10
26.87237819130964
20
-1.9473356176361396
30
0
10
26.820798181849192
20
-1.9771170164093315
30
0
10
26.789026560145089
20
-2.0321519590362853
30
0
10
26.789026560145089
20
-2.0917069364532761
30
0
0
SPLINE
5
986
100
AcDbEntity
8
0
100
AcDbSpline
70
4
71
3
72
8
73
4
74
0
42
0.000000001
43
0.0000000001
44
0.0000000001
40
0
40
0
40
0
40
0
40
1
40
1
40
1
40
1
41
1
41
1
41
1
41
1
10
26.789026560145089
20
-2.0917069364532761
30
0
10
26.789026560145089
20
-2.1512634778961495
30
0
10
26.820798181849192
20
-2.2062968564972221
30
0
10
26.87237819130964
20
-2.236078255270415
30
0
0
SPLINE
5
987
100
AcDbEntity
8
0
100
AcDbSpline
70
4
71
3
72
8
73
4
74
0
42
0.000000001
43
0.0000000001
44
0.0000000001
40
0
40
0
40
0
40
0
40
1
40
1
40
1
40
1
41
1
41
1
41
1
41
1
10
26.87237819130964
20
-2.236078255270415
30
0
10
26.923955072718332
20
-2.2658573080047901
30
0
10
26.987503008204175
20
-2.2658573080047901
30
0
10
27.03908145363874
20
-2.236078255270415
30
0
0
SPLINE
5
988
100
AcDbEntity
8
0
100
AcDbSpline
70
4
71
3
72
8
73
4
74
0
42
0.000000001
43
0.0000000001
44
0.0000000001
40
0
40
0
40
0
40
0
40
1
40
1
40
1
40
1
41
1
41
1
41
1
41
1
10
27.03908145363874
20
-2.236078255270415
30
0
10
27.090658335047433
20
-2.2062968564972221
30
0
10
27.122433084803291
20
-2.1512634778961495
30
0
10
27.122433084803291
20
-2.0917069364532761
30
0
0
SPLINE
5
989
100
AcDbEntity
8
0
100
AcDbSpline
70
4
71
3
72
8
73
4
74
0
42
0.000000001
43
0.0000000001
44
0.0000000001
40
0
40
0
40
0
40
0
40
1
40
1
40
1
40
1
41
1
41
1
41
1
41
1
10
27.122433084803291
20
-2.0917069364532761
30
0
10
27.122433084803291
20
-2.0321519590362853
30
0
10
27.090658335047433
20
-1.9771170164093315
30
0
10
27.03908145363874
20
-1.9473356176361396
30
0
0
SPLINE
5
990
100
AcDbEntity
8
0
100
AcDbSpline
70
4
71
3
72
8
73
4
74
0
42
0.000000001
43
0.0000000001
44
0.0000000001
40
0
40
0
40
0
40
0
40
1
40
1
40
1
40
1
41
1
41
1
41
1
41
1
10
26.291276888209058
20
-1.3662335325226125
30
0
10
26.239696878748607
20
-1.396014931295807
30
0
10
26.207925257044504
20
-1.4510498739227593
30
0
10
26.207925257044504
20
-1.5106048513397519
30
0
0
SPLINE
5
991
100
AcDbEntity
8
0
100
AcDbSpline
70
4
71
3
72
8
73
4
74
0
42
0.000000001
43
0.0000000001
44
0.0000000001
40
0
40
0
40
0
40
0
40
1
40
1
40
1
40
1
41
1
41
1
41
1
41
1
10
26.207925257044504
20
-1.5106048513397519
30
0
10
26.207925257044504
20
-1.5701613927826223
30
0
10
26.239696878748607
20
-1.6251947713836978
30
0
10
26.291276888209058
20
-1.6549761701568895
30
0
0
SPLINE
5
992
100
AcDbEntity
8
0
100
AcDbSpline
70
4
71
3
72
8
73
4
74
0
42
0.000000001
43
0.0000000001
44
0.0000000001
40
0
40
0
40
0
40
0
40
1
40
1
40
1
40
1
41
1
41
1
41
1
41
1
10
26.291276888209058
20
-1.6549761701568895
30
0
10
26.342853769617751
20
-1.6847536588653877
30
0
10
26.406400141077707
20
-1.6847536588653877
30
0
10
26.457980150538152
20
-1.6549761701568895
30
0
0
SPLINE
5
993
100
AcDbEntity
8
0
100
AcDbSpline
70
4
71
3
72
8
73
4
74
0
42
0.000000001
43
0.0000000001
44
0.0000000001
40
0
40
0
40
0
40
0
40
1
40
1
40
1
40
1
41
1
41
1
41
1
41
1
10
26.457980150538152
20
-1.6549761701568895
30
0
10
26.509557031946844
20
-1.6251947713836978
30
0
10
26.541331781702706
20
-1.5701613927826223
30
0
10
26.541331781702706
20
-1.5106048513397519
30
0
0
SPLINE
5
994
100
AcDbEntity
8
0
100
AcDbSpline
70
4
71
3
72
8
73
4
74
0
42
0.000000001
43
0.0000000001
44
0.0000000001
40
0
40
0
40
0
40
0
40
1
40
1
40
1
40
1
41
1
41
1
41
1
41
1
10
26.541331781702706
20
-1.5106048513397519
30
0
10
26.541331781702706
20
-1.4510498739227593
30
0
10
26.509557031946851
20
-1.396014931295807
30
0
10
26.457980150538159
20
-1.3662335325226125
30
0
0
SPLINE
5
995
100
AcDbEntity
8
0
100
AcDbSpline
70
4
71
3
72
8
73
4
74
0
42
0.000000001
43
0.0000000001
44
0.0000000001
40
0
40
0
40
0
40
0
40
1
40
1
40
1
40
1
41
1
41
1
41
1
41
1
10
26.457980150538159
20
-1.3662335325226125
30
0
10
26.406400141077714
20
-1.3364560438141171
30
0
10
26.342853769617751
20
-1.3364560438141171
30
0
10
26.291276888209058
20
-1.3662335325226125
30
0
0
SPLINE
5
996
100
AcDbEntity
8
0
100
AcDbSpline
70
4
71
3
72
8
73
4
74
0
42
0.000000001
43
0.0000000001
44
0.0000000001
40
0
40
0
40
0
40
0
40
1
40
1
40
1
40
1
41
1
41
1
41
1
41
1
10
26.541331781702706
20
-3.2539111066803259
30
0
10
26.541331781702706
20
-3.1943545652374556
30
0
10
26.509557031946844
20
-3.1393211866363826
30
0
10
26.457980150538152
20
-3.1095405698761267
30
0
0
SPLINE
5
997
100
AcDbEntity
8
0
100
AcDbSpline
70
4
71
3
72
8
73
4
74
0
42
0.000000001
43
0.0000000001
44
0.0000000001
40
0
40
0
40
0
40
0
40
1
40
1
40
1
40
1
41
1
41
1
41
1
41
1
10
26.457980150538152
20
-3.1095405698761267
30
0
10
26.406400141077707
20
-3.0797630811676298
30
0
10
26.342853769617751
20
-3.0797630811676298
30
0
10
26.291276888209058
20
-3.1095405698761267
30
0
0
SPLINE
5
998
100
AcDbEntity
8
0
100
AcDbSpline
70
4
71
3
72
8
73
4
74
0
42
0.000000001
43
0.0000000001
44
0.0000000001
40
0
40
0
40
0
40
0
40
1
40
1
40
1
40
1
41
1
41
1
41
1
41
1
10
26.291276888209058
20
-3.1095405698761267
30
0
10
26.239696878748607
20
-3.1393211866363826
30
0
10
26.207925257044504
20
-3.1943561292633351
30
0
10
26.207925257044504
20
-3.2539111066803259
30
0
0
SPLINE
5
999
100
AcDbEntity
8
0
100
AcDbSpline
70
4
71
3
72
8
73
4
74
0
42
0.000000001
43
0.0000000001
44
0.0000000001
40
0
40
0
40
0
40
0
40
1
40
1
40
1
40
1
41
1
41
1
41
1
41
1
10
26.207925257044504
20
-3.2539111066803259
30
0
10
26.207925257044504
20
-3.3134676481231966
30
0
10
26.239696878748607
20
-3.3685010267242723
30
0
10
26.291276888209058
20
-3.3982816434845255
30
0
0
SPLINE
5
1000
100
AcDbEntity
8
0
100
AcDbSpline
70
4
71
3
72
8
73
4
74
0
42
0.000000001
43
0.0000000001
44
0.0000000001
40
0
40
0
40
0
40
0
40
1
40
1
40
1
40
1
41
1
41
1
41
1
41
1
10
26.291276888209058
20
-3.3982816434845255
30
0
10
26.342853769617751
20
-3.4280591321930225
30
0
10
26.406400141077707
20
-3.4280591321930225
30
0
10
26.457980150538152
20
-3.3982816434845255
30
0
0
SPLINE
5
1001
100
AcDbEntity
8
0
100
AcDbSpline
70
4
71
3
72
8
73
4
74
0
42
0.000000001
43
0.0000000001
44
0.0000000001
40
0
40
0
40
0
40
0
40
1
40
1
40
1
40
1
41
1
41
1
41
1
41
1
10
26.457980150538152
20
-3.3982816434845255
30
0
10
26.509557031946844
20
-3.3685010267242723
30
0
10
26.541331781702706
20
-3.3134660840973198
30
0
10
26.541331781702706
20
-3.2539111066803259
30
0
0
SPLINE
5
1002
100
AcDbEntity
8
0
100
AcDbSpline
70
4
71
3
72
8
73
4
74
0
42
0.000000001
43
0.0000000001
44
0.0000000001
40
0
40
0
40
0
40
0
40
1
40
1
40
1
40
1
41
1
41
1
41
1
41
1
10
26.457980150538152
20
-2.5284384847626025
30
0
10
26.406400141077707
20
-2.4986594320282287
30
0
10
26.342853769617751
20
-2.4986594320282287
30
0
10
26.291276888209058
20
-2.5284384847626025
30
0
0
SPLINE
5
1003
100
AcDbEntity
8
0
100
AcDbSpline
70
4
71
3
72
8
73
4
74
0
42
0.000000001
43
0.0000000001
44
0.0000000001
40
0
40
0
40
0
40
0
40
1
40
1
40
1
40
1
41
1
41
1
41
1
41
1
10
26.291276888209058
20
-2.5284384847626025
30
0
10
26.239696878748607
20
-2.5582198835357954
30
0
10
26.207925257044504
20
-2.6132532621368711
30
0
10
26.207925257044504
20
-2.6728098035797414
30
0
0
SPLINE
5
1004
100
AcDbEntity
8
0
100
AcDbSpline
70
4
71
3
72
8
73
4
74
0
42
0.000000001
43
0.0000000001
44
0.0000000001
40
0
40
0
40
0
40
0
40
1
40
1
40
1
40
1
41
1
41
1
41
1
41
1
10
26.207925257044504
20
-2.6728098035797414
30
0
10
26.207925257044504
20
-2.7323647809967353
30
0
10
26.239696878748607
20
-2.7873997236236878
30
0
10
26.291276888209058
20
-2.8171811223968795
30
0
0
SPLINE
5
1005
100
AcDbEntity
8
0
100
AcDbSpline
70
4
71
3
72
8
73
4
74
0
42
0.000000001
43
0.0000000001
44
0.0000000001
40
0
40
0
40
0
40
0
40
1
40
1
40
1
40
1
41
1
41
1
41
1
41
1
10
26.291276888209058
20
-2.8171811223968795
30
0
10
26.342853769617751
20
-2.8469586111053733
30
0
10
26.406400141077707
20
-2.8469586111053733
30
0
10
26.457980150538152
20
-2.8171811223968795
30
0
0
SPLINE
5
1006
100
AcDbEntity
8
0
100
AcDbSpline
70
4
71
3
72
8
73
4
74
0
42
0.000000001
43
0.0000000001
44
0.0000000001
40
0
40
0
40
0
40
0
40
1
40
1
40
1
40
1
41
1
41
1
41
1
41
1
10
26.457980150538152
20
-2.8171811223968795
30
0
10
26.509557031946844
20
-2.7873997236236878
30
0
10
26.541331781702706
20
-2.7323647809967353
30
0
10
26.541331781702706
20
-2.6728098035797414
30
0
0
SPLINE
5
1007
100
AcDbEntity
8
0
100
AcDbSpline
70
4
71
3
72
8
73
4
74
0
42
0.000000001
43
0.0000000001
44
0.0000000001
40
0
40
0
40
0
40
0
40
1
40
1
40
1
40
1
41
1
41
1
41
1
41
1
10
26.541331781702706
20
-2.6728098035797414
30
0
10
26.541331781702706
20
-2.6132532621368711
30
0
10
26.509557031946844
20
-2.5582198835357954
30
0
10
26.457980150538152
20
-2.5284384847626025
30
0
0
SPLINE
5
1008
100
AcDbEntity
8
0
100
AcDbSpline
70
4
71
3
72
8
73
4
74
0
42
0.000000001
43
0.0000000001
44
0.0000000001
40
0
40
0
40
0
40
0
40
1
40
1
40
1
40
1
41
1
41
1
41
1
41
1
10
25.129072717982005
20
-1.3662335325226125
30
0
10
25.077492708521557
20
-1.396014931295807
30
0
10
25.045721086817455
20
-1.4510498739227593
30
0
10
25.045721086817455
20
-1.5106048513397519
30
0
0
SPLINE
5
1009
100
AcDbEntity
8
0
100
AcDbSpline
70
4
71
3
72
8
73
4
74
0
42
0.000000001
43
0.0000000001
44
0.0000000001
40
0
40
0
40
0
40
0
40
1
40
1
40
1
40
1
41
1
41
1
41
1
41
1
10
25.045721086817455
20
-1.5106048513397519
30
0
10
25.045721086817455
20
-1.5701613927826223
30
0
10
25.077492708521557
20
-1.6251947713836978
30
0
10
25.129072717982005
20
-1.6549761701568895
30
0
0
SPLINE
5
1010
100
AcDbEntity
8
0
100
AcDbSpline
70
4
71
3
72
8
73
4
74
0
42
0.000000001
43
0.0000000001
44
0.0000000001
40
0
40
0
40
0
40
0
40
1
40
1
40
1
40
1
41
1
41
1
41
1
41
1
10
25.129072717982005
20
-1.6549761701568895
30
0
10
25.180649599390694
20
-1.6847536588653877
30
0
10
25.244197534876538
20
-1.6847536588653877
30
0
10
25.295775980311106
20
-1.6549761701568895
30
0
0
SPLINE
5
1011
100
AcDbEntity
8
0
100
AcDbSpline
70
4
71
3
72
8
73
4
74
0
42
0.000000001
43
0.0000000001
44
0.0000000001
40
0
40
0
40
0
40
0
40
1
40
1
40
1
40
1
41
1
41
1
41
1
41
1
10
25.295775980311106
20
-1.6549761701568895
30
0
10
25.347352861719799
20
-1.6251947713836978
30
0
10
25.37912761147566
20
-1.5701613927826223
30
0
10
25.37912761147566
20
-1.5106048513397519
30
0
0
SPLINE
5
1012
100
AcDbEntity
8
0
100
AcDbSpline
70
4
71
3
72
8
73
4
74
0
42
0.000000001
43
0.0000000001
44
0.0000000001
40
0
40
0
40
0
40
0
40
1
40
1
40
1
40
1
41
1
41
1
41
1
41
1
10
25.37912761147566
20
-1.5106048513397519
30
0
10
25.37912761147566
20
-1.4510498739227593
30
0
10
25.347352861719799
20
-1.396014931295807
30
0
10
25.295775980311106
20
-1.3662335325226125
30
0
0
SPLINE
5
1013
100
AcDbEntity
8
0
100
AcDbSpline
70
4
71
3
72
8
73
4
74
0
42
0.000000001
43
0.0000000001
44
0.0000000001
40
0
40
0
40
0
40
0
40
1
40
1
40
1
40
1
41
1
41
1
41
1
41
1
10
25.295775980311106
20
-1.3662335325226125
30
0
10
25.244195970850658
20
-1.3364560438141171
30
0
10
25.180649599390698
20
-1.3364560438141171
30
0
10
25.129072717982005
20
-1.3662335325226125
30
0
0
SPLINE
5
1014
100
AcDbEntity
8
0
100
AcDbSpline
70
4
71
3
72
8
73
4
74
0
42
0.000000001
43
0.0000000001
44
0.0000000001
40
0
40
0
40
0
40
0
40
1
40
1
40
1
40
1
41
1
41
1
41
1
41
1
10
25.295777544336985
20
-4.5604873777374566
30
0
10
25.347354425745678
20
-4.5307067609772007
30
0
10
25.379129175501536
20
-4.4756718183502482
30
0
10
25.379129175501536
20
-4.416116840933257
30
0
0
SPLINE
5
1015
100
AcDbEntity
8
0
100
AcDbSpline
70
4
71
3
72
8
73
4
74
0
42
0.000000001
43
0.0000000001
44
0.0000000001
40
0
40
0
40
0
40
0
40
1
40
1
40
1
40
1
41
1
41
1
41
1
41
1
10
25.379129175501536
20
-4.416116840933257
30
0
10
25.379129175501536
20
-4.3565602994903863
30
0
10
25.347354425745678
20
-4.3015269208893114
30
0
10
25.295777544336985
20
-4.2717463041290582
30
0
0
SPLINE
5
1016
100
AcDbEntity
8
0
100
AcDbSpline
70
4
71
3
72
8
73
4
74
0
42
0.000000001
43
0.0000000001
44
0.0000000001
40
0
40
0
40
0
40
0
40
1
40
1
40
1
40
1
41
1
41
1
41
1
41
1
10
25.295777544336985
20
-4.2717463041290582
30
0
10
25.244197534876538
20
-4.2419672513946844
30
0
10
25.18065116341657
20
-4.2419672513946844
30
0
10
25.129074282007885
20
-4.2717463041290582
30
0
0
SPLINE
5
1017
100
AcDbEntity
8
0
100
AcDbSpline
70
4
71
3
72
8
73
4
74
0
42
0.000000001
43
0.0000000001
44
0.0000000001
40
0
40
0
40
0
40
0
40
1
40
1
40
1
40
1
41
1
41
1
41
1
41
1
10
25.129074282007885
20
-4.2717463041290582
30
0
10
25.077494272547433
20
-4.3015269208893114
30
0
10
25.045722650843334
20
-4.3565618635162631
30
0
10
25.045722650843334
20
-4.416116840933257
30
0
0
SPLINE
5
1018
100
AcDbEntity
8
0
100
AcDbSpline
70
4
71
3
72
8
73
4
74
0
42
0.000000001
43
0.0000000001
44
0.0000000001
40
0
40
0
40
0
40
0
40
1
40
1
40
1
40
1
41
1
41
1
41
1
41
1
10
25.045722650843334
20
-4.416116840933257
30
0
10
25.045722650843334
20
-4.4756718183502482
30
0
10
25.077494272547433
20
-4.5307067609772007
30
0
10
25.129074282007885
20
-4.5604873777374566
30
0
0
SPLINE
5
1019
100
AcDbEntity
8
0
100
AcDbSpline
70
4
71
3
72
8
73
4
74
0
42
0.000000001
43
0.0000000001
44
0.0000000001
40
0
40
0
40
0
40
0
40
1
40
1
40
1
40
1
41
1
41
1
41
1
41
1
10
25.129074282007885
20
-4.5604873777374566
30
0
10
25.18065116341657
20
-4.5902648664459509
30
0
10
25.244199098902417
20
-4.5902648664459509
30
0
10
25.295777544336985
20
-4.5604873777374566
30
0
0
SPLINE
5
1020
100
AcDbEntity
8
0
100
AcDbSpline
70
4
71
3
72
8
73
4
74
0
42
0.000000001
43
0.0000000001
44
0.0000000001
40
0
40
0
40
0
40
0
40
1
40
1
40
1
40
1
41
1
41
1
41
1
41
1
10
25.87688041146345
20
-4.5604873777374566
30
0
10
25.928455728846263
20
-4.5307067609772007
30
0
10
25.960232042628004
20
-4.4756718183502482
30
0
10
25.960232042628004
20
-4.416116840933257
30
0
0
SPLINE
5
1021
100
AcDbEntity
8
0
100
AcDbSpline
70
4
71
3
72
8
73
4
74
0
42
0.000000001
43
0.0000000001
44
0.0000000001
40
0
40
0
40
0
40
0
40
1
40
1
40
1
40
1
41
1
41
1
41
1
41
1
10
25.960232042628004
20
-4.416116840933257
30
0
10
25.960232042628004
20
-4.3565602994903863
30
0
10
25.928455728846263
20
-4.3015269208893114
30
0
10
25.87688041146345
20
-4.2717463041290582
30
0
0
SPLINE
5
1022
100
AcDbEntity
8
0
100
AcDbSpline
70
4
71
3
72
8
73
4
74
0
42
0.000000001
43
0.0000000001
44
0.0000000001
40
0
40
0
40
0
40
0
40
1
40
1
40
1
40
1
41
1
41
1
41
1
41
1
10
25.87688041146345
20
-4.2717463041290582
30
0
10
25.825300402002998
20
-4.2419672513946844
30
0
10
25.761752466517155
20
-4.2419672513946844
30
0
10
25.71017558510847
20
-4.2717463041290582
30
0
0
SPLINE
5
1023
100
AcDbEntity
8
0
100
AcDbSpline
70
4
71
3
72
8
73
4
74
0
42
0.000000001
43
0.0000000001
44
0.0000000001
40
0
40
0
40
0
40
0
40
1
40
1
40
1
40
1
41
1
41
1
41
1
41
1
10
25.71017558510847
20
-4.2717463041290582
30
0
10
25.658595575648018
20
-4.3015269208893114
30
0
10
25.626823953943923
20
-4.3565618635162631
30
0
10
25.626823953943923
20
-4.416116840933257
30
0
0
SPLINE
5
1024
100
AcDbEntity
8
0
100
AcDbSpline
70
4
71
3
72
8
73
4
74
0
42
0.000000001
43
0.0000000001
44
0.0000000001
40
0
40
0
40
0
40
0
40
1
40
1
40
1
40
1
41
1
41
1
41
1
41
1
10
25.626823953943923
20
-4.416116840933257
30
0
10
25.626823953943923
20
-4.4756718183502482
30
0
10
25.658597139673905
20
-4.5307067609772007
30
0
10
25.71017558510847
20
-4.5604873777374566
30
0
0
SPLINE
5
1025
100
AcDbEntity
8
0
100
AcDbSpline
70
4
71
3
72
8
73
4
74
0
42
0.000000001
43
0.0000000001
44
0.0000000001
40
0
40
0
40
0
40
0
40
1
40
1
40
1
40
1
41
1
41
1
41
1
41
1
10
25.71017558510847
20
-4.5604873777374566
30
0
10
25.761752466517155
20
-4.5902648664459509
30
0
10
25.825300402002998
20
-4.5902648664459509
30
0
10
25.87688041146345
20
-4.5604873777374566
30
0
0
SPLINE
5
1026
100
AcDbEntity
8
0
100
AcDbSpline
70
4
71
3
72
8
73
4
74
0
42
0.000000001
43
0.0000000001
44
0.0000000001
40
0
40
0
40
0
40
0
40
1
40
1
40
1
40
1
41
1
41
1
41
1
41
1
10
26.541333345728585
20
-4.416116840933257
30
0
10
26.541333345728585
20
-4.3565602994903863
30
0
10
26.509558595972724
20
-4.3015269208893114
30
0
10
26.457981714564031
20
-4.2717463041290582
30
0
0
SPLINE
5
1027
100
AcDbEntity
8
0
100
AcDbSpline
70
4
71
3
72
8
73
4
74
0
42
0.000000001
43
0.0000000001
44
0.0000000001
40
0
40
0
40
0
40
0
40
1
40
1
40
1
40
1
41
1
41
1
41
1
41
1
10
26.457981714564031
20
-4.2717463041290582
30
0
10
26.406401705103583
20
-4.2419672513946844
30
0
10
26.34285533364363
20
-4.2419672513946844
30
0
10
26.291278452234938
20
-4.2717463041290582
30
0
0
SPLINE
5
1028
100
AcDbEntity
8
0
100
AcDbSpline
70
4
71
3
72
8
73
4
74
0
42
0.000000001
43
0.0000000001
44
0.0000000001
40
0
40
0
40
0
40
0
40
1
40
1
40
1
40
1
41
1
41
1
41
1
41
1
10
26.291278452234938
20
-4.2717463041290582
30
0
10
26.239698442774486
20
-4.3015269208893114
30
0
10
26.207926821070384
20
-4.3565618635162631
30
0
10
26.207926821070384
20
-4.416116840933257
30
0
0
SPLINE
5
1029
100
AcDbEntity
8
0
100
AcDbSpline
70
4
71
3
72
8
73
4
74
0
42
0.000000001
43
0.0000000001
44
0.0000000001
40
0
40
0
40
0
40
0
40
1
40
1
40
1
40
1
41
1
41
1
41
1
41
1
10
26.207926821070384
20
-4.416116840933257
30
0
10
26.207926821070384
20
-4.4756718183502482
30
0
10
26.239698442774486
20
-4.5307067609772007
30
0
10
26.291278452234938
20
-4.5604873777374566
30
0
0
SPLINE
5
1030
100
AcDbEntity
8
0
100
AcDbSpline
70
4
71
3
72
8
73
4
74
0
42
0.000000001
43
0.0000000001
44
0.0000000001
40
0
40
0
40
0
40
0
40
1
40
1
40
1
40
1
41
1
41
1
41
1
41
1
10
26.291278452234938
20
-4.5604873777374566
30
0
10
26.34285533364363
20
-4.5902648664459509
30
0
10
26.406401705103583
20
-4.5902648664459509
30
0
10
26.457981714564031
20
-4.5604873777374566
30
0
0
SPLINE
5
1031
100
AcDbEntity
8
0
100
AcDbSpline
70
4
71
3
72
8
73
4
74
0
42
0.000000001
43
0.0000000001
44
0.0000000001
40
0
40
0
40
0
40
0
40
1
40
1
40
1
40
1
41
1
41
1
41
1
41
1
10
26.457981714564031
20
-4.5604873777374566
30
0
10
26.509558595972724
20
-4.5307067609772007
30
0
10
26.541333345728585
20
-4.4756718183502482
30
0
10
26.541333345728585
20
-4.416116840933257
30
0
0
SPLINE
5
1032
100
AcDbEntity
8
0
100
AcDbSpline
70
4
71
3
72
8
73
4
74
0
42
0.000000001
43
0.0000000001
44
0.0000000001
40
0
40
0
40
0
40
0
40
1
40
1
40
1
40
1
41
1
41
1
41
1
41
1
10
27.039084581690499
20
-4.5604873777374566
30
0
10
27.090661463099192
20
-4.5307067609772007
30
0
10
27.12243621285505
20
-4.4756718183502482
30
0
10
27.12243621285505
20
-4.416116840933257
30
0
0
SPLINE
5
1033
100
AcDbEntity
8
0
100
AcDbSpline
70
4
71
3
72
8
73
4
74
0
42
0.000000001
43
0.0000000001
44
0.0000000001
40
0
40
0
40
0
40
0
40
1
40
1
40
1
40
1
41
1
41
1
41
1
41
1
10
27.12243621285505
20
-4.416116840933257
30
0
10
27.12243621285505
20
-4.3565602994903863
30
0
10
27.090661463099192
20
-4.3015269208893114
30
0
10
27.039084581690499
20
-4.2717463041290582
30
0
0
SPLINE
5
1034
100
AcDbEntity
8
0
100
AcDbSpline
70
4
71
3
72
8
73
4
74
0
42
0.000000001
43
0.0000000001
44
0.0000000001
40
0
40
0
40
0
40
0
40
1
40
1
40
1
40
1
41
1
41
1
41
1
41
1
10
27.039084581690499
20
-4.2717463041290582
30
0
10
26.987504572230055
20
-4.2419672513946844
30
0
10
26.923958200770091
20
-4.2419672513946844
30
0
10
26.872381319361399
20
-4.2717463041290582
30
0
0
SPLINE
5
1035
100
AcDbEntity
8
0
100
AcDbSpline
70
4
71
3
72
8
73
4
74
0
42
0.000000001
43
0.0000000001
44
0.0000000001
40
0
40
0
40
0
40
0
40
1
40
1
40
1
40
1
41
1
41
1
41
1
41
1
10
26.872381319361399
20
-4.2717463041290582
30
0
10
26.820801309900951
20
-4.3015269208893114
30
0
10
26.789029688196848
20
-4.3565618635162631
30
0
10
26.789029688196848
20
-4.416116840933257
30
0
0
SPLINE
5
1036
100
AcDbEntity
8
0
100
AcDbSpline
70
4
71
3
72
8
73
4
74
0
42
0.000000001
43
0.0000000001
44
0.0000000001
40
0
40
0
40
0
40
0
40
1
40
1
40
1
40
1
41
1
41
1
41
1
41
1
10
26.789029688196848
20
-4.416116840933257
30
0
10
26.789029688196848
20
-4.4756718183502482
30
0
10
26.820801309900951
20
-4.5307067609772007
30
0
10
26.872381319361399
20
-4.5604873777374566
30
0
0
SPLINE
5
1037
100
AcDbEntity
8
0
100
AcDbSpline
70
4
71
3
72
8
73
4
74
0
42
0.000000001
43
0.0000000001
44
0.0000000001
40
0
40
0
40
0
40
0
40
1
40
1
40
1
40
1
41
1
41
1
41
1
41
1
10
26.872381319361399
20
-4.5604873777374566
30
0
10
26.923958200770091
20
-4.5902648664459509
30
0
10
26.987506136255931
20
-4.5902648664459509
30
0
10
27.039084581690499
20
-4.5604873777374566
30
0
0
SPLINE
5
1038
100
AcDbEntity
8
0
100
AcDbSpline
70
4
71
3
72
8
73
4
74
0
42
0.000000001
43
0.0000000001
44
0.0000000001
40
0
40
0
40
0
40
0
40
1
40
1
40
1
40
1
41
1
41
1
41
1
41
1
10
27.620187448816971
20
-4.5604873777374566
30
0
10
27.67176276619978
20
-4.5307067609772007
30
0
10
27.70353907998151
20
-4.4756718183502482
30
0
10
27.70353907998151
20
-4.416116840933257
30
0
0
SPLINE
5
1039
100
AcDbEntity
8
0
100
AcDbSpline
70
4
71
3
72
8
73
4
74
0
42
0.000000001
43
0.0000000001
44
0.0000000001
40
0
40
0
40
0
40
0
40
1
40
1
40
1
40
1
41
1
41
1
41
1
41
1
10
27.70353907998151
20
-4.416116840933257
30
0
10
27.70353907998151
20
-4.3565602994903863
30
0
10
27.67176276619978
20
-4.3015269208893114
30
0
10
27.620187448816971
20
-4.2717463041290582
30
0
0
SPLINE
5
1040
100
AcDbEntity
8
0
100
AcDbSpline
70
4
71
3
72
8
73
4
74
0
42
0.000000001
43
0.0000000001
44
0.0000000001
40
0
40
0
40
0
40
0
40
1
40
1
40
1
40
1
41
1
41
1
41
1
41
1
10
27.620187448816971
20
-4.2717463041290582
30
0
10
27.568607439356519
20
-4.2419672513946844
30
0
10
27.505059503870676
20
-4.2419672513946844
30
0
10
27.453482622461983
20
-4.2717463041290582
30
0
0
SPLINE
5
1041
100
AcDbEntity
8
0
100
AcDbSpline
70
4
71
3
72
8
73
4
74
0
42
0.000000001
43
0.0000000001
44
0.0000000001
40
0
40
0
40
0
40
0
40
1
40
1
40
1
40
1
41
1
41
1
41
1
41
1
10
27.453482622461983
20
-4.2717463041290582
30
0
10
27.401902613001532
20
-4.3015269208893114
30
0
10
27.370130991297437
20
-4.3565618635162631
30
0
10
27.370130991297437
20
-4.416116840933257
30
0
0
SPLINE
5
1042
100
AcDbEntity
8
0
100
AcDbSpline
70
4
71
3
72
8
73
4
74
0
42
0.000000001
43
0.0000000001
44
0.0000000001
40
0
40
0
40
0
40
0
40
1
40
1
40
1
40
1
41
1
41
1
41
1
41
1
10
27.370130991297437
20
-4.416116840933257
30
0
10
27.370130991297437
20
-4.4756718183502482
30
0
10
27.401904177027411
20
-4.5307067609772007
30
0
10
27.453482622461983
20
-4.5604873777374566
30
0
0
SPLINE
5
1043
100
AcDbEntity
8
0
100
AcDbSpline
70
4
71
3
72
8
73
4
74
0
42
0.000000001
43
0.0000000001
44
0.0000000001
40
0
40
0
40
0
40
0
40
1
40
1
40
1
40
1
41
1
41
1
41
1
41
1
10
27.453482622461983
20
-4.5604873777374566
30
0
10
27.505059503870676
20
-4.5902648664459509
30
0
10
27.568607439356519
20
-4.5902648664459509
30
0
10
27.620187448816971
20
-4.5604873777374566
30
0
0
SPLINE
5
1044
100
AcDbEntity
8
0
100
AcDbSpline
70
4
71
3
72
8
73
4
74
0
42
0.000000001
43
0.0000000001
44
0.0000000001
40
0
40
0
40
0
40
0
40
1
40
1
40
1
40
1
41
1
41
1
41
1
41
1
10
28.284640383082106
20
-4.416116840933257
30
0
10
28.284640383082106
20
-4.3565602994903863
30
0
10
28.252865633326245
20
-4.3015269208893114
30
0
10
28.201288751917552
20
-4.2717463041290582
30
0
0
SPLINE
5
1045
100
AcDbEntity
8
0
100
AcDbSpline
70
4
71
3
72
8
73
4
74
0
42
0.000000001
43
0.0000000001
44
0.0000000001
40
0
40
0
40
0
40
0
40
1
40
1
40
1
40
1
41
1
41
1
41
1
41
1
10
28.201288751917552
20
-4.2717463041290582
30
0
10
28.149708742457101
20
-4.2419672513946844
30
0
10
28.086160806971264
20
-4.2419672513946844
30
0
10
28.034585489588444
20
-4.2717463041290582
30
0
0
SPLINE
5
1046
100
AcDbEntity
8
0
100
AcDbSpline
70
4
71
3
72
8
73
4
74
0
42
0.000000001
43
0.0000000001
44
0.0000000001
40
0
40
0
40
0
40
0
40
1
40
1
40
1
40
1
41
1
41
1
41
1
41
1
10
28.034585489588444
20
-4.2717463041290582
30
0
10
27.983005480128
20
-4.3015269208893114
30
0
10
27.951233858423898
20
-4.3565618635162631
30
0
10
27.951233858423898
20
-4.416116840933257
30
0
0
SPLINE
5
1047
100
AcDbEntity
8
0
100
AcDbSpline
70
4
71
3
72
8
73
4
74
0
42
0.000000001
43
0.0000000001
44
0.0000000001
40
0
40
0
40
0
40
0
40
1
40
1
40
1
40
1
41
1
41
1
41
1
41
1
10
27.951233858423898
20
-4.416116840933257
30
0
10
27.951233858423898
20
-4.4756718183502482
30
0
10
27.983005480128
20
-4.5307067609772007
30
0
10
28.034585489588444
20
-4.5604873777374566
30
0
0
SPLINE
5
1048
100
AcDbEntity
8
0
100
AcDbSpline
70
4
71
3
72
8
73
4
74
0
42
0.000000001
43
0.0000000001
44
0.0000000001
40
0
40
0
40
0
40
0
40
1
40
1
40
1
40
1
41
1
41
1
41
1
41
1
10
28.034585489588444
20
-4.5604873777374566
30
0
10
28.086160806971264
20
-4.5902648664459509
30
0
10
28.149708742457101
20
-4.5902648664459509
30
0
10
28.201288751917552
20
-4.5604873777374566
30
0
0
SPLINE
5
1049
100
AcDbEntity
8
0
100
AcDbSpline
70
4
71
3
72
8
73
4
74
0
42
0.000000001
43
0.0000000001
44
0.0000000001
40
0
40
0
40
0
40
0
40
1
40
1
40
1
40
1
41
1
41
1
41
1
41
1
10
28.201288751917552
20
-4.5604873777374566
30
0
10
28.252865633326245
20
-4.5307067609772007
30
0
10
28.284640383082106
20
-4.4756718183502482
30
0
10
28.284640383082106
20
-4.416116840933257
30
0
0
SPLINE
5
1050
100
AcDbEntity
8
0
100
AcDbSpline
70
4
71
3
72
8
73
4
74
0
42
0.000000001
43
0.0000000001
44
0.0000000001
40
0
40
0
40
0
40
0
40
1
40
1
40
1
40
1
41
1
41
1
41
1
41
1
10
25.87687884743757
20
-3.9793845106109909
30
0
10
25.928454164820383
20
-3.9496038938507376
30
0
10
25.960230478602124
20
-3.8945689512237824
30
0
10
25.960230478602124
20
-3.8350139738067917
30
0
0
SPLINE
5
1051
100
AcDbEntity
8
0
100
AcDbSpline
70
4
71
3
72
8
73
4
74
0
42
0.000000001
43
0.0000000001
44
0.0000000001
40
0
40
0
40
0
40
0
40
1
40
1
40
1
40
1
41
1
41
1
41
1
41
1
10
25.960230478602124
20
-3.8350139738067917
30
0
10
25.960230478602124
20
-3.7754589963897978
30
0
10
25.928454164820383
20
-3.7204240537628457
30
0
10
25.87687884743757
20
-3.6906434370025925
30
0
0
SPLINE
5
1052
100
AcDbEntity
8
0
100
AcDbSpline
70
4
71
3
72
8
73
4
74
0
42
0.000000001
43
0.0000000001
44
0.0000000001
40
0
40
0
40
0
40
0
40
1
40
1
40
1
40
1
41
1
41
1
41
1
41
1
10
25.87687884743757
20
-3.6906434370025925
30
0
10
25.825298837977119
20
-3.6608659482940955
30
0
10
25.761750902491283
20
-3.6608659482940955
30
0
10
25.71017402108259
20
-3.6906434370025925
30
0
0
SPLINE
5
1053
100
AcDbEntity
8
0
100
AcDbSpline
70
4
71
3
72
8
73
4
74
0
42
0.000000001
43
0.0000000001
44
0.0000000001
40
0
40
0
40
0
40
0
40
1
40
1
40
1
40
1
41
1
41
1
41
1
41
1
10
25.71017402108259
20
-3.6906434370025925
30
0
10
25.658594011622146
20
-3.7204240537628457
30
0
10
25.626822389918043
20
-3.7754589963897978
30
0
10
25.626822389918043
20
-3.8350139738067917
30
0
0
SPLINE
5
1054
100
AcDbEntity
8
0
100
AcDbSpline
70
4
71
3
72
8
73
4
74
0
42
0.000000001
43
0.0000000001
44
0.0000000001
40
0
40
0
40
0
40
0
40
1
40
1
40
1
40
1
41
1
41
1
41
1
41
1
10
25.626822389918043
20
-3.8350139738067917
30
0
10
25.626822389918043
20
-3.8945705152496624
30
0
10
25.658595575648018
20
-3.9496038938507376
30
0
10
25.71017402108259
20
-3.9793845106109909
30
0
0
SPLINE
5
1055
100
AcDbEntity
8
0
100
AcDbSpline
70
4
71
3
72
8
73
4
74
0
42
0.000000001
43
0.0000000001
44
0.0000000001
40
0
40
0
40
0
40
0
40
1
40
1
40
1
40
1
41
1
41
1
41
1
41
1
10
25.71017402108259
20
-3.9793845106109909
30
0
10
25.761750902491283
20
-4.0091635633453651
30
0
10
25.825298837977119
20
-4.0091635633453651
30
0
10
25.87687884743757
20
-3.9793845106109909
30
0
0
SPLINE
5
1056
100
AcDbEntity
8
0
100
AcDbSpline
70
4
71
3
72
8
73
4
74
0
42
0.000000001
43
0.0000000001
44
0.0000000001
40
0
40
0
40
0
40
0
40
1
40
1
40
1
40
1
41
1
41
1
41
1
41
1
10
25.295775980311106
20
-3.9793845106109909
30
0
10
25.347352861719799
20
-3.9496038938507376
30
0
10
25.37912761147566
20
-3.8945689512237824
30
0
10
25.37912761147566
20
-3.8350139738067917
30
0
0
SPLINE
5
1057
100
AcDbEntity
8
0
100
AcDbSpline
70
4
71
3
72
8
73
4
74
0
42
0.000000001
43
0.0000000001
44
0.0000000001
40
0
40
0
40
0
40
0
40
1
40
1
40
1
40
1
41
1
41
1
41
1
41
1
10
25.37912761147566
20
-3.8350139738067917
30
0
10
25.37912761147566
20
-3.7754589963897978
30
0
10
25.347352861719799
20
-3.7204240537628457
30
0
10
25.295775980311106
20
-3.6906434370025925
30
0
0
SPLINE
5
1058
100
AcDbEntity
8
0
100
AcDbSpline
70
4
71
3
72
8
73
4
74
0
42
0.000000001
43
0.0000000001
44
0.0000000001
40
0
40
0
40
0
40
0
40
1
40
1
40
1
40
1
41
1
41
1
41
1
41
1
10
25.295775980311106
20
-3.6906434370025925
30
0
10
25.244195970850658
20
-3.6608659482940955
30
0
10
25.180649599390694
20
-3.6608659482940955
30
0
10
25.129072717982005
20
-3.6906434370025925
30
0
0
SPLINE
5
1059
100
AcDbEntity
8
0
100
AcDbSpline
70
4
71
3
72
8
73
4
74
0
42
0.000000001
43
0.0000000001
44
0.0000000001
40
0
40
0
40
0
40
0
40
1
40
1
40
1
40
1
41
1
41
1
41
1
41
1
10
25.129072717982005
20
-3.6906434370025925
30
0
10
25.077492708521557
20
-3.7204240537628457
30
0
10
25.045721086817455
20
-3.7754589963897978
30
0
10
25.045721086817455
20
-3.8350139738067917
30
0
0
SPLINE
5
1060
100
AcDbEntity
8
0
100
AcDbSpline
70
4
71
3
72
8
73
4
74
0
42
0.000000001
43
0.0000000001
44
0.0000000001
40
0
40
0
40
0
40
0
40
1
40
1
40
1
40
1
41
1
41
1
41
1
41
1
10
25.045721086817455
20
-3.8350139738067917
30
0
10
25.045721086817455
20
-3.8945705152496624
30
0
10
25.077492708521557
20
-3.9496038938507376
30
0
10
25.129072717982005
20
-3.9793845106109909
30
0
0
SPLINE
5
1061
100
AcDbEntity
8
0
100
AcDbSpline
70
4
71
3
72
8
73
4
74
0
42
0.000000001
43
0.0000000001
44
0.0000000001
40
0
40
0
40
0
40
0
40
1
40
1
40
1
40
1
41
1
41
1
41
1
41
1
10
25.129072717982005
20
-3.9793845106109909
30
0
10
25.180649599390694
20
-4.0091635633453651
30
0
10
25.244197534876538
20
-4.0091635633453651
30
0
10
25.295775980311106
20
-3.9793845106109909
30
0
0
SPLINE
5
1062
100
AcDbEntity
8
0
100
AcDbSpline
70
4
71
3
72
8
73
4
74
0
42
0.000000001
43
0.0000000001
44
0.0000000001
40
0
40
0
40
0
40
0
40
1
40
1
40
1
40
1
41
1
41
1
41
1
41
1
10
26.541331781702706
20
-3.8350139738067917
30
0
10
26.541331781702706
20
-3.7754589963897978
30
0
10
26.509557031946844
20
-3.7204240537628457
30
0
10
26.457980150538152
20
-3.6906434370025925
30
0
0
SPLINE
5
1063
100
AcDbEntity
8
0
100
AcDbSpline
70
4
71
3
72
8
73
4
74
0
42
0.000000001
43
0.0000000001
44
0.0000000001
40
0
40
0
40
0
40
0
40
1
40
1
40
1
40
1
41
1
41
1
41
1
41
1
10
26.457980150538152
20
-3.6906434370025925
30
0
10
26.406400141077707
20
-3.6608659482940955
30
0
10
26.342853769617751
20
-3.6608659482940955
30
0
10
26.291276888209058
20
-3.6906434370025925
30
0
0
SPLINE
5
1064
100
AcDbEntity
8
0
100
AcDbSpline
70
4
71
3
72
8
73
4
74
0
42
0.000000001
43
0.0000000001
44
0.0000000001
40
0
40
0
40
0
40
0
40
1
40
1
40
1
40
1
41
1
41
1
41
1
41
1
10
26.291276888209058
20
-3.6906434370025925
30
0
10
26.239696878748607
20
-3.7204240537628457
30
0
10
26.207925257044504
20
-3.7754589963897978
30
0
10
26.207925257044504
20
-3.8350139738067917
30
0
0
SPLINE
5
1065
100
AcDbEntity
8
0
100
AcDbSpline
70
4
71
3
72
8
73
4
74
0
42
0.000000001
43
0.0000000001
44
0.0000000001
40
0
40
0
40
0
40
0
40
1
40
1
40
1
40
1
41
1
41
1
41
1
41
1
10
26.207925257044504
20
-3.8350139738067917
30
0
10
26.207925257044504
20
-3.8945705152496624
30
0
10
26.239696878748607
20
-3.9496038938507376
30
0
10
26.291276888209058
20
-3.9793845106109909
30
0
0
SPLINE
5
1066
100
AcDbEntity
8
0
100
AcDbSpline
70
4
71
3
72
8
73
4
74
0
42
0.000000001
43
0.0000000001
44
0.0000000001
40
0
40
0
40
0
40
0
40
1
40
1
40
1
40
1
41
1
41
1
41
1
41
1
10
26.291276888209058
20
-3.9793845106109909
30
0
10
26.342853769617751
20
-4.0091635633453651
30
0
10
26.406400141077707
20
-4.0091635633453651
30
0
10
26.457980150538152
20
-3.9793845106109909
30
0
0
SPLINE
5
1067
100
AcDbEntity
8
0
100
AcDbSpline
70
4
71
3
72
8
73
4
74
0
42
0.000000001
43
0.0000000001
44
0.0000000001
40
0
40
0
40
0
40
0
40
1
40
1
40
1
40
1
41
1
41
1
41
1
41
1
10
26.457980150538152
20
-3.9793845106109909
30
0
10
26.509557031946844
20
-3.9496038938507376
30
0
10
26.541331781702706
20
-3.8945689512237824
30
0
10
26.541331781702706
20
-3.8350139738067917
30
0
0
SPLINE
5
1068
100
AcDbEntity
8
0
100
AcDbSpline
70
4
71
3
72
8
73
4
74
0
42
0.000000001
43
0.0000000001
44
0.0000000001
40
0
40
0
40
0
40
0
40
1
40
1
40
1
40
1
41
1
41
1
41
1
41
1
10
27.122433084803291
20
-3.8350139738067917
30
0
10
27.122433084803291
20
-3.7754589963897978
30
0
10
27.090658335047433
20
-3.7204240537628457
30
0
10
27.03908145363874
20
-3.6906434370025925
30
0
0
SPLINE
5
1069
100
AcDbEntity
8
0
100
AcDbSpline
70
4
71
3
72
8
73
4
74
0
42
0.000000001
43
0.0000000001
44
0.0000000001
40
0
40
0
40
0
40
0
40
1
40
1
40
1
40
1
41
1
41
1
41
1
41
1
10
27.03908145363874
20
-3.6906434370025925
30
0
10
26.987501444178296
20
-3.6608659482940955
30
0
10
26.923955072718332
20
-3.6608659482940955
30
0
10
26.87237819130964
20
-3.6906434370025925
30
0
0
SPLINE
5
1070
100
AcDbEntity
8
0
100
AcDbSpline
70
4
71
3
72
8
73
4
74
0
42
0.000000001
43
0.0000000001
44
0.0000000001
40
0
40
0
40
0
40
0
40
1
40
1
40
1
40
1
41
1
41
1
41
1
41
1
10
26.87237819130964
20
-3.6906434370025925
30
0
10
26.820798181849192
20
-3.7204240537628457
30
0
10
26.789026560145089
20
-3.7754589963897978
30
0
10
26.789026560145089
20
-3.8350139738067917
30
0
0
SPLINE
5
1071
100
AcDbEntity
8
0
100
AcDbSpline
70
4
71
3
72
8
73
4
74
0
42
0.000000001
43
0.0000000001
44
0.0000000001
40
0
40
0
40
0
40
0
40
1
40
1
40
1
40
1
41
1
41
1
41
1
41
1
10
26.789026560145089
20
-3.8350139738067917
30
0
10
26.789026560145089
20
-3.8945705152496624
30
0
10
26.820798181849192
20
-3.9496038938507376
30
0
10
26.87237819130964
20
-3.9793845106109909
30
0
0
SPLINE
5
1072
100
AcDbEntity
8
0
100
AcDbSpline
70
4
71
3
72
8
73
4
74
0
42
0.000000001
43
0.0000000001
44
0.0000000001
40
0
40
0
40
0
40
0
40
1
40
1
40
1
40
1
41
1
41
1
41
1
41
1
10
26.87237819130964
20
-3.9793845106109909
30
0
10
26.923955072718332
20
-4.0091635633453651
30
0
10
26.987503008204175
20
-4.0091635633453651
30
0
10
27.03908145363874
20
-3.9793845106109909
30
0
0
SPLINE
5
1073
100
AcDbEntity
8
0
100
AcDbSpline
70
4
71
3
72
8
73
4
74
0
42
0.000000001
43
0.0000000001
44
0.0000000001
40
0
40
0
40
0
40
0
40
1
40
1
40
1
40
1
41
1
41
1
41
1
41
1
10
27.03908145363874
20
-3.9793845106109909
30
0
10
27.090658335047433
20
-3.9496038938507376
30
0
10
27.122433084803291
20
-3.8945689512237824
30
0
10
27.122433084803291
20
-3.8350139738067917
30
0
0
SPLINE
5
1074
100
AcDbEntity
8
0
100
AcDbSpline
70
4
71
3
72
8
73
4
74
0
42
0.000000001
43
0.0000000001
44
0.0000000001
40
0
40
0
40
0
40
0
40
1
40
1
40
1
40
1
41
1
41
1
41
1
41
1
10
27.703535951929759
20
-3.8350139738067917
30
0
10
27.703535951929759
20
-3.7754589963897978
30
0
10
27.671759638148021
20
-3.7204240537628457
30
0
10
27.620184320765212
20
-3.6906434370025925
30
0
0
SPLINE
5
1075
100
AcDbEntity
8
0
100
AcDbSpline
70
4
71
3
72
8
73
4
74
0
42
0.000000001
43
0.0000000001
44
0.0000000001
40
0
40
0
40
0
40
0
40
1
40
1
40
1
40
1
41
1
41
1
41
1
41
1
10
27.620184320765212
20
-3.6906434370025925
30
0
10
27.56860431130476
20
-3.6608659482940955
30
0
10
27.505056375818917
20
-3.6608659482940955
30
0
10
27.453479494410225
20
-3.6906434370025925
30
0
0
SPLINE
5
1076
100
AcDbEntity
8
0
100
AcDbSpline
70
4
71
3
72
8
73
4
74
0
42
0.000000001
43
0.0000000001
44
0.0000000001
40
0
40
0
40
0
40
0
40
1
40
1
40
1
40
1
41
1
41
1
41
1
41
1
10
27.453479494410225
20
-3.6906434370025925
30
0
10
27.40189948494978
20
-3.7204240537628457
30
0
10
27.370127863245678
20
-3.7754589963897978
30
0
10
27.370127863245678
20
-3.8350139738067917
30
0
0
SPLINE
5
1077
100
AcDbEntity
8
0
100
AcDbSpline
70
4
71
3
72
8
73
4
74
0
42
0.000000001
43
0.0000000001
44
0.0000000001
40
0
40
0
40
0
40
0
40
1
40
1
40
1
40
1
41
1
41
1
41
1
41
1
10
27.370127863245678
20
-3.8350139738067917
30
0
10
27.370127863245678
20
-3.8945705152496624
30
0
10
27.401901048975652
20
-3.9496038938507376
30
0
10
27.453479494410225
20
-3.9793845106109909
30
0
0
SPLINE
5
1078
100
AcDbEntity
8
0
100
AcDbSpline
70
4
71
3
72
8
73
4
74
0
42
0.000000001
43
0.0000000001
44
0.0000000001
40
0
40
0
40
0
40
0
40
1
40
1
40
1
40
1
41
1
41
1
41
1
41
1
10
27.453479494410225
20
-3.9793845106109909
30
0
10
27.505056375818917
20
-4.0091635633453651
30
0
10
27.56860431130476
20
-4.0091635633453651
30
0
10
27.620184320765212
20
-3.9793845106109909
30
0
0
SPLINE
5
1079
100
AcDbEntity
8
0
100
AcDbSpline
70
4
71
3
72
8
73
4
74
0
42
0.000000001
43
0.0000000001
44
0.0000000001
40
0
40
0
40
0
40
0
40
1
40
1
40
1
40
1
41
1
41
1
41
1
41
1
10
27.620184320765212
20
-3.9793845106109909
30
0
10
27.671759638148021
20
-3.9496038938507376
30
0
10
27.703535951929759
20
-3.8945689512237824
30
0
10
27.703535951929759
20
-3.8350139738067917
30
0
0
SPLINE
5
1080
100
AcDbEntity
8
0
100
AcDbSpline
70
4
71
3
72
8
73
4
74
0
42
0.000000001
43
0.0000000001
44
0.0000000001
40
0
40
0
40
0
40
0
40
1
40
1
40
1
40
1
41
1
41
1
41
1
41
1
10
28.201285623865793
20
-3.9793845106109909
30
0
10
28.252862505274486
20
-3.9496038938507376
30
0
10
28.284637255030347
20
-3.8945689512237824
30
0
10
28.284637255030347
20
-3.8350139738067917
30
0
0
SPLINE
5
1081
100
AcDbEntity
8
0
100
AcDbSpline
70
4
71
3
72
8
73
4
74
0
42
0.000000001
43
0.0000000001
44
0.0000000001
40
0
40
0
40
0
40
0
40
1
40
1
40
1
40
1
41
1
41
1
41
1
41
1
10
28.284637255030347
20
-3.8350139738067917
30
0
10
28.284637255030347
20
-3.7754589963897978
30
0
10
28.252862505274486
20
-3.7204240537628457
30
0
10
28.201285623865793
20
-3.6906434370025925
30
0
0
SPLINE
5
1082
100
AcDbEntity
8
0
100
AcDbSpline
70
4
71
3
72
8
73
4
74
0
42
0.000000001
43
0.0000000001
44
0.0000000001
40
0
40
0
40
0
40
0
40
1
40
1
40
1
40
1
41
1
41
1
41
1
41
1
10
28.201285623865793
20
-3.6906434370025925
30
0
10
28.149705614405342
20
-3.6608659482940955
30
0
10
28.086157678919506
20
-3.6608659482940955
30
0
10
28.034582361536692
20
-3.6906434370025925
30
0
0
SPLINE
5
1083
100
AcDbEntity
8
0
100
AcDbSpline
70
4
71
3
72
8
73
4
74
0
42
0.000000001
43
0.0000000001
44
0.0000000001
40
0
40
0
40
0
40
0
40
1
40
1
40
1
40
1
41
1
41
1
41
1
41
1
10
28.034582361536692
20
-3.6906434370025925
30
0
10
27.983002352076241
20
-3.7204240537628457
30
0
10
27.951230730372146
20
-3.7754589963897978
30
0
10
27.951230730372146
20
-3.8350139738067917
30
0
0
SPLINE
5
1084
100
AcDbEntity
8
0
100
AcDbSpline
70
4
71
3
72
8
73
4
74
0
42
0.000000001
43
0.0000000001
44
0.0000000001
40
0
40
0
40
0
40
0
40
1
40
1
40
1
40
1
41
1
41
1
41
1
41
1
10
27.951230730372146
20
-3.8350139738067917
30
0
10
27.951230730372146
20
-3.8945705152496624
30
0
10
27.983002352076241
20
-3.9496038938507376
30
0
10
28.034582361536692
20
-3.9793845106109909
30
0
0
SPLINE
5
1085
100
AcDbEntity
8
0
100
AcDbSpline
70
4
71
3
72
8
73
4
74
0
42
0.000000001
43
0.0000000001
44
0.0000000001
40
0
40
0
40
0
40
0
40
1
40
1
40
1
40
1
41
1
41
1
41
1
41
1
10
28.034582361536692
20
-3.9793845106109909
30
0
10
28.086157678919506
20
-4.0091635633453651
30
0
10
28.149705614405342
20
-4.0091635633453651
30
0
10
28.201285623865793
20
-3.9793845106109909
30
0
0
LWPOLYLINE
5
1086
100
AcDbEntity
8
0
100
AcDbPolyline
90
28
70
1
43
0.0
10
24.307352785425849
20
-5.141513111685212
10
24.307352785425852
20
-0.80410649547427038
10
24.487029642420481
20
-0.6244304204925839
10
25.257456278162671
20
-0.62443042049258402
10
25.257456278162671
20
-0.62116160640567042
10
25.260725092249579
20
-0.62116160640567042
10
25.260725092249579
20
-0.54987408885806321
10
25.476720194178291
20
-0.33387820491641279
10
27.834742578821857
20
-0.33387820491641301
10
28.050742372828196
20
-0.54987799892276079
10
28.050742372828196
20
-0.62116160640566898
10
28.054011186915112
20
-0.62116160640567042
10
28.054011186915112
20
-0.6244304204925839
10
28.82443313057966
20
-0.62443042049258402
10
29.004113115626044
20
-0.80411040553897073
10
29.004113115626051
20
-5.1415084196075744
10
28.824433130579667
20
-5.3211899686798381
10
28.054011186915115
20
-5.3211899686798381
10
28.054011186915112
20
-5.3244587827667527
10
28.050742372828196
20
-5.3244587827667527
10
28.050742372828196
20
-5.3957408262237845
10
27.834742578821846
20
-5.6117406202301323
10
25.476720194178299
20
-5.6117406202301323
10
25.260725092249587
20
-5.3957455183014202
10
25.260725092249579
20
-5.3244587827667527
10
25.257456278162664
20
-5.3244587827667527
10
25.257456278162664
20
-5.3211899686798381
10
24.487029642420477
20
-5.3211899686798381
0
LWPOLYLINE
5
1087
100
AcDbEntity
8
0
100
AcDbPolyline
90
148
70
1
43
0.0
10
28.466714139322598
20
-11.235023288276253
10
28.466714139322598
20
-11.6209333796764
10
28.432312608103118
20
-11.655334910895883
10
27.418089528421721
20
-11.655334910895883
10
27.383684087137542
20
-11.620929469611704
10
27.383684087137542
20
-11.235027198340951
10
27.418089528421721
20
-11.200621757056771
10
27.652808366159757
20
-11.200621757056771
10
27.652808366159757
20
-11.197352942969857
10
27.656077180246672
20
-11.197352942969857
10
27.656077180246672
20
-11.113819102790414
10
27.652808366159757
20
-11.113819102790414
10
27.652808366159757
20
-11.110550288703502
10
27.418089528421721
20
-11.110550288703502
10
27.383684087137542
20
-11.07614484741932
10
27.383684087137542
20
-10.690242576148567
10
27.418089528421721
20
-10.655837134864388
10
27.652808366159757
20
-10.655837134864388
10
27.652808366159757
20
-10.652568320777473
10
27.656077180246672
20
-10.652568320777473
10
27.656077180246672
20
-10.569034480598031
10
27.652808366159757
20
-10.569034480598031
10
27.652808366159757
20
-10.565765666511117
10
27.418089528421721
20
-10.565765666511117
10
27.383684087137542
20
-10.531360225226937
10
27.383684087137542
20
-9.7041836924815748
10
27.418089528421721
20
-9.6697782511973962
10
27.525691380838712
20
-9.6697782511973962
10
27.525691380838712
20
-9.6665094371104807
10
27.528960194925627
20
-9.6665094371104843
10
27.528960194925627
20
-9.5938713832164417
10
27.525691380838712
20
-9.5938713832164382
10
27.525691380838712
20
-9.5906025691295262
10
27.418089528421721
20
-9.5906025691295262
10
27.383684087137542
20
-9.5561971278453441
10
27.383684087137542
20
-8.8325293917918817
10
27.418089528421721
20
-8.7981239505076996
10
27.525691380838712
20
-8.7981239505076996
10
27.525691380838712
20
-8.7948551364207876
10
27.528960194925627
20
-8.7948551364207876
10
27.528960194925627
20
-8.7222170825267451
10
27.525691380838712
20
-8.7222170825267451
10
27.525691380838712
20
-8.7189482684398296
10
27.418089528421721
20
-8.7189482684398296
10
27.383684087137542
20
-8.6845428271556511
10
27.383684087137542
20
-7.9608743090892453
10
27.418089528421721
20
-7.9264688678050659
10
27.525691380838712
20
-7.9264688678050632
10
27.525691380838712
20
-7.9232000537181477
10
27.528960194925627
20
-7.9232000537181504
10
27.528960194925627
20
-7.8505619998241079
10
27.525691380838712
20
-7.8505619998241079
10
27.525691380838712
20
-7.8472931857371933
10
27.418089528421721
20
-7.8472931857371933
10
27.383684087137542
20
-7.8128877444530112
10
27.383684087137542
20
-6.9857104296947101
10
27.418089528421721
20
-6.951306552436411
10
27.652808366159757
20
-6.9513065524364137
10
27.652808366159757
20
-6.9480361743236188
10
27.656077180246672
20
-6.9480361743236161
10
27.656077180246672
20
-6.8645031161571124
10
27.652808366159757
20
-6.8645031161571177
10
27.652808366159757
20
-6.8612327380443228
10
27.418089528421721
20
-6.8612327380443228
10
27.383684087137542
20
-6.8268288607860201
10
27.383684087137542
20
-6.4409258075023281
10
27.418089528421721
20
-6.4065219302440255
10
27.652808366159757
20
-6.4065219302440255
10
27.652808366159757
20
-6.4032531161571136
10
27.656077180246672
20
-6.4032531161571136
10
27.656077180246672
20
-6.319720057990609
10
27.652808366159757
20
-6.319720057990609
10
27.652808366159757
20
-6.3164512439036971
10
27.418089528421721
20
-6.3164512439036971
10
27.383684087137542
20
-6.282045802619515
10
27.383684087137542
20
-5.8961443133617015
10
27.418089528421721
20
-5.8617388720775248
10
28.432312608103118
20
-5.8617404361034051
10
28.466714139322598
20
-5.8961427493358247
10
28.466714139322598
20
-6.2820520587230329
10
28.432312608103118
20
-6.3164543719554533
10
28.197591424326262
20
-6.3164543719554533
10
28.197591424326262
20
-6.3197231860423679
10
28.194321828226407
20
-6.3197231860423679
10
28.194321828226407
20
-6.4032562442088699
10
28.197591424326262
20
-6.4032562442088699
10
28.197591424326262
20
-6.4065250582957844
10
28.432312608103118
20
-6.4065250582957871
10
28.466714139322598
20
-6.4409273715282049
10
28.466714139322598
20
-6.8268366809154131
10
28.432312608103118
20
-6.8612374301219567
10
28.197591424326262
20
-6.8612374301219567
10
28.197591424326262
20
-6.8645078082347508
10
28.194321828226407
20
-6.8645078082347508
10
28.194321828226407
20
-6.9480408664012545
10
28.197591424326262
20
-6.9480408664012545
10
28.197591424326262
20
-6.9513112445140495
10
28.432312608103118
20
-6.9513112445140495
10
28.466714139322598
20
-6.9857119937205931
10
28.466714139322598
20
-7.8128971286082853
10
28.432312608103118
20
-7.8472994418407058
10
28.324706845621428
20
-7.8472994418407085
10
28.324706845621428
20
-7.8505682559276231
10
28.321438031534512
20
-7.8505682559276204
10
28.321438031534512
20
-7.9232063098216639
10
28.324706845621428
20
-7.9232063098216665
10
28.324706845621428
20
-7.9264751239085811
10
28.432312608103118
20
-7.9264751239085784
10
28.466714139322598
20
-7.9608774371410016
10
28.466714139322598
20
-8.6845537753368021
10
28.432312608103118
20
-8.7189560885692252
10
28.324706845621428
20
-8.7189560885692252
10
28.324706845621428
20
-8.7222249026561371
10
28.321438031534512
20
-8.7222249026561371
10
28.321438031534512
20
-8.7948629565501832
10
28.324706845621428
20
-8.7948629565501832
10
28.324706845621428
20
-8.7981317706370952
10
28.432312608103118
20
-8.7981317706370952
10
28.466714139322598
20
-8.8325340838695148
10
28.466714139322598
20
-9.5562104220653179
10
28.432312608103118
20
-9.5906119532847978
10
28.324706845621428
20
-9.5906119532848013
10
28.324706845621428
20
-9.5938807673717132
10
28.321438031534512
20
-9.5938807673717132
10
28.321438031534512
20
-9.6665188212657558
10
28.324706845621428
20
-9.6665188212657558
10
28.324706845621428
20
-9.6697876353526713
10
28.432312608103118
20
-9.6697876353526713
10
28.466714139322598
20
-9.7041891665721547
10
28.466714139322598
20
-10.531372737433971
10
28.432312608103118
20
-10.565774268653451
10
28.197591424326262
20
-10.565774268653451
10
28.197591424326262
20
-10.569043082740365
10
28.194321828226407
20
-10.569043082740366
10
28.194321828226407
20
-10.652576922919808
10
28.197591424326262
20
-10.652576922919808
10
28.197591424326262
20
-10.655845737006723
10
28.432312608103118
20
-10.655845737006723
10
28.466714139322598
20
-10.690247268226205
10
28.466714139322598
20
-11.076148757484019
10
28.432312608103118
20
-11.110550288703502
10
28.197591424326262
20
-11.110550288703502
10
28.197591424326262
20
-11.113819102790414
10
28.194321828226407
20
-11.113819102790414
10
28.194321828226407
20
-11.197352942969857
10
28.197591424326262
20
-11.197352942969857
10
28.197591424326262
20
-11.200621757056771
10
28.432312608103118
20
-11.200621757056771
0
SPLINE
5
1088
100
AcDbEntity
8
0
100
AcDbSpline
70
4
71
3
72
8
73
4
74
0
42
0.000000001
43
0.0000000001
44
0.0000000001
40
0
40
0
40
0
40
0
40
1
40
1
40
1
40
1
41
1
41
1
41
1
41
1
10
28.163926549295748
20
-10.203857898261605
30
0
10
28.114685540537199
20
-10.289148139503059
30
0
10
28.023685040811856
20
-10.34168689682728
30
0
10
27.925199113230068
20
-10.34168689682728
30
0
0
SPLINE
5
1089
100
AcDbEntity
8
0
100
AcDbSpline
70
4
71
3
72
8
73
4
74
0
42
0.000000001
43
0.0000000001
44
0.0000000001
40
0
40
0
40
0
40
0
40
1
40
1
40
1
40
1
41
1
41
1
41
1
41
1
10
28.163926549295748
20
-9.9281967730785006
30
0
10
28.213171468118986
20
-10.013488578345832
30
0
10
28.213171468118986
20
-10.118566092994271
30
0
10
28.163926549295748
20
-10.203857898261605
30
0
0
SPLINE
5
1090
100
AcDbEntity
8
0
100
AcDbSpline
70
4
71
3
72
8
73
4
74
0
42
0.000000001
43
0.0000000001
44
0.0000000001
40
0
40
0
40
0
40
0
40
1
40
1
40
1
40
1
41
1
41
1
41
1
41
1
10
27.925199113230068
20
-9.7903662104869476
30
0
10
28.023685040811856
20
-9.7903662104869476
30
0
10
28.114685540537199
20
-9.8429049678111671
30
0
10
28.163926549295748
20
-9.9281967730785006
30
0
0
SPLINE
5
1091
100
AcDbEntity
8
0
100
AcDbSpline
70
4
71
3
72
8
73
4
74
0
42
0.000000001
43
0.0000000001
44
0.0000000001
40
0
40
0
40
0
40
0
40
1
40
1
40
1
40
1
41
1
41
1
41
1
41
1
10
27.686471677164391
20
-9.9281967730785006
30
0
10
27.735712685922941
20
-9.8429049678111671
30
0
10
27.826717095712983
20
-9.7903662104869476
30
0
10
27.925199113230068
20
-9.7903662104869476
30
0
0
SPLINE
5
1092
100
AcDbEntity
8
0
100
AcDbSpline
70
4
71
3
72
8
73
4
74
0
42
0.000000001
43
0.0000000001
44
0.0000000001
40
0
40
0
40
0
40
0
40
1
40
1
40
1
40
1
41
1
41
1
41
1
41
1
10
27.686471677164391
20
-10.203857898261605
30
0
10
27.637230668405852
20
-10.118566092994271
30
0
10
27.637230668405852
20
-10.013488578345832
30
0
10
27.686471677164391
20
-9.9281967730785006
30
0
0
SPLINE
5
1093
100
AcDbEntity
8
0
100
AcDbSpline
70
4
71
3
72
8
73
4
74
0
42
0.000000001
43
0.0000000001
44
0.0000000001
40
0
40
0
40
0
40
0
40
1
40
1
40
1
40
1
41
1
41
1
41
1
41
1
10
27.925199113230068
20
-10.34168689682728
30
0
10
27.826717095712983
20
-10.34168689682728
30
0
10
27.735712685922941
20
-10.289148139503059
30
0
10
27.686471677164391
20
-10.203857898261605
30
0
0
SPLINE
5
1094
100
AcDbEntity
8
0
100
AcDbSpline
70
4
71
3
72
8
73
4
74
0
42
0.000000001
43
0.0000000001
44
0.0000000001
40
0
40
0
40
0
40
0
40
1
40
1
40
1
40
1
41
1
41
1
41
1
41
1
10
28.163926549295748
20
-9.0565432544017437
30
0
10
28.213171468118986
20
-9.1418342776561392
30
0
10
28.213171468118986
20
-9.2469133563304542
30
0
10
28.163926549295748
20
-9.3322043795848497
30
0
0
SPLINE
5
1095
100
AcDbEntity
8
0
100
AcDbSpline
70
4
71
3
72
8
73
4
74
0
42
0.000000001
43
0.0000000001
44
0.0000000001
40
0
40
0
40
0
40
0
40
1
40
1
40
1
40
1
41
1
41
1
41
1
41
1
10
27.925199113230068
20
-8.9187134738231304
30
0
10
28.023685040811856
20
-8.9187134738231304
30
0
10
28.114685540537199
20
-8.9712522311473499
30
0
10
28.163926549295748
20
-9.0565432544017437
30
0
0
SPLINE
5
1096
100
AcDbEntity
8
0
100
AcDbSpline
70
4
71
3
72
8
73
4
74
0
42
0.000000001
43
0.0000000001
44
0.0000000001
40
0
40
0
40
0
40
0
40
1
40
1
40
1
40
1
41
1
41
1
41
1
41
1
10
27.686471677164391
20
-9.0565432544017437
30
0
10
27.735712685922941
20
-8.9712522311473499
30
0
10
27.826717095712983
20
-8.9187134738231304
30
0
10
27.925199113230068
20
-8.9187134738231304
30
0
0
SPLINE
5
1097
100
AcDbEntity
8
0
100
AcDbSpline
70
4
71
3
72
8
73
4
74
0
42
0.000000001
43
0.0000000001
44
0.0000000001
40
0
40
0
40
0
40
0
40
1
40
1
40
1
40
1
41
1
41
1
41
1
41
1
10
27.686471677164391
20
-9.3322043795848497
30
0
10
27.637230668405852
20
-9.2469133563304542
30
0
10
27.637230668405852
20
-9.1418342776561392
30
0
10
27.686471677164391
20
-9.0565432544017437
30
0
0
SPLINE
5
1098
100
AcDbEntity
8
0
100
AcDbSpline
70
4
71
3
72
8
73
4
74
0
42
0.000000001
43
0.0000000001
44
0.0000000001
40
0
40
0
40
0
40
0
40
1
40
1
40
1
40
1
41
1
41
1
41
1
41
1
10
27.925199113230068
20
-9.4700333781505233
30
0
10
27.826717095712983
20
-9.4700333781505233
30
0
10
27.735712685922941
20
-9.417494620826302
30
0
10
27.686471677164391
20
-9.3322043795848497
30
0
0
SPLINE
5
1099
100
AcDbEntity
8
0
100
AcDbSpline
70
4
71
3
72
8
73
4
74
0
42
0.000000001
43
0.0000000001
44
0.0000000001
40
0
40
0
40
0
40
0
40
1
40
1
40
1
40
1
41
1
41
1
41
1
41
1
10
28.163926549295748
20
-9.3322043795848497
30
0
10
28.114685540537199
20
-9.417494620826302
30
0
10
28.023685040811856
20
-9.4700333781505233
30
0
10
27.925199113230068
20
-9.4700333781505233
30
0
0
SPLINE
5
1100
100
AcDbEntity
8
0
100
AcDbSpline
70
4
71
3
72
8
73
4
74
0
42
0.000000001
43
0.0000000001
44
0.0000000001
40
0
40
0
40
0
40
0
40
1
40
1
40
1
40
1
41
1
41
1
41
1
41
1
10
28.163926549295748
20
-8.4605508609080928
30
0
10
28.114685540537199
20
-8.5458418841624848
30
0
10
28.023685040811856
20
-8.5983806414867061
30
0
10
27.925199113230068
20
-8.5983806414867061
30
0
0
SPLINE
5
1101
100
AcDbEntity
8
0
100
AcDbSpline
70
4
71
3
72
8
73
4
74
0
42
0.000000001
43
0.0000000001
44
0.0000000001
40
0
40
0
40
0
40
0
40
1
40
1
40
1
40
1
41
1
41
1
41
1
41
1
10
28.163926549295748
20
-8.1848897357249868
30
0
10
28.213171468118986
20
-8.2701807589793788
30
0
10
28.213171468118986
20
-8.3752598376536955
30
0
10
28.163926549295748
20
-8.4605508609080928
30
0
0
SPLINE
5
1102
100
AcDbEntity
8
0
100
AcDbSpline
70
4
71
3
72
8
73
4
74
0
42
0.000000001
43
0.0000000001
44
0.0000000001
40
0
40
0
40
0
40
0
40
1
40
1
40
1
40
1
41
1
41
1
41
1
41
1
10
27.925199113230068
20
-8.0470599551463735
30
0
10
28.023685040811856
20
-8.0470599551463735
30
0
10
28.114685540537199
20
-8.0995987124705895
30
0
10
28.163926549295748
20
-8.1848897357249868
30
0
0
SPLINE
5
1103
100
AcDbEntity
8
0
100
AcDbSpline
70
4
71
3
72
8
73
4
74
0
42
0.000000001
43
0.0000000001
44
0.0000000001
40
0
40
0
40
0
40
0
40
1
40
1
40
1
40
1
41
1
41
1
41
1
41
1
10
27.686471677164391
20
-8.1848897357249868
30
0
10
27.735712685922941
20
-8.0995987124705895
30
0
10
27.826717095712983
20
-8.0470599551463735
30
0
10
27.925199113230068
20
-8.0470599551463735
30
0
0
SPLINE
5
1104
100
AcDbEntity
8
0
100
AcDbSpline
70
4
71
3
72
8
73
4
74
0
42
0.000000001
43
0.0000000001
44
0.0000000001
40
0
40
0
40
0
40
0
40
1
40
1
40
1
40
1
41
1
41
1
41
1
41
1
10
27.686471677164391
20
-8.4605508609080928
30
0
10
27.637230668405852
20
-8.3752598376536955
30
0
10
27.637230668405852
20
-8.2701807589793788
30
0
10
27.686471677164391
20
-8.1848897357249868
30
0
0
SPLINE
5
1105
100
AcDbEntity
8
0
100
AcDbSpline
70
4
71
3
72
8
73
4
74
0
42
0.000000001
43
0.0000000001
44
0.0000000001
40
0
40
0
40
0
40
0
40
1
40
1
40
1
40
1
41
1
41
1
41
1
41
1
10
27.925199113230068
20
-8.5983806414867061
30
0
10
27.826717095712983
20
-8.5983806414867061
30
0
10
27.735712685922941
20
-8.5458418841624848
30
0
10
27.686471677164391
20
-8.4605508609080928
30
0
0
SPLINE
5
1106
100
AcDbEntity
8
0
100
AcDbSpline
70
4
71
3
72
8
73
4
74
0
42
0.000000001
43
0.0000000001
44
0.0000000001
40
0
40
0
40
0
40
0
40
1
40
1
40
1
40
1
41
1
41
1
41
1
41
1
10
28.163926549295748
20
-7.5888973422313324
30
0
10
28.114685540537199
20
-7.6741883654857279
30
0
10
28.023685040811856
20
-7.7267271228099457
30
0
10
27.925199113230068
20
-7.7267271228099457
30
0
0
SPLINE
5
1107
100
AcDbEntity
8
0
100
AcDbSpline
70
4
71
3
72
8
73
4
74
0
42
0.000000001
43
0.0000000001
44
0.0000000001
40
0
40
0
40
0
40
0
40
1
40
1
40
1
40
1
41
1
41
1
41
1
41
1
10
28.163926549295748
20
-7.3132362170482264
30
0
10
28.213171468118986
20
-7.3985272403026219
30
0
10
28.213171468118986
20
-7.5036063189769369
30
0
10
28.163926549295748
20
-7.5888973422313324
30
0
0
SPLINE
5
1108
100
AcDbEntity
8
0
100
AcDbSpline
70
4
71
3
72
8
73
4
74
0
42
0.000000001
43
0.0000000001
44
0.0000000001
40
0
40
0
40
0
40
0
40
1
40
1
40
1
40
1
41
1
41
1
41
1
41
1
10
27.925199113230068
20
-7.1754064364696131
30
0
10
28.023685040811856
20
-7.1754064364696131
30
0
10
28.114685540537199
20
-7.2279451937938335
30
0
10
28.163926549295748
20
-7.3132362170482264
30
0
0
SPLINE
5
1109
100
AcDbEntity
8
0
100
AcDbSpline
70
4
71
3
72
8
73
4
74
0
42
0.000000001
43
0.0000000001
44
0.0000000001
40
0
40
0
40
0
40
0
40
1
40
1
40
1
40
1
41
1
41
1
41
1
41
1
10
27.686471677164391
20
-7.3132362170482264
30
0
10
27.735712685922941
20
-7.2279451937938335
30
0
10
27.826717095712983
20
-7.1754064364696131
30
0
10
27.925199113230068
20
-7.1754064364696131
30
0
0
SPLINE
5
1110
100
AcDbEntity
8
0
100
AcDbSpline
70
4
71
3
72
8
73
4
74
0
42
0.000000001
43
0.0000000001
44
0.0000000001
40
0
40
0
40
0
40
0
40
1
40
1
40
1
40
1
41
1
41
1
41
1
41
1
10
27.686471677164391
20
-7.5888973422313324
30
0
10
27.637230668405852
20
-7.5036063189769369
30
0
10
27.637230668405852
20
-7.3985272403026219
30
0
10
27.686471677164391
20
-7.3132362170482264
30
0
0
SPLINE
5
1111
100
AcDbEntity
8
0
100
AcDbSpline
70
4
71
3
72
8
73
4
74
0
42
0.000000001
43
0.0000000001
44
0.0000000001
40
0
40
0
40
0
40
0
40
1
40
1
40
1
40
1
41
1
41
1
41
1
41
1
10
27.925199113230068
20
-7.7267271228099457
30
0
10
27.826717095712983
20
-7.7267271228099457
30
0
10
27.735712685922941
20
-7.6741883654857279
30
0
10
27.686471677164391
20
-7.5888973422313324
30
0
0
ENDSEC
0
SECTION
2
OBJECTS
0
DICTIONARY
5
C
100
AcDbDictionary
3
ACAD_GROUP
350
D
3
ACAD_MLINESTYLE
350
17
0
DICTIONARY
5
D
100
AcDbDictionary
0
DICTIONARY
5
1A
330
C
100
AcDbDictionary
0
DICTIONARY
5
17
100
AcDbDictionary
0
ENDSEC
0
EOF
