0
SECTION
2
HEADER
9
$INSUNITS
70
1
9
$ACADVER
1
AC1014
9
$HANDSEED
5
FFFF
0
ENDSEC
0
SECTION
2
TABLES
0
TABLE
2
VPORT
5
8
100
AcDbSymbolTable
0
ENDTAB
0
TABLE
2
LTYPE
5
5
100
AcDbSymbolTable
0
LTYPE
5
14
100
AcDbSymbolTableRecord
100
AcDbLinetypeTableRecord
2
BYBLOCK
70
0
0
LTYPE
5
15
100
AcDbSymbolTableRecord
100
AcDbLinetypeTableRecord
2
BYLAYER
70
0
0
ENDTAB
0
TABLE
2
LAYER
5
2
100
AcDbSymbolTable
70
2
0
LAYER
5
50
100
AcDbSymbolTableRecord
100
AcDbLayerTableRecord
2
0
70
0
6
CONTINUOUS
0
ENDTAB
0
TABLE
2
STYLE
5
3
100
AcDbSymbolTable
70
1
0
STYLE
5
11
100
AcDbSymbolTableRecord
100
AcDbTextStyleTableRecord
2
STANDARD
70
0
0
ENDTAB
0
TABLE
2
VIEW
5
6
100
AcDbSymbolTable
70
0
0
ENDTAB
0
TABLE
2
UCS
5
7
100
AcDbSymbolTable
70
0
0
ENDTAB
0
TABLE
2
APPID
5
9
100
AcDbSymbolTable
70
2
0
APPID
5
12
100
AcDbSymbolTableRecord
100
AcDbRegAppTableRecord
2
ACAD
70
0
0
ENDTAB
0
TABLE
2
DIMSTYLE
5
A
100
AcDbSymbolTable
70
1
0
ENDTAB
0
TABLE
2
BLOCK_RECORD
5
1
100
AcDbSymbolTable
70
1
0
BLOCK_RECORD
5
1F
100
AcDbSymbolTableRecord
100
AcDbBlockTableRecord
2
*MODEL_SPACE
0
BLOCK_RECORD
5
1B
100
AcDbSymbolTableRecord
100
AcDbBlockTableRecord
2
*PAPER_SPACE
0
ENDTAB
0
ENDSEC
0
SECTION
2
BLOCKS
0
BLOCK
5
20
100
AcDbEntity
100
AcDbBlockBegin
2
*MODEL_SPACE
0
ENDBLK
5
21
100
AcDbEntity
100
AcDbBlockEnd
0
BLOCK
5
1C
100
AcDbEntity
100
AcDbBlockBegin
2
*PAPER_SPACE
0
ENDBLK
5
1D
100
AcDbEntity
100
AcDbBlockEnd
0
ENDSEC
0
SECTION
2
ENTITIES
0
CIRCLE
5
100
100
AcDbEntity
8
0
100
AcDbCircle
10
472.59926936468122
20
169.21986737062181
30
0
40
0.10499999999996089
210
0
220
-0
230
1
0
CIRCLE
5
101
100
AcDbEntity
8
0
100
AcDbCircle
10
465.86508929278983
20
157.55015481468911
30
0
40
0.10499999999996089
210
0
220
-0
230
1
0
CIRCLE
5
102
100
AcDbEntity
8
0
100
AcDbCircle
10
479.33678105021454
20
157.55015481468911
30
0
40
0.10499999999996089
210
0
220
-0
230
1
0
LWPOLYLINE
5
103
100
AcDbEntity
8
0
100
AcDbPolyline
90
8
70
1
43
0.0
10
472.42133214343977
20
154.45740344227764
10
472.91403939775972
20
154.57675548644661
10
473.03339144192876
20
155.06946274076662
10
473.15273789573871
20
154.57675548644661
10
473.64544515005872
20
154.45740344227764
10
473.15273789573871
20
154.33805698846763
10
473.03339144192876
20
153.84534973414762
10
472.91403939775972
20
154.33805698846763
0
CIRCLE
5
104
100
AcDbEntity
8
0
100
AcDbCircle
10
472.16606428388457
20
166.8433664563855
30
0
40
0.22343223753096483
210
0
220
0
230
1
0
LWPOLYLINE
5
105
100
AcDbEntity
8
0
100
AcDbPolyline
90
8
70
1
43
0.0
10
466.50251262837486
20
158.56673572695902
10
466.84139055240485
20
158.64882629345402
10
466.92348111889982
20
158.98769843435403
10
467.00557168539484
20
158.64882629345402
10
467.34444382629488
20
158.56673572695902
10
467.00557168539484
20
158.48464516046403
10
466.92348111889982
20
158.14577301956402
10
466.84139055240485
20
158.48464516046403
0
CIRCLE
5
106
100
AcDbEntity
8
0
100
AcDbCircle
10
469.9385252937933
20
156.20257361797039
30
0
40
0.23515564283789805
210
0
220
0
230
1
0
LWPOLYLINE
5
107
100
AcDbEntity
8
0
100
AcDbPolyline
90
8
70
1
43
0.0
10
478.28660061595787
20
159.0327673064819
10
478.20451004946278
20
159.37164523051189
10
477.86563790856286
20
159.45373039941887
10
478.20451004946278
20
159.5358209659139
10
478.28660061595787
20
159.87469888994391
10
478.36869118245284
20
159.5358209659139
10
478.70756910648288
20
159.45373039941887
10
478.36869118245284
20
159.37164523051189
0
CIRCLE
5
108
100
AcDbEntity
8
0
100
AcDbCircle
10
479.25085681252568
20
163.03828255247606
30
0
40
0.23357182588616474
210
0
220
0
230
1
0
CIRCLE
5
109
100
AcDbEntity
8
0
100
AcDbCircle
10
465.71159252791915
20
159.54009943587914
30
0
40
0.19568846028654471
210
0
220
0
230
1
0
CIRCLE
5
110
100
AcDbEntity
8
0
100
AcDbCircle
10
476.50879057535587
20
155.95974861901223
30
0
40
0.17709733917881645
210
0
220
0
230
1
0
LWPOLYLINE
5
111
100
AcDbEntity
8
0
100
AcDbPolyline
90
8
70
1
43
0.0
10
478.6773537597108
20
164.513245896444
10
479.17006101403081
20
164.63259235025401
10
479.28941305819984
20
165.125303459994
10
479.40875951200979
20
164.63259235025401
10
479.9014667663298
20
164.513245896444
10
479.40875951200979
20
164.39389944263399
10
479.28941305819984
20
163.90119218831401
10
479.17006101403081
20
164.39389944263399
0
LWPOLYLINE
5
112
100
AcDbEntity
8
0
100
AcDbPolyline
90
8
70
1
43
0.0
10
477.97248929700481
20
157.08101011190402
10
477.63361137297477
20
157.16310067839899
10
477.97248929700481
20
157.24519124489402
10
478.0545798634999
20
157.584063385794
10
478.13667042999481
20
157.24519124489402
10
478.47554257089485
20
157.16310067839899
10
478.13667042999481
20
157.08101011190402
10
478.0545798634999
20
156.74213797100401
0
LWPOLYLINE
5
113
100
AcDbEntity
8
0
100
AcDbPolyline
90
14
70
1
43
0.0
10
475.96521011674167
20
166.45235523265947
10
475.69610565616165
20
166.21766617870949
10
475.71181745651671
20
166.57438313107949
10
475.36054628489666
20
166.63844401871549
10
475.64923627907672
20
166.84857019184551
10
475.48030565418867
20
167.16315125903549
10
475.82459658789872
20
167.06846619202651
10
475.96520915288664
20
167.39667038578651
10
476.10582769377567
20
167.06846619202651
10
476.45011477206566
20
167.16315125903549
10
476.28118414717767
20
166.84857019184551
10
476.56987992448774
20
166.63844401871549
10
476.21860296973767
20
166.57438313107949
10
476.23432036045165
20
166.21766617870949
0
CIRCLE
5
114
100
AcDbEntity
8
0
100
AcDbCircle
10
471.16665280182355
20
168.80299681336803
30
0
40
0.21909333444926035
210
0
220
0
230
1
0
LWPOLYLINE
5
115
100
AcDbEntity
8
0
100
AcDbPolyline
90
28
70
1
43
0.0
10
468.32891741968382
20
162.04702278264602
10
468.24323630054283
20
161.69814004371602
10
468.23044729408986
20
161.69312375675403
10
468.22096739462279
20
161.72738378995803
10
468.2201035877718
20
161.964715348776
10
468.22010320222984
20
161.96471650540201
10
468.26414597814181
20
162.47034442876802
10
468.31880638796281
20
162.79290293825102
10
468.40508837431088
20
163.13713237801201
10
468.52886952497579
20
163.48617608072701
10
468.68994781594989
20
163.83011713507202
10
468.88660006726383
20
164.16079458076203
10
469.11710348449083
20
164.47004745751201
10
469.3780643341758
20
164.75043461195099
10
469.65936483761283
20
164.997348624408
10
469.94920779514382
20
165.20690130381303
10
470.23579600711082
20
165.37520368801199
10
470.75408512975685
20
165.58848455855701
10
471.13006453153082
20
165.68598138337202
10
471.28308268145281
20
165.708682289103
10
471.13822510627381
20
165.60233496213601
10
470.67520053776281
20
165.31909306195803
10
470.08618894003382
20
164.93180224344601
10
469.57215755046485
20
164.519346520281
10
469.15655079253384
20
164.064055153206
10
468.82349917920783
20
163.54024410526503
10
468.57714670867387
20
162.98685080520602
10
468.42013800628087
20
162.46338501012602
0
LWPOLYLINE
5
116
100
AcDbEntity
8
0
100
AcDbPolyline
90
16
70
1
43
0.0
10
472.19602030613879
20
163.745022810855
10
472.16949135388984
20
163.67879671934702
10
472.08648493237382
20
163.65207133344904
10
471.97873924457281
20
163.66690390527302
10
471.88680636913085
20
163.71629838968701
10
471.83286518791078
20
163.788627996597
10
471.82674682914188
20
163.87002825014102
10
471.84714643467481
20
163.94198253191402
10
471.88795508614373
20
164.01371999152056
10
471.91380221274181
20
164.01679367990701
10
471.93759863606579
20
163.97803610650203
10
471.95221723207987
20
163.90085291135401
10
472.00798164141781
20
163.822973234583
10
472.09741138542483
20
163.81277796193501
10
472.15622774523484
20
163.86581119174502
10
472.18785838199881
20
163.81684735774502
0
LWPOLYLINE
5
117
100
AcDbEntity
8
0
100
AcDbPolyline
90
8
70
1
43
0.0
10
475.71971495729287
20
154.94794097283301
10
475.66201859699282
20
154.97184207081003
10
475.63811942672584
20
155.02953650340001
10
475.66201859699282
20
155.08723556249402
10
475.71971495729287
20
155.11113743155502
10
475.77741131759285
20
155.08723556249402
10
475.80131048785989
20
155.02953650340001
10
475.77741131759285
20
154.97184207081003
0
LWPOLYLINE
5
118
100
AcDbEntity
8
0
100
AcDbPolyline
90
12
70
1
43
0.0
10
470.44877210670478
20
159.02791354929002
10
470.34574699515179
20
159.079939550625
10
470.35042111358877
20
159.16613421170999
10
470.44842415504979
20
159.234991627368
10
470.60127266649187
20
159.239246083338
10
470.74900811992978
20
159.19962894404401
10
470.74900754161683
20
159.19962894404401
10
470.83980480309776
20
159.14913913480802
10
470.87551370313787
20
159.101701276044
10
470.86854040498378
20
159.06446697908103
10
470.81974389621183
20
159.03640530461101
10
470.59872037845184
20
159.01057418338203
0
LWPOLYLINE
5
119
100
AcDbEntity
8
0
100
AcDbPolyline
90
16
70
1
43
0.0
10
467.26870063051683
20
161.24459036262601
10
467.47304752906683
20
161.17624244072101
10
467.68318334074684
20
161.120135284545
10
467.93853551818677
20
161.07966937453801
10
468.15275807506686
20
161.06640557311201
10
468.26768159105285
20
161.05178716986902
10
468.25651243931287
20
161.02806689109002
10
468.20274475199284
20
161.00689273167902
10
468.00212411687284
20
161.01097851302401
10
467.70969629300282
20
161.03818601919301
10
467.4070785940728
20
161.10278550900301
10
467.14117798751283
20
161.21702892890102
10
467.14117721642884
20
161.21702931444301
10
467.06433117775987
20
161.286057332436
10
467.04767267902383
20
161.33230637244301
10
467.11634715500281
20
161.30850994911901
0
LWPOLYLINE
5
120
100
AcDbEntity
8
0
100
AcDbPolyline
90
8
70
1
43
0.0
10
469.31418522959279
20
155.25044339470503
10
469.33808439985978
20
155.192749154886
10
469.31418522959279
20
155.13505009579202
10
469.25648886929281
20
155.11114822673102
10
469.19879250899288
20
155.13505009579202
10
469.17489333872589
20
155.192749154886
10
469.19879250899288
20
155.25044358747601
10
469.25648886929281
20
155.27434468545303
0
LWPOLYLINE
5
121
100
AcDbEntity
8
0
100
AcDbPolyline
90
14
70
1
43
0.0
10
467.14014512049482
20
161.08477221567901
10
467.32103834255884
20
160.99634353147499
10
467.61414086492886
20
160.90455812584801
10
467.88888194954882
20
160.88008160643602
10
468.10310450642879
20
160.88483109833402
10
468.14969089568586
20
160.87326483833402
10
468.10242460311184
20
160.82769589441503
10
467.98750108712585
20
160.79472145101002
10
467.76409106438581
20
160.809682601091
10
467.50500684038582
20
160.86714435908402
10
467.32682224364277
20
160.91815927652402
10
467.22379154173086
20
160.97290624052403
10
467.14558550365683
20
161.03852317567203
10
467.12501799458283
20
161.073637569948
0
LWPOLYLINE
5
122
100
AcDbEntity
8
0
100
AcDbPolyline
90
2
70
1
43
0.0
10
467.14014512049482
20
161.08477221567901
10
467.14014434941078
20
161.08477221567901
0
LWPOLYLINE
5
123
100
AcDbEntity
8
0
100
AcDbPolyline
90
8
70
1
43
0.0
10
469.89303471128585
20
154.01761713888601
10
469.91693388155284
20
154.07531157147602
10
469.97463024185276
20
154.09921266945301
10
470.03232660215281
20
154.07531137870501
10
470.05622577241985
20
154.01761713888601
10
470.03232660215281
20
153.95991807979203
10
469.97463024185276
20
153.936016210731
10
469.91693388155284
20
153.95991807979203
0
LWPOLYLINE
5
124
100
AcDbEntity
8
0
100
AcDbPolyline
90
8
70
1
43
0.0
10
468.45673538785985
20
157.02071943948602
10
468.43283621759286
20
156.96302038039201
10
468.37513985729282
20
156.93911851133103
10
468.31744349699284
20
156.96302038039201
10
468.29354432672585
20
157.02071943948602
10
468.31744349699284
20
157.078413872076
10
468.37513985729282
20
157.10231497005302
10
468.43283621759286
20
157.07841367930502
0
LWPOLYLINE
5
125
100
AcDbEntity
8
0
100
AcDbPolyline
90
8
70
1
43
0.0
10
474.43907744528281
20
155.20032042868203
10
474.38138108498282
20
155.17641855962103
10
474.32368472468278
20
155.20032042868203
10
474.29978555441579
20
155.25801948777601
10
474.32368472468278
20
155.31571392036602
10
474.38138108498282
20
155.33961501834301
10
474.43907744528281
20
155.31571392036602
10
474.46297661554979
20
155.25801948777601
0
LWPOLYLINE
5
126
100
AcDbEntity
8
0
100
AcDbPolyline
90
8
70
1
43
0.0
10
471.37068360698282
20
155.25043433446803
10
471.39458277724981
20
155.19273990187801
10
471.37068360698282
20
155.13504084278404
10
471.31298724668284
20
155.111138973723
10
471.2552908863828
20
155.13504084278404
10
471.23139171611581
20
155.19273990187801
10
471.2552908863828
20
155.25043433446803
10
471.31298724668284
20
155.27433543244501
0
LWPOLYLINE
5
127
100
AcDbEntity
8
0
100
AcDbPolyline
90
8
70
1
43
0.0
10
479.11455472506179
20
160.30131713675402
10
479.17224915765183
20
160.27741796648701
10
479.19615025562882
20
160.21972160618702
10
479.17224915765183
20
160.16202524588701
10
479.11455472506179
20
160.13812607562002
10
479.05685836476181
20
160.16202524588701
10
479.03295919449482
20
160.21972160618702
10
479.05685836476181
20
160.27741796648701
0
LWPOLYLINE
5
128
100
AcDbEntity
8
0
100
AcDbPolyline
90
8
70
1
43
0.0
10
479.99591549609289
20
158.93030106187501
10
480.05360992868287
20
158.90639919281401
10
480.07751102665986
20
158.84870013372003
10
480.05360992868287
20
158.79100570113002
10
479.99591549609289
20
158.76710460315303
10
479.93821913579285
20
158.79100570113002
10
479.91431996552586
20
158.84870013372003
10
479.93821913579285
20
158.90639919281401
0
LWPOLYLINE
5
129
100
AcDbEntity
8
0
100
AcDbPolyline
90
148
70
1
43
0.0
10
469.3974171931788
20
159.37210655533201
10
469.42360050702479
20
159.413850344298
10
469.44910179707284
20
159.472842704031
10
469.46873668004883
20
159.48079065236101
10
469.49704066766583
20
159.45737379513602
10
469.49703180019981
20
159.457373409594
10
469.70921869531986
20
159.08128297172399
10
469.85525757118677
20
158.89215264482999
10
470.01251687587978
20
158.755548174474
10
470.27978808424984
20
158.59369571516402
10
470.34073437083879
20
158.50265768270401
10
470.42462850280987
20
158.40396105118501
10
470.59999825741085
20
158.31870344993101
10
470.81157387568982
20
158.27271079535402
10
471.12780891805983
20
158.28290067041402
10
471.24248626547876
20
158.23879659332403
10
471.36786278893987
20
158.15846737545601
10
471.53397529457885
20
158.07303454536302
10
471.73374214693979
20
158.02176594128701
10
471.94344750097679
20
158.02559668659899
10
472.10979981373981
20
158.02381702472701
10
472.19719061887986
20
157.96260683463902
10
472.27029227364483
20
157.89731626079401
10
472.38922041438479
20
157.884059977437
10
472.49538904263483
20
157.87283974138202
10
472.53560608528079
20
157.80543215641501
10
472.59672239589179
20
157.69671143289602
10
472.76325938327284
20
157.58025712239902
10
472.97008126869184
20
157.49134092033603
10
473.12555744163484
20
157.450621516464
10
473.18157226050181
20
157.41856447024801
10
473.13414057040984
20
157.35668228045401
10
473.10985026778383
20
157.32159622351503
10
473.11220689325881
20
157.29072009244501
10
473.22730910796184
20
157.249149797379
10
473.38831857968881
20
157.207073671209
10
473.4914233056648
20
157.14246801272702
10
473.58483704792883
20
157.09825983929701
10
473.71889848325276
20
157.11917221569001
10
473.77428833853781
20
157.15085393676901
10
473.80041285722882
20
157.19209632836399
10
473.75119803538678
20
157.28994785181902
10
473.69636470997881
20
157.387276965864
10
473.71806243542585
20
157.429305284826
10
473.78178751597983
20
157.469992495941
10
474.03298528559878
20
157.56749086292402
10
474.41042589155279
20
157.71047721000602
10
474.59264055882187
20
157.79720102748601
10
474.73481052071884
20
157.89118999841401
10
474.81768431578678
20
157.99004971419902
10
474.85203861400987
20
158.09037314018701
10
474.84837924211683
20
158.28086500865402
10
474.85867784002085
20
158.436606820035
10
474.89745314835784
20
158.49681556477802
10
474.97147412802184
20
158.54337670103402
10
475.22700538972083
20
158.60373137342401
10
475.51823051532187
20
158.67530686018199
10
475.73185798812483
20
158.80749398307302
10
475.87661879226187
20
158.961608421672
10
475.98474655218479
20
159.079089623286
10
476.06022757940281
20
159.10985992307701
10
476.11353820668177
20
159.03819730382702
10
476.15118850346283
20
158.99729977955101
10
476.20916997207183
20
158.97724966784102
10
476.3946575053788
20
159.03547846164301
10
476.59543486332183
20
159.17377970234099
10
476.72796955232582
20
159.32603312970602
10
476.79470031831181
20
159.46552704458099
10
476.81408112910987
20
159.578930561232
10
476.78245396222383
20
159.66682816133101
10
476.70756859739583
20
159.745458681147
10
476.67639906886382
20
159.800808825606
10
476.66479945948078
20
159.879680116401
10
476.71742247260289
20
160.11659471154601
10
476.8123708647978
20
160.38359314895101
10
476.93274016153384
20
160.788909598131
10
476.97371942071385
20
160.95739858465799
10
476.99414003828582
20
161.00619123801002
10
477.01570667945282
20
161.01060588668102
10
477.06535870592279
20
160.86201472277401
10
477.12723530535783
20
160.576720775301
10
477.25033019126283
20
159.94768201436099
10
477.25034310691984
20
159.712553442531
10
477.18505060536484
20
159.53148364223102
10
477.0592407326958
20
159.38111435862001
10
476.93343047448479
20
159.25471267898101
10
476.85811445924276
20
159.14105277690001
10
476.78789916466081
20
158.99423664836101
10
476.66846538558787
20
158.78105062114801
10
476.50568242066083
20
158.55357949175101
10
476.17585702279081
20
158.23257915026102
10
475.98678606936488
20
158.02449442202101
10
475.82298411693182
20
157.92409755028203
10
475.65968067030485
20
157.85788148286599
10
475.57127781741485
20
157.85991887956502
10
475.53999146965685
20
157.91500049402103
10
475.52376400687683
20
157.98581569195503
10
475.5066241589538
20
158.003849804547
10
475.47539197984685
20
157.99593212126399
10
475.20065089522683
20
157.73615777708403
10
475.03709646075788
20
157.61280766237502
10
474.93269920522681
20
157.51648943945401
10
474.92497294354683
20
157.426045719987
10
474.92796590609277
20
157.331509664961
10
474.84780536284984
20
157.22806277046001
10
474.68247203759285
20
157.120012890021
10
474.46493401228383
20
157.02013418673002
10
474.27646354052285
20
156.96564090936602
10
474.17735206581176
20
156.97703521763401
10
474.09556954737479
20
156.98331685344002
10
473.94672797393878
20
156.920250664164
10
473.72902705713483
20
156.84187132496101
10
473.47120124222278
20
156.80906285738703
10
473.24142437889481
20
156.79154749155603
10
472.97211172563482
20
156.72150202822502
10
472.60762610196491
20
156.72898250688002
10
472.34818448053085
20
156.694726329096
10
472.08669524553477
20
156.67525298821801
10
471.86738237762887
20
156.72388294284602
10
471.6745836186048
20
156.81534391488003
10
471.34135195716487
20
156.99693438965102
10
471.26153628124081
20
157.07080520070602
10
471.2454753726048
20
157.151306370306
10
471.26451690644279
20
157.26283306850101
10
471.23051422252382
20
157.43148745254604
10
471.07852199986388
20
157.66109024366099
10
470.89592738095382
20
157.864680516036
10
470.77436251847581
20
157.96141743756903
10
470.67013856407385
20
157.985724511272
10
470.37022929769381
20
157.98843930526502
10
470.22937750389485
20
157.99065501513903
10
470.05536485713384
20
158.04693470136002
10
469.8104656871688
20
158.19271719179702
10
469.57729277713378
20
158.36860010280003
10
469.44026748768482
20
158.511240618708
10
469.37056708444379
20
158.63653637112003
10
469.25154159434885
20
158.91196950363002
10
469.13594357263383
20
159.10237886610901
10
469.19570605251181
20
159.09218224406402
10
469.23224386785182
20
159.09301154490601
10
469.25086169103179
20
159.12278039935202
10
469.20615578287982
20
159.30375863342701
10
469.12166251864079
20
159.583165740102
10
469.0781357906958
20
159.860550486216
10
469.08356865578884
20
160.002758809542
10
469.12743755225881
20
159.91793185870202
10
469.19781207568678
20
159.71170737061203
10
469.35286415242979
20
159.39819811018202
0
LWPOLYLINE
5
130
100
AcDbEntity
8
0
100
AcDbPolyline
90
8
70
1
43
0.0
10
473.79517092172159
20
168.72452588442587
10
473.9145173755316
20
168.23181863010586
10
474.40722462985156
20
168.11247217629588
10
473.9145173755316
20
167.99312572248587
10
473.79517092172159
20
167.50041461274589
10
473.67582446791158
20
167.99312572248587
10
473.18311335817151
20
168.11247217629588
10
473.67582446791158
20
168.23181863010586
0
LWPOLYLINE
5
131
100
AcDbEntity
8
0
100
AcDbPolyline
90
8
70
1
43
0.0
10
466.8231771639542
20
164.86942899570997
10
466.33046990963413
20
164.98877544951998
10
466.8231771639542
20
165.10812190332999
10
466.9425236177641
20
165.60083301306997
10
467.06187566193313
20
165.10812190332999
10
467.55458291625308
20
164.98877544951998
10
467.06187566193313
20
164.86942899570997
10
466.9425236177641
20
164.37672174138999
0
LWPOLYLINE
5
132
100
AcDbEntity
8
0
100
AcDbPolyline
90
12
70
1
43
0.0
10
470.62455381293285
20
157.47161447113501
10
470.51397709022586
20
157.58781316728601
10
470.46202665512288
20
157.69126545937502
10
470.50521410610781
20
157.73844558331203
10
470.61571853968979
20
157.72186245803701
10
470.86801722448985
20
157.562740985484
10
470.8680178028028
20
157.56274137102599
10
470.93628977293383
20
157.49396491918802
10
470.95301901862683
20
157.436915305593
10
470.92361835679077
20
157.38260496790801
10
470.85238214699285
20
157.35735466570199
10
470.74637775963487
20
157.388472531606
0
LWPOLYLINE
5
133
100
AcDbEntity
8
0
100
AcDbPolyline
90
31
70
1
43
0.0
10
471.86770642567984
20
156.53788128928201
10
472.50576802604581
20
156.42032124432902
10
472.97347172503981
20
156.34814662530303
10
473.07485404213082
20
156.32650268296501
10
473.08474878478984
20
156.31219155669601
10
472.87621875553981
20
156.29714809339802
10
472.44141412648986
20
156.29799532194301
10
471.87857678236986
20
156.35698729613401
10
471.57792708257881
20
156.42472432674003
10
471.26866842269885
20
156.52453151199001
10
470.94933497204579
20
156.66042292241704
10
470.61846167101987
20
156.836412628554
10
470.27702104931581
20
157.05470072582401
10
469.93576915042081
20
157.31015622852001
10
469.60790539024686
20
157.595832055344
10
469.30662995578984
20
157.90478035391402
10
469.04326814329983
20
158.22728777908202
10
468.82166592699781
20
158.54258903872801
10
468.51164235178982
20
159.05746997009402
10
468.51164100239288
20
159.05747035563601
10
468.37547065232883
20
159.31751419367401
10
468.34434796714982
20
159.41585863257603
10
468.34996049481487
20
159.46865918778903
10
468.39331180114982
20
159.458712782502
10
468.62927892682978
20
159.14656255762199
10
469.04140790314983
20
158.54336089381201
10
469.33425538948683
20
158.16015816989702
10
469.70717917813977
20
157.74633955576201
10
470.16987140944684
20
157.331762387742
10
470.69529055306987
20
156.97175483440202
10
471.25701850008477
20
156.71248458638701
0
LWPOLYLINE
5
134
100
AcDbEntity
8
0
100
AcDbPolyline
90
8
70
1
43
0.0
10
477.85782043150982
20
165.14871472686002
10
477.83392126124284
20
165.09102029427001
10
477.77622490094285
20
165.06711919629302
10
477.71852854064281
20
165.09102048704099
10
477.69462937037582
20
165.14871472686002
10
477.71852854064281
20
165.20641378595403
10
477.77622490094285
20
165.230315655015
10
477.83392126124284
20
165.20641378595403
0
LWPOLYLINE
5
135
100
AcDbEntity
8
0
100
AcDbPolyline
90
8
70
1
43
0.0
10
469.17491338690985
20
165.768928045878
10
469.15101421664286
20
165.71123361328802
10
469.09331785634288
20
165.68733251531103
10
469.03562149604284
20
165.711233806059
10
469.01172232577585
20
165.768928045878
10
469.03562149604284
20
165.82662440617801
10
469.09331785634288
20
165.850523576445
10
469.15101421664286
20
165.82662440617801
0
LWPOLYLINE
5
136
100
AcDbEntity
8
0
100
AcDbPolyline
90
8
70
1
43
0.0
10
467.22507770984282
20
163.32831764376601
10
467.16738134954284
20
163.304416545789
10
467.10968498924279
20
163.32831783653702
10
467.08578581897581
20
163.386012076356
10
467.10968498924279
20
163.44371113545003
10
467.16738134954284
20
163.46761300451101
10
467.22507770984282
20
163.44371113545003
10
467.24897688010981
20
163.386012076356
0
LWPOLYLINE
5
137
100
AcDbEntity
8
0
100
AcDbPolyline
90
8
70
1
43
0.0
10
470.18190331028023
20
167.55435774002206
10
470.44348391873029
20
167.61772233880606
10
470.50685391510223
20
167.87930873038607
10
470.57021851388635
20
167.61772233880606
10
470.8318049054663
20
167.55435774002206
10
470.57021851388635
20
167.49098774365007
10
470.50685391510223
20
167.22940713520006
10
470.44348391873029
20
167.49098774365007
0
CIRCLE
5
138
100
AcDbEntity
8
0
100
AcDbCircle
10
472.59926936468122
20
161.44005900000002
30
0
40
0.020240954999992459
210
0
220
0
230
1
0
LWPOLYLINE
5
139
100
AcDbEntity
8
0
100
AcDbPolyline
90
103
70
1
43
0.0
10
469.88889109864078
20
159.95178765111902
10
469.88887085768584
20
159.95178745834801
10
469.83412389368578
20
159.97424547261903
10
469.80624168901687
20
160.01946087452401
10
469.79271205638179
20
160.05002587320001
10
469.80417441281287
20
160.07217314061901
10
469.93543006623185
20
160.08032831777402
10
470.03403763754881
20
160.119085891179
10
470.0955851768868
20
160.21226406728101
10
470.12789031937984
20
160.31324368575301
10
470.20643370670382
20
160.35370959575999
10
470.30504127802084
20
160.43327023565101
10
470.35634920738084
20
160.52627646002099
10
470.38699035060188
20
160.640691831651
10
470.36387402336584
20
160.84131246677103
10
470.36374737281881
20
160.89470213016
10
470.38732769985182
20
160.927690067535
10
470.54136233125683
20
160.979363105169
10
470.86916363362684
20
160.998072687345
10
471.07656788023684
20
161.04703652134501
10
471.24488356563484
20
161.14631879116203
10
471.3948434036418
20
161.26941367706704
10
471.41209756476781
20
161.29992971190902
10
471.4023238822968
20
161.317686619803
10
471.39109477877582
20
161.36733054989102
10
471.4057133747898
20
161.425145849898
10
471.34655426814186
20
161.47139488990501
10
471.41524493688479
20
161.55468776912699
10
471.47916992096577
20
161.66961128511301
10
471.44142979289882
20
161.73184971571501
10
471.43974323941984
20
161.78386550018701
10
471.44110323882478
20
161.83249198493701
10
471.3601878043458
20
161.86513987426801
10
471.3061631532828
20
161.89145542902
10
471.28707400500781
20
161.92261801779603
10
471.36970317367684
20
161.98313191903202
10
471.3577648656468
20
162.01547407355702
10
471.31700729311683
20
162.050109046356
10
471.2493338769408
20
162.11606872834201
10
471.18541429044785
20
162.15313974826802
10
471.26191758227884
20
162.18612498684902
10
471.32150926705089
20
162.19871023435502
10
471.36732572893379
20
162.22964843768702
10
471.40132841285288
20
162.329610803592
10
471.45436704025087
20
162.24223214302501
10
471.48972972357478
20
162.16095776894403
10
471.5274808395888
20
162.11472511447201
10
471.54805528841882
20
162.08191529750101
10
471.57372987959582
20
162.07052715790499
10
471.63934681474376
20
162.13682418914101
10
471.66106844379482
20
162.12692192841303
10
471.67437234158888
20
162.08411192304601
10
471.68287026558181
20
161.980063775796
10
471.67335508902187
20
161.916818887803
10
471.71890764740584
20
161.909001059898
10
471.74140248093789
20
161.91134592634202
10
471.75393317425079
20
161.890987766574
10
471.74985279049383
20
161.765178086676
10
471.75360662017681
20
161.69477908133101
10
471.80971377635279
20
161.64343780258801
10
471.80087850310986
20
161.595491413926
10
471.75055466970485
20
161.55470454020403
10
471.76413943484579
20
161.50470706810202
10
471.79305527761687
20
161.41086518144701
10
471.81106857094079
20
161.29490802735901
10
471.79816390188779
20
161.21738208537303
10
471.71247719238784
20
161.20208358604202
10
471.63767144198289
20
161.249692625454
10
471.61029583950182
20
161.21883538594201
10
471.60637815446881
20
161.16604620421802
10
471.6760862685498
20
161.09225230879201
10
471.70057358313784
20
161.00622844281301
10
471.69681975345486
20
160.83859825109101
10
471.65228444763778
20
160.74372272633403
10
471.6524991945318
20
160.714144522407
10
471.68458959013083
20
160.69475889233402
10
471.83010991200786
20
160.69374163976704
10
471.95627332669079
20
160.690346749686
10
471.99112323915483
20
160.65485490979199
10
472.00863185800085
20
160.59206553967201
10
471.99910010313477
20
160.42307515577403
10
471.92600268933182
20
160.31324387852402
10
471.82739511801481
20
160.29148215310502
10
471.76415023002181
20
160.310529084531
10
471.7444667687538
20
160.32698228215202
10
471.75156652468377
20
160.35031489845002
10
471.84778585608183
20
160.41762918225302
10
471.85935230885281
20
160.47475359099602
10
471.81582885801481
20
160.51047000910501
10
471.7097460128598
20
160.54581649966502
10
471.57986134679282
20
160.56384598575301
10
471.43431365143385
20
160.552296111288
10
471.16296726412384
20
160.53087173511901
10
470.89672930831387
20
160.53766132251002
10
470.83413116702582
20
160.53919886400601
10
470.80187016909184
20
160.517270584443
10
470.68932409784884
20
160.37444867102403
10
470.41592662709883
20
160.22518531464002
10
470.24353055794381
20
160.16804991795001
10
470.17655343061978
20
160.047343271964
10
470.0391772979508
20
159.90930342874202
10
469.97933944461181
20
159.875805419301
10
469.93785493264085
20
159.878010141228
0
LWPOLYLINE
5
140
100
AcDbEntity
8
0
100
AcDbPolyline
90
18
70
1
43
0.0
10
475.3754560235688
20
159.75319265366701
10
475.41481407863887
20
159.71545310391303
10
475.41693918614283
20
159.61445652159301
10
475.36296349891381
20
159.50064124608602
10
475.26664219165679
20
159.38120361159301
10
475.1462813768448
20
159.26024077294801
10
475.00550688421691
20
159.172426835463
10
474.84892324187877
20
159.14794414737904
10
474.69947713858687
20
159.16834105411803
10
474.49819337122688
20
159.252667571442
10
474.46146432705478
20
159.296369142684
10
474.5063377532058
20
159.32067293928
10
474.65697961501081
20
159.31965761442302
10
474.86270193464577
20
159.34107987011103
10
475.06118666708585
20
159.42906479547301
10
475.21835864651587
20
159.55938724448103
10
475.31654597705284
20
159.68714680304402
10
475.37545621633978
20
159.75319149704103
0
LWPOLYLINE
5
141
100
AcDbEntity
8
0
100
AcDbPolyline
90
13
70
1
43
0.0
10
474.07203529261085
20
161.521974915969
10
474.22760958599281
20
161.54678859186001
10
474.38045269984684
20
161.59576861862402
10
474.49503346899485
20
161.66768010523501
10
474.56068298244185
20
161.70848876208001
10
474.58566533295783
20
161.683506411564
10
474.57494765089979
20
161.63724098602199
10
474.49231848223087
20
161.57231494213801
10
474.33029734829574
20
161.48712346133701
10
474.1920780352728
20
161.45771258263801
10
474.06405939248583
20
161.46332703801301
10
474.03446345362687
20
161.48066023524902
10
474.03685728390485
20
161.50515294742502
0
LWPOLYLINE
5
142
100
AcDbEntity
8
0
100
AcDbPolyline
90
13
70
1
43
0.0
10
472.09870777039987
20
160.87710618605101
10
472.20973037242982
20
160.89785046613201
10
472.20971938448281
20
160.897850658903
10
472.23351580780684
20
160.90005403143303
10
472.26921584038087
20
160.905837161433
10
472.31001909963783
20
160.90242607858801
10
472.31749977106381
20
160.885109074116
10
472.29608079248277
20
160.86009395253001
10
472.20239119491788
20
160.826276328771
10
472.06248532841579
20
160.80059749663201
10
472.01691638449677
20
160.81113031130101
10
472.00416400453383
20
160.84445829672001
10
472.00927802639285
20
160.86333655352101
0
LWPOLYLINE
5
143
100
AcDbEntity
8
0
100
AcDbPolyline
90
36
70
1
43
0.0
10
477.62496732856386
20
161.86605977748002
10
477.66406957651691
20
161.81149517484602
10
477.69704748979984
20
161.68653677168402
10
477.72355870711687
20
161.15744977424401
10
477.70240151155383
20
160.72391762656503
10
477.64808365579989
20
160.25569980731402
10
477.55355608269781
20
159.82615936873199
10
477.41414062561984
20
159.39814837526401
10
477.22108952935685
20
158.92278395673003
10
476.94693890230985
20
158.41478109464401
10
476.57300171650979
20
157.91221649523902
10
476.13428190844979
20
157.48309764683401
10
475.69683573838682
20
157.19152958162402
10
475.39709476108982
20
157.05602506259402
10
475.39709399000583
20
157.05602467705202
10
475.33965921995281
20
157.046529934218
10
475.33035898305786
20
157.06368481827903
10
475.35698181478381
20
157.12132064848501
10
475.33343502990488
20
157.14477779484901
10
475.33590018545283
20
157.16619870113999
10
475.68407545481284
20
157.357288159707
10
475.94412025670579
20
157.53011218048204
10
476.22201256886285
20
157.77281183333702
10
476.5022765426329
20
158.09575299325502
10
476.75856365942286
20
158.45491081202701
10
476.96973407305984
20
158.80573282721701
10
477.14620493561279
20
159.156040143837
10
477.41822602142275
20
159.83610924389703
10
477.48920989398187
20
160.09189399946104
10
477.53316573017281
20
160.35226901807701
10
477.59094845188082
20
160.96432658162701
10
477.58007848073288
20
161.19554382986701
10
477.62224173939484
20
161.33629306949402
10
477.61134998512387
20
161.56140718787401
10
477.56852841349678
20
161.800100095494
10
477.58680001996083
20
161.86087905685503
0
LWPOLYLINE
5
144
100
AcDbEntity
8
0
100
AcDbPolyline
90
10
70
1
43
0.0
10
476.28631654072979
20
162.42169635366602
10
476.35125337978985
20
162.44855571540901
10
476.36111130318778
20
162.41726782548304
10
476.3478476945329
20
162.38020760073303
10
476.25875529977583
20
162.33090641748299
10
476.15027881711381
20
162.25950635233502
10
476.11493232655386
20
162.22787571557103
10
476.10846910046581
20
162.283640124909
10
476.1173097712969
20
162.32035760282102
10
476.1710392899588
20
162.35912597140199
0
LWPOLYLINE
5
145
100
AcDbEntity
8
0
100
AcDbPolyline
90
16
70
1
43
0.0
10
474.38500884243183
20
159.64459472527503
10
474.44111599860781
20
159.775290957252
10
474.56666582319781
20
159.918492243999
10
474.73761321828783
20
160.04154433474201
10
474.92467742560382
20
160.11443567634601
10
475.07730849135783
20
160.11871673471401
10
475.15385650606083
20
160.04969469262201
10
475.16945283658674
20
159.94597791872101
10
475.11097382602685
20
159.76916411655901
10
475.02868200660788
20
159.675311434728
10
474.98039826869586
20
159.657298141404
10
474.9803990397798
20
159.65729871971701
10
474.73931191633989
20
159.56583427780501
10
474.56152481339888
20
159.53731631437802
10
474.42274916326977
20
159.558011052312
10
474.39061751467688
20
159.593826940257
0
LWPOLYLINE
5
146
100
AcDbEntity
8
0
100
AcDbPolyline
90
14
70
1
43
0.0
10
472.38926995653185
20
161.01736578733804
10
472.36001136692283
20
160.99389572531703
10
472.29814286386983
20
160.98743249922902
10
472.23693267378178
20
160.97520233590501
10
472.12099190522883
20
160.961938534479
10
471.9666091293978
20
160.95581805522903
10
471.85643510530986
20
160.952423357919
10
471.83263868198588
20
160.99662131448602
10
471.85778970712687
20
161.035052526588
10
471.9767990044578
20
161.04560153402102
10
472.18354011882781
20
161.04728249714103
10
472.35627893482081
20
161.04796259322902
10
472.35627932036277
20
161.047962786
10
472.38694147562279
20
161.034967514577
0
LWPOLYLINE
5
147
100
AcDbEntity
8
0
100
AcDbPolyline
90
121
70
1
43
0.0
10
473.30342165297583
20
161.833096514793
10
473.31284449222682
20
161.85895481673302
10
473.3940373241748
20
161.90056308768601
10
473.40589139127781
20
161.914087322733
10
473.38278103994281
20
161.92380452330102
10
473.26532779012382
20
161.94926571698102
10
473.18814459497582
20
161.98635312244201
10
473.15912002936079
20
162.027852670551
10
473.20896521237285
20
162.075184312494
10
473.18680098110582
20
162.12033976261802
10
473.06179650567481
20
162.19568951278501
10
472.96197023609585
20
162.215764684725
10
472.98456434669288
20
162.24955512777302
10
472.96772078779679
20
162.30951404130002
10
472.92586769767388
20
162.38576152601402
10
472.9965007270128
20
162.34854901217403
10
473.1304493913018
20
162.27523395991201
10
473.15947607739781
20
162.27381400872602
10
473.16586103845981
20
162.30043394888702
10
473.17776464770981
20
162.364201053519
10
473.23077069680886
20
162.27726846504603
10
473.26850542728778
20
162.19624430772302
10
473.31295360061279
20
162.20326252152003
10
473.39462527572488
20
162.11904472704003
10
473.44911103501983
20
162.09137476324202
10
473.54942694293879
20
162.13315170882001
10
473.60366248547587
20
162.20102637792002
10
473.63330738816876
20
162.15829193878503
10
473.6424202516518
20
162.08189216498101
10
473.62167597157082
20
162.018522168609
10
473.62202199551581
20
161.97950608929301
10
473.64701745445979
20
161.94585983895303
10
473.7662387998908
20
161.918717489382
10
473.83962999669785
20
161.87689157997002
10
473.85207008764087
20
161.84198036632802
10
473.83843308155883
20
161.80894616391299
10
473.73299775419281
20
161.77577046758401
10
473.68817618344082
20
161.76368256925801
10
473.67330004537081
20
161.73490205172902
10
473.75734916522583
20
161.59925603878503
10
473.83414064970185
20
161.51517029244002
10
473.88460597702084
20
161.41800291326399
10
473.88007065370385
20
161.30805192522303
10
473.88052559326383
20
161.23010709185399
10
473.94315997549978
20
161.22001977096602
10
474.02558365028278
20
161.23330053623999
10
474.07602526676885
20
161.21653794116401
10
474.10520424195488
20
161.16115502563503
10
474.15023458369978
20
160.96426643707503
10
474.11621570701686
20
160.76219809174501
10
474.02274374791085
20
160.67524931050804
10
474.00616679130781
20
160.67856805604401
10
474.00752698348384
20
160.70979599418902
10
474.00970317530283
20
160.797821979774
10
473.97636420193686
20
160.76057688763501
10
473.91395169912187
20
160.68874694315701
10
473.85473264069287
20
160.659488353548
10
473.77759281901979
20
160.68407359580399
10
473.75330135976787
20
160.71094934308201
10
473.82160590819785
20
160.76319915154801
10
473.89634091164578
20
160.84971824622602
10
473.91462601207979
20
160.938990110784
10
473.84682208993684
20
160.95489256165803
10
473.76505248715682
20
160.97071327762802
10
473.69360345817478
20
160.93692823216801
10
473.49560450865482
20
160.82817415926601
10
473.26156894839488
20
160.78232222751902
10
473.02682013543478
20
160.80363788084401
10
472.97967490304882
20
160.79092906712702
10
472.95306980625486
20
160.729550202414
10
472.84766705718778
20
160.48883319929402
10
472.79059990143179
20
160.41885038653803
10
472.7220260519149
20
160.38545975054402
10
472.53147519552186
20
160.327938233541
10
472.39107429309183
20
160.22501625447299
10
472.32662709237178
20
160.104217078407
10
472.24421556216174
20
159.994690572108
10
472.20941326413481
20
159.96049010514301
10
472.16831082428587
20
159.95152625364301
10
472.06068291956581
20
159.99808546218901
10
472.04674133530386
20
160.013503093998
10
472.0709219512309
20
160.02796978646401
10
472.18438194978484
20
160.09473467291701
10
472.25769160445884
20
160.19660662834801
10
472.32540858688083
20
160.32614854757702
10
472.39864749459787
20
160.40845675253101
10
472.41423765645186
20
160.43031698393099
10
472.38618889763882
20
160.43248160949
10
472.20857548136877
20
160.370226793353
10
472.12226322997384
20
160.28247820523703
10
472.04307251763186
20
160.19252084700301
10
471.9637239258409
20
160.13075566920602
10
471.96370541982481
20
160.130757211374
10
471.93598109460481
20
160.10557341516301
10
471.92211353440678
20
160.077647644248
10
471.88929697045086
20
160.068720033696
10
471.83526268083784
20
160.08532956859801
10
471.77035302248879
20
160.141986122124
10
471.7645209286548
20
160.17343169872802
10
471.82790731056184
20
160.19526956869203
10
471.91591710338287
20
160.235963912334
10
472.03466519600886
20
160.31616108206703
10
472.10628289961579
20
160.42390869757801
10
472.12242997688878
20
160.49668514766603
10
472.15761858799982
20
160.52739086917202
10
472.26808639509181
20
160.56136078202101
10
472.42312208629983
20
160.62474716392802
10
472.47217632989884
20
160.67214955282802
10
472.49876022188283
20
160.75155790362902
10
472.52928107599985
20
161.00548935879903
10
472.56408549450788
20
161.103241605189
10
472.62898223719981
20
161.16889786562101
10
472.72967115700379
20
161.21083191956401
10
472.85076141727984
20
161.22867171898801
10
473.08708324159983
20
161.22796444218901
10
473.18494151203981
20
161.26236172834501
10
473.27265597968881
20
161.33317133592001
10
473.4096729799848
20
161.54694666408
10
473.4262335510528
20
161.64599760869703
10
473.41772483188379
20
161.72074629888601
10
473.37514807942682
20
161.79402877284903
0
LWPOLYLINE
5
148
100
AcDbEntity
8
0
100
AcDbPolyline
90
16
70
1
43
0.0
10
474.21493971201784
20
158.05968206927702
10
474.11462862337379
20
157.93880057999399
10
473.97615735865384
20
157.85873314514401
10
473.79840900268385
20
157.82455716009602
10
473.59184003281683
20
157.835099420544
10
473.42709928561385
20
157.89663732133201
10
473.38621005049083
20
157.948026214512
10
473.38204157038683
20
158.008848742119
10
473.41943933715783
20
158.07374856914703
10
473.50324884265979
20
158.13736974613201
10
473.7904113194358
20
158.24193741122701
10
474.08674545484985
20
158.29243261805101
10
474.08674641870476
20
158.29243358190601
10
474.23899444848183
20
158.269139134266
10
474.26376050993588
20
158.23294715010002
10
474.26423472659582
20
158.18361974999399
0
LWPOLYLINE
5
149
100
AcDbEntity
8
0
100
AcDbPolyline
90
9
70
1
43
0.0
10
472.15060750672984
20
158.32235472544201
10
472.14873685694579
20
158.27552023990802
10
472.06219520806081
20
158.26591041278701
10
471.66708983875083
20
158.399891655375
10
471.60410345666878
20
158.456931052107
10
471.6772853041698
20
158.476737694044
10
472.02072226234986
20
158.416207600044
10
472.02072284066281
20
158.41620740727299
10
472.11601455800889
20
158.370813306651
0
LWPOLYLINE
5
150
100
AcDbEntity
8
0
100
AcDbPolyline
90
121
70
1
43
0.0
10
467.67226999612387
20
160.25712110789701
10
467.65254855896882
20
160.23298733532303
10
467.61855686299685
20
160.23161634797103
10
467.56957683623284
20
160.25983590189
10
467.51891565357784
20
160.32954401597101
10
467.52027565298278
20
160.36151200198503
10
467.58692622623278
20
160.36865532416101
10
467.6817853654548
20
160.38870331539002
10
467.81542925879279
20
160.44039273855901
10
467.9092711454478
20
160.529485133316
10
467.94123913146177
20
160.59681580265402
10
467.98238494478579
20
160.61891487732299
10
468.09764581002185
20
160.62741280131601
10
468.26290414735985
20
160.65461490989702
10
468.32130836277179
20
160.68989682217199
10
468.36491740393387
20
160.76138324872801
10
468.45127861916279
20
161.00212723978802
10
468.50700293213276
20
161.08965067137601
10
468.58491171732487
20
161.13916602320703
10
468.69240718836784
20
161.15761382236499
10
468.81443258076479
20
161.14800129645002
10
469.04462814270482
20
161.09463071739003
10
469.1477049168858
20
161.10635543515201
10
469.24899817377479
20
161.15581912435502
10
469.43023491376084
20
161.33366656461902
10
469.4684479090908
20
161.42653784928902
10
469.47682130301786
20
161.50129675634102
10
469.45165389234177
20
161.58222838358401
10
469.39044370225389
20
161.63630064908401
10
469.40540485233481
20
161.65941697632002
10
469.49381715100384
20
161.68186959300303
10
469.50839757835985
20
161.69240491369501
10
469.48803402100378
20
161.70702061814401
10
469.37922018909182
20
161.75802454763701
10
469.31224306176784
20
161.81139512669702
10
469.29319613034181
20
161.858340455556
10
469.35235523698987
20
161.89334959686602
10
469.34080516975388
20
161.94232422604202
10
469.23573437234882
20
162.043646591352
10
469.14291532861989
20
162.08547250076401
10
469.17247849640887
20
162.11336550060901
10
469.16943194352478
20
162.17557675050003
10
469.14562472502479
20
162.25922876209503
10
469.20616580697185
20
162.20720738726402
10
469.32041462445778
20
162.10587403400703
10
469.34838184113784
20
162.098016109734
10
469.36053778762675
20
162.12254352069002
10
469.38636890885579
20
162.18203997658802
10
469.4186796417078
20
162.08548329594001
10
469.43738382629584
20
161.998088442609
10
469.48227826448584
20
161.99502010660203
10
469.54312932220085
20
161.89472058421799
10
469.5900584582958
20
161.855609468799
10
469.69716395360581
20
161.87397630413702
10
469.76517471903185
20
161.92803237687301
10
469.78454261417289
20
161.87975943413701
10
469.7763982321938
20
161.803256142306
10
469.74204200626087
20
161.74611534802801
10
469.7336780581129
20
161.70799623217499
10
469.75055091820082
20
161.669612056197
10
469.86072494228887
20
161.616573428799
10
469.9229361921798
20
161.55945441764402
10
469.92728028666482
20
161.52264306025504
10
469.90662024751083
20
161.49347835012301
10
469.79644622342278
20
161.48464307687999
10
469.75005048468483
20
161.48285319814502
10
469.72913193961978
20
161.45811566679902
10
469.78081056761283
20
161.30713857622501
10
469.83691502499482
20
161.20806180029402
10
469.86445698884881
20
161.10209384665501
10
469.83551762801579
20
160.99592464009203
10
469.8185616836268
20
160.919839661331
10
469.87738768198682
20
160.89604188861
10
469.96068730819377
20
160.890597457257
10
470.00612786662685
20
160.86301655366103
10
470.02223484753182
20
160.80252790542602
10
470.0222240523558
20
160.60054630704602
10
469.94401801428188
20
160.41115438990502
10
469.83352302647882
20
160.34722940582401
10
469.81809055130282
20
160.35415913773201
10
469.82636890912681
20
160.38428963057402
10
469.84814142972181
20
160.46963359323601
10
469.80733836323583
20
160.44075032876401
10
469.73049232456685
20
160.384643172588
10
469.66622999123581
20
160.36932828772203
10
469.59652187715483
20
160.41047410104599
10
469.57883494513385
20
160.44210473781001
10
469.65705197115483
20
160.47780477038401
10
469.7491963163838
20
160.54547818655999
10
469.78693104686283
20
160.62842831894403
10
469.72436625495789
20
160.65904151037003
10
469.64820031237684
20
160.692706845039
10
469.57101152686977
20
160.67569480428901
10
469.3537374050598
20
160.613826301236
10
469.11538184668984
20
160.62131757506702
10
468.89129134231979
20
160.69442057922902
10
468.84249695402883
20
160.69254838727701
10
468.80287904365088
20
160.63865636266203
10
468.6464723650908
20
160.42748729842202
10
468.57523634806387
20
160.37198255162102
10
468.50093565767884
20
160.35472704109802
10
468.30234875660881
20
160.34112589042203
10
468.14253639279184
20
160.27209787242901
10
468.05278028748182
20
160.16872442367901
10
467.94803585137981
20
160.080328510545
10
467.90648194184882
20
160.05473873860799
10
467.86440562290784
20
160.055161099869
10
467.76987284498881
20
160.12452646711202
10
467.75971766870884
20
160.142677784472
10
467.78652613890785
20
160.151391226443
10
467.91201485509089
20
160.19118243795
10
468.00619409099579
20
160.27413257033402
10
468.10106961575286
20
160.385323846989
10
468.19083651623879
20
160.44924883107001
10
468.21089800143778
20
160.46706414857701
10
468.18403594090086
20
160.47543349431299
10
467.99701607091481
20
160.45435186498202
10
467.89330527291486
20
160.38805483374603
10
467.79605770100284
20
160.31800937041501
10
467.70493060834082
20
160.27549256973901
10
467.70491788545479
20
160.27549353359402
0
LWPOLYLINE
5
151
100
AcDbEntity
8
0
100
AcDbPolyline
90
82
70
1
43
0.0
10
466.14117437682182
20
161.94400345422301
10
466.07792948882889
20
162.01542530249401
10
465.93714767090279
20
162.063709040406
10
465.87892562408581
20
162.08920763166003
10
465.83447051100478
20
162.137143803459
10
465.79842773159282
20
162.268399456878
10
465.89975009690284
20
162.20108517307503
10
466.02827457079383
20
162.13375450373701
10
466.16700530527982
20
162.14190968089201
10
466.21657097034176
20
162.16334022573301
10
466.24929712469878
20
162.16231661172301
10
466.28194501402987
20
162.06982951965603
10
466.29384110521079
20
162.06192398094603
10
466.31186191660385
20
162.08411076642
10
466.39414833843483
20
162.13239450433201
10
466.46496295805582
20
162.12143335250101
10
466.52811878584686
20
162.069155013927
10
466.5574433031378
20
161.973431682312
10
466.55871578450882
20
161.86648329536703
10
466.5104484321318
20
161.71619709605702
10
466.42542543318478
20
161.63049959138101
10
466.42885290156482
20
161.58494144263804
10
466.47849124129385
20
161.51014648740903
10
466.56961833395582
20
161.53597760863804
10
466.62614573091184
20
161.57526144687301
10
466.67502648061082
20
161.58902722398301
10
466.73282558785382
20
161.505380802747
10
466.78926990050883
20
161.48021339207099
10
466.76003309402279
20
161.35235262873303
10
466.72399031461083
20
161.17350971902502
10
466.73555580352678
20
161.10686782047003
10
466.77159935402284
20
161.05653511959903
10
466.90827900506883
20
160.99602121836301
10
467.06605667098086
20
160.98445476559201
10
467.0966590672308
20
160.93719579831603
10
467.10277954648086
20
160.855250195613
10
467.08442350631884
20
160.609740905433
10
466.97220398914982
20
160.31324368575301
10
466.89060845858285
20
160.21258503099602
10
467.06809676647384
20
160.24796409985501
10
467.22860002155477
20
160.30440841251001
10
467.25648087682686
20
160.26419965901704
10
467.27619286820283
20
160.21531601775303
10
467.3469184276218
20
160.20512074510501
10
467.35065818502187
20
160.18063400883
10
467.29930938820985
20
160.123509021774
10
467.17299966033789
20
160.04470789962301
10
466.96609507615983
20
159.99905934128103
10
466.69050464251382
20
160.03731089081103
10
466.4138929081098
20
160.15002023909102
10
466.19805782181481
20
160.30525159286398
10
466.02557693341981
20
160.44108902741101
10
465.86508929278983
20
160.51105352692201
10
465.70867297567986
20
160.560098324742
10
465.43936610554982
20
160.717195894566
10
465.37078146085679
20
160.76947770301803
10
465.35165009573291
20
160.821249439404
10
465.37553712142682
20
160.89367639566899
10
465.44073709290177
20
160.92733228455901
10
465.5413837958568
20
160.87080970687802
10
465.65018278440181
20
160.78520665999201
10
465.7357048674678
20
160.745418147279
10
465.77124297240186
20
160.768874522559
10
465.69098585088778
20
160.96744407423901
10
465.64031368028583
20
161.22214854111903
10
465.64880620669084
20
161.52103997661902
10
465.63154722628985
20
161.62169304101701
10
465.58215563344083
20
161.67542275245003
10
465.49919258539984
20
161.68736028939603
10
465.41009691353577
20
161.66690844292199
10
465.34630744746784
20
161.63359125267903
10
465.32610774546185
20
161.64311741718601
10
465.36160999498981
20
161.73458629283101
10
465.45295125623278
20
161.84441275080601
10
465.59113066565885
20
161.90107065372902
10
465.7423101657829
20
161.90390920670401
10
465.97659632834285
20
161.82842336021102
10
465.97657975003682
20
161.828421625272
10
466.10274316471981
20
161.78081258586002
10
466.14592386871976
20
161.799843131751
10
466.17040038813178
20
161.859002238399
10
466.15884492330787
20
161.88825543042
0
LWPOLYLINE
5
152
100
AcDbEntity
8
0
100
AcDbPolyline
90
8
70
1
43
0.0
10
480.2414742805426
20
161.20032145823185
10
479.74876702622265
20
161.08097500442187
10
479.62941498205362
20
160.58826775010186
10
479.51006852824361
20
161.08097500442187
10
479.01736127392365
20
161.20032145823185
10
479.51006852824361
20
161.31967350240086
10
479.62941498205362
20
161.81238075672087
10
479.74876702622265
20
161.31967350240086
0
LWPOLYLINE
5
153
100
AcDbEntity
8
0
100
AcDbPolyline
90
24
70
1
43
0.0
10
472.34603874652981
20
165.75669556930202
10
472.34603874652981
20
165.75669672592801
10
472.0921171226808
20
165.77242626121503
10
472.04220389150584
20
165.78835010967001
10
472.03660466503982
20
165.80905525723801
10
472.14574987030085
20
165.86075142739202
10
472.42014377434981
20
165.91243950116402
10
472.85275119954184
20
165.94627563093903
10
473.37154769545987
20
165.94235640373802
10
473.91329608495079
20
165.87282853054199
10
474.20268718725782
20
165.79584967265401
10
474.51471056881979
20
165.67985049448799
10
475.19511990969482
20
165.33022346672701
10
475.8041018119398
20
164.918865767178
10
476.18791658377984
20
164.56456018724703
10
476.34883988686983
20
164.353061677368
10
476.35697732909284
20
164.32284328095002
10
476.31500125107181
20
164.34388577776801
10
476.06184627748991
20
164.52444049395601
10
475.5730617202488
20
164.84899726762501
10
474.91798750081978
20
165.211293205506
10
474.18592170061686
20
165.50558782374003
10
473.45996018689988
20
165.68868480387599
10
472.82088480384482
20
165.75125846324701
0
LWPOLYLINE
5
154
100
AcDbEntity
8
0
100
AcDbPolyline
90
13
70
1
43
0.0
10
471.54247784507584
20
164.41666068568802
10
471.46666563727985
20
164.38333270026899
10
471.45338545031882
20
164.28949621120202
10
471.50336653688584
20
164.24460177301202
10
471.48535883392088
20
164.19122579636402
10
471.44264945501584
20
164.184471486066
10
471.39865487185386
20
164.206524295695
10
471.37421921989386
20
164.26420831865099
10
471.37859068786082
20
164.35784413310702
10
471.46632828802979
20
164.568654643287
10
471.51855978325085
20
164.59008576644104
10
471.55982742784681
20
164.55846476822703
10
471.58601197072858
20
164.45678913549963
0
LWPOLYLINE
5
155
100
AcDbEntity
8
0
100
AcDbPolyline
90
13
70
1
43
0.0
10
470.61623400934383
20
164.12219681451603
10
470.64888401915584
20
164.18998974871201
10
470.70397160951279
20
164.24017228097401
10
470.84813193198482
20
164.25479608180498
10
470.90662736693912
20
164.20515212452636
10
470.8702310066538
20
164.15313656001601
10
470.79033301751286
20
164.110956915819
10
470.75190180541085
20
164.03991039268502
10
470.77367432600579
20
163.95081799792803
10
470.82569570083683
20
163.88110988384702
10
470.74306653216786
20
163.89130534926602
10
470.62541202942481
20
163.98618087402301
10
470.60616230290685
20
164.051893616358
0
LWPOLYLINE
5
156
100
AcDbEntity
8
0
100
AcDbPolyline
90
222
70
1
43
0.0
10
474.55815016427283
20
161.41925284042802
10
474.63908179151576
20
161.46855942126601
10
474.69349140626588
20
161.53690734317101
10
474.7101447001848
20
161.65081341381901
10
474.71068869994684
20
161.83648947716401
10
474.75047991145379
20
162.01533238687202
10
474.80412326147876
20
162.066004557474
10
474.88173016728479
20
162.09217842554102
10
475.08608284896485
20
162.120414172224
10
475.29520082976484
20
162.19282069476301
10
475.46080191394083
20
162.30027992485802
10
475.4912144307558
20
162.37644779514901
10
475.4937871525218
20
162.49749044098803
10
475.4638538644129
20
162.83481270304802
10
475.43372549205185
20
162.90970558594501
10
475.39823153167686
20
162.92389970021702
10
475.34484475985283
20
162.925934398122
10
475.35641101985277
20
162.98477254105501
10
475.33498664368386
20
163.027610498217
10
475.24795072995477
20
163.05344161944601
10
475.17517427986678
20
163.03645116904801
10
475.12076466511684
20
162.97966410955502
10
475.09220795471879
20
163.00720896497401
10
475.10138057721184
20
163.07657433221701
10
475.12587328938781
20
163.12689816562201
10
475.06025095665183
20
163.14831714420299
10
474.91709169398285
20
163.17007886962199
10
474.77257782949681
20
163.16975250831902
10
474.74184492727977
20
163.18033756392902
10
474.74096357826778
20
163.19933206164302
10
474.81270639025382
20
163.24047787496701
10
474.94394026054982
20
163.26429068382603
10
474.95875721792277
20
163.27942397841002
10
474.94600753675383
20
163.29761327165701
10
474.91507338161284
20
163.34827445431202
10
474.90618856622285
20
163.38874036431901
10
474.92764089418682
20
163.40880454831202
10
475.08269297092983
20
163.33399340031903
10
475.20171846102488
20
163.26632538173101
10
475.2397924684638
20
163.25125068953102
10
475.25951756826777
20
163.26599902042801
10
475.24148788940886
20
163.38670026882602
10
475.22925791885581
20
163.45471103425203
10
475.24630195959179
20
163.468265727117
10
475.27788440360581
20
163.45503739555502
10
475.36119366836289
20
163.32719301775199
10
475.43225638426088
20
163.20920116575903
10
475.48393501225382
20
163.19661746042101
10
475.52338347692279
20
163.15343675642103
10
475.59921207025383
20
163.062989759847
10
475.62650323903682
20
163.05151737932403
10
475.64817590425383
20
163.065024457752
10
475.70394031359183
20
163.11534829115703
10
475.77228823549683
20
163.125554551752
10
475.79743926063782
20
163.09835244317102
10
475.74474338007781
20
163.05822388241401
10
475.69815699082085
20
163.00926004841401
10
475.70294445860588
20
162.96743953659001
10
475.76788129766584
20
162.94159202982601
10
475.84167519309187
20
162.926293530495
10
475.90898947689482
20
162.88311282649499
10
475.9195384843278
20
162.81033637640701
10
475.8409843018278
20
162.76954410509703
10
475.77637922165889
20
162.74471944125901
10
475.7893056738348
20
162.68352563670601
10
475.84576097443681
20
162.63047602136103
10
475.94538599109183
20
162.551932634037
10
475.9892118996288
20
162.491524371309
10
476.01237931117981
20
162.40127650717801
10
475.99909912421879
20
162.15204480898799
10
476.00590933810685
20
162.06860908645501
10
476.0371929870708
20
162.01908081896701
10
476.16265992013081
20
161.97352826058301
10
476.2806517721238
20
161.98100334165002
10
476.32894090762386
20
162.03880784648101
10
476.36599554201484
20
162.13877021238602
10
476.41802771202185
20
162.221415573819
10
476.46324851151485
20
162.310491583041
10
476.45203579352881
20
162.42746059210802
10
476.48703953725084
20
162.59918215553401
10
476.52823855537082
20
162.64198618500001
10
476.58191506200785
20
162.65801490087901
10
476.71249061933878
20
162.67806289210802
10
476.83796314275787
20
162.72600928077
10
476.96819595325076
20
162.81918745687202
10
477.18376212400091
20
162.91097826008701
10
477.24706426498085
20
162.944526004446
10
477.27184806136677
20
162.98546304677703
10
477.29495359342678
20
163.15071039616802
10
477.41397908352184
20
163.39384860304801
10
477.47789867001489
20
163.49516557077001
10
477.45647969143386
20
163.537666178682
10
477.41090534992685
20
163.59717902011502
10
477.39255490012386
20
163.66313870210101
10
477.28340371896178
20
163.722314194284
10
477.20689502954275
20
163.758351576108
10
477.21471285744781
20
163.827722340939
10
477.19566592602183
20
163.85967394141801
10
477.05625509544785
20
163.915101001506
10
476.96173542595682
20
163.971682759884
10
476.89169323973283
20
164.04126441618899
10
476.87410712694486
20
164.11007691620401
10
476.8876130487468
20
164.15313039134401
10
476.9359021842468
20
164.12217985066803
10
477.04743081015187
20
164.05588281943201
10
477.15419355862383
20
164.032766492196
10
477.1712057921448
20
164.087176106946
10
477.20487112681383
20
164.11130987952004
10
477.23712865486988
20
164.118489828186
10
477.26913346014487
20
164.10144096817504
10
477.30959937015183
20
163.97700227562902
10
477.34869429280684
20
163.91543854352702
10
477.4041321480708
20
163.87736106621
10
477.43507189357081
20
163.93245077704802
10
477.48164189729283
20
163.94537183163601
10
477.51600352081385
20
163.88722997755499
10
477.53401662136679
20
163.75767726315001
10
477.58399770793386
20
163.68660895689302
10
477.64145946592686
20
163.668584868393
10
477.74075812127882
20
163.6716532044
10
477.86146476726481
20
163.668584868393
10
477.92436690841976
20
163.68116857373101
10
477.96483281842683
20
163.73420180354103
10
478.02127713108189
20
163.783861926393
10
478.04342651898179
20
163.80400649589302
10
478.06786891792683
20
163.79814298038602
10
478.12090214773684
20
163.69171738839302
10
478.11045126074282
20
163.65477494672402
10
478.07602409508178
20
163.63288464304802
10
477.98659435107481
20
163.57915512438601
10
477.90464527849389
20
163.48938263354103
10
477.7852932343248
20
163.442116340967
10
477.75737440316584
20
163.428609840852
10
477.76590895364882
20
163.40132406965702
10
477.85908712975089
20
163.28672710774501
10
477.91144566106084
20
163.205115384414
10
477.90531978422285
20
163.16431212515701
10
477.87710023030377
20
163.12964033309703
10
477.76489150831088
20
163.133715319266
10
477.68974301106783
20
163.17655327642802
10
477.63772722659581
20
163.17894691393502
10
477.66662668383185
20
163.098015286692
10
477.72342473127179
20
162.94840918347003
10
477.74686202222279
20
162.76001832613201
10
477.75673633115582
20
162.68113219197002
10
477.81488898041283
20
162.68113219197002
10
477.95292882363481
20
162.69677343813899
10
478.10424326345878
20
162.68793816489602
10
478.21441728754684
20
162.65393008338901
10
478.27323904494483
20
162.64884324224101
10
478.35349076887081
20
162.64644960473402
10
478.41946683639185
20
162.629116407498
10
478.39836882152588
20
162.55736260756501
10
478.34260441218782
20
162.487654493484
10
478.29569166162781
20
162.500918102139
10
478.22088051363488
20
162.53424068997001
10
478.09676818239183
20
162.53391432866701
10
477.95224872754687
20
162.49244735885702
10
477.76727974822984
20
162.48054374960702
10
477.56733959473985
20
162.49856783810702
10
477.40377879882783
20
162.44416362094503
10
477.10694422989781
20
162.41287033343102
10
476.99893579522387
20
162.41019910568403
10
476.93657746105981
20
162.39145135485001
10
476.86076525326382
20
162.26054943621602
10
476.69413592857376
20
162.12996308370901
10
476.59792199476379
20
162.11194979038501
10
476.54486698183081
20
161.99395793839201
10
476.48806893439081
20
161.90554563972299
10
476.44986769809179
20
161.87141861850901
10
476.43741314932385
20
161.83244822592002
10
476.52684289333081
20
161.73009222250803
10
476.55201030400679
20
161.63386209593401
10
476.54023720072382
20
161.602749049305
10
476.50270912075683
20
161.601214206603
10
476.35515390820382
20
161.68111219574402
10
476.30896212118387
20
161.69658149018102
10
476.29361735681289
20
161.67431181317701
10
476.30620106215082
20
161.56176574193401
10
476.29302516430084
20
161.53561963289101
10
476.2579173242388
20
161.52808402173
10
476.20737932225285
20
161.52503534836501
10
476.16575659347484
20
161.54441615916301
10
476.15147553948179
20
161.680432099656
10
476.11510080840787
20
161.80080139639202
10
476.03009419499585
20
161.83309574370901
10
475.89985598691482
20
161.830038202878
10
475.66319681334483
20
161.818134593628
10
475.45000750902483
20
161.80249874504702
10
475.41250545314278
20
161.76714145931101
10
475.40714796151082
20
161.71342273582499
10
475.4163421743558
20
161.59916293039203
10
475.46598051408483
20
161.54713076038502
10
475.57138866073979
20
161.47335325049403
10
475.64314785826076
20
161.39616446498701
10
475.67747690348284
20
161.37644302783201
10
475.72304584740181
20
161.36453941858201
10
475.74902405290379
20
161.34018338104502
10
475.75739127815882
20
161.30026089248702
10
475.69346629407784
20
161.20302430852203
10
475.62715307007784
20
161.18603385812401
10
475.5860126543418
20
161.275463602131
10
475.4979538976869
20
161.39207906918401
10
475.39831249549684
20
161.441385650022
10
475.36599529356891
20
161.45654381227715
10
474.91563347618415
20
161.45657868770448
10
474.90765709570081
20
161.44545504583201
10
474.84597982147977
20
161.385365626338
10
474.77741888761989
20
161.354344338705
10
474.63493972103885
20
161.32679948328604
10
474.59529135284288
20
161.29164904083302
10
474.56864268980274
20
161.23124945280003
10
474.51626777295786
20
161.067362102814
10
474.4985974192428
20
160.977916166043
10
474.45439946267589
20
160.99117996746901
10
474.38806985314085
20
161.05171006146901
10
474.38781616650482
20
161.05166514582601
10
474.37523246116683
20
161.08500411919204
10
474.39834878840287
20
161.11595465986801
10
474.44526153896288
20
161.16117545936103
10
474.47790942829386
20
161.24244443585403
10
474.51327211161788
20
161.354990507097
0
CIRCLE
5
157
100
AcDbEntity
8
0
100
AcDbCircle
10
472.59926936468122
20
161.44005900000002
30
0
40
8.0319149404188739
210
0
220
-0
230
1
0
ENDSEC
0
SECTION
2
OBJECTS
0
DICTIONARY
5
C
100
AcDbDictionary
3
ACAD_GROUP
350
D
3
ACAD_MLINESTYLE
350
17
0
DICTIONARY
5
D
100
AcDbDictionary
0
DICTIONARY
5
1A
330
C
100
AcDbDictionary
0
DICTIONARY
5
17
100
AcDbDictionary
0
ENDSEC
0
EOF
